0
SECTION
  2
HEADER
  9
$ACADVER
  1
AC1027
  9
$ACADMAINTVER
 70
     8
  9
$DWGCODEPAGE
  3
ANSI_1252
  9
$REQUIREDVERSIONS
160
                 0
  9
$COMMENTS
  1
File was created by Cadenas
  9
$CUSTOMPROPERTYTAG
  1
NN
  9
$CUSTOMPROPERTY
  1
Set Screw Tapped Base Inch Bore
  9
$CUSTOMPROPERTYTAG
  1
NT
  9
$CUSTOMPROPERTY
  1
SC Pillow Block Bearings -(Normal Duty) -Tapped Base Housing
  9
$CUSTOMPROPERTYTAG
  1
NB
  9
$CUSTOMPROPERTY
  1
054548
  9
$CUSTOMPROPERTYTAG
  1
NBSYN
  9
$CUSTOMPROPERTY
  1
$PN.
  9
$CUSTOMPROPERTYTAG
  1
LINA
  9
$CUSTOMPROPERTY
  1
054548
  9
$CUSTOMPROPERTYTAG
  1
SERIES
  9
$CUSTOMPROPERTY
  1
209
  9
$CUSTOMPROPERTYTAG
  1
SS
  9
$CUSTOMPROPERTY
  1
1-11/16
  9
$CUSTOMPROPERTYTAG
  1
PN
  9
$CUSTOMPROPERTY
  1
054548
  9
$CUSTOMPROPERTYTAG
  1
DESCRIPTION
  9
$CUSTOMPROPERTY
  1
TB-SC-111
  9
$CUSTOMPROPERTYTAG
  1
WEIGHT
  9
$CUSTOMPROPERTY
  1
5.00
  9
$CUSTOMPROPERTYTAG
  1
A
  9
$CUSTOMPROPERTY
  1
1.94
  9
$CUSTOMPROPERTYTAG
  1
B
  9
$CUSTOMPROPERTY
  1
5.00
  9
$CUSTOMPROPERTYTAG
  1
C
  9
$CUSTOMPROPERTY
  1
2.00
  9
$CUSTOMPROPERTYTAG
  1
D
  9
$CUSTOMPROPERTY
  1
3.75
  9
$CUSTOMPROPERTYTAG
  1
J
  9
$CUSTOMPROPERTY
  1
4.25
  9
$CUSTOMPROPERTYTAG
  1
L
  9
$CUSTOMPROPERTY
  1
2.22
  9
$CUSTOMPROPERTYTAG
  1
M
  9
$CUSTOMPROPERTY
  1
2.13
  9
$CUSTOMPROPERTYTAG
  1
N
  9
$CUSTOMPROPERTY
  1
0.75
  9
$CUSTOMPROPERTYTAG
  1
R
  9
$CUSTOMPROPERTY
  1
1/2-13
  9
$CUSTOMPROPERTYTAG
  1
S
  9
$CUSTOMPROPERTY
  1
1.19
  9
$CUSTOMPROPERTYTAG
  1
COMPANY
  9
$CUSTOMPROPERTY
  1
baldor
  9
$INSBASE
 10
0.0
 20
0.0
 30
0.0
  9
$EXTMIN
 10
1.000000000000000E+20
 20
1.000000000000000E+20
 30
1.000000000000000E+20
  9
$EXTMAX
 10
-1.000000000000000E+20
 20
-1.000000000000000E+20
 30
-1.000000000000000E+20
  9
$LIMMIN
 10
0.0
 20
0.0
  9
$LIMMAX
 10
12.0
 20
9.0
  9
$ORTHOMODE
 70
     0
  9
$REGENMODE
 70
     1
  9
$FILLMODE
 70
     1
  9
$QTEXTMODE
 70
     0
  9
$MIRRTEXT
 70
     1
  9
$LTSCALE
 40
1.0
  9
$ATTMODE
 70
     1
  9
$TEXTSIZE
 40
0.2
  9
$TRACEWID
 40
0.05
  9
$TEXTSTYLE
  7
Standard
  9
$CLAYER
  8
0
  9
$CELTYPE
  6
ByLayer
  9
$CECOLOR
 62
   256
  9
$CELTSCALE
 40
1.0
  9
$DISPSILH
 70
     0
  9
$DIMSCALE
 40
1.0
  9
$DIMASZ
 40
0.18
  9
$DIMEXO
 40
0.0625
  9
$DIMDLI
 40
0.38
  9
$DIMRND
 40
0.0
  9
$DIMDLE
 40
0.0
  9
$DIMEXE
 40
0.18
  9
$DIMTP
 40
0.0
  9
$DIMTM
 40
0.0
  9
$DIMTXT
 40
0.18
  9
$DIMCEN
 40
0.09
  9
$DIMTSZ
 40
0.0
  9
$DIMTOL
 70
     0
  9
$DIMLIM
 70
     0
  9
$DIMTIH
 70
     1
  9
$DIMTOH
 70
     1
  9
$DIMSE1
 70
     0
  9
$DIMSE2
 70
     0
  9
$DIMTAD
 70
     0
  9
$DIMZIN
 70
     0
  9
$DIMBLK
  1

  9
$DIMASO
 70
     1
  9
$DIMSHO
 70
     1
  9
$DIMPOST
  1

  9
$DIMAPOST
  1

  9
$DIMALT
 70
     0
  9
$DIMALTD
 70
     2
  9
$DIMALTF
 40
25.4
  9
$DIMLFAC
 40
1.0
  9
$DIMTOFL
 70
     0
  9
$DIMTVP
 40
0.0
  9
$DIMTIX
 70
     0
  9
$DIMSOXD
 70
     0
  9
$DIMSAH
 70
     0
  9
$DIMBLK1
  1

  9
$DIMBLK2
  1

  9
$DIMSTYLE
  2
Standard
  9
$DIMCLRD
 70
     0
  9
$DIMCLRE
 70
     0
  9
$DIMCLRT
 70
     0
  9
$DIMTFAC
 40
1.0
  9
$DIMGAP
 40
0.09
  9
$DIMJUST
 70
     0
  9
$DIMSD1
 70
     0
  9
$DIMSD2
 70
     0
  9
$DIMTOLJ
 70
     1
  9
$DIMTZIN
 70
     0
  9
$DIMALTZ
 70
     0
  9
$DIMALTTZ
 70
     0
  9
$DIMUPT
 70
     0
  9
$DIMDEC
 70
     4
  9
$DIMTDEC
 70
     4
  9
$DIMALTU
 70
     2
  9
$DIMALTTD
 70
     2
  9
$DIMTXSTY
  7
Standard
  9
$DIMAUNIT
 70
     0
  9
$DIMADEC
 70
     0
  9
$DIMALTRND
 40
0.0
  9
$DIMAZIN
 70
     0
  9
$DIMDSEP
 70
    46
  9
$DIMATFIT
 70
     3
  9
$DIMFRAC
 70
     0
  9
$DIMLDRBLK
  1

  9
$DIMLUNIT
 70
     2
  9
$DIMLWD
 70
    -2
  9
$DIMLWE
 70
    -2
  9
$DIMTMOVE
 70
     0
  9
$DIMFXL
 40
1.0
  9
$DIMFXLON
 70
     0
  9
$DIMJOGANG
 40
0.7853981633974483
  9
$DIMTFILL
 70
     0
  9
$DIMTFILLCLR
 70
     0
  9
$DIMARCSYM
 70
     0
  9
$DIMLTYPE
  6

  9
$DIMLTEX1
  6

  9
$DIMLTEX2
  6

  9
$DIMTXTDIRECTION
 70
     0
  9
$LUNITS
 70
     2
  9
$LUPREC
 70
     4
  9
$SKETCHINC
 40
0.1
  9
$FILLETRAD
 40
0.5
  9
$AUNITS
 70
     0
  9
$AUPREC
 70
     0
  9
$MENU
  1
.
  9
$ELEVATION
 40
0.0
  9
$PELEVATION
 40
0.0
  9
$THICKNESS
 40
0.0
  9
$LIMCHECK
 70
     0
  9
$CHAMFERA
 40
0.0
  9
$CHAMFERB
 40
0.0
  9
$CHAMFERC
 40
0.0
  9
$CHAMFERD
 40
0.0
  9
$SKPOLY
 70
     0
  9
$TDCREATE
 40
2458169.004156181
  9
$TDUCREATE
 40
2458168.962489514
  9
$TDUPDATE
 40
2458169.004156181
  9
$TDUUPDATE
 40
2458168.962489514
  9
$TDINDWG
 40
0.0000000116
  9
$TDUSRTIMER
 40
0.0000000116
  9
$USRTIMER
 70
     1
  9
$ANGBASE
 50
0.0
  9
$ANGDIR
 70
     0
  9
$PDMODE
 70
     0
  9
$PDSIZE
 40
0.0
  9
$PLINEWID
 40
0.0
  9
$SPLFRAME
 70
     0
  9
$SPLINETYPE
 70
     6
  9
$SPLINESEGS
 70
     8
  9
$HANDSEED
  5
1AB
  9
$SURFTAB1
 70
     6
  9
$SURFTAB2
 70
     6
  9
$SURFTYPE
 70
     6
  9
$SURFU
 70
     6
  9
$SURFV
 70
     6
  9
$UCSBASE
  2

  9
$UCSNAME
  2

  9
$UCSORG
 10
0.0
 20
0.0
 30
0.0
  9
$UCSXDIR
 10
1.0
 20
0.0
 30
0.0
  9
$UCSYDIR
 10
0.0
 20
1.0
 30
0.0
  9
$UCSORTHOREF
  2

  9
$UCSORTHOVIEW
 70
     0
  9
$UCSORGTOP
 10
0.0
 20
0.0
 30
0.0
  9
$UCSORGBOTTOM
 10
0.0
 20
0.0
 30
0.0
  9
$UCSORGLEFT
 10
0.0
 20
0.0
 30
0.0
  9
$UCSORGRIGHT
 10
0.0
 20
0.0
 30
0.0
  9
$UCSORGFRONT
 10
0.0
 20
0.0
 30
0.0
  9
$UCSORGBACK
 10
0.0
 20
0.0
 30
0.0
  9
$PUCSBASE
  2

  9
$PUCSNAME
  2

  9
$PUCSORG
 10
0.0
 20
0.0
 30
0.0
  9
$PUCSXDIR
 10
1.0
 20
0.0
 30
0.0
  9
$PUCSYDIR
 10
0.0
 20
1.0
 30
0.0
  9
$PUCSORTHOREF
  2

  9
$PUCSORTHOVIEW
 70
     0
  9
$PUCSORGTOP
 10
0.0
 20
0.0
 30
0.0
  9
$PUCSORGBOTTOM
 10
0.0
 20
0.0
 30
0.0
  9
$PUCSORGLEFT
 10
0.0
 20
0.0
 30
0.0
  9
$PUCSORGRIGHT
 10
0.0
 20
0.0
 30
0.0
  9
$PUCSORGFRONT
 10
0.0
 20
0.0
 30
0.0
  9
$PUCSORGBACK
 10
0.0
 20
0.0
 30
0.0
  9
$USERI1
 70
     0
  9
$USERI2
 70
     0
  9
$USERI3
 70
     0
  9
$USERI4
 70
     0
  9
$USERI5
 70
     0
  9
$USERR1
 40
0.0
  9
$USERR2
 40
0.0
  9
$USERR3
 40
0.0
  9
$USERR4
 40
0.0
  9
$USERR5
 40
0.0
  9
$WORLDVIEW
 70
     1
  9
$SHADEDGE
 70
     3
  9
$SHADEDIF
 70
    70
  9
$TILEMODE
 70
     1
  9
$MAXACTVP
 70
    64
  9
$PINSBASE
 10
0.0
 20
0.0
 30
0.0
  9
$PLIMCHECK
 70
     0
  9
$PEXTMIN
 10
1.000000000000000E+20
 20
1.000000000000000E+20
 30
1.000000000000000E+20
  9
$PEXTMAX
 10
-1.000000000000000E+20
 20
-1.000000000000000E+20
 30
-1.000000000000000E+20
  9
$PLIMMIN
 10
0.0
 20
0.0
  9
$PLIMMAX
 10
12.0
 20
9.0
  9
$UNITMODE
 70
     0
  9
$VISRETAIN
 70
     1
  9
$PLINEGEN
 70
     0
  9
$PSLTSCALE
 70
     1
  9
$TREEDEPTH
 70
  3020
  9
$CMLSTYLE
  2
Standard
  9
$CMLJUST
 70
     0
  9
$CMLSCALE
 40
1.0
  9
$PROXYGRAPHICS
 70
     1
  9
$MEASUREMENT
 70
     0
  9
$CELWEIGHT
370
    -1
  9
$ENDCAPS
280
     0
  9
$JOINSTYLE
280
     0
  9
$LWDISPLAY
290
     0
  9
$INSUNITS
 70
     1
  9
$HYPERLINKBASE
  1

  9
$STYLESHEET
  1

  9
$XEDIT
290
     1
  9
$CEPSNTYPE
380
     0
  9
$PSTYLEMODE
290
     1
  9
$FINGERPRINTGUID
  2
{A5A8DFE5-CD2E-4935-AA96-7C3C23932269}
  9
$VERSIONGUID
  2
{FAEB1C32-E019-11D5-929B-00C0DF256EC4}
  9
$EXTNAMES
290
     1
  9
$PSVPSCALE
 40
0.0
  9
$OLESTARTUP
290
     0
  9
$SORTENTS
280
   127
  9
$INDEXCTL
280
     0
  9
$HIDETEXT
280
     1
  9
$XCLIPFRAME
280
     2
  9
$HALOGAP
280
     0
  9
$OBSCOLOR
 70
   257
  9
$OBSLTYPE
280
     0
  9
$INTERSECTIONDISPLAY
280
     0
  9
$INTERSECTIONCOLOR
 70
   257
  9
$DIMASSOC
280
     2
  9
$PROJECTNAME
  1

  9
$CAMERADISPLAY
290
     0
  9
$LENSLENGTH
 40
50.0
  9
$CAMERAHEIGHT
 40
0.0
  9
$STEPSPERSEC
 40
2.0
  9
$STEPSIZE
 40
6.0
  9
$3DDWFPREC
 40
2.0
  9
$PSOLWIDTH
 40
0.25
  9
$PSOLHEIGHT
 40
4.0
  9
$LOFTANG1
 40
1.570796326794897
  9
$LOFTANG2
 40
1.570796326794897
  9
$LOFTMAG1
 40
0.0
  9
$LOFTMAG2
 40
0.0
  9
$LOFTPARAM
 70
     7
  9
$LOFTNORMALS
280
     1
  9
$LATITUDE
 40
37.795
  9
$LONGITUDE
 40
-122.394
  9
$NORTHDIRECTION
 40
0.0
  9
$TIMEZONE
 70
 -8000
  9
$LIGHTGLYPHDISPLAY
280
     1
  9
$TILEMODELIGHTSYNCH
280
     1
  9
$CMATERIAL
347
44
  9
$SOLIDHIST
280
     0
  9
$SHOWHIST
280
     1
  9
$DWFFRAME
280
     2
  9
$DGNFRAME
280
     2
  9
$REALWORLDSCALE
290
     1
  9
$INTERFERECOLOR
 62
   256
  9
$CSHADOW
280
     0
  9
$SHADOWPLANELOCATION
 40
0.0
  0
ENDSEC
  0
SECTION
  2
CLASSES
  0
CLASS
  1
ACDBDICTIONARYWDFLT
  2
AcDbDictionaryWithDefault
  3
ObjectDBX Classes
 90
        0
 91
        4
280
     0
281
     0
  0
CLASS
  1
VISUALSTYLE
  2
AcDbVisualStyle
  3
ObjectDBX Classes
 90
     4095
 91
        4
280
     0
281
     0
  0
CLASS
  1
MATERIAL
  2
AcDbMaterial
  3
ObjectDBX Classes
 90
     1153
 91
        4
280
     0
281
     0
  0
CLASS
  1
SCALE
  2
AcDbScale
  3
ObjectDBX Classes
 90
     1153
 91
        4
280
     0
281
     0
  0
CLASS
  1
TABLESTYLE
  2
AcDbTableStyle
  3
ObjectDBX Classes
 90
     4095
 91
        4
280
     0
281
     0
  0
CLASS
  1
MLEADERSTYLE
  2
AcDbMLeaderStyle
  3
ACDB_MLEADERSTYLE_CLASS
 90
     4095
 91
        4
280
     0
281
     0
  0
CLASS
  1
SUN
  2
AcDbSun
  3
SCENEOE
 90
     1153
 91
        4
280
     0
281
     0
  0
CLASS
  1
DICTIONARYVAR
  2
AcDbDictionaryVar
  3
ObjectDBX Classes
 90
        0
 91
        4
280
     0
281
     0
  0
CLASS
  1
CELLSTYLEMAP
  2
AcDbCellStyleMap
  3
ObjectDBX Classes
 90
     1152
 91
        4
280
     0
281
     0
  0
ENDSEC
  0
SECTION
  2
TABLES
  0
TABLE
  2
VPORT
  5
8
330
0
100
AcDbSymbolTable
 70
     1
  0
VPORT
  5
29
330
8
100
AcDbSymbolTableRecord
100
AcDbViewportTableRecord
  2
*Active
 70
     0
 10
0.0
 20
0.0
 11
1.0
 21
1.0
 12
0.0
 22
-0.0934999999999997
 13
0.0
 23
0.0
 14
0.5
 24
0.5
 15
0.5
 25
0.5
 16
0.0
 26
0.0
 36
1.0
 17
0.0
 27
0.0
 37
0.0
 40
2.434740000000001
 41
2.094679514034353
 42
50.0
 43
0.0
 44
0.0
 50
0.0
 51
0.0
 71
     0
 72
   100
 73
     1
 74
     3
 75
     0
 76
     0
 77
     0
 78
     0
281
     0
 65
     1
110
0.0
120
0.0
130
0.0
111
1.0
121
0.0
131
0.0
112
0.0
122
1.0
132
0.0
 79
     0
146
0.0
348
2F
 60
     3
 61
     5
292
     1
282
     1
141
0.0
142
0.0
 63
   250
361
6D
  0
ENDTAB
  0
TABLE
  2
LTYPE
  5
5
330
0
100
AcDbSymbolTable
 70
     3
  0
LTYPE
  5
14
330
5
100
AcDbSymbolTableRecord
100
AcDbLinetypeTableRecord
  2
ByBlock
 70
     0
  3

 72
    65
 73
     0
 40
0.0
  0
LTYPE
  5
15
330
5
100
AcDbSymbolTableRecord
100
AcDbLinetypeTableRecord
  2
ByLayer
 70
     0
  3

 72
    65
 73
     0
 40
0.0
  0
LTYPE
  5
16
330
5
100
AcDbSymbolTableRecord
100
AcDbLinetypeTableRecord
  2
Continuous
 70
     0
  3
Solid line
 72
    65
 73
     0
 40
0.0
  0
LTYPE
  5
94
330
5
100
AcDbSymbolTableRecord
100
AcDbLinetypeTableRecord
  2
Dashed
 70
     0
  3

 72
    65
 73
     2
 40
2.0
 49
1.0
 74
     0
 49
-1.0
 74
     0
  0
LTYPE
  5
11F
330
5
100
AcDbSymbolTableRecord
100
AcDbLinetypeTableRecord
  2
Center
 70
     0
  3

 72
    65
 73
     4
 40
1.5
 49
0.45
 74
     0
 49
-0.5
 74
     0
 49
0.05
 74
     0
 49
-0.5
 74
     0
  0
ENDTAB
  0
TABLE
  2
LAYER
  5
2
330
0
100
AcDbSymbolTable
 70
     7
  0
LAYER
  5
10
330
2
100
AcDbSymbolTableRecord
100
AcDbLayerTableRecord
  2
0
 70
     0
 62
     7
  6
Continuous
370
    -3
390
F
347
46
348
0
  0
LAYER
  5
72
330
2
100
AcDbSymbolTableRecord
100
AcDbLayerTableRecord
  2
AM_6
 70
     0
 62
    -2
  6
Continuous
370
    35
390
F
347
46
348
0
  0
LAYER
  5
95
330
2
100
AcDbSymbolTableRecord
100
AcDbLayerTableRecord
  2
AM_9
 70
     0
 62
     6
  6
Dashed
370
    25
390
F
347
46
348
0
  0
LAYER
  5
B5
330
2
100
AcDbSymbolTableRecord
100
AcDbLayerTableRecord
  2
AM_4
 70
     0
 62
     7
  6
Continuous
370
    50
390
F
347
46
348
0
  0
LAYER
  5
120
330
2
100
AcDbSymbolTableRecord
100
AcDbLayerTableRecord
  2
AM_7
 70
     0
 62
     7
  6
Center
370
    25
390
F
347
46
348
0
  0
LAYER
  5
135
330
2
100
AcDbSymbolTableRecord
100
AcDbLayerTableRecord
  2
AM_5
 70
     0
 62
     3
  6
Continuous
370
    25
390
F
347
46
348
0
  0
LAYER
  5
19D
330
2
100
AcDbSymbolTableRecord
100
AcDbLayerTableRecord
  2
ConnectionPoints
 70
     0
 62
     7
  6
Continuous
370
    50
390
F
347
46
348
0
  0
ENDTAB
  0
TABLE
  2
STYLE
  5
3
330
0
100
AcDbSymbolTable
 70
     1
  0
STYLE
  5
11
330
3
100
AcDbSymbolTableRecord
100
AcDbTextStyleTableRecord
  2
Standard
 70
     0
 40
0.0
 41
1.0
 50
0.0
 71
     0
 42
0.2
  3
txt
  4

  0
ENDTAB
  0
TABLE
  2
VIEW
  5
6
330
0
100
AcDbSymbolTable
 70
     0
  0
ENDTAB
  0
TABLE
  2
UCS
  5
7
330
0
100
AcDbSymbolTable
 70
     0
  0
ENDTAB
  0
TABLE
  2
APPID
  5
9
330
0
100
AcDbSymbolTable
 70
     1
  0
APPID
  5
12
330
9
100
AcDbSymbolTableRecord
100
AcDbRegAppTableRecord
  2
ACAD
 70
     0
  0
ENDTAB
  0
TABLE
  2
DIMSTYLE
  5
A
330
0
100
AcDbSymbolTable
 70
     1
100
AcDbDimStyleTable
  0
DIMSTYLE
105
27
330
A
100
AcDbSymbolTableRecord
100
AcDbDimStyleTableRecord
  2
Standard
 70
     0
178
     0
340
11
  0
ENDTAB
  0
TABLE
  2
BLOCK_RECORD
  5
1
330
0
100
AcDbSymbolTable
 70
     5
  0
BLOCK_RECORD
  5
1F
330
1
100
AcDbSymbolTableRecord
100
AcDbBlockTableRecord
  2
*Model_Space
340
22
 70
     0
280
     1
281
     0
  0
BLOCK_RECORD
  5
1B
330
1
100
AcDbSymbolTableRecord
100
AcDbBlockTableRecord
  2
*Paper_Space
340
1E
 70
     0
280
     1
281
     0
  0
BLOCK_RECORD
  5
23
330
1
100
AcDbSymbolTableRecord
100
AcDbBlockTableRecord
  2
*Paper_Space0
340
26
 70
     0
280
     1
281
     0
  0
BLOCK_RECORD
  5
6E
330
1
100
AcDbSymbolTableRecord
100
AcDbBlockTableRecord
  2
1_054548_4
340
0
102
{BLKREFS
331
6F
102
}
 70
     0
280
     1
281
     0
  0
BLOCK_RECORD
  5
88
330
1
100
AcDbSymbolTableRecord
100
AcDbBlockTableRecord
  2
2_405015E_Inch_0_in_054548_4
340
0
102
{BLKREFS
331
89
102
}
 70
     0
280
     1
281
     0
  0
BLOCK_RECORD
  5
D8
330
1
100
AcDbSymbolTableRecord
100
AcDbBlockTableRecord
  2
3_123344_0_in_054548_4
340
0
102
{BLKREFS
331
D9
102
}
 70
     0
280
     1
281
     0
  0
BLOCK_RECORD
  5
138
330
1
100
AcDbSymbolTableRecord
100
AcDbBlockTableRecord
  2
4_054548H_0_in_054548_4
340
0
102
{BLKREFS
331
139
102
}
 70
     0
280
     1
281
     0
  0
ENDTAB
  0
ENDSEC
  0
SECTION
  2
BLOCKS
  0
BLOCK
  5
20
330
1F
100
AcDbEntity
  8
0
100
AcDbBlockBegin
  2
*Model_Space
 70
     0
 10
0.0
 20
0.0
 30
0.0
  3
*Model_Space
  1

  0
ENDBLK
  5
21
330
1F
100
AcDbEntity
  8
0
100
AcDbBlockEnd
  0
BLOCK
  5
1C
330
1B
100
AcDbEntity
 67
     1
  8
0
100
AcDbBlockBegin
  2
*Paper_Space
 70
     0
 10
0.0
 20
0.0
 30
0.0
  3
*Paper_Space
  1

  0
ENDBLK
  5
1D
330
1B
100
AcDbEntity
 67
     1
  8
0
100
AcDbBlockEnd
  0
BLOCK
  5
24
330
23
100
AcDbEntity
  8
0
100
AcDbBlockBegin
  2
*Paper_Space0
 70
     0
 10
0.0
 20
0.0
 30
0.0
  3
*Paper_Space0
  1

  0
ENDBLK
  5
25
330
23
100
AcDbEntity
  8
0
100
AcDbBlockEnd
  0
BLOCK
  5
70
330
6E
100
AcDbEntity
  8
0
100
AcDbBlockBegin
  2
1_054548_4
 70
     2
 10
0.0
 20
0.0
 30
0.0
  3
1_054548_4
  1

  0
ATTDEF
  5
73
330
6E
100
AcDbEntity
  8
AM_6
100
AcDbText
 10
7.500000000000002
 20
1.1
 30
0.0
 40
0.5
  1
Set Screw Tapped Base Inch Bore
100
AcDbAttributeDefinition
  3

  2
NN
 70
     8
280
     0
  0
ATTDEF
  5
74
330
6E
100
AcDbEntity
  8
AM_6
100
AcDbText
 10
7.500000000000002
 20
0.6000000000000001
 30
0.0
 40
0.5
  1
SC Pillow Block Bearings -(Normal Duty) -Tapped Base Housing
100
AcDbAttributeDefinition
  3

  2
NT
 70
     8
280
     0
  0
ATTDEF
  5
75
330
6E
100
AcDbEntity
  8
AM_6
100
AcDbText
 10
7.500000000000002
 20
0.1000000000000001
 30
0.0
 40
0.5
  1
054548
100
AcDbAttributeDefinition
  3

  2
NB
 70
     8
280
     0
  0
ATTDEF
  5
76
330
6E
100
AcDbEntity
  8
AM_6
100
AcDbText
 10
7.500000000000002
 20
-0.3999999999999999
 30
0.0
 40
0.5
  1
$PN.
100
AcDbAttributeDefinition
  3

  2
NBSYN
 70
     8
280
     0
  0
ATTDEF
  5
77
330
6E
100
AcDbEntity
  8
AM_6
100
AcDbText
 10
7.500000000000002
 20
-0.8999999999999999
 30
0.0
 40
0.5
  1
054548
100
AcDbAttributeDefinition
  3

  2
LINA
 70
     8
280
     0
  0
ATTDEF
  5
78
330
6E
100
AcDbEntity
  8
AM_6
100
AcDbText
 10
7.500000000000002
 20
-1.4
 30
0.0
 40
0.5
  1
209
100
AcDbAttributeDefinition
  3

  2
SERIES
 70
     8
280
     0
  0
ATTDEF
  5
79
330
6E
100
AcDbEntity
  8
AM_6
100
AcDbText
 10
7.500000000000002
 20
-1.9
 30
0.0
 40
0.5
  1
1-11/16
100
AcDbAttributeDefinition
  3

  2
SS
 70
     8
280
     0
  0
ATTDEF
  5
7A
330
6E
100
AcDbEntity
  8
AM_6
100
AcDbText
 10
7.500000000000002
 20
-2.4
 30
0.0
 40
0.5
  1
054548
100
AcDbAttributeDefinition
  3

  2
PN
 70
     8
280
     0
  0
ATTDEF
  5
7B
330
6E
100
AcDbEntity
  8
AM_6
100
AcDbText
 10
7.500000000000002
 20
-2.9
 30
0.0
 40
0.5
  1
TB-SC-111
100
AcDbAttributeDefinition
  3

  2
DESCRIPTION
 70
     8
280
     0
  0
ATTDEF
  5
7C
330
6E
100
AcDbEntity
  8
AM_6
100
AcDbText
 10
7.500000000000002
 20
-3.4
 30
0.0
 40
0.5
  1
5.00
100
AcDbAttributeDefinition
  3

  2
WEIGHT
 70
     8
280
     0
  0
ATTDEF
  5
7D
330
6E
100
AcDbEntity
  8
AM_6
100
AcDbText
 10
7.500000000000002
 20
-3.9
 30
0.0
 40
0.5
  1
1.94
100
AcDbAttributeDefinition
  3

  2
A
 70
     8
280
     0
  0
ATTDEF
  5
7E
330
6E
100
AcDbEntity
  8
AM_6
100
AcDbText
 10
7.500000000000002
 20
-4.4
 30
0.0
 40
0.5
  1
5.00
100
AcDbAttributeDefinition
  3

  2
B
 70
     8
280
     0
  0
ATTDEF
  5
7F
330
6E
100
AcDbEntity
  8
AM_6
100
AcDbText
 10
7.500000000000002
 20
-4.9
 30
0.0
 40
0.5
  1
2.00
100
AcDbAttributeDefinition
  3

  2
C
 70
     8
280
     0
  0
ATTDEF
  5
80
330
6E
100
AcDbEntity
  8
AM_6
100
AcDbText
 10
7.500000000000002
 20
-5.4
 30
0.0
 40
0.5
  1
3.75
100
AcDbAttributeDefinition
  3

  2
D
 70
     8
280
     0
  0
ATTDEF
  5
81
330
6E
100
AcDbEntity
  8
AM_6
100
AcDbText
 10
7.500000000000002
 20
-5.9
 30
0.0
 40
0.5
  1
4.25
100
AcDbAttributeDefinition
  3

  2
J
 70
     8
280
     0
  0
ATTDEF
  5
82
330
6E
100
AcDbEntity
  8
AM_6
100
AcDbText
 10
7.500000000000002
 20
-6.4
 30
0.0
 40
0.5
  1
2.22
100
AcDbAttributeDefinition
  3

  2
L
 70
     8
280
     0
  0
ATTDEF
  5
83
330
6E
100
AcDbEntity
  8
AM_6
100
AcDbText
 10
7.500000000000002
 20
-6.9
 30
0.0
 40
0.5
  1
2.13
100
AcDbAttributeDefinition
  3

  2
M
 70
     8
280
     0
  0
ATTDEF
  5
84
330
6E
100
AcDbEntity
  8
AM_6
100
AcDbText
 10
7.500000000000002
 20
-7.4
 30
0.0
 40
0.5
  1
0.75
100
AcDbAttributeDefinition
  3

  2
N
 70
     8
280
     0
  0
ATTDEF
  5
85
330
6E
100
AcDbEntity
  8
AM_6
100
AcDbText
 10
7.500000000000002
 20
-7.9
 30
0.0
 40
0.5
  1
1/2-13
100
AcDbAttributeDefinition
  3

  2
R
 70
     8
280
     0
  0
ATTDEF
  5
86
330
6E
100
AcDbEntity
  8
AM_6
100
AcDbText
 10
7.500000000000002
 20
-8.4
 30
0.0
 40
0.5
  1
1.19
100
AcDbAttributeDefinition
  3

  2
S
 70
     8
280
     0
  0
ATTDEF
  5
87
330
6E
100
AcDbEntity
  8
AM_6
100
AcDbText
 10
7.500000000000002
 20
-8.9
 30
0.0
 40
0.5
  1
baldor
100
AcDbAttributeDefinition
  3

  2
COMPANY
 70
     8
280
     0
  0
INSERT
  5
89
330
6E
100
AcDbEntity
  8
0
100
AcDbBlockReference
  2
2_405015E_Inch_0_in_054548_4
 10
0.0
 20
0.0
 30
0.0
  0
INSERT
  5
D9
330
6E
100
AcDbEntity
  8
0
100
AcDbBlockReference
  2
3_123344_0_in_054548_4
 10
0.0
 20
0.0
 30
0.0
  0
INSERT
  5
139
330
6E
100
AcDbEntity
  8
0
100
AcDbBlockReference
  2
4_054548H_0_in_054548_4
 10
0.0
 20
0.0
 30
0.0
  0
ENDBLK
  5
71
330
6E
100
AcDbEntity
  8
0
100
AcDbBlockEnd
  0
BLOCK
  5
8A
330
88
100
AcDbEntity
  8
0
100
AcDbBlockBegin
  2
2_405015E_Inch_0_in_054548_4
 70
     2
 10
0.0
 20
0.0
 30
0.0
  3
2_405015E_Inch_0_in_054548_4
  1

  0
ATTDEF
  5
8C
330
88
100
AcDbEntity
  8
AM_6
100
AcDbText
 10
7.105536236646287
 20
0.2525907427704613
 30
0.0
 40
0.5
  1
405015E -Inch
100
AcDbAttributeDefinition
  3

  2
NN
 70
     8
280
     0
  0
ATTDEF
  5
8D
330
88
100
AcDbEntity
  8
AM_6
100
AcDbText
 10
7.105536236646287
 20
-0.2474092572295387
 30
0.0
 40
0.5
  1
Grease Fitting
100
AcDbAttributeDefinition
  3

  2
NT
 70
     8
280
     0
  0
ATTDEF
  5
8E
330
88
100
AcDbEntity
  8
AM_6
100
AcDbText
 10
7.105536236646287
 20
-0.7474092572295388
 30
0.0
 40
0.5
  1
405015E-Inch
100
AcDbAttributeDefinition
  3

  2
NB
 70
     8
280
     0
  0
ATTDEF
  5
8F
330
88
100
AcDbEntity
  8
AM_6
100
AcDbText
 10
7.105536236646287
 20
-1.247409257229539
 30
0.0
 40
0.5
  1
$MN.-Inch
100
AcDbAttributeDefinition
  3

  2
NBSYN
 70
     8
280
     0
  0
ATTDEF
  5
90
330
88
100
AcDbEntity
  8
AM_6
100
AcDbText
 10
7.105536236646287
 20
-1.747409257229539
 30
0.0
 40
0.5
  1
405015E
100
AcDbAttributeDefinition
  3

  2
LINA
 70
     8
280
     0
  0
ATTDEF
  5
91
330
88
100
AcDbEntity
  8
AM_6
100
AcDbText
 10
7.105536236646287
 20
-2.247409257229539
 30
0.0
 40
0.5
  1
405015E
100
AcDbAttributeDefinition
  3

  2
MN
 70
     8
280
     0
  0
ATTDEF
  5
92
330
88
100
AcDbEntity
  8
AM_6
100
AcDbText
 10
7.105536236646287
 20
-2.747409257229539
 30
0.0
 40
0.5
  1
1/8 x 27PTF
100
AcDbAttributeDefinition
  3

  2
T
 70
     8
280
     0
  0
ATTDEF
  5
93
330
88
100
AcDbEntity
  8
AM_6
100
AcDbText
 10
7.105536236646287
 20
-3.247409257229539
 30
0.0
 40
0.5
  1
baldor
100
AcDbAttributeDefinition
  3

  2
COMPANY
 70
     8
280
     0
  0
LINE
  5
96
330
88
100
AcDbEntity
  8
AM_9
100
AcDbLine
 10
1.98674547823502
 20
-0.1262953713852306
 30
0.0
 11
1.928858322585487
 21
-0.1262953713852306
 31
0.0
  0
LINE
  5
97
330
88
100
AcDbEntity
  8
AM_9
100
AcDbLine
 10
1.98674547823502
 20
0.1262953713852307
 30
0.0
 11
1.928858322585487
 21
0.1262953713852307
 31
0.0
  0
LWPOLYLINE
  5
98
330
88
100
AcDbEntity
  8
AM_9
100
AcDbPolyline
 90
        4
 70
     0
 43
0.0
 10
1.922446561350926
 20
0.0000000000000001
 10
1.923448928146757
 20
-0.0483998160558988
 10
1.926323212419556
 20
-0.0967996321117977
 10
1.928858322585487
 20
-0.1262953713852306
  0
LWPOLYLINE
  5
99
330
88
100
AcDbEntity
  8
AM_9
100
AcDbPolyline
 90
        3
 70
     0
 43
0.0
 10
1.928858322585487
 20
0.1262953713852307
 10
1.924153888316147
 20
0.0634316146914368
 10
1.922446561350926
 20
0.0000000000000001
  0
ELLIPSE
  5
9A
330
88
100
AcDbEntity
  8
AM_9
100
AcDbEllipse
 10
1.580383655951934
 20
0.0000000000000001
 30
0.0
 11
9.913691727296317E-18
 21
0.161902872472269
 31
0.0
210
0.0
220
0.0
230
1.0
 40
0.7071067811865478
 41
0.0
 42
6.283185307179586
  0
LWPOLYLINE
  5
9B
330
88
100
AcDbEntity
  8
AM_9
100
AcDbPolyline
 90
        3
 70
     0
 43
0.0
 10
1.845106757158648
 20
0.189443057077846
 10
1.885469035037846
 20
0.1578692142315384
 10
1.928858322585487
 20
0.1262953713852307
  0
LWPOLYLINE
  5
9C
330
88
100
AcDbEntity
  8
AM_9
100
AcDbPolyline
 90
        3
 70
     0
 43
0.0
 10
1.928858322585487
 20
-0.1262953713852306
 10
1.88565785651258
 20
-0.1577272497321275
 10
1.845106757158648
 20
-0.1894430570778459
  0
LINE
  5
9D
330
88
100
AcDbEntity
  8
AM_9
100
AcDbLine
 10
1.978155541043888
 20
-0.1345167476709312
 30
0.0
 11
1.98674547823502
 21
-0.1262953713852306
 31
0.0
  0
LWPOLYLINE
  5
9E
330
88
100
AcDbEntity
  8
AM_9
100
AcDbPolyline
 90
        4
 70
     0
 43
0.0
 10
1.98674547823502
 20
-0.1262953713852306
 10
1.989280588400952
 20
-0.0967996321117977
 10
1.992149026650098
 20
-0.0485424412477543
 10
1.993157239469581
 20
0.0000000000000001
  0
LINE
  5
9F
330
88
100
AcDbEntity
  8
AM_9
100
AcDbLine
 10
1.98674547823502
 20
0.1262953713852307
 30
0.0
 11
1.977776838082736
 21
0.1348756629233809
 31
0.0
  0
LWPOLYLINE
  5
A0
330
88
100
AcDbEntity
  8
AM_9
100
AcDbPolyline
 90
        3
 70
     0
 43
0.0
 10
1.993157239469581
 20
0.0000000000000001
 10
1.991464863686521
 20
0.0631476856926154
 10
1.98674547823502
 20
0.1262953713852307
  0
LWPOLYLINE
  5
A1
330
88
100
AcDbEntity
  8
AM_9
100
AcDbPolyline
 90
        3
 70
     0
 43
0.0
 10
1.77417871420093
 20
0.2525907427704613
 10
1.807970311735156
 20
0.2211588644235643
 10
1.845106757158648
 20
0.189443057077846
  0
LWPOLYLINE
  5
A2
330
88
100
AcDbEntity
  8
AM_9
100
AcDbPolyline
 90
        3
 70
     0
 43
0.0
 10
1.845106757158648
 20
-0.1894430570778459
 10
1.808129230845568
 20
-0.2210168999241535
 10
1.77417871420093
 20
-0.2525907427704611
  0
LINE
  5
A3
330
88
100
AcDbEntity
  8
AM_9
100
AcDbLine
 10
1.601955817400361
 20
-0.1985206121313388
 30
0.0
 11
1.76321436674103
 21
-0.2056511395458977
 31
0.0
  0
LINE
  5
A4
330
88
100
AcDbEntity
  8
AM_9
100
AcDbLine
 10
1.76321436674103
 20
0.2056511395458978
 30
0.0
 11
1.601955817400361
 21
0.1985206121313389
 31
0.0
  0
ELLIPSE
  5
A5
330
88
100
AcDbEntity
  8
AM_9
100
AcDbEllipse
 10
1.838477631085025
 20
0.0000000000000013
 30
0.0
 11
-4.018372309702311E-17
 21
-0.2187500000000032
 31
0.0
210
0.0
220
0.0
230
1.0
 40
0.7071067811865337
 41
0.915693601714695
 42
2.22589905187509
  0
LINE
  5
A6
330
88
100
AcDbEntity
  8
AM_9
100
AcDbLine
 10
1.944543648263006
 20
0.0948683298050515
 30
0.0
 11
1.92592978183394
 21
0.107354891002899
 31
0.0
  0
LINE
  5
A7
330
88
100
AcDbEntity
  8
AM_9
100
AcDbLine
 10
1.92592978183394
 20
-0.1073548910028989
 30
0.0
 11
1.944543648263006
 21
-0.0948683298050513
 31
0.0
  0
ELLIPSE
  5
A8
330
88
100
AcDbEntity
  8
AM_9
100
AcDbEllipse
 10
1.912723843109611
 20
0.0
 30
0.0
 11
-1.928818708657084E-17
 21
-0.1050000000000001
 31
0.0
210
0.0
220
0.0
230
1.0
 40
0.7071067811865506
 41
0.0
 42
3.141592653589793
  0
ELLIPSE
  5
A9
330
88
100
AcDbEntity
  8
AM_9
100
AcDbEllipse
 10
1.889921856734106
 20
0.0000000000000031
 30
0.0
 11
-2.182689656893299E-17
 21
-0.1188200907348945
 31
0.0
210
0.0
220
0.0
230
1.0
 40
0.7071067811862262
 41
0.3762206260999559
 42
2.765372027489819
  0
ELLIPSE
  5
AA
330
88
100
AcDbEntity
  8
AM_9
100
AcDbEllipse
 10
1.838477631085024
 20
0.0000000000000001
 30
0.0
 11
-3.926523799766196E-17
 21
-0.2137499999999997
 31
0.0
210
0.0
220
0.0
230
1.0
 40
0.7071067811865454
 41
0.9036552188403775
 42
2.237937434749416
  0
LINE
  5
AB
330
88
100
AcDbEntity
  8
AM_9
100
AcDbLine
 10
1.914042833992149
 20
-0.1049999999999999
 30
0.0
 11
1.933937046545207
 21
-0.1049999999999999
 31
0.0
  0
LINE
  5
AC
330
88
100
AcDbEntity
  8
AM_9
100
AcDbLine
 10
1.933937046545207
 20
0.1050000000000001
 30
0.0
 11
1.914042833992149
 21
0.1050000000000001
 31
0.0
  0
ELLIPSE
  5
AD
330
88
100
AcDbEntity
  8
AM_9
100
AcDbEllipse
 10
1.933937046545207
 20
0.0000000000000001
 30
0.0
 11
-1.928818708657084E-17
 21
-0.1050000000000001
 31
0.0
210
0.0
220
0.0
230
1.0
 40
0.7071067811865485
 41
5.759586531581288
 42
9.948376736367678
  0
LINE
  5
AE
330
88
100
AcDbEntity
  8
AM_9
100
AcDbLine
 10
1.972827570053684
 20
0.0192743186691526
 30
0.0
 11
1.971814729862692
 21
0.0279874918769162
 31
0.0
  0
LINE
  5
AF
330
88
100
AcDbEntity
  8
AM_9
100
AcDbLine
 10
1.971814729862692
 20
-0.027987491876916
 30
0.0
 11
1.972827570053684
 21
-0.0192743186691524
 31
0.0
  0
ELLIPSE
  5
B0
330
88
100
AcDbEntity
  8
AM_9
100
AcDbEllipse
 10
1.851430553492398
 20
-0.0000000000000017
 30
0.0
 11
-3.169399141454517E-17
 21
-0.1725340532830188
 31
0.0
210
0.0
220
0.0
230
1.0
 40
0.7071067811865595
 41
0.7772913431420925
 42
2.364301310447717
  0
ELLIPSE
  5
B1
330
88
100
AcDbEntity
  8
AM_9
100
AcDbEllipse
 10
1.976363453416401
 20
0.0000000000000001
 30
0.0
 11
-2.479909768273386E-17
 21
-0.1349999999999998
 31
0.0
210
0.0
220
0.0
230
1.0
 40
0.7071067811865476
 41
0.4159140521025444
 42
2.72567860148725
  0
ELLIPSE
  5
B2
330
88
100
AcDbEntity
  8
AM_9
100
AcDbEllipse
 10
1.76776695296637
 20
0.0000000000000006
 30
0.0
 11
-4.018372309702274E-17
 21
-0.2187500000000011
 31
0.0
210
0.0
220
0.0
230
1.0
 40
0.7071067811865486
 41
0.0
 42
6.283185307179586
  0
ELLIPSE
  5
B3
330
88
100
AcDbEntity
  8
AM_9
100
AcDbEllipse
 10
1.767766952966365
 20
0.0000000000004657
 30
0.0
 11
-3.779601035282356E-17
 21
-0.205751897222604
 31
0.0
210
0.0
220
0.0
230
1.0
 40
0.7071067811865472
 41
0.0
 42
6.283185307179586
  0
ELLIPSE
  5
B4
330
88
100
AcDbEntity
  8
AM_9
100
AcDbEllipse
 10
1.606344907694296
 20
0.00000000000008
 30
0.0
 11
-3.648546613376416E-17
 21
-0.1986176267811354
 31
0.0
210
0.0
220
0.0
230
1.0
 40
0.7071067811866191
 41
0.0
 42
6.283185307179586
  0
LWPOLYLINE
  5
B6
330
88
100
AcDbEntity
  8
AM_4
100
AcDbPolyline
 90
        3
 70
     0
 43
0.0
 10
1.915817435277302
 20
-0.1894430570778459
 10
1.952794961590382
 20
-0.1578692142315383
 10
1.978155541043888
 20
-0.1345167476709312
  0
LWPOLYLINE
  5
B7
330
88
100
AcDbEntity
  8
AM_4
100
AcDbPolyline
 90
        3
 70
     0
 43
0.0
 10
1.977033752546564
 20
0.1355790412672208
 10
1.952953880700794
 20
0.1577272497321276
 10
1.915817435277302
 20
0.189443057077846
  0
LWPOLYLINE
  5
B8
330
88
100
AcDbEntity
  8
AM_4
100
AcDbPolyline
 90
        3
 70
     0
 43
0.0
 10
1.915817435277302
 20
0.189443057077846
 10
1.875455157398103
 20
0.2210168999241536
 10
1.832065869850462
 20
0.2525907427704613
  0
LWPOLYLINE
  5
B9
330
88
100
AcDbEntity
  8
AM_4
100
AcDbPolyline
 90
        3
 70
     0
 43
0.0
 10
1.832065869850462
 20
-0.2525907427704611
 10
1.87526633592337
 20
-0.2211588644235642
 10
1.915817435277302
 20
-0.1894430570778459
  0
LWPOLYLINE
  5
BA
330
88
100
AcDbEntity
  8
AM_4
100
AcDbPolyline
 90
        3
 70
     0
 43
0.0
 10
1.613087344581812
 20
0.0000000000000001
 10
1.614779720364871
 20
0.0631476856926154
 10
1.619499105816373
 20
0.1262953713852308
  0
LWPOLYLINE
  5
BB
330
88
100
AcDbEntity
  8
AM_4
100
AcDbPolyline
 90
        4
 70
     0
 43
0.0
 10
1.619499105816373
 20
-0.1262953713852305
 10
1.616963995650441
 20
-0.0967996321117977
 10
1.614095557401295
 20
-0.0485424412477543
 10
1.613087344581812
 20
0.0000000000000001
  0
LWPOLYLINE
  5
BC
330
88
100
AcDbEntity
  8
AM_4
100
AcDbPolyline
 90
        4
 70
     0
 43
0.0
 10
1.683798022700466
 20
0.0000000000000001
 10
1.682795655904635
 20
-0.0483998160558988
 10
1.679921371631837
 20
-0.0967996321117977
 10
1.677386261465905
 20
-0.1262953713852305
  0
ELLIPSE
  5
BD
330
88
100
AcDbEntity
  8
AM_4
100
AcDbEllipse
 10
1.838477631085023
 20
0.0000000000000002
 30
0.0
 11
-4.018372309702256E-17
 21
-0.2187500000000002
 31
0.0
210
0.0
220
0.0
230
1.0
 40
0.7071067811865465
 41
2.225899051875097
 42
7.198878908894281
  0
LINE
  5
BE
330
88
100
AcDbEntity
  8
AM_4
100
AcDbLine
 10
1.677386261465905
 20
0.1262953713852308
 30
0.0
 11
1.619499105816373
 21
0.1262953713852308
 31
0.0
  0
LWPOLYLINE
  5
BF
330
88
100
AcDbEntity
  8
AM_4
100
AcDbPolyline
 90
        3
 70
     0
 43
0.0
 10
1.832065869850462
 20
0.2525907427704613
 10
1.798274272316237
 20
0.2211588644235644
 10
1.761137826892745
 20
0.189443057077846
  0
LINE
  5
C0
330
88
100
AcDbEntity
  8
AM_4
100
AcDbLine
 10
1.832065869850462
 20
0.2525907427704613
 30
0.0
 11
1.77417871420093
 21
0.2525907427704613
 31
0.0
  0
LWPOLYLINE
  5
C1
330
88
100
AcDbEntity
  8
AM_4
100
AcDbPolyline
 90
        3
 70
     0
 43
0.0
 10
1.69042714877409
 20
0.189443057077846
 10
1.730789426653289
 20
0.2210168999241537
 10
1.77417871420093
 20
0.2525907427704613
  0
LWPOLYLINE
  5
C2
330
88
100
AcDbEntity
  8
AM_4
100
AcDbPolyline
 90
        3
 70
     0
 43
0.0
 10
1.619499105816373
 20
0.1262953713852308
 10
1.653290703350598
 20
0.1577272497321277
 10
1.69042714877409
 20
0.189443057077846
  0
LWPOLYLINE
  5
C3
330
88
100
AcDbEntity
  8
AM_4
100
AcDbPolyline
 90
        3
 70
     0
 43
0.0
 10
1.761137826892745
 20
0.189443057077846
 10
1.720775549013546
 20
0.1578692142315384
 10
1.677386261465905
 20
0.1262953713852308
  0
LWPOLYLINE
  5
C4
330
88
100
AcDbEntity
  8
AM_4
100
AcDbPolyline
 90
        3
 70
     0
 43
0.0
 10
1.677386261465905
 20
0.1262953713852308
 10
1.682090695735246
 20
0.0634316146914368
 10
1.683798022700466
 20
0.0000000000000001
  0
LINE
  5
C5
330
88
100
AcDbEntity
  8
AM_4
100
AcDbLine
 10
1.832065869850462
 20
-0.2525907427704611
 30
0.0
 11
1.77417871420093
 21
-0.2525907427704611
 31
0.0
  0
LWPOLYLINE
  5
C6
330
88
100
AcDbEntity
  8
AM_4
100
AcDbPolyline
 90
        3
 70
     0
 43
0.0
 10
1.761137826892745
 20
-0.1894430570778459
 10
1.798115353205825
 20
-0.2210168999241535
 10
1.832065869850462
 20
-0.2525907427704611
  0
LWPOLYLINE
  5
C7
330
88
100
AcDbEntity
  8
AM_4
100
AcDbPolyline
 90
        3
 70
     0
 43
0.0
 10
1.677386261465905
 20
-0.1262953713852305
 10
1.720586727538812
 20
-0.1577272497321275
 10
1.761137826892745
 20
-0.1894430570778459
  0
LINE
  5
C8
330
88
100
AcDbEntity
  8
AM_4
100
AcDbLine
 10
1.677386261465905
 20
-0.1262953713852305
 30
0.0
 11
1.619499105816373
 21
-0.1262953713852305
 31
0.0
  0
LWPOLYLINE
  5
C9
330
88
100
AcDbEntity
  8
AM_4
100
AcDbPolyline
 90
        3
 70
     0
 43
0.0
 10
1.69042714877409
 20
-0.1894430570778459
 10
1.653449622461011
 20
-0.1578692142315382
 10
1.619499105816373
 20
-0.1262953713852305
  0
LWPOLYLINE
  5
CA
330
88
100
AcDbEntity
  8
AM_4
100
AcDbPolyline
 90
        3
 70
     0
 43
0.0
 10
1.77417871420093
 20
-0.2525907427704611
 10
1.730978248128023
 20
-0.2211588644235642
 10
1.69042714877409
 20
-0.1894430570778459
  0
ELLIPSE
  5
CB
330
88
100
AcDbEntity
  8
AM_4
100
AcDbEllipse
 10
1.889921856734006
 20
0.0
 30
0.0
 11
-2.182689656893355E-17
 21
-0.1188200907348975
 31
0.0
210
0.0
220
0.0
230
1.0
 40
0.7071067811865481
 41
2.765372027488877
 42
6.659405933280503
  0
ELLIPSE
  5
CC
330
88
100
AcDbEntity
  8
AM_4
100
AcDbEllipse
 10
1.838477631085023
 20
0.0000000000000007
 30
0.0
 11
-3.926523799766188E-17
 21
-0.2137499999999993
 31
0.0
210
0.0
220
0.0
230
1.0
 40
0.7071067811865488
 41
2.237937434749412
 42
7.186840526019962
  0
ELLIPSE
  5
CD
330
88
100
AcDbEntity
  8
AM_4
100
AcDbEllipse
 10
1.912723843109611
 20
0.0000000000000001
 30
0.0
 11
-1.928818708657084E-17
 21
-0.1050000000000001
 31
0.0
210
0.0
220
0.0
230
1.0
 40
0.7071067811865485
 41
3.141592653589793
 42
6.283185307179586
  0
LINE
  5
CE
330
88
100
AcDbEntity
  8
AM_4
100
AcDbLine
 10
1.912723843109611
 20
-0.1049999999999999
 30
0.0
 11
1.914042833992149
 21
-0.1049999999999999
 31
0.0
  0
LINE
  5
CF
330
88
100
AcDbEntity
  8
AM_4
100
AcDbLine
 10
1.914042833992149
 20
0.1050000000000001
 30
0.0
 11
1.912723843109611
 21
0.1050000000000001
 31
0.0
  0
ELLIPSE
  5
D0
330
88
100
AcDbEntity
  8
AM_4
100
AcDbEllipse
 10
1.851430553492403
 20
0.0000000000000001
 30
0.0
 11
-3.169399141454456E-17
 21
-0.1725340532830155
 31
0.0
210
0.0
220
0.0
230
1.0
 40
0.7071067811865459
 41
2.364301310447725
 42
7.060476650321656
  0
LINE
  5
D1
330
88
100
AcDbEntity
  8
AM_4
100
AcDbLine
 10
1.896813940532914
 20
-0.090932667397366
 30
0.0
 11
1.928633745686309
 21
-0.1169134295108991
 31
0.0
  0
LINE
  5
D2
330
88
100
AcDbEntity
  8
AM_4
100
AcDbLine
 10
1.928633745686309
 20
0.1169134295108993
 30
0.0
 11
1.896813940532914
 21
0.0909326673973662
 31
0.0
  0
ELLIPSE
  5
D3
330
88
100
AcDbEntity
  8
AM_4
100
AcDbEllipse
 10
1.9763634534164
 20
0.0000000000000001
 30
0.0
 11
-2.479909768273389E-17
 21
-0.135
 31
0.0
210
0.0
220
0.0
230
1.0
 40
0.7071067811865467
 41
2.725678601487244
 42
6.699099359282135
  0
ELLIPSE
  5
D4
330
88
100
AcDbEntity
  8
AM_4
100
AcDbEllipse
 10
1.933937046545207
 20
0.0000000000000001
 30
0.0
 11
-1.928818708657078E-17
 21
-0.1049999999999998
 31
0.0
210
0.0
220
0.0
230
1.0
 40
0.7071067811865465
 41
3.665191429188088
 42
5.759586531581292
  0
LINE
  5
D5
330
88
100
AcDbEntity
  8
AM_4
100
AcDbLine
 10
2.062266013275099
 20
0.0939243440009288
 30
0.0
 11
2.014931560765209
 21
0.1234908992236336
 31
0.0
  0
LINE
  5
D6
330
88
100
AcDbEntity
  8
AM_4
100
AcDbLine
 10
2.014931560765209
 20
-0.1234908992236334
 30
0.0
 11
2.062266013275099
 21
-0.0939243440009286
 31
0.0
  0
ELLIPSE
  5
D7
330
88
100
AcDbEntity
  8
AM_4
100
AcDbEllipse
 10
2.032931995911324
 20
0.0000000000000002
 30
0.0
 11
-1.886162459184656E-17
 21
-0.1026779019331874
 31
0.0
210
0.0
220
0.0
230
1.0
 40
0.7071067811865429
 41
0.0
 42
6.283185307179586
  0
ENDBLK
  5
8B
330
88
100
AcDbEntity
  8
0
100
AcDbBlockEnd
  0
BLOCK
  5
DA
330
D8
100
AcDbEntity
  8
0
100
AcDbBlockBegin
  2
3_123344_0_in_054548_4
 70
     2
 10
0.0
 20
0.0
 30
0.0
  3
3_123344_0_in_054548_4
  1

  0
ATTDEF
  5
DC
330
D8
100
AcDbEntity
  8
AM_6
100
AcDbText
 10
6.672772310767183
 20
0.7499999999999999
 30
0.0
 40
0.5
  1
Set Screw Insert Inch Bore
100
AcDbAttributeDefinition
  3

  2
NN
 70
     8
280
     0
  0
ATTDEF
  5
DD
330
D8
100
AcDbEntity
  8
AM_6
100
AcDbText
 10
6.672772310767183
 20
0.2499999999999999
 30
0.0
 40
0.5
  1
SC Normal Duty Bearing Inserts
100
AcDbAttributeDefinition
  3

  2
NT
 70
     8
280
     0
  0
ATTDEF
  5
DE
330
D8
100
AcDbEntity
  8
AM_6
100
AcDbText
 10
6.672772310767183
 20
-0.2500000000000001
 30
0.0
 40
0.5
  1
123344
100
AcDbAttributeDefinition
  3

  2
NB
 70
     8
280
     0
  0
ATTDEF
  5
DF
330
D8
100
AcDbEntity
  8
AM_6
100
AcDbText
 10
6.672772310767183
 20
-0.7500000000000001
 30
0.0
 40
0.5
  1
$PN.
100
AcDbAttributeDefinition
  3

  2
NBSYN
 70
     8
280
     0
  0
ATTDEF
  5
E0
330
D8
100
AcDbEntity
  8
AM_6
100
AcDbText
 10
6.672772310767183
 20
-1.25
 30
0.0
 40
0.5
  1
123344
100
AcDbAttributeDefinition
  3

  2
LINA
 70
     8
280
     0
  0
ATTDEF
  5
E1
330
D8
100
AcDbEntity
  8
AM_6
100
AcDbText
 10
6.672772310767183
 20
-1.75
 30
0.0
 40
0.5
  1
209
100
AcDbAttributeDefinition
  3

  2
SERIES
 70
     8
280
     0
  0
ATTDEF
  5
E2
330
D8
100
AcDbEntity
  8
AM_6
100
AcDbText
 10
6.672772310767183
 20
-2.25
 30
0.0
 40
0.5
  1
1-11/16
100
AcDbAttributeDefinition
  3

  2
SS
 70
     8
280
     0
  0
ATTDEF
  5
E3
330
D8
100
AcDbEntity
  8
AM_6
100
AcDbText
 10
6.672772310767183
 20
-2.75
 30
0.0
 40
0.5
  1
123344
100
AcDbAttributeDefinition
  3

  2
PN
 70
     8
280
     0
  0
ATTDEF
  5
E4
330
D8
100
AcDbEntity
  8
AM_6
100
AcDbText
 10
6.672772310767183
 20
-3.25
 30
0.0
 40
0.5
  1
INS-SC-111
100
AcDbAttributeDefinition
  3

  2
DESCRIPTION
 70
     8
280
     0
  0
ATTDEF
  5
E5
330
D8
100
AcDbEntity
  8
AM_6
100
AcDbText
 10
6.672772310767183
 20
-3.75
 30
0.0
 40
0.5
  1
1.94
100
AcDbAttributeDefinition
  3

  2
A
 70
     8
280
     0
  0
ATTDEF
  5
E6
330
D8
100
AcDbEntity
  8
AM_6
100
AcDbText
 10
6.672772310767183
 20
-4.25
 30
0.0
 40
0.5
  1
0.87
100
AcDbAttributeDefinition
  3

  2
C
 70
     8
280
     0
  0
ATTDEF
  5
E7
330
D8
100
AcDbEntity
  8
AM_6
100
AcDbText
 10
6.672772310767183
 20
-4.75
 30
0.0
 40
0.5
  1
3.3465
100
AcDbAttributeDefinition
  3

  2
D
 70
     8
280
     0
  0
ATTDEF
  5
E8
330
D8
100
AcDbEntity
  8
AM_6
100
AcDbText
 10
6.672772310767183
 20
-5.25
 30
0.0
 40
0.5
  1
0.25
100
AcDbAttributeDefinition
  3

  2
J
 70
     8
280
     0
  0
ATTDEF
  5
E9
330
D8
100
AcDbEntity
  8
AM_6
100
AcDbText
 10
6.672772310767183
 20
-5.75
 30
0.0
 40
0.5
  1
2.22
100
AcDbAttributeDefinition
  3

  2
L
 70
     8
280
     0
  0
ATTDEF
  5
EA
330
D8
100
AcDbEntity
  8
AM_6
100
AcDbText
 10
6.672772310767183
 20
-6.25
 30
0.0
 40
0.5
  1
5/16 - 24
100
AcDbAttributeDefinition
  3

  2
N
 70
     8
280
     0
  0
ATTDEF
  5
EB
330
D8
100
AcDbEntity
  8
AM_6
100
AcDbText
 10
6.672772310767183
 20
-6.75
 30
0.0
 40
0.5
  1
0.75
100
AcDbAttributeDefinition
  3

  2
W
 70
     8
280
     0
  0
ATTDEF
  5
EC
330
D8
100
AcDbEntity
  8
AM_6
100
AcDbText
 10
6.672772310767183
 20
-7.25
 30
0.0
 40
0.5
  1
1.19
100
AcDbAttributeDefinition
  3

  2
Y
 70
     8
280
     0
  0
ATTDEF
  5
ED
330
D8
100
AcDbEntity
  8
AM_6
100
AcDbText
 10
6.672772310767183
 20
-7.75
 30
0.0
 40
0.5
  1
baldor
100
AcDbAttributeDefinition
  3

  2
COMPANY
 70
     8
280
     0
  0
LINE
  5
EE
330
D8
100
AcDbEntity
  8
AM_9
100
AcDbLine
 10
-1.757625
 20
0.2750757575757546
 30
0.0
 11
-1.757625
 21
0.2249242424242454
 31
0.0
  0
ARC
  5
EF
330
D8
100
AcDbEntity
  8
AM_9
100
AcDbCircle
 10
-1.678534090909091
 20
0.2249242424242472
 30
0.0
 40
0.0790909090909093
100
AcDbArc
 50
180.0
 51
270.0
  0
ARC
  5
F0
330
D8
100
AcDbEntity
  8
AM_9
100
AcDbCircle
 10
-1.678534090909091
 20
0.2750757575757529
 30
0.0
 40
0.0790909090909091
100
AcDbArc
 50
90.0
 51
180.0
  0
LINE
  5
F1
330
D8
100
AcDbEntity
  8
AM_9
100
AcDbLine
 10
-1.678534090909091
 20
0.354166666666662
 30
0.0
 11
-1.678534090909091
 21
0.145833333333338
 31
0.0
  0
LINE
  5
F2
330
D8
100
AcDbEntity
  8
AM_9
100
AcDbLine
 10
-1.678534090909091
 20
0.145833333333338
 30
0.0
 11
-1.666882779738537
 21
0.145833333333338
 31
0.0
  0
LINE
  5
F3
330
D8
100
AcDbEntity
  8
AM_9
100
AcDbLine
 10
-1.635374320959394
 20
0.354166666666662
 30
0.0
 11
-1.678534090909091
 21
0.354166666666662
 31
0.0
  0
ELLIPSE
  5
F4
330
D8
100
AcDbEntity
  8
AM_9
100
AcDbEllipse
 10
0.7582680269472484
 20
-0.8124999999999999
 30
0.0
 11
-2.318256390785937E-17
 21
-0.1261999999999999
 31
0.0
210
0.0
220
0.0
230
1.0
 40
0.4226182617407016
 41
1.045433159789004
 42
2.096159493800788
  0
ELLIPSE
  5
F5
330
D8
100
AcDbEntity
  8
AM_9
100
AcDbEllipse
 10
0.7582680269472486
 20
-0.8125
 30
0.0
 11
-2.318256390785941E-17
 21
-0.1262000000000001
 31
0.0
210
0.0
220
0.0
230
1.0
 40
0.4226182617407008
 41
4.187025813378797
 42
5.237752147390582
  0
LINE
  5
F6
330
D8
100
AcDbEntity
  8
AM_9
100
AcDbLine
 10
0.7646616056683929
 20
-0.9387
 30
0.0
 11
0.9891875043623771
 21
-0.9387
 31
0.0
  0
LINE
  5
F7
330
D8
100
AcDbEntity
  8
AM_9
100
AcDbLine
 10
0.9891875043623771
 20
-0.6863
 30
0.0
 11
0.7646616056683929
 21
-0.6863
 31
0.0
  0
LWPOLYLINE
  5
F8
330
D8
100
AcDbEntity
  8
AM_9
100
AcDbPolyline
 90
        8
 70
     0
 43
0.0
 10
0.7646914829672222
 20
-0.9386999992761843
 10
0.7716500679498737
 20
-0.937575287250037
 10
0.7798617124985869
 20
-0.9329409943281335
 10
0.7870036854239836
 20
-0.925144259870474
 10
0.7933802433359289
 20
-0.9139663816059331
 10
0.79861442455652
 20
-0.9001958232173676
 10
0.8029162803486856
 20
-0.8835251435243099
 10
0.8044098703037637
 20
-0.8757927362643908
  0
LWPOLYLINE
  5
F9
330
D8
100
AcDbEntity
  8
AM_9
100
AcDbPolyline
 90
        8
 70
     0
 43
0.0
 10
0.7647029074608882
 20
-0.6863000007238157
 10
0.7574407264057303
 20
-0.687424712749963
 10
0.7480061968475095
 20
-0.6920590056718664
 10
0.738908979170518
 20
-0.699855740129526
 10
0.7299536281360269
 20
-0.7110336183940668
 10
0.7219077194207051
 20
-0.7248041767826323
 10
0.7147444205287903
 20
-0.74147485647569
 10
0.7121261835907303
 20
-0.7492072637356091
  0
ELLIPSE
  5
FA
330
D8
100
AcDbEntity
  8
AM_9
100
AcDbEllipse
 10
0.9891875043623771
 20
-0.8125000000000001
 30
0.0
 11
-2.318256390785931E-17
 21
-0.1261999999999995
 31
0.0
210
0.0
220
0.0
230
1.0
 40
0.4226182617407
 41
3.524363010268612
 42
5.915340061953098
  0
LINE
  5
FB
330
D8
100
AcDbEntity
  8
AM_9
100
AcDbLine
 10
0.9643172537133358
 20
-0.9241393737973382
 30
0.0
 11
0.9759019060170162
 21
-0.9385887552156864
 31
0.0
  0
LINE
  5
FC
330
D8
100
AcDbEntity
  8
AM_9
100
AcDbLine
 10
0.9760524777065215
 20
-0.686223438735808
 30
0.0
 11
0.9643172537133358
 21
-0.7008606262026618
 31
0.0
  0
LWPOLYLINE
  5
FD
330
D8
100
AcDbEntity
  8
AM_9
100
AcDbPolyline
 90
        8
 70
     0
 43
0.0
 10
-0.1091809027997462
 20
-0.74920726373562
 10
-0.1189864269822619
 20
-0.7666196351857449
 10
-0.1256395375639489
 20
-0.7854765414432384
 10
-0.128723589015509
 20
-0.8045407095874285
 10
-0.1284382013417466
 20
-0.8238545282807838
 10
-0.1250311807616599
 20
-0.841770038148944
 10
-0.1187704598683399
 20
-0.8588865372434307
 10
-0.1091809027997462
 20
-0.87579273626438
  0
LWPOLYLINE
  5
FE
330
D8
100
AcDbEntity
  8
AM_9
100
AcDbPolyline
 90
        8
 70
     0
 43
0.0
 10
0.1091809027997462
 20
-0.87579273626438
 10
0.1189864269822619
 20
-0.8583803648142552
 10
0.1256395375639489
 20
-0.8395234585567616
 10
0.128723589015509
 20
-0.8204592904125715
 10
0.1284382013417466
 20
-0.8011454717192162
 10
0.1250311807616599
 20
-0.783229961851056
 10
0.1187704598683399
 20
-0.7661134627565693
 10
0.1091809027997462
 20
-0.74920726373562
  0
LWPOLYLINE
  5
FF
330
D8
100
AcDbEntity
  8
AM_9
100
AcDbPolyline
 90
        9
 70
     0
 43
0.0
 10
0.8044098703037575
 20
-0.87579273626438
 10
0.8064951635396277
 20
-0.8642633661906236
 10
0.808791808338167
 20
-0.8453423409034769
 10
0.810020280372561
 20
-0.8253012525634256
 10
0.8101844556104895
 20
-0.8065307002203217
 10
0.809439703633409
 20
-0.7879374934285548
 10
0.8078469113617238
 20
-0.7706044863277725
 10
0.805419032047874
 20
-0.7543779258142054
 10
0.8044098703037575
 20
-0.7492072637356199
  0
LWPOLYLINE
  5
100
330
D8
100
AcDbEntity
  8
AM_9
100
AcDbPolyline
 90
        8
 70
     0
 43
0.0
 10
0.8044098703037575
 20
-0.7492072637356199
 10
0.8006756393194508
 20
-0.7319762609433553
 10
0.7957363946500319
 20
-0.7165817476793169
 10
0.7898843283911663
 20
-0.7043088307361008
 10
0.7828286221038148
 20
-0.6948031826653394
 10
0.7750911733130772
 20
-0.688885670893537
 10
0.7663589146930948
 20
-0.6863618883779361
 10
0.7647029074608882
 20
-0.6863000007238157
  0
LWPOLYLINE
  5
101
330
D8
100
AcDbEntity
  8
AM_9
100
AcDbPolyline
 90
        8
 70
     0
 43
0.0
 10
0.7121261835907395
 20
-0.7492072637356199
 10
0.7051192531758905
 20
-0.7737756244598607
 10
0.7021785054523927
 20
-0.792910471142575
 10
0.7011720718701989
 20
-0.8126870910560756
 10
0.7020711003572814
 20
-0.8310372105313187
 10
0.7046439277071262
 20
-0.8488625797174989
 10
0.7079282075241548
 20
-0.862778207241312
 10
0.7121261835907395
 20
-0.8757927362643801
  0
LWPOLYLINE
  5
102
330
D8
100
AcDbEntity
  8
AM_9
100
AcDbPolyline
 90
        8
 70
     0
 43
0.0
 10
0.7121261835907396
 20
-0.8757927362643801
 10
0.7185424469251622
 20
-0.8930237390566447
 10
0.7264160286407171
 20
-0.9084182523206831
 10
0.7349692464559173
 20
-0.9206911692638992
 10
0.7443364803947341
 20
-0.9301968173346606
 10
0.7536092307463389
 20
-0.936114329106463
 10
0.7630187011735344
 20
-0.938638111622064
 10
0.7646914829672222
 20
-0.9386999992761843
  0
LINE
  5
103
330
D8
100
AcDbEntity
  8
AM_9
100
AcDbLine
 10
0.84375
 20
-1.1456
 30
0.0
 11
0.84375
 21
0.7056
 31
0.0
  0
LINE
  5
104
330
D8
100
AcDbEntity
  8
AM_9
100
AcDbLine
 10
-0.84375
 20
0.7056
 30
0.0
 11
-0.84375
 21
-1.1456
 31
0.0
  0
LINE
  5
105
330
D8
100
AcDbEntity
  8
AM_9
100
AcDbLine
 10
0.84375
 20
0.7056
 30
0.0
 11
0.8881499999999999
 21
0.7499999999999999
 31
0.0
  0
LINE
  5
106
330
D8
100
AcDbEntity
  8
AM_9
100
AcDbLine
 10
-0.8881499999999999
 20
0.7499999999999999
 30
0.0
 11
-0.84375
 21
0.7056
 31
0.0
  0
LINE
  5
107
330
D8
100
AcDbEntity
  8
AM_9
100
AcDbLine
 10
-0.8437499999999999
 20
-1.1456
 30
0.0
 11
-0.8881499999999999
 21
-1.19
 31
0.0
  0
LINE
  5
108
330
D8
100
AcDbEntity
  8
AM_9
100
AcDbLine
 10
0.8881499999999999
 20
-1.19
 30
0.0
 11
0.8437499999999999
 21
-1.1456
 31
0.0
  0
LINE
  5
109
330
D8
100
AcDbEntity
  8
AM_9
100
AcDbLine
 10
1.110000000000001
 20
0.435
 30
0.0
 11
1.110000000000001
 21
0.6021100564585062
 31
0.0
  0
LINE
  5
10A
330
D8
100
AcDbEntity
  8
AM_9
100
AcDbLine
 10
-1.110000000000001
 20
0.6021100564585062
 30
0.0
 11
-1.110000000000001
 21
0.435
 31
0.0
  0
LINE
  5
10B
330
D8
100
AcDbEntity
  8
AM_9
100
AcDbLine
 10
1.110000000000001
 20
-0.6021100564585061
 30
0.0
 11
1.110000000000001
 21
-0.435
 31
0.0
  0
LINE
  5
10C
330
D8
100
AcDbEntity
  8
AM_9
100
AcDbLine
 10
-1.110000000000001
 20
-0.435
 30
0.0
 11
-1.110000000000001
 21
-0.6021100564585061
 31
0.0
  0
LINE
  5
10D
330
D8
100
AcDbEntity
  8
AM_9
100
AcDbLine
 10
1.589916666666666
 20
-0.3000000000000002
 30
0.0
 11
1.589916666666666
 21
-0.2
 31
0.0
  0
LINE
  5
10E
330
D8
100
AcDbEntity
  8
AM_9
100
AcDbLine
 10
-1.589916666666666
 20
-0.2
 30
0.0
 11
-1.589916666666666
 21
-0.3000000000000002
 31
0.0
  0
LINE
  5
10F
330
D8
100
AcDbEntity
  8
AM_9
100
AcDbLine
 10
-1.576932326544176
 20
-0.4350000000000004
 30
0.0
 11
1.576932326540976
 21
-0.4350000000000004
 31
0.0
  0
ARC
  5
110
330
D8
100
AcDbEntity
  8
AM_9
100
AcDbCircle
 10
1.576932326544176
 20
-0.3850000000000007
 30
0.0
 40
0.0499999999999997
100
AcDbArc
 50
270.0
 51
346.2798930886403
  0
ARC
  5
111
330
D8
100
AcDbEntity
  8
AM_9
100
AcDbCircle
 10
-1.576932326544176
 20
-0.3850000000000007
 30
0.0
 40
0.0499999999999996
100
AcDbArc
 50
193.7201069113596
 51
270.0
  0
LINE
  5
112
330
D8
100
AcDbEntity
  8
AM_9
100
AcDbLine
 10
-1.576932326544167
 20
0.435
 30
0.0
 11
1.576932326540968
 21
0.435
 31
0.0
  0
ARC
  5
113
330
D8
100
AcDbEntity
  8
AM_9
100
AcDbCircle
 10
1.576932326544167
 20
0.3849999999999998
 30
0.0
 40
0.0500000000000001
100
AcDbArc
 50
13.72007682425423
 51
90.0
  0
ARC
  5
114
330
D8
100
AcDbEntity
  8
AM_9
100
AcDbCircle
 10
-1.576932326544167
 20
0.3849999999999998
 30
0.0
 40
0.0500000000000002
100
AcDbArc
 50
90.0
 51
166.2799231757458
  0
LINE
  5
115
330
D8
100
AcDbEntity
  8
AM_9
100
AcDbLine
 10
-1.646136556455752
 20
-0.2999999999999999
 30
0.0
 11
1.646136556455996
 21
-0.2999999999999999
 31
0.0
  0
LINE
  5
116
330
D8
100
AcDbEntity
  8
AM_9
100
AcDbLine
 10
-1.625505623850998
 20
-0.3968589539480947
 30
0.0
 11
1.625505623851243
 21
-0.3968589539480947
 31
0.0
  0
ARC
  5
117
330
D8
100
AcDbEntity
  8
AM_9
100
AcDbCircle
 10
0.0000000005341854
 20
-0.0000000001137316
 30
0.0
 40
1.67324999945432
100
AcDbArc
 50
346.2799262185368
 51
349.6714882668628
  0
ARC
  5
118
330
D8
100
AcDbEntity
  8
AM_9
100
AcDbCircle
 10
-0.0000000005342924
 20
-0.0000000001137545
 30
0.0
 40
1.673249999454211
100
AcDbArc
 50
190.3285117331371
 51
193.7200737814632
  0
LINE
  5
119
330
D8
100
AcDbEntity
  8
AM_9
100
AcDbLine
 10
-1.449077006882312
 20
-0.1999999999999997
 30
0.0
 11
1.449077006882312
 21
-0.1999999999999997
 31
0.0
  0
LINE
  5
11A
330
D8
100
AcDbEntity
  8
AM_9
100
AcDbLine
 10
-1.625505630078346
 20
0.3968589284413285
 30
0.0
 11
1.625505630078343
 21
0.3968589284413285
 31
0.0
  0
ARC
  5
11B
330
D8
100
AcDbEntity
  8
AM_9
100
AcDbCircle
 10
-0.000000000000133
 20
-0.0000000000000086
 30
0.0
 40
1.673250000000129
100
AcDbArc
 50
353.1351448840007
 51
13.72007288184742
  0
ARC
  5
11C
330
D8
100
AcDbEntity
  8
AM_9
100
AcDbCircle
 10
0.0000000000128499
 20
-0.0000000000028896
 30
0.0
 40
1.673250000013166
100
AcDbArc
 50
166.2799271181601
 51
167.7882933770505
  0
ARC
  5
11D
330
D8
100
AcDbEntity
  8
AM_9
100
AcDbCircle
 10
0.0000000000002207
 20
-0.0000000000000058
 30
0.0
 40
1.673250000000216
100
AcDbArc
 50
174.9879710641864
 51
186.864855115999
  0
LINE
  5
11E
330
D8
100
AcDbEntity
  8
AM_9
100
AcDbLine
 10
-1.635338354818922
 20
0.3541666666273646
 30
0.0
 11
-1.666882779738295
 21
0.1458333333349527
 31
0.0
  0
LINE
  5
121
330
D8
100
AcDbEntity
  8
AM_7
100
AcDbLine
 10
-0.13251
 20
-0.8125
 30
0.0
 11
0.13251
 21
-0.8125
 31
0.0
  0
LINE
  5
122
330
D8
100
AcDbEntity
  8
AM_7
100
AcDbLine
 10
-1.79000625
 20
0.25
 30
0.0
 11
-1.07761875
 21
0.25
 31
0.0
  0
ELLIPSE
  5
123
330
D8
100
AcDbEntity
  8
AM_4
100
AcDbEllipse
 10
0.9891875043623771
 20
-0.8125
 30
0.0
 11
-2.318256390785937E-17
 21
-0.1261999999999999
 31
0.0
210
0.0
220
0.0
230
1.0
 40
0.4226182617406989
 41
5.915340061953098
 42
9.807548317448202
  0
LWPOLYLINE
  5
124
330
D8
100
AcDbEntity
  8
AM_4
100
AcDbPolyline
 90
       15
 70
     0
 43
0.0
 10
0.9760476264547017
 20
-0.9387705076717041
 10
0.9726723214064199
 20
-0.9342841078518541
 10
0.9642051672477137
 20
-0.9203026746507067
 10
0.9567262055550225
 20
-0.9037709684549408
 10
0.9501668026266096
 20
-0.8839729396070055
 10
0.9452117215957299
 20
-0.8623921389297825
 10
0.9419441890502899
 20
-0.8383683876326675
 10
0.9407631532819213
 20
-0.813654349128514
 10
0.9418037311322138
 20
-0.7882285077333319
 10
0.9450525531018446
 20
-0.7634862467963308
 10
0.9504232242364535
 20
-0.740123417381894
 10
0.9576618776294186
 20
-0.7188786827703704
 10
0.9662509676011336
 20
-0.7009334471287424
 10
0.9759868119286279
 20
-0.6863054630017078
 10
0.9760577425748045
 20
-0.6862168719442958
  0
LWPOLYLINE
  5
125
330
D8
100
AcDbEntity
  8
AM_4
100
AcDbPolyline
 90
        4
 70
     0
 43
0.0
 10
0.9760577425748045
 20
-0.6862168719442958
 10
0.985898480532971
 20
-0.6761083455380101
 10
0.996102041102364
 20
-0.6698128931047919
 10
1.008563927654076
 20
-0.6678929566295905
  0
LINE
  5
126
330
D8
100
AcDbEntity
  8
AM_4
100
AcDbLine
 10
-1.0656
 20
-1.19
 30
0.0
 11
1.0656
 21
-1.19
 31
0.0
  0
LINE
  5
127
330
D8
100
AcDbEntity
  8
AM_4
100
AcDbLine
 10
1.0656
 20
-1.19
 30
0.0
 11
1.11
 21
-1.1456
 31
0.0
  0
LINE
  5
128
330
D8
100
AcDbEntity
  8
AM_4
100
AcDbLine
 10
-1.11
 20
-1.1456
 30
0.0
 11
-1.0656
 21
-1.19
 31
0.0
  0
LINE
  5
129
330
D8
100
AcDbEntity
  8
AM_4
100
AcDbLine
 10
-1.0656
 20
0.7499999999999999
 30
0.0
 11
1.0656
 21
0.7499999999999999
 31
0.0
  0
LINE
  5
12A
330
D8
100
AcDbEntity
  8
AM_4
100
AcDbLine
 10
-1.0656
 20
0.7499999999999999
 30
0.0
 11
-1.11
 21
0.7056
 31
0.0
  0
LINE
  5
12B
330
D8
100
AcDbEntity
  8
AM_4
100
AcDbLine
 10
1.11
 20
0.7056
 30
0.0
 11
1.0656
 21
0.7499999999999999
 31
0.0
  0
CIRCLE
  5
12C
330
D8
100
AcDbEntity
  8
AM_4
100
AcDbCircle
 10
0.0
 20
-0.8125
 30
0.0
 40
0.1262
  0
LINE
  5
12D
330
D8
100
AcDbEntity
  8
AM_4
100
AcDbLine
 10
-1.11
 20
0.7056
 30
0.0
 11
1.110000000000001
 21
0.7056
 31
0.0
  0
LINE
  5
12E
330
D8
100
AcDbEntity
  8
AM_4
100
AcDbLine
 10
1.110000000000001
 20
0.6021100564585062
 30
0.0
 11
1.110000000000001
 21
0.7056
 31
0.0
  0
LINE
  5
12F
330
D8
100
AcDbEntity
  8
AM_4
100
AcDbLine
 10
-1.110000000000001
 20
0.7056
 30
0.0
 11
-1.110000000000001
 21
0.6021100564585062
 31
0.0
  0
LINE
  5
130
330
D8
100
AcDbEntity
  8
AM_4
100
AcDbLine
 10
-1.11
 20
-1.1456
 30
0.0
 11
1.110000000000001
 21
-1.1456
 31
0.0
  0
LWPOLYLINE
  5
131
330
D8
100
AcDbEntity
  8
AM_4
100
AcDbPolyline
 90
       39
 70
     0
 43
0.0
 10
-0.0982585557077616
 20
-0.7122205915587747
 10
-0.0833646637367941
 20
-0.6980192905647477
 10
-0.0661140285329157
 20
-0.6859474989648886
 10
-0.0454015624107577
 20
-0.6760306553809722
 10
-0.0225284482343929
 20
-0.6697429635897444
 10
-0.0008778434851885
 20
-0.66775065899848
 10
0.0214591090386299
 20
-0.6695568816396433
 10
0.0419648576579501
 20
-0.6747934748423782
 10
0.0618673402972332
 20
-0.6835460532305755
 10
0.0799921383207697
 20
-0.6953364404431112
 10
0.0964252163679354
 20
-0.7102345321266819
 10
0.1106766712985751
 20
-0.728042197684237
 10
0.1222182843786586
 20
-0.748409393779197
 10
0.1306135548007458
 20
-0.7710233317054987
 10
0.1353830172595077
 20
-0.7953472007226361
 10
0.1361461123247462
 20
-0.8203331528223594
 10
0.1326784540715911
 20
-0.8458032189300446
 10
0.1251559657522663
 20
-0.8698593219226604
 10
0.1133049427586943
 20
-0.8929381309417551
 10
0.0983747935997143
 20
-0.912650892781119
 10
0.0796216580111123
 20
-0.9299479098034078
 10
0.0597245398476369
 20
-0.9425896003368486
 10
0.0371530792826173
 20
-0.9517595408259387
 10
0.0154899480329224
 20
-0.9563124636726884
 10
-0.0073402049622564
 20
-0.9570418228407084
 10
-0.0283703843777516
 20
-0.9540751257046621
 10
-0.0491896003623785
 20
-0.9474782346552424
 10
-0.0682297367187905
 20
-0.9377784547695468
 10
-0.0859218744067615
 20
-0.9248279904752296
 10
-0.1016410149435055
 20
-0.9089055561971158
 10
-0.1149780218734291
 20
-0.8902194976004539
 10
-0.1255147967617003
 20
-0.8689704955554124
 10
-0.132703290228519
 20
-0.8456917941774577
 10
-0.1361024144034946
 20
-0.8211445193789041
 10
-0.1354196865023906
 20
-0.7956756604748613
 10
-0.1305875614073718
 20
-0.770931410624245
 10
-0.1213964026320267
 20
-0.7466753778924269
 10
-0.1111811859320744
 20
-0.7287916791876534
 10
-0.0982585557455188
 20
-0.7122205915342658
  0
LWPOLYLINE
  5
132
330
D8
100
AcDbEntity
  8
AM_4
100
AcDbPolyline
 90
       23
 70
     0
 43
0.0
 10
1.008563927654076
 20
-0.6678929566295905
 10
1.017305175613567
 20
-0.6707413646864634
 10
1.025383149155777
 20
-0.6770773969564022
 10
1.032643923495482
 20
-0.686754436181806
 10
1.038969762706963
 20
-0.6993825165145616
 10
1.04451631400719
 20
-0.715367180273844
 10
1.048962713175657
 20
-0.7336803230992205
 10
1.052471194026624
 20
-0.7550990295496153
 10
1.05477480470768
 20
-0.7779818513854846
 10
1.055908605870942
 20
-0.8028231615140315
 10
1.055763797069537
 20
-0.8279278241043059
 10
1.054289180084715
 20
-0.8530686902430242
 10
1.051467169388528
 20
-0.8770508560964674
 10
1.047291042851122
 20
-0.8989854265596527
 10
1.041738133987394
 20
-0.9183662353993346
 10
1.035064077522568
 20
-0.9339494863539517
 10
1.0271671840546
 20
-0.9459404041318289
 10
1.018719720431344
 20
-0.9534243864208134
 10
1.009484035271725
 20
-0.9569826777936403
 10
1.00023848012139
 20
-0.9565284889407469
 10
0.9907860420221161
 20
-0.95243604829782
 10
0.9815376448463453
 20
-0.9449252577764455
 10
0.9760476264547017
 20
-0.9387705076717041
  0
LINE
  5
133
330
D8
100
AcDbEntity
  8
AM_4
100
AcDbLine
 10
1.110000000000001
 20
-1.1456
 30
0.0
 11
1.110000000000001
 21
-0.6021100564585061
 31
0.0
  0
LINE
  5
134
330
D8
100
AcDbEntity
  8
AM_4
100
AcDbLine
 10
-1.110000000000001
 20
-0.6021100564585061
 30
0.0
 11
-1.110000000000001
 21
-1.1456
 31
0.0
  0
ARC
  5
136
330
D8
100
AcDbEntity
  8
AM_5
100
AcDbCircle
 10
0.0
 20
-0.8775
 30
0.0
 40
0.15625
100
AcDbArc
 50
75.00000000000001
 51
15.00000000000002
  0
ARC
  5
137
330
D8
100
AcDbEntity
  8
AM_5
100
AcDbCircle
 10
0.0000000000000001
 20
-0.8124999999999999
 30
0.0
 40
0.1562499999999999
100
AcDbArc
 50
75.0
 51
14.99999999999994
  0
ENDBLK
  5
DB
330
D8
100
AcDbEntity
  8
0
100
AcDbBlockEnd
  0
BLOCK
  5
13A
330
138
100
AcDbEntity
  8
0
100
AcDbBlockBegin
  2
4_054548H_0_in_054548_4
 70
     2
 10
0.0
 20
0.0
 30
0.0
  3
4_054548H_0_in_054548_4
  1

  0
ATTDEF
  5
13C
330
138
100
AcDbEntity
  8
AM_6
100
AcDbText
 10
7.500000000000002
 20
1.1
 30
0.0
 40
0.5
  1
TB-SC -I-Housing
100
AcDbAttributeDefinition
  3

  2
NN
 70
     8
280
     0
  0
ATTDEF
  5
13D
330
138
100
AcDbEntity
  8
AM_6
100
AcDbText
 10
7.500000000000002
 20
0.6000000000000001
 30
0.0
 40
0.5
  1
SC Pillow Block Bearings -(Normal Duty) -Tapped Base Housing
100
AcDbAttributeDefinition
  3

  2
NT
 70
     8
280
     0
  0
ATTDEF
  5
13E
330
138
100
AcDbEntity
  8
AM_6
100
AcDbText
 10
7.500000000000002
 20
0.1000000000000001
 30
0.0
 40
0.5
  1
054548H
100
AcDbAttributeDefinition
  3

  2
NB
 70
     8
280
     0
  0
ATTDEF
  5
13F
330
138
100
AcDbEntity
  8
AM_6
100
AcDbText
 10
7.500000000000002
 20
-0.3999999999999999
 30
0.0
 40
0.5
  1
$PN.H
100
AcDbAttributeDefinition
  3

  2
NBSYN
 70
     8
280
     0
  0
ATTDEF
  5
140
330
138
100
AcDbEntity
  8
AM_6
100
AcDbText
 10
7.500000000000002
 20
-0.8999999999999999
 30
0.0
 40
0.5
  1
054548
100
AcDbAttributeDefinition
  3

  2
LINA
 70
     8
280
     0
  0
ATTDEF
  5
141
330
138
100
AcDbEntity
  8
AM_6
100
AcDbText
 10
7.500000000000002
 20
-1.4
 30
0.0
 40
0.5
  1
209
100
AcDbAttributeDefinition
  3

  2
SERIES
 70
     8
280
     0
  0
ATTDEF
  5
142
330
138
100
AcDbEntity
  8
AM_6
100
AcDbText
 10
7.500000000000002
 20
-1.9
 30
0.0
 40
0.5
  1
1-11/16
100
AcDbAttributeDefinition
  3

  2
SS
 70
     8
280
     0
  0
ATTDEF
  5
143
330
138
100
AcDbEntity
  8
AM_6
100
AcDbText
 10
7.500000000000002
 20
-2.4
 30
0.0
 40
0.5
  1
054548
100
AcDbAttributeDefinition
  3

  2
PN
 70
     8
280
     0
  0
ATTDEF
  5
144
330
138
100
AcDbEntity
  8
AM_6
100
AcDbText
 10
7.500000000000002
 20
-2.9
 30
0.0
 40
0.5
  1
TB-SC-111
100
AcDbAttributeDefinition
  3

  2
DESCRIPTION
 70
     8
280
     0
  0
ATTDEF
  5
145
330
138
100
AcDbEntity
  8
AM_6
100
AcDbText
 10
7.500000000000002
 20
-3.4
 30
0.0
 40
0.5
  1
1.94
100
AcDbAttributeDefinition
  3

  2
A
 70
     8
280
     0
  0
ATTDEF
  5
146
330
138
100
AcDbEntity
  8
AM_6
100
AcDbText
 10
7.500000000000002
 20
-3.9
 30
0.0
 40
0.5
  1
5.00
100
AcDbAttributeDefinition
  3

  2
B
 70
     8
280
     0
  0
ATTDEF
  5
147
330
138
100
AcDbEntity
  8
AM_6
100
AcDbText
 10
7.500000000000002
 20
-4.4
 30
0.0
 40
0.5
  1
2.00
100
AcDbAttributeDefinition
  3

  2
C
 70
     8
280
     0
  0
ATTDEF
  5
148
330
138
100
AcDbEntity
  8
AM_6
100
AcDbText
 10
7.500000000000002
 20
-4.9
 30
0.0
 40
0.5
  1
3.75
100
AcDbAttributeDefinition
  3

  2
D
 70
     8
280
     0
  0
ATTDEF
  5
149
330
138
100
AcDbEntity
  8
AM_6
100
AcDbText
 10
7.500000000000002
 20
-5.4
 30
0.0
 40
0.5
  1
4.25
100
AcDbAttributeDefinition
  3

  2
J
 70
     8
280
     0
  0
ATTDEF
  5
14A
330
138
100
AcDbEntity
  8
AM_6
100
AcDbText
 10
7.500000000000002
 20
-5.9
 30
0.0
 40
0.5
  1
2.22
100
AcDbAttributeDefinition
  3

  2
L
 70
     8
280
     0
  0
ATTDEF
  5
14B
330
138
100
AcDbEntity
  8
AM_6
100
AcDbText
 10
7.500000000000002
 20
-6.4
 30
0.0
 40
0.5
  1
2.13
100
AcDbAttributeDefinition
  3

  2
M
 70
     8
280
     0
  0
ATTDEF
  5
14C
330
138
100
AcDbEntity
  8
AM_6
100
AcDbText
 10
7.500000000000002
 20
-6.9
 30
0.0
 40
0.5
  1
0.75
100
AcDbAttributeDefinition
  3

  2
N
 70
     8
280
     0
  0
ATTDEF
  5
14D
330
138
100
AcDbEntity
  8
AM_6
100
AcDbText
 10
7.500000000000002
 20
-7.4
 30
0.0
 40
0.5
  1
1/2-13
100
AcDbAttributeDefinition
  3

  2
R
 70
     8
280
     0
  0
ATTDEF
  5
14E
330
138
100
AcDbEntity
  8
AM_6
100
AcDbText
 10
7.500000000000002
 20
-7.9
 30
0.0
 40
0.5
  1
1.19
100
AcDbAttributeDefinition
  3

  2
S
 70
     8
280
     0
  0
ATTDEF
  5
14F
330
138
100
AcDbEntity
  8
AM_6
100
AcDbText
 10
7.500000000000002
 20
-8.4
 30
0.0
 40
0.5
  1
baldor
100
AcDbAttributeDefinition
  3

  2
COMPANY
 70
     8
280
     0
  0
LINE
  5
150
330
138
100
AcDbEntity
  8
AM_9
100
AcDbLine
 10
1.25
 20
-0.7494117647058826
 30
0.0
 11
1.25
 21
0.7494117647058821
 31
0.0
  0
LINE
  5
151
330
138
100
AcDbEntity
  8
AM_9
100
AcDbLine
 10
1.1875
 20
-0.7494117647058826
 30
0.0
 11
1.1875
 21
0.7494117647058822
 31
0.0
  0
LINE
  5
152
330
138
100
AcDbEntity
  8
AM_9
100
AcDbLine
 10
-1.25
 20
-0.7494117647058826
 30
0.0
 11
-1.25
 21
0.7494117647058822
 31
0.0
  0
LINE
  5
153
330
138
100
AcDbEntity
  8
AM_9
100
AcDbLine
 10
-1.1875
 20
-0.7494117647058826
 30
0.0
 11
-1.1875
 21
0.7494117647058822
 31
0.0
  0
CIRCLE
  5
154
330
138
100
AcDbEntity
  8
AM_9
100
AcDbCircle
 10
-1.875
 20
-0.0000000000000001
 30
0.0
 40
0.2229500000000001
  0
CIRCLE
  5
155
330
138
100
AcDbEntity
  8
AM_9
100
AcDbCircle
 10
1.875
 20
-0.0000000000000001
 30
0.0
 40
0.2229500000000001
  0
LINE
  5
156
330
138
100
AcDbEntity
  8
AM_9
100
AcDbLine
 10
-1.449077006882312
 20
-0.1999999999999998
 30
0.0
 11
-1.757625
 21
-0.1999999999999999
 31
0.0
  0
LINE
  5
157
330
138
100
AcDbEntity
  8
AM_9
100
AcDbLine
 10
-1.545737445363863
 20
-0.1999999999999998
 30
0.0
 11
-1.545737445363863
 21
0.6509852941176469
 31
0.0
  0
LINE
  5
158
330
138
100
AcDbEntity
  8
AM_9
100
AcDbLine
 10
-1.757625
 20
0.2249242424242454
 30
0.0
 11
-1.757625
 21
-0.1999999999999999
 31
0.0
  0
LINE
  5
159
330
138
100
AcDbEntity
  8
AM_9
100
AcDbLine
 10
-1.757625
 20
0.7494117647058823
 30
0.0
 11
-1.757625
 21
0.2750757575757545
 31
0.0
  0
LINE
  5
15A
330
138
100
AcDbEntity
  8
AM_9
100
AcDbLine
 10
1.757625
 20
-0.1999999999999999
 30
0.0
 11
1.449077006882312
 21
-0.1999999999999998
 31
0.0
  0
LINE
  5
15B
330
138
100
AcDbEntity
  8
AM_9
100
AcDbLine
 10
1.545737445363862
 20
-0.1999999999999998
 30
0.0
 11
1.545737445363862
 21
0.6509852941176468
 31
0.0
  0
LINE
  5
15C
330
138
100
AcDbEntity
  8
AM_9
100
AcDbLine
 10
1.757625
 20
-0.1999999999999999
 30
0.0
 11
1.757625
 21
0.7494117647058829
 31
0.0
  0
LINE
  5
15D
330
138
100
AcDbEntity
  8
AM_9
100
AcDbLine
 10
0.8044848972406002
 20
-0.7494117647058827
 30
0.0
 11
1.110000000000001
 21
-0.7494117647058827
 31
0.0
  0
LINE
  5
15E
330
138
100
AcDbEntity
  8
AM_9
100
AcDbLine
 10
-1.110000000000001
 20
-0.7494117647058827
 30
0.0
 11
0.80347022986392
 21
-0.7494117647058827
 31
0.0
  0
LINE
  5
15F
330
138
100
AcDbEntity
  8
AM_9
100
AcDbLine
 10
-1.449077006882312
 20
-0.1999999999999998
 30
0.0
 11
-1.449077006882312
 21
0.6509852941176472
 31
0.0
  0
LINE
  5
160
330
138
100
AcDbEntity
  8
AM_9
100
AcDbLine
 10
1.449077006882312
 20
0.6509852941176472
 30
0.0
 11
1.449077006882312
 21
-0.1999999999999998
 31
0.0
  0
LINE
  5
161
330
138
100
AcDbEntity
  8
AM_9
100
AcDbLine
 10
1.066188235294118
 20
0.7494117647058823
 30
0.0
 11
-1.066188235294118
 21
0.7494117647058823
 31
0.0
  0
LINE
  5
162
330
138
100
AcDbEntity
  8
AM_9
100
AcDbLine
 10
1.67325
 20
-0.7494117647058823
 30
0.0
 11
1.67325
 21
-0.1999999999999999
 31
0.0
  0
LINE
  5
163
330
138
100
AcDbEntity
  8
AM_9
100
AcDbLine
 10
-1.67325
 20
-0.1999999999999999
 30
0.0
 11
-1.67325
 21
-0.7494117647058829
 31
0.0
  0
LINE
  5
164
330
138
100
AcDbEntity
  8
AM_7
100
AcDbLine
 10
1.6125
 20
-0.0000000000000001
 30
0.0
 11
2.1375
 21
-0.0000000000000001
 31
0.0
  0
LINE
  5
165
330
138
100
AcDbEntity
  8
AM_7
100
AcDbLine
 10
1.875
 20
-0.2625000000000002
 30
0.0
 11
1.875
 21
0.2625
 31
0.0
  0
LINE
  5
166
330
138
100
AcDbEntity
  8
AM_7
100
AcDbLine
 10
-2.1375
 20
-0.0000000000000001
 30
0.0
 11
-1.6125
 21
-0.0000000000000001
 31
0.0
  0
LINE
  5
167
330
138
100
AcDbEntity
  8
AM_7
100
AcDbLine
 10
-1.875
 20
-0.2625000000000002
 30
0.0
 11
-1.875
 21
0.2625
 31
0.0
  0
LINE
  5
168
330
138
100
AcDbEntity
  8
AM_7
100
AcDbLine
 10
0.0
 20
1.1
 30
0.0
 11
0.0
 21
-1.287
 31
0.0
  0
LINE
  5
169
330
138
100
AcDbEntity
  8
AM_4
100
AcDbLine
 10
2.349999999999999
 20
-1.0
 30
0.0
 11
1.375
 21
-1.0
 31
0.0
  0
LWPOLYLINE
  5
16A
330
138
100
AcDbEntity
  8
AM_4
100
AcDbPolyline
 90
       12
 70
     0
 43
0.0
 10
1.25
 20
-0.8750000000000001
 10
1.250000429492436
 20
-0.8753276780819805
 10
1.252779137109234
 20
-0.9012118422518629
 10
1.261153008633882
 20
-0.9266126201319301
 10
1.267721227359741
 20
-0.9391582330292799
 10
1.275910249456658
 20
-0.9511985651915986
 10
1.290425864730801
 20
-0.9670446394064711
 10
1.309068624089143
 20
-0.981198181107326
 10
1.323337583487467
 20
-0.9888194991829714
 10
1.339189350072286
 20
-0.9947605834644886
 10
1.356297022224017
 20
-0.9985928744803323
 10
1.375
 20
-1.0
  0
LINE
  5
16B
330
138
100
AcDbEntity
  8
AM_4
100
AcDbLine
 10
1.25
 20
-0.8750000000000001
 30
0.0
 11
1.25
 21
-0.7494117647058827
 31
0.0
  0
ARC
  5
16C
330
138
100
AcDbEntity
  8
AM_4
100
AcDbCircle
 10
2.349999999999999
 20
-0.8499999999999992
 30
0.0
 40
0.150000000000001
100
AcDbArc
 50
270.0
 51
339.3326835064872
  0
LINE
  5
16D
330
138
100
AcDbEntity
  8
AM_4
100
AcDbLine
 10
1.4
 20
-1.0
 30
0.0
 11
1.4
 21
-0.7494117647058828
 31
0.0
  0
LWPOLYLINE
  5
16E
330
138
100
AcDbEntity
  8
AM_4
100
AcDbPolyline
 90
       12
 70
     0
 43
0.0
 10
1.375
 20
0.9999999999999999
 10
1.356602686799376
 20
0.9986249397550429
 10
1.339189350072285
 20
0.9947605834644881
 10
1.323337583487467
 20
0.9888194991829711
 10
1.309068624089143
 20
0.9811981811073258
 10
1.290647194570542
 20
0.9672434430589527
 10
1.275910249456658
 20
0.9511985651915983
 10
1.265484656705646
 20
0.9352634475074988
 10
1.257803508206049
 20
0.9184735395047182
 10
1.252779137109234
 20
0.901211842251863
 10
1.250000429492436
 20
0.8753276780819805
 10
1.25
 20
0.875
  0
LINE
  5
16F
330
138
100
AcDbEntity
  8
AM_4
100
AcDbLine
 10
2.350000000000001
 20
0.9999999999999999
 30
0.0
 11
1.375
 21
0.9999999999999999
 31
0.0
  0
LINE
  5
170
330
138
100
AcDbEntity
  8
AM_4
100
AcDbLine
 10
1.25
 20
0.7494117647058822
 30
0.0
 11
1.25
 21
0.875
 31
0.0
  0
LWPOLYLINE
  5
171
330
138
100
AcDbEntity
  8
AM_4
100
AcDbPolyline
 90
       12
 70
     0
 43
0.0
 10
-1.25
 20
0.8749999999999931
 10
-1.250000429492436
 20
0.8753276780819805
 10
-1.252779137109234
 20
0.9012118422518632
 10
-1.257803508206049
 20
0.9184735395047187
 10
-1.265484656705646
 20
0.9352634475074988
 10
-1.275910249456658
 20
0.9511985651915986
 10
-1.290647194570543
 20
0.9672434430589528
 10
-1.309068624089144
 20
0.9811981811073259
 10
-1.323337583487467
 20
0.9888194991829713
 10
-1.339189350072286
 20
0.9947605834644885
 10
-1.356602686799377
 20
0.9986249397550431
 10
-1.375
 20
1.0
  0
LINE
  5
172
330
138
100
AcDbEntity
  8
AM_4
100
AcDbLine
 10
-1.375000000000001
 20
0.9999999999999999
 30
0.0
 11
-2.35
 21
0.9999999999999999
 31
0.0
  0
LINE
  5
173
330
138
100
AcDbEntity
  8
AM_4
100
AcDbLine
 10
-1.25
 20
0.7494117647058822
 30
0.0
 11
-1.25
 21
0.8749999999999931
 31
0.0
  0
ARC
  5
174
330
138
100
AcDbEntity
  8
AM_4
100
AcDbCircle
 10
2.35
 20
0.8499999999999999
 30
0.0
 40
0.1499999999999999
100
AcDbArc
 50
20.66731649351269
 51
90.0
  0
LINE
  5
175
330
138
100
AcDbEntity
  8
AM_4
100
AcDbLine
 10
1.4
 20
0.7494117647058823
 30
0.0
 11
1.4
 21
0.9999999999999999
 31
0.0
  0
ARC
  5
176
330
138
100
AcDbEntity
  8
AM_4
100
AcDbCircle
 10
-2.35
 20
-0.8500000000000001
 30
0.0
 40
0.1499999999999999
100
AcDbArc
 50
200.6673164935127
 51
270.0
  0
LINE
  5
177
330
138
100
AcDbEntity
  8
AM_4
100
AcDbLine
 10
-1.375
 20
-1.0
 30
0.0
 11
-2.350000000000001
 21
-1.0
 31
0.0
  0
LWPOLYLINE
  5
178
330
138
100
AcDbEntity
  8
AM_4
100
AcDbPolyline
 90
       12
 70
     0
 43
0.0
 10
-1.375
 20
-1.0
 10
-1.35689813764908
 20
-0.998682345463807
 10
-1.339189350072285
 20
-0.9947605834644885
 10
-1.323493963294393
 20
-0.9888952509232968
 10
-1.309068624089143
 20
-0.9811981811073259
 10
-1.290862763777024
 20
-0.9674441749422814
 10
-1.275910249456658
 20
-0.9511985651915987
 10
-1.267943751361911
 20
-0.9395287503949961
 10
-1.261461678889088
 20
-0.9272881405226419
 10
-1.252779137109234
 20
-0.901211842251863
 10
-1.250000429492436
 20
-0.8753276780819804
 10
-1.25
 20
-0.875
  0
LINE
  5
179
330
138
100
AcDbEntity
  8
AM_4
100
AcDbLine
 10
-1.25
 20
-0.8749999981373547
 30
0.0
 11
-1.25
 21
-0.7494117647058827
 31
0.0
  0
LINE
  5
17A
330
138
100
AcDbEntity
  8
AM_4
100
AcDbLine
 10
-1.399999999999999
 20
-1.0
 30
0.0
 11
-1.399999999999999
 21
-0.7494117647058827
 31
0.0
  0
ARC
  5
17B
330
138
100
AcDbEntity
  8
AM_4
100
AcDbCircle
 10
-2.35
 20
0.8499999999999995
 30
0.0
 40
0.1500000000000004
100
AcDbArc
 50
90.0
 51
159.3326835064872
  0
LINE
  5
17C
330
138
100
AcDbEntity
  8
AM_4
100
AcDbLine
 10
-1.399999999999999
 20
0.7494117647058822
 30
0.0
 11
-1.399999999999999
 21
0.9999999999999999
 31
0.0
  0
LINE
  5
17D
330
138
100
AcDbEntity
  8
AM_4
100
AcDbLine
 10
-1.545737445363863
 20
0.6509852941176468
 30
0.0
 11
-1.545737445363863
 21
0.7494117647058823
 31
0.0
  0
LINE
  5
17E
330
138
100
AcDbEntity
  8
AM_4
100
AcDbLine
 10
1.066188235294118
 20
0.7494117647058823
 30
0.0
 11
1.757625
 21
0.7494117647058829
 31
0.0
  0
LINE
  5
17F
330
138
100
AcDbEntity
  8
AM_4
100
AcDbLine
 10
1.545737445363862
 20
0.6509852941176468
 30
0.0
 11
1.545737445363862
 21
0.7494117647058832
 31
0.0
  0
LINE
  5
180
330
138
100
AcDbEntity
  8
AM_4
100
AcDbLine
 10
1.110000000000001
 20
-0.7494117647058827
 30
0.0
 11
1.757625
 21
-0.7494117647058829
 31
0.0
  0
LINE
  5
181
330
138
100
AcDbEntity
  8
AM_4
100
AcDbLine
 10
-1.757625
 20
-0.7494117647058829
 30
0.0
 11
-1.110000000000001
 21
-0.7494117647058827
 31
0.0
  0
LINE
  5
182
330
138
100
AcDbEntity
  8
AM_4
100
AcDbLine
 10
1.449077006882312
 20
0.6509852941176472
 30
0.0
 11
1.449077006882312
 21
0.7494117647058829
 31
0.0
  0
LINE
  5
183
330
138
100
AcDbEntity
  8
AM_4
100
AcDbLine
 10
-1.066188235294118
 20
0.7494117647058823
 30
0.0
 11
-1.757625
 21
0.7494117647058829
 31
0.0
  0
LINE
  5
184
330
138
100
AcDbEntity
  8
AM_4
100
AcDbLine
 10
-1.449077006882312
 20
0.7494117647058829
 30
0.0
 11
-1.449077006882312
 21
0.6509852941176472
 31
0.0
  0
LINE
  5
185
330
138
100
AcDbEntity
  8
AM_4
100
AcDbLine
 10
-2.490346826946355
 20
0.9029411764705881
 30
0.0
 11
-1.757625
 21
0.9029411764705881
 31
0.0
  0
LWPOLYLINE
  5
186
330
138
100
AcDbEntity
  8
AM_4
100
AcDbPolyline
 90
        6
 70
     0
 43
0.0
 10
-2.490346826946355
 20
0.9029411764705882
 10
-2.494426892455187
 20
0.8905076873659529
 10
-2.497407782105094
 20
0.8777659103012523
 10
-2.499266809525928
 20
0.8648128178936441
 10
-2.499989826396507
 20
0.8517469909976413
 10
-2.5
 20
0.8500000000305136
  0
LWPOLYLINE
  5
187
330
138
100
AcDbEntity
  8
AM_4
100
AcDbPolyline
 90
        6
 70
     0
 43
0.0
 10
2.5
 20
0.8499999999999991
 10
2.499429204713762
 20
0.8630733614121479
 10
2.497721162951831
 20
0.8760472266500385
 10
2.494888873943361
 20
0.8888228567653772
 10
2.490953893117887
 20
0.9013030214988493
 10
2.490346826946355
 20
0.9029411764705882
  0
LINE
  5
188
330
138
100
AcDbEntity
  8
AM_4
100
AcDbLine
 10
1.757625
 20
0.9029411764705881
 30
0.0
 11
2.490346826946355
 21
0.9029411764705881
 31
0.0
  0
LINE
  5
189
330
138
100
AcDbEntity
  8
AM_4
100
AcDbLine
 10
1.757625
 20
0.9029411764705881
 30
0.0
 11
1.757625
 21
0.7494117647058829
 31
0.0
  0
LWPOLYLINE
  5
18A
330
138
100
AcDbEntity
  8
AM_4
100
AcDbPolyline
 90
        7
 70
     0
 43
0.0
 10
1.545737445363862
 20
0.6509852941176469
 10
1.612772120989618
 20
0.6672092359826527
 10
1.667532626956211
 20
0.684058788726486
 10
1.709602202747938
 20
0.7014057170787285
 10
1.73866067349072
 20
0.7191180004402575
 10
1.754486886676219
 20
0.7370608376397231
 10
1.757625
 20
0.7494117647058823
  0
LINE
  5
18B
330
138
100
AcDbEntity
  8
AM_4
100
AcDbLine
 10
1.449077006882312
 20
0.6509852941176472
 30
0.0
 11
1.545737445363862
 21
0.6509852941176468
 31
0.0
  0
LWPOLYLINE
  5
18C
330
138
100
AcDbEntity
  8
AM_4
100
AcDbPolyline
 90
       25
 70
     0
 43
0.0
 10
1.449077006882312
 20
0.6509852941176472
 10
1.370646158106556
 20
0.6365015562206602
 10
1.28178386444883
 20
0.622877133187294
 10
1.183166421620391
 20
0.6102157151034835
 10
1.075544367908002
 20
0.59861366300602
 10
0.9597367721243886
 20
0.5881592755168759
 10
0.8366250000000006
 20
0.5789321168373751
 10
0.7071460064576262
 20
0.5710024112165796
 10
0.5722852048196764
 20
0.5644305085023505
 10
0.4330689672177941
 20
0.5592664248425667
 10
0.2905568132811926
 20
0.555549462032038
 10
0.1458333465525206
 20
0.5533079084021162
 10
0.0000000000000017
 20
0.5525588235294119
 10
-0.1458333465525172
 20
0.5533079084021161
 10
-0.2905568132811893
 20
0.5555494620320379
 10
-0.4330689672177908
 20
0.5592664248425666
 10
-0.572285204819673
 20
0.5644305085023504
 10
-0.7071460064576232
 20
0.5710024112165794
 10
-0.8366249999999976
 20
0.5789321168373749
 10
-0.9597367721243858
 20
0.5881592755168756
 10
-1.075544367908
 20
0.5986136630060198
 10
-1.183166421620389
 20
0.6102157151034833
 10
-1.281783864448828
 20
0.6228771331872937
 10
-1.370646158106554
 20
0.63650155622066
 10
-1.44907700688231
 20
0.6509852941176467
  0
LINE
  5
18D
330
138
100
AcDbEntity
  8
AM_4
100
AcDbLine
 10
-1.545737445363863
 20
0.6509852941176469
 30
0.0
 11
-1.449077006882312
 21
0.6509852941176472
 31
0.0
  0
LWPOLYLINE
  5
18E
330
138
100
AcDbEntity
  8
AM_4
100
AcDbPolyline
 90
        7
 70
     0
 43
0.0
 10
-1.757625
 20
0.7494117647058823
 10
-1.750936706233505
 20
0.7313897514886056
 10
-1.730922726888083
 20
0.7135048966739015
 10
-1.697735380431324
 20
0.6958933148060804
 10
-1.651627242608833
 20
0.6786890406573204
 10
-1.592949224190293
 20
0.6620230091421182
 10
-1.545737445363863
 20
0.6509852941176472
  0
LINE
  5
18F
330
138
100
AcDbEntity
  8
AM_4
100
AcDbLine
 10
-1.757625
 20
0.9029411764705881
 30
0.0
 11
-1.757625
 21
0.7494117647058829
 31
0.0
  0
LWPOLYLINE
  5
190
330
138
100
AcDbEntity
  8
AM_4
100
AcDbPolyline
 90
       37
 70
     0
 43
0.0
 10
2.5
 20
0.7941176470588234
 10
2.490486745229364
 20
0.7684836050742181
 10
2.462019382530521
 20
0.7430446536273734
 10
2.414814565722672
 20
0.7179943984992586
 10
2.349231551964772
 20
0.6935234872571563
 10
2.265769467591626
 20
0.6698181583115591
 10
2.165063509461098
 20
0.6470588235294119
 10
2.047880110722481
 20
0.6254186951908689
 10
1.915111107797447
 20
0.6050624677392532
 10
1.767766952966371
 20
0.586145064356898
 10
1.606969024216351
 20
0.568810457906183
 10
1.433941090877618
 20
0.5531905752091202
 10
1.250000000000003
 20
0.539404293004577
 10
1.056545654351752
 20
0.5275565332245148
 10
0.8550503583141755
 20
0.5177374644747329
 10
0.647047612756306
 20
0.5100218157973329
 10
0.4341204441673301
 20
0.5044683079375858
 10
0.21788935686915
 20
0.5011192064436042
 10
0.0000000000000047
 20
0.4999999999999999
 10
-0.2178893568691405
 20
0.5011192064436042
 10
-0.4341204441673208
 20
0.5044683079375857
 10
-0.6470476127562967
 20
0.5100218157973326
 10
-0.8550503583141665
 20
0.5177374644747326
 10
-1.056545654351744
 20
0.5275565332245143
 10
-1.249999999999995
 20
0.5394042930045764
 10
-1.43394109087761
 20
0.5531905752091195
 10
-1.606969024216343
 20
0.5688104579061823
 10
-1.767766952966364
 20
0.5861450643568971
 10
-1.915111107797441
 20
0.6050624677392523
 10
-2.047880110722476
 20
0.6254186951908679
 10
-2.165063509461093
 20
0.6470588235294108
 10
-2.265769467591622
 20
0.669818158311558
 10
-2.349231551964769
 20
0.6935234872571552
 10
-2.414814565722669
 20
0.7179943984992575
 10
-2.462019382530519
 20
0.7430446536273723
 10
-2.490486745229364
 20
0.768483605074217
 10
-2.5
 20
0.7941176470588223
  0
LINE
  5
191
330
138
100
AcDbEntity
  8
AM_4
100
AcDbLine
 10
2.490346826946355
 20
-0.9029411764705884
 30
0.0
 11
1.757625
 21
-0.9029411764705884
 31
0.0
  0
LWPOLYLINE
  5
192
330
138
100
AcDbEntity
  8
AM_4
100
AcDbPolyline
 90
        6
 70
     0
 43
0.0
 10
2.490346826946355
 20
-0.9029411764705884
 10
2.494426892455187
 20
-0.8905076873659529
 10
2.497407782105094
 20
-0.8777659103012523
 10
2.499266809525928
 20
-0.8648128178936441
 10
2.499989826396507
 20
-0.8517469909976412
 10
2.5
 20
-0.8499999999999993
  0
LINE
  5
193
330
138
100
AcDbEntity
  8
AM_4
100
AcDbLine
 10
2.5
 20
0.85
 30
0.0
 11
2.5
 21
-0.8499999999999991
 31
0.0
  0
LWPOLYLINE
  5
194
330
138
100
AcDbEntity
  8
AM_4
100
AcDbPolyline
 90
       37
 70
     0
 43
0.0
 10
-2.5
 20
-0.7941176470588237
 10
-2.490486745229364
 20
-0.7684836050742184
 10
-2.462019382530521
 20
-0.7430446536273736
 10
-2.414814565722672
 20
-0.7179943984992588
 10
-2.349231551964772
 20
-0.6935234872571565
 10
-2.265769467591626
 20
-0.6698181583115592
 10
-2.165063509461098
 20
-0.647058823529412
 10
-2.047880110722482
 20
-0.625418695190869
 10
-1.915111107797447
 20
-0.6050624677392532
 10
-1.767766952966371
 20
-0.586145064356898
 10
-1.606969024216351
 20
-0.568810457906183
 10
-1.433941090877618
 20
-0.5531905752091202
 10
-1.250000000000003
 20
-0.539404293004577
 10
-1.056545654351752
 20
-0.5275565332245148
 10
-0.8550503583141755
 20
-0.5177374644747329
 10
-0.6470476127563057
 20
-0.5100218157973329
 10
-0.43412044416733
 20
-0.5044683079375858
 10
-0.2178893568691498
 20
-0.5011192064436042
 10
-0.0000000000000045
 20
-0.4999999999999998
 10
0.2178893568691408
 20
-0.5011192064436041
 10
0.4341204441673211
 20
-0.5044683079375857
 10
0.6470476127562972
 20
-0.5100218157973325
 10
0.8550503583141671
 20
-0.5177374644747325
 10
1.056545654351744
 20
-0.5275565332245143
 10
1.249999999999995
 20
-0.5394042930045764
 10
1.433941090877611
 20
-0.5531905752091195
 10
1.606969024216344
 20
-0.5688104579061823
 10
1.767766952966365
 20
-0.5861450643568972
 10
1.915111107797442
 20
-0.6050624677392524
 10
2.047880110722477
 20
-0.6254186951908679
 10
2.165063509461094
 20
-0.6470588235294109
 10
2.265769467591623
 20
-0.6698181583115581
 10
2.34923155196477
 20
-0.6935234872571553
 10
2.41481456572267
 20
-0.7179943984992576
 10
2.462019382530521
 20
-0.7430446536273724
 10
2.490486745229365
 20
-0.7684836050742172
 10
2.500000000000002
 20
-0.7941176470588226
  0
LINE
  5
195
330
138
100
AcDbEntity
  8
AM_4
100
AcDbLine
 10
-2.5
 20
0.8500000022351738
 30
0.0
 11
-2.5
 21
-0.8500000000000003
 31
0.0
  0
LWPOLYLINE
  5
196
330
138
100
AcDbEntity
  8
AM_4
100
AcDbPolyline
 90
        6
 70
     0
 43
0.0
 10
-2.5
 20
-0.8500000000000005
 10
-2.499429204713762
 20
-0.8630733614121491
 10
-2.497721162951831
 20
-0.87604722665004
 10
-2.49488887394336
 20
-0.8888228567653785
 10
-2.490953893117887
 20
-0.9013030214988507
 10
-2.490346826946355
 20
-0.9029411764705884
  0
LINE
  5
197
330
138
100
AcDbEntity
  8
AM_4
100
AcDbLine
 10
-1.757625
 20
-0.9029411764705884
 30
0.0
 11
-2.490346826946355
 21
-0.9029411764705884
 31
0.0
  0
LINE
  5
198
330
138
100
AcDbEntity
  8
AM_4
100
AcDbLine
 10
-1.757625
 20
-0.7494117647058829
 30
0.0
 11
-1.757625
 21
-0.9029411764705884
 31
0.0
  0
LWPOLYLINE
  5
199
330
138
100
AcDbEntity
  8
AM_4
100
AcDbPolyline
 90
       37
 70
     0
 43
0.0
 10
-1.67325
 20
-0.7494117647058823
 10
-1.666882778582014
 20
-0.7322549004055862
 10
-1.647829572727677
 20
-0.715228610202213
 10
-1.616235388838184
 20
-0.6984624744449657
 10
-1.572340677730022
 20
-0.6820840935506265
 10
-1.516479504659075
 20
-0.6662181168873382
 10
-1.449077006882313
 20
-0.6509852941176472
 10
-1.370646158106557
 20
-0.6365015562206603
 10
-1.281783864448831
 20
-0.622877133187294
 10
-1.183166421620392
 20
-0.6102157151034835
 10
-1.075544367908004
 20
-0.59861366300602
 10
-0.9597367721243899
 20
-0.5881592755168759
 10
-0.8366250000000022
 20
-0.5789321168373751
 10
-0.7071460064576278
 20
-0.5710024112165795
 10
-0.5722852048196779
 20
-0.5644305085023504
 10
-0.4330689672177956
 20
-0.5592664248425666
 10
-0.2905568132811943
 20
-0.5555494620320379
 10
-0.1458333465525223
 20
-0.553307908402116
 10
-0.0000000000000034
 20
-0.5525588235294115
 10
0.1458333465525155
 20
-0.553307908402116
 10
0.2905568132811876
 20
-0.5555494620320378
 10
0.4330689672177892
 20
-0.5592664248425664
 10
0.5722852048196715
 20
-0.5644305085023502
 10
0.7071460064576216
 20
-0.5710024112165791
 10
0.8366249999999963
 20
-0.5789321168373747
 10
0.9597367721243844
 20
-0.5881592755168754
 10
1.075544367907999
 20
-0.5986136630060195
 10
1.183166421620387
 20
-0.6102157151034829
 10
1.281783864448827
 20
-0.6228771331872934
 10
1.370646158106553
 20
-0.6365015562206596
 10
1.44907700688231
 20
-0.6509852941176464
 10
1.516479504659073
 20
-0.6662181168873376
 10
1.57234067773002
 20
-0.6820840935506258
 10
1.616235388838182
 20
-0.6984624744449648
 10
1.647829572727676
 20
-0.7152286102022121
 10
1.666882778582013
 20
-0.7322549004055853
 10
1.67325
 20
-0.7494117647058816
  0
LINE
  5
19A
330
138
100
AcDbEntity
  8
AM_4
100
AcDbLine
 10
1.757625
 20
-0.7494117647058829
 30
0.0
 11
1.757625
 21
-0.9029411764705884
 31
0.0
  0
ARC
  5
19B
330
138
100
AcDbEntity
  8
AM_5
100
AcDbCircle
 10
1.875
 20
-0.0000000000000002
 30
0.0
 40
0.25
100
AcDbArc
 50
75.00000000000006
 51
15.00000000000002
  0
ARC
  5
19C
330
138
100
AcDbEntity
  8
AM_5
100
AcDbCircle
 10
-1.875
 20
-0.0000000000000001
 30
0.0
 40
0.2500000000000001
100
AcDbArc
 50
75.00000000000001
 51
15.00000000000002
  0
ENDBLK
  5
13B
330
138
100
AcDbEntity
  8
0
100
AcDbBlockEnd
  0
ENDSEC
  0
SECTION
  2
ENTITIES
  0
INSERT
  5
6F
330
1F
100
AcDbEntity
  8
0
100
AcDbBlockReference
  2
1_054548_4
 10
0.0
 20
0.0
 30
0.0
  0
POINT
  5
19E
330
1F
100
AcDbEntity
  8
ConnectionPoints
100
AcDbPoint
 10
0.0
 20
0.75
 30
0.0
  0
POINT
  5
19F
330
1F
100
AcDbEntity
  8
ConnectionPoints
100
AcDbPoint
 10
0.0
 20
-1.19
 30
0.0000000000000001
  0
POINT
  5
1A0
330
1F
100
AcDbEntity
  8
ConnectionPoints
100
AcDbPoint
 10
1.767766952966369
 20
0.0000000000000001
 30
1.387766952966369
  0
POINT
  5
1A1
330
1F
100
AcDbEntity
  8
ConnectionPoints
100
AcDbPoint
 10
0.0
 20
-1.19
 30
0.0000000000000001
  0
ENDSEC
  0
SECTION
  2
OBJECTS
  0
DICTIONARY
  5
C
330
0
100
AcDbDictionary
281
     1
  3
ACAD_DETAILVIEWSTYLE
350
1A9
  3
ACAD_GROUP
350
D
  3
ACAD_LAYOUT
350
1A
  3
ACAD_MATERIAL
350
43
  3
ACAD_MLEADERSTYLE
350
6B
  3
ACAD_MLINESTYLE
350
17
  3
ACAD_PLOTSETTINGS
350
19
  3
ACAD_PLOTSTYLENAME
350
E
  3
ACAD_SCALELIST
350
47
  3
ACAD_SECTIONVIEWSTYLE
350
1AA
  3
ACAD_TABLESTYLE
350
69
  3
ACAD_VISUALSTYLE
350
2A
  3
ACDB_RECOMPOSE_DATA
350
1A6
  3
AcDbVariableDictionary
350
1A2
  0
SUN
  5
6D
330
29
100
AcDbSun
 90
        1
290
     0
 63
     7
421
 16777215
 40
1.0
291
     1
 91
  2455826
 92
 54000000
292
     0
 70
     2
 71
   256
280
     1
  0
DICTIONARY
  5
1A9
102
{ACAD_REACTORS
330
C
102
}
330
C
100
AcDbDictionary
281
     1
  0
DICTIONARY
  5
D
102
{ACAD_REACTORS
330
C
102
}
330
C
100
AcDbDictionary
281
     1
  0
DICTIONARY
  5
1A
102
{ACAD_REACTORS
330
C
102
}
330
C
100
AcDbDictionary
281
     1
  3
Layout1
350
1E
  3
Layout2
350
26
  3
Model
350
22
  0
DICTIONARY
  5
43
102
{ACAD_REACTORS
330
C
102
}
330
C
100
AcDbDictionary
281
     1
  3
ByBlock
350
45
  3
ByLayer
350
44
  3
Global
350
46
  0
DICTIONARY
  5
6B
102
{ACAD_REACTORS
330
C
102
}
330
C
100
AcDbDictionary
281
     1
  3
Standard
350
6C
  0
DICTIONARY
  5
17
102
{ACAD_REACTORS
330
C
102
}
330
C
100
AcDbDictionary
281
     1
  3
Standard
350
18
  0
DICTIONARY
  5
19
102
{ACAD_REACTORS
330
C
102
}
330
C
100
AcDbDictionary
281
     1
  0
ACDBDICTIONARYWDFLT
  5
E
102
{ACAD_REACTORS
330
C
102
}
330
C
100
AcDbDictionary
281
     1
  3
Normal
350
F
100
AcDbDictionaryWithDefault
340
F
  0
DICTIONARY
  5
47
102
{ACAD_REACTORS
330
C
102
}
330
C
100
AcDbDictionary
281
     1
  3
A0
350
48
  3
A1
350
49
  3
A2
350
4A
  3
A3
350
4B
  3
A4
350
4C
  3
A5
350
4D
  3
A6
350
4E
  3
A7
350
4F
  3
A8
350
50
  3
A9
350
51
  3
B0
350
52
  3
B1
350
53
  3
B2
350
54
  3
B3
350
55
  3
B4
350
56
  3
B5
350
57
  3
B6
350
58
  3
B7
350
59
  3
B8
350
5A
  3
B9
350
5B
  3
C0
350
5C
  3
C1
350
5D
  3
C2
350
5E
  3
C3
350
5F
  3
C4
350
60
  3
C5
350
61
  3
C6
350
62
  3
C7
350
63
  3
C8
350
64
  3
C9
350
65
  3
D0
350
66
  3
D1
350
67
  3
D2
350
68
  0
DICTIONARY
  5
1AA
102
{ACAD_REACTORS
330
C
102
}
330
C
100
AcDbDictionary
281
     1
  0
DICTIONARY
  5
69
102
{ACAD_REACTORS
330
C
102
}
330
C
100
AcDbDictionary
281
     1
  3
Standard
350
6A
  0
DICTIONARY
  5
2A
102
{ACAD_REACTORS
330
C
102
}
330
C
100
AcDbDictionary
281
     1
  3
2dWireframe
350
2F
  3
Basic
350
32
  3
Brighten
350
36
  3
ColorChange
350
3A
  3
Conceptual
350
34
  3
Dim
350
35
  3
EdgeColorOff
350
3D
  3
Facepattern
350
39
  3
Flat
350
2B
  3
FlatWithEdges
350
2C
  3
Gouraud
350
2D
  3
GouraudWithEdges
350
2E
  3
Hidden
350
31
  3
JitterOff
350
3B
  3
Linepattern
350
38
  3
OverhangOff
350
3C
  3
Realistic
350
33
  3
Shaded
350
42
  3
Shaded with edges
350
41
  3
Shades of Gray
350
3E
  3
Sketchy
350
3F
  3
Thicken
350
37
  3
Wireframe
350
30
  3
X-Ray
350
40
  0
XRECORD
  5
1A6
102
{ACAD_REACTORS
330
C
102
}
330
C
100
AcDbXrecord
280
     1
 90
        1
330
6A
  0
DICTIONARY
  5
1A2
102
{ACAD_REACTORS
330
C
102
}
330
C
100
AcDbDictionary
281
     1
  3
CANNOSCALE
350
1A3
  3
CMLEADERSTYLE
350
1A8
  3
CTABLESTYLE
350
1A7
  0
LAYOUT
  5
1E
102
{ACAD_REACTORS
330
1A
102
}
330
1A
100
AcDbPlotSettings
  1

  2
none_device
  4

  6

 40
0.0
 41
0.0
 42
0.0
 43
0.0
 44
0.0
 45
0.0
 46
0.0
 47
0.0
 48
0.0
 49
0.0
140
0.0
141
0.0
142
1.0
143
1.0
 70
   688
 72
     0
 73
     0
 74
     5
  7

 75
    16
 76
     0
 77
     2
 78
   300
147
1.0
148
0.0
149
0.0
100
AcDbLayout
  1
Layout1
 70
     1
 71
     1
 10
0.0
 20
0.0
 11
12.0
 21
9.0
 12
0.0
 22
0.0
 32
0.0
 14
1.000000000000000E+20
 24
1.000000000000000E+20
 34
1.000000000000000E+20
 15
-1.000000000000000E+20
 25
-1.000000000000000E+20
 35
-1.000000000000000E+20
146
0.0
 13
0.0
 23
0.0
 33
0.0
 16
1.0
 26
0.0
 36
0.0
 17
0.0
 27
1.0
 37
0.0
 76
     0
330
1B
  0
LAYOUT
  5
26
102
{ACAD_REACTORS
330
1A
102
}
330
1A
100
AcDbPlotSettings
  1

  2
none_device
  4

  6

 40
0.0
 41
0.0
 42
0.0
 43
0.0
 44
0.0
 45
0.0
 46
0.0
 47
0.0
 48
0.0
 49
0.0
140
0.0
141
0.0
142
1.0
143
1.0
 70
   688
 72
     0
 73
     0
 74
     5
  7

 75
    16
 76
     0
 77
     2
 78
   300
147
1.0
148
0.0
149
0.0
100
AcDbLayout
  1
Layout2
 70
     1
 71
     2
 10
0.0
 20
0.0
 11
0.0
 21
0.0
 12
0.0
 22
0.0
 32
0.0
 14
0.0
 24
0.0
 34
0.0
 15
0.0
 25
0.0
 35
0.0
146
0.0
 13
0.0
 23
0.0
 33
0.0
 16
1.0
 26
0.0
 36
0.0
 17
0.0
 27
1.0
 37
0.0
 76
     0
330
23
  0
LAYOUT
  5
22
102
{ACAD_REACTORS
330
1A
102
}
330
1A
100
AcDbPlotSettings
  1

  2
none_device
  4
Letter_(8.50_x_11.00_Inches)
  6

 40
6.35
 41
6.35
 42
6.35000508
 43
6.35000508
 44
215.9
 45
279.4
 46
0.0
 47
0.0
 48
0.0
 49
0.0
140
0.0
141
0.0
142
1.0
143
1.0
 70
  1712
 72
     0
 73
     0
 74
     0
  7

 75
     0
 76
     0
 77
     2
 78
   300
147
1.0
148
0.0
149
0.0
100
AcDbLayout
  1
Model
 70
     1
 71
     0
 10
0.0
 20
0.0
 11
12.0
 21
9.0
 12
0.0
 22
0.0
 32
0.0
 14
1.000000000000000E+20
 24
1.000000000000000E+20
 34
1.000000000000000E+20
 15
-1.000000000000000E+20
 25
-1.000000000000000E+20
 35
-1.000000000000000E+20
146
0.0
 13
0.0
 23
0.0
 33
0.0
 16
1.0
 26
0.0
 36
0.0
 17
0.0
 27
1.0
 37
0.0
 76
     0
330
1F
331
29
  0
MATERIAL
  5
45
102
{ACAD_REACTORS
330
43
102
}
330
43
100
AcDbMaterial
  1
ByBlock
 72
     1
 94
      127
  0
MATERIAL
  5
44
102
{ACAD_REACTORS
330
43
102
}
330
43
100
AcDbMaterial
  1
ByLayer
 72
     1
 94
      127
  0
MATERIAL
  5
46
102
{ACAD_REACTORS
330
43
102
}
330
43
100
AcDbMaterial
  1
Global
 72
     1
 94
      127
  0
MLEADERSTYLE
  5
6C
102
{ACAD_REACTORS
330
6B
102
}
330
6B
100
AcDbMLeaderStyle
179
     2
170
     2
171
     1
172
     0
 90
        2
 40
0.0
 41
0.0
173
     1
 91
-1056964608
340
14
 92
       -2
290
     1
 42
0.09
291
     1
 43
0.36
  3
Standard
341
0
 44
0.18
300

342
11
174
     1
178
     6
175
     1
176
     0
 93
-1056964608
 45
0.18
292
     0
297
     0
 46
0.18
343
0
 94
-1056964608
 47
1.0
 49
1.0
140
1.0
293
     1
141
0.0
294
     1
177
     0
142
1.0
295
     0
296
     0
143
0.125
271
     0
272
     9
273
     9
298
     0
  0
MLINESTYLE
  5
18
102
{ACAD_REACTORS
330
17
102
}
330
17
100
AcDbMlineStyle
  2
Standard
 70
     0
  3

 62
   256
 51
90.0
 52
90.0
 71
     2
 49
0.5
 62
   256
  6
BYLAYER
 49
-0.5
 62
   256
  6
BYLAYER
  0
ACDBPLACEHOLDER
  5
F
102
{ACAD_REACTORS
330
E
102
}
330
E
  0
SCALE
  5
48
102
{ACAD_REACTORS
330
47
102
}
330
47
100
AcDbScale
 70
     0
300
1:1
140
1.0
141
1.0
290
     1
  0
SCALE
  5
49
102
{ACAD_REACTORS
330
47
102
}
330
47
100
AcDbScale
 70
     0
300
1:2
140
1.0
141
2.0
290
     0
  0
SCALE
  5
4A
102
{ACAD_REACTORS
330
47
102
}
330
47
100
AcDbScale
 70
     0
300
1:4
140
1.0
141
4.0
290
     0
  0
SCALE
  5
4B
102
{ACAD_REACTORS
330
47
102
}
330
47
100
AcDbScale
 70
     0
300
1:5
140
1.0
141
5.0
290
     0
  0
SCALE
  5
4C
102
{ACAD_REACTORS
330
47
102
}
330
47
100
AcDbScale
 70
     0
300
1:8
140
1.0
141
8.0
290
     0
  0
SCALE
  5
4D
102
{ACAD_REACTORS
330
47
102
}
330
47
100
AcDbScale
 70
     0
300
1:10
140
1.0
141
10.0
290
     0
  0
SCALE
  5
4E
102
{ACAD_REACTORS
330
47
102
}
330
47
100
AcDbScale
 70
     0
300
1:16
140
1.0
141
16.0
290
     0
  0
SCALE
  5
4F
102
{ACAD_REACTORS
330
47
102
}
330
47
100
AcDbScale
 70
     0
300
1:20
140
1.0
141
20.0
290
     0
  0
SCALE
  5
50
102
{ACAD_REACTORS
330
47
102
}
330
47
100
AcDbScale
 70
     0
300
1:30
140
1.0
141
30.0
290
     0
  0
SCALE
  5
51
102
{ACAD_REACTORS
330
47
102
}
330
47
100
AcDbScale
 70
     0
300
1:40
140
1.0
141
40.0
290
     0
  0
SCALE
  5
52
102
{ACAD_REACTORS
330
47
102
}
330
47
100
AcDbScale
 70
     0
300
1:50
140
1.0
141
50.0
290
     0
  0
SCALE
  5
53
102
{ACAD_REACTORS
330
47
102
}
330
47
100
AcDbScale
 70
     0
300
1:100
140
1.0
141
100.0
290
     0
  0
SCALE
  5
54
102
{ACAD_REACTORS
330
47
102
}
330
47
100
AcDbScale
 70
     0
300
2:1
140
2.0
141
1.0
290
     0
  0
SCALE
  5
55
102
{ACAD_REACTORS
330
47
102
}
330
47
100
AcDbScale
 70
     0
300
4:1
140
4.0
141
1.0
290
     0
  0
SCALE
  5
56
102
{ACAD_REACTORS
330
47
102
}
330
47
100
AcDbScale
 70
     0
300
8:1
140
8.0
141
1.0
290
     0
  0
SCALE
  5
57
102
{ACAD_REACTORS
330
47
102
}
330
47
100
AcDbScale
 70
     0
300
10:1
140
10.0
141
1.0
290
     0
  0
SCALE
  5
58
102
{ACAD_REACTORS
330
47
102
}
330
47
100
AcDbScale
 70
     0
300
100:1
140
100.0
141
1.0
290
     0
  0
SCALE
  5
59
102
{ACAD_REACTORS
330
47
102
}
330
47
100
AcDbScale
 70
     0
300
1/128" = 1'-0"
140
0.0078125
141
12.0
290
     0
  0
SCALE
  5
5A
102
{ACAD_REACTORS
330
47
102
}
330
47
100
AcDbScale
 70
     0
300
1/64" = 1'-0"
140
0.015625
141
12.0
290
     0
  0
SCALE
  5
5B
102
{ACAD_REACTORS
330
47
102
}
330
47
100
AcDbScale
 70
     0
300
1/32" = 1'-0"
140
0.03125
141
12.0
290
     0
  0
SCALE
  5
5C
102
{ACAD_REACTORS
330
47
102
}
330
47
100
AcDbScale
 70
     0
300
1/16" = 1'-0"
140
0.0625
141
12.0
290
     0
  0
SCALE
  5
5D
102
{ACAD_REACTORS
330
47
102
}
330
47
100
AcDbScale
 70
     0
300
3/32" = 1'-0"
140
0.09375
141
12.0
290
     0
  0
SCALE
  5
5E
102
{ACAD_REACTORS
330
47
102
}
330
47
100
AcDbScale
 70
     0
300
1/8" = 1'-0"
140
0.125
141
12.0
290
     0
  0
SCALE
  5
5F
102
{ACAD_REACTORS
330
47
102
}
330
47
100
AcDbScale
 70
     0
300
3/16" = 1'-0"
140
0.1875
141
12.0
290
     0
  0
SCALE
  5
60
102
{ACAD_REACTORS
330
47
102
}
330
47
100
AcDbScale
 70
     0
300
1/4" = 1'-0"
140
0.25
141
12.0
290
     0
  0
SCALE
  5
61
102
{ACAD_REACTORS
330
47
102
}
330
47
100
AcDbScale
 70
     0
300
3/8" = 1'-0"
140
0.375
141
12.0
290
     0
  0
SCALE
  5
62
102
{ACAD_REACTORS
330
47
102
}
330
47
100
AcDbScale
 70
     0
300
1/2" = 1'-0"
140
0.5
141
12.0
290
     0
  0
SCALE
  5
63
102
{ACAD_REACTORS
330
47
102
}
330
47
100
AcDbScale
 70
     0
300
3/4" = 1'-0"
140
0.75
141
12.0
290
     0
  0
SCALE
  5
64
102
{ACAD_REACTORS
330
47
102
}
330
47
100
AcDbScale
 70
     0
300
1" = 1'-0"
140
1.0
141
12.0
290
     0
  0
SCALE
  5
65
102
{ACAD_REACTORS
330
47
102
}
330
47
100
AcDbScale
 70
     0
300
1-1/2" = 1'-0"
140
1.5
141
12.0
290
     0
  0
SCALE
  5
66
102
{ACAD_REACTORS
330
47
102
}
330
47
100
AcDbScale
 70
     0
300
3" = 1'-0"
140
3.0
141
12.0
290
     0
  0
SCALE
  5
67
102
{ACAD_REACTORS
330
47
102
}
330
47
100
AcDbScale
 70
     0
300
6" = 1'-0"
140
6.0
141
12.0
290
     0
  0
SCALE
  5
68
102
{ACAD_REACTORS
330
47
102
}
330
47
100
AcDbScale
 70
     0
300
1'-0" = 1'-0"
140
12.0
141
12.0
290
     0
  0
TABLESTYLE
  5
6A
102
{ACAD_REACTORS
330
69
102
}
102
{ACAD_XDICTIONARY
360
1A4
102
}
330
69
100
AcDbTableStyle
  3
Standard
 70
     0
 71
     0
 40
0.06
 41
0.06
280
     0
281
     0
  7
Standard
140
0.18
170
     2
 62
     0
 63
   257
283
     0
 90
        4
 91
        0
  1

274
    -2
284
     1
 64
     0
275
    -2
285
     1
 65
     0
276
    -2
286
     1
 66
     0
277
    -2
287
     1
 67
     0
278
    -2
288
     1
 68
     0
279
    -2
289
     1
 69
     0
  7
Standard
140
0.25
170
     5
 62
     0
 63
   257
283
     0
 90
        4
 91
        0
  1

274
    -2
284
     1
 64
     0
275
    -2
285
     1
 65
     0
276
    -2
286
     1
 66
     0
277
    -2
287
     1
 67
     0
278
    -2
288
     1
 68
     0
279
    -2
289
     1
 69
     0
  7
Standard
140
0.18
170
     5
 62
     0
 63
   257
283
     0
 90
        4
 91
        0
  1

274
    -2
284
     1
 64
     0
275
    -2
285
     1
 65
     0
276
    -2
286
     1
 66
     0
277
    -2
287
     1
 67
     0
278
    -2
288
     1
 68
     0
279
    -2
289
     1
 69
     0
  0
VISUALSTYLE
  5
2F
102
{ACAD_REACTORS
330
2A
102
}
330
2A
100
AcDbVisualStyle
  2
2dWireframe
 70
     4
177
     3
291
     0
 70
    58
 90
        0
176
     1
 90
        2
176
     1
 90
        0
176
     1
 90
        0
176
     1
 40
0.6
176
     1
 40
30.0
176
     1
 62
     7
420
 16777215
176
     1
 90
        1
176
     1
 90
        4
176
     1
 62
     7
176
     1
 62
   257
176
     1
 90
        1
176
     1
 90
        1
176
     1
 40
1.0
176
     1
 90
        0
176
     1
 62
   257
176
     1
 40
1.0
176
     1
 90
        1
176
     1
 90
        6
176
     1
 90
        2
176
     1
 62
     7
176
     1
 90
        5
176
     1
 90
        0
176
     1
 90
        0
176
     1
290
     0
176
     1
 90
        1
176
     1
 40
0.0
176
     1
 90
        0
176
     1
290
     1
176
     1
290
     1
176
     1
290
     0
176
     1
290
     0
176
     1
290
     0
176
     1
290
     0
176
     1
290
     0
176
     1
290
     0
176
     1
290
     0
176
     1
 90
       50
176
     1
 40
0.0
176
     1
 40
1.0
176
     1
 90
        0
176
     1
 62
    18
420
        0
176
     1
 90
       50
176
     1
 90
        3
176
     1
 62
     5
420
      255
176
     1
290
     0
176
     1
 90
       50
176
     1
 90
       50
176
     1
 90
       50
176
     1
290
     0
176
     1
 90
       50
176
     1
 62
   256
176
     0
 40
1.0
176
     0
 90
        2
176
     1
  1
strokes_ogs.tif
176
     1
290
     0
176
     1
 40
1.0
176
     1
 40
1.0
176
     1
  0
VISUALSTYLE
  5
32
102
{ACAD_REACTORS
330
2A
102
}
330
2A
100
AcDbVisualStyle
  2
Basic
 70
     7
177
     3
291
     1
 70
    58
 90
        1
176
     1
 90
        0
176
     1
 90
        1
176
     1
 90
        0
176
     1
 40
0.6
176
     1
 40
30.0
176
     1
 62
     7
420
 16777215
176
     1
 90
        0
176
     1
 90
        4
176
     1
 62
     7
176
     1
 62
   257
176
     1
 90
        1
176
     1
 90
        1
176
     1
 40
1.0
176
     1
 90
        8
176
     1
 62
     7
176
     1
 40
1.0
176
     1
 90
        1
176
     1
 90
        6
176
     1
 90
        2
176
     1
 62
     7
176
     1
 90
        5
176
     1
 90
        0
176
     1
 90
        0
176
     1
290
     0
176
     1
 90
        1
176
     1
 40
0.0
176
     1
 90
        0
176
     1
290
     0
176
     1
290
     1
176
     1
290
     1
176
     1
290
     0
176
     1
290
     0
176
     1
290
     0
176
     1
290
     0
176
     1
290
     0
176
     1
290
     0
176
     1
 90
       50
176
     1
 40
0.0
176
     1
 40
1.0
176
     1
 90
        0
176
     1
 62
    18
420
        0
176
     1
 90
       50
176
     1
 90
        3
176
     1
 62
     5
420
      255
176
     1
290
     0
176
     1
 90
       50
176
     1
 90
       50
176
     1
 90
       50
176
     1
290
     0
176
     1
 90
       50
176
     1
 62
   256
176
     0
 40
1.0
176
     0
 90
        2
176
     1
  1
strokes_ogs.tif
176
     1
290
     0
176
     1
 40
1.0
176
     1
 40
1.0
176
     1
  0
VISUALSTYLE
  5
36
102
{ACAD_REACTORS
330
2A
102
}
330
2A
100
AcDbVisualStyle
  2
Brighten
 70
    12
177
     3
291
     1
 70
    58
 90
        2
176
     1
 90
        2
176
     1
 90
        0
176
     1
 90
        0
176
     1
 40
0.6
176
     1
 40
30.0
176
     1
 62
     7
420
 16777215
176
     1
 90
        1
176
     1
 90
        4
176
     1
 62
     7
176
     1
 62
   257
176
     1
 90
        1
176
     1
 90
        1
176
     1
 40
1.0
176
     1
 90
        8
176
     1
 62
     7
176
     1
 40
1.0
176
     1
 90
        1
176
     1
 90
        6
176
     1
 90
        2
176
     1
 62
     7
176
     1
 90
        5
176
     1
 90
        0
176
     1
 90
        0
176
     1
290
     0
176
     1
 90
        1
176
     1
 40
50.0
176
     1
 90
        0
176
     1
290
     0
176
     1
290
     1
176
     1
290
     1
176
     1
290
     0
176
     1
290
     0
176
     1
290
     0
176
     1
290
     0
176
     1
290
     0
176
     1
290
     0
176
     1
 90
       50
176
     1
 40
0.0
176
     1
 40
1.0
176
     1
 90
        0
176
     1
 62
    18
420
        0
176
     1
 90
       50
176
     1
 90
        3
176
     1
 62
     5
420
      255
176
     1
290
     0
176
     1
 90
       50
176
     1
 90
       50
176
     1
 90
       50
176
     1
290
     0
176
     1
 90
       50
176
     1
 62
   256
176
     0
 40
1.0
176
     0
 90
        2
176
     1
  1
strokes_ogs.tif
176
     1
290
     0
176
     1
 40
1.0
176
     1
 40
1.0
176
     1
  0
VISUALSTYLE
  5
3A
102
{ACAD_REACTORS
330
2A
102
}
330
2A
100
AcDbVisualStyle
  2
ColorChange
 70
    16
177
     3
291
     1
 70
    58
 90
        2
176
     1
 90
        2
176
     1
 90
        3
176
     1
 90
        0
176
     1
 40
0.6
176
     1
 40
30.0
176
     1
 62
     8
420
  8421504
176
     1
 90
        1
176
     1
 90
        4
176
     1
 62
     7
176
     1
 62
   257
176
     1
 90
        1
176
     1
 90
        1
176
     1
 40
1.0
176
     1
 90
        8
176
     1
 62
     8
420
  8421504
176
     1
 40
1.0
176
     1
 90
        1
176
     1
 90
        6
176
     1
 90
        2
176
     1
 62
     7
176
     1
 90
        5
176
     1
 90
        0
176
     1
 90
        0
176
     1
290
     0
176
     1
 90
        1
176
     1
 40
0.0
176
     1
 90
        0
176
     1
290
     0
176
     1
290
     1
176
     1
290
     1
176
     1
290
     0
176
     1
290
     0
176
     1
290
     0
176
     1
290
     0
176
     1
290
     0
176
     1
290
     0
176
     1
 90
       50
176
     1
 40
0.0
176
     1
 40
1.0
176
     1
 90
        0
176
     1
 62
    18
420
        0
176
     1
 90
       50
176
     1
 90
        3
176
     1
 62
     5
420
      255
176
     1
290
     0
176
     1
 90
       50
176
     1
 90
       50
176
     1
 90
       50
176
     1
290
     0
176
     1
 90
       50
176
     1
 62
   256
176
     0
 40
1.0
176
     0
 90
        2
176
     1
  1
strokes_ogs.tif
176
     1
290
     0
176
     1
 40
1.0
176
     1
 40
1.0
176
     1
  0
VISUALSTYLE
  5
34
102
{ACAD_REACTORS
330
2A
102
}
330
2A
100
AcDbVisualStyle
  2
Conceptual
 70
     9
177
     3
291
     0
 70
    58
 90
        3
176
     1
 90
        2
176
     1
 90
        0
176
     1
 90
        0
176
     1
 40
0.6
176
     1
 40
30.0
176
     1
 62
     7
420
 16777215
176
     1
 90
        2
176
     1
 90
        2
176
     1
 62
     7
176
     1
 62
   257
176
     1
 90
        1
176
     1
 90
        1
176
     1
 40
179.0
176
     1
 90
        8
176
     1
 62
     7
176
     1
 40
1.0
176
     1
 90
        1
176
     1
 90
        6
176
     1
 90
        2
176
     1
 62
     7
176
     1
 90
        3
176
     1
 90
        0
176
     1
 90
        0
176
     1
290
     0
176
     1
 90
        1
176
     1
 40
0.0
176
     1
 90
        0
176
     1
290
     0
176
     1
290
     1
176
     1
290
     1
176
     1
290
     0
176
     1
290
     0
176
     1
290
     0
176
     1
290
     0
176
     1
290
     0
176
     1
290
     0
176
     1
 90
       50
176
     1
 40
0.0
176
     1
 40
1.0
176
     1
 90
        0
176
     1
 62
    18
420
        0
176
     1
 90
       50
176
     1
 90
        3
176
     1
 62
     5
420
      255
176
     1
290
     0
176
     1
 90
       50
176
     1
 90
       50
176
     1
 90
       50
176
     1
290
     0
176
     1
 90
       50
176
     1
 62
   256
176
     0
 40
1.0
176
     0
 90
        2
176
     1
  1
strokes_ogs.tif
176
     1
290
     0
176
     1
 40
1.0
176
     1
 40
1.0
176
     1
  0
VISUALSTYLE
  5
35
102
{ACAD_REACTORS
330
2A
102
}
330
2A
100
AcDbVisualStyle
  2
Dim
 70
    11
177
     3
291
     1
 70
    58
 90
        2
176
     1
 90
        2
176
     1
 90
        0
176
     1
 90
        0
176
     1
 40
0.6
176
     1
 40
30.0
176
     1
 62
     7
420
 16777215
176
     1
 90
        1
176
     1
 90
        4
176
     1
 62
     7
176
     1
 62
   257
176
     1
 90
        1
176
     1
 90
        1
176
     1
 40
1.0
176
     1
 90
        8
176
     1
 62
     7
176
     1
 40
1.0
176
     1
 90
        1
176
     1
 90
        6
176
     1
 90
        2
176
     1
 62
     7
176
     1
 90
        5
176
     1
 90
        0
176
     1
 90
        0
176
     1
290
     0
176
     1
 90
        1
176
     1
 40
-50.0
176
     1
 90
        0
176
     1
290
     0
176
     1
290
     1
176
     1
290
     1
176
     1
290
     0
176
     1
290
     0
176
     1
290
     0
176
     1
290
     0
176
     1
290
     0
176
     1
290
     0
176
     1
 90
       50
176
     1
 40
0.0
176
     1
 40
1.0
176
     1
 90
        0
176
     1
 62
    18
420
        0
176
     1
 90
       50
176
     1
 90
        3
176
     1
 62
     5
420
      255
176
     1
290
     0
176
     1
 90
       50
176
     1
 90
       50
176
     1
 90
       50
176
     1
290
     0
176
     1
 90
       50
176
     1
 62
   256
176
     0
 40
1.0
176
     0
 90
        2
176
     1
  1
strokes_ogs.tif
176
     1
290
     0
176
     1
 40
1.0
176
     1
 40
1.0
176
     1
  0
VISUALSTYLE
  5
3D
102
{ACAD_REACTORS
330
2A
102
}
330
2A
100
AcDbVisualStyle
  2
EdgeColorOff
 70
    22
177
     3
291
     1
 70
    58
 90
        2
176
     0
 90
        2
176
     0
 90
        0
176
     0
 90
        0
176
     0
 40
0.6
176
     0
 40
30.0
176
     0
 62
     7
420
 16777215
176
     0
 90
        1
176
     0
 90
        4
176
     0
 62
     7
176
     0
 62
   257
176
     0
 90
        1
176
     0
 90
        1
176
     0
 40
1.0
176
     0
 90
        8
176
     2
 62
     7
176
     0
 40
1.0
176
     0
 90
        1
176
     0
 90
        6
176
     0
 90
        2
176
     0
 62
     7
176
     0
 90
        5
176
     0
 90
        0
176
     0
 90
        0
176
     0
290
     0
176
     0
 90
        1
176
     0
 40
0.0
176
     0
 90
        0
176
     0
290
     0
176
     0
290
     1
176
     0
290
     1
176
     0
290
     0
176
     0
290
     0
176
     0
290
     0
176
     0
290
     0
176
     0
290
     0
176
     0
290
     0
176
     0
 90
       50
176
     0
 40
0.0
176
     0
 40
1.0
176
     0
 90
        0
176
     0
 62
    18
420
        0
176
     0
 90
       50
176
     0
 90
        3
176
     0
 62
     5
420
      255
176
     0
290
     0
176
     0
 90
       50
176
     0
 90
       50
176
     0
 90
       50
176
     0
290
     0
176
     0
 90
       50
176
     0
 62
   256
176
     0
 40
1.0
176
     0
 90
        2
176
     0
  1
strokes_ogs.tif
176
     0
290
     0
176
     0
 40
1.0
176
     0
 40
1.0
176
     0
  0
VISUALSTYLE
  5
39
102
{ACAD_REACTORS
330
2A
102
}
330
2A
100
AcDbVisualStyle
  2
Facepattern
 70
    15
177
     3
291
     1
 70
    58
 90
        2
176
     1
 90
        2
176
     1
 90
        0
176
     1
 90
        0
176
     1
 40
0.6
176
     1
 40
30.0
176
     1
 62
     7
420
 16777215
176
     1
 90
        1
176
     1
 90
        4
176
     1
 62
     7
176
     1
 62
   257
176
     1
 90
        1
176
     1
 90
        1
176
     1
 40
1.0
176
     1
 90
        8
176
     1
 62
     7
176
     1
 40
1.0
176
     1
 90
        1
176
     1
 90
        6
176
     1
 90
        2
176
     1
 62
     7
176
     1
 90
        5
176
     1
 90
        0
176
     1
 90
        0
176
     1
290
     0
176
     1
 90
        1
176
     1
 40
0.0
176
     1
 90
        0
176
     1
290
     0
176
     1
290
     1
176
     1
290
     1
176
     1
290
     0
176
     1
290
     0
176
     1
290
     0
176
     1
290
     0
176
     1
290
     0
176
     1
290
     0
176
     1
 90
       50
176
     1
 40
0.0
176
     1
 40
1.0
176
     1
 90
        0
176
     1
 62
    18
420
        0
176
     1
 90
       50
176
     1
 90
        3
176
     1
 62
     5
420
      255
176
     1
290
     0
176
     1
 90
       50
176
     1
 90
       50
176
     1
 90
       50
176
     1
290
     0
176
     1
 90
       50
176
     1
 62
   256
176
     0
 40
1.0
176
     0
 90
        2
176
     1
  1
strokes_ogs.tif
176
     1
290
     0
176
     1
 40
1.0
176
     1
 40
1.0
176
     1
  0
VISUALSTYLE
  5
2B
102
{ACAD_REACTORS
330
2A
102
}
330
2A
100
AcDbVisualStyle
  2
Flat
 70
     0
177
     3
291
     1
 70
    58
 90
        2
176
     1
 90
        1
176
     1
 90
        1
176
     1
 90
        2
176
     1
 40
0.6
176
     1
 40
30.0
176
     1
 62
     7
420
 16777215
176
     1
 90
        0
176
     1
 90
        0
176
     1
 62
     7
176
     1
 62
   257
176
     1
 90
        1
176
     1
 90
        1
176
     1
 40
1.0
176
     1
 90
        8
176
     1
 62
     7
176
     1
 40
1.0
176
     1
 90
        1
176
     1
 90
        6
176
     1
 90
        2
176
     1
 62
     7
176
     1
 90
        5
176
     1
 90
        0
176
     1
 90
        0
176
     1
290
     0
176
     1
 90
       13
176
     1
 40
0.0
176
     1
 90
        0
176
     1
290
     0
176
     1
290
     1
176
     1
290
     1
176
     1
290
     0
176
     1
290
     0
176
     1
290
     0
176
     1
290
     0
176
     1
290
     0
176
     1
290
     0
176
     1
 90
       50
176
     1
 40
0.0
176
     1
 40
1.0
176
     1
 90
        0
176
     1
 62
    18
420
        0
176
     1
 90
       50
176
     1
 90
        3
176
     1
 62
     5
420
      255
176
     1
290
     0
176
     1
 90
       50
176
     1
 90
       50
176
     1
 90
       50
176
     1
290
     0
176
     1
 90
       50
176
     1
 62
   256
176
     0
 40
1.0
176
     0
 90
        2
176
     1
  1
strokes_ogs.tif
176
     1
290
     0
176
     1
 40
1.0
176
     1
 40
1.0
176
     1
  0
VISUALSTYLE
  5
2C
102
{ACAD_REACTORS
330
2A
102
}
330
2A
100
AcDbVisualStyle
  2
FlatWithEdges
 70
     1
177
     3
291
     1
 70
    58
 90
        2
176
     1
 90
        1
176
     1
 90
        1
176
     1
 90
        2
176
     1
 40
0.6
176
     1
 40
30.0
176
     1
 62
     7
420
 16777215
176
     1
 90
        1
176
     1
 90
        0
176
     1
 62
     7
176
     1
 62
   257
176
     1
 90
        1
176
     1
 90
        1
176
     1
 40
1.0
176
     1
 90
        0
176
     1
 62
   257
176
     1
 40
1.0
176
     1
 90
        1
176
     1
 90
        6
176
     1
 90
        2
176
     1
 62
     7
176
     1
 90
        5
176
     1
 90
        0
176
     1
 90
        0
176
     1
290
     0
176
     1
 90
       13
176
     1
 40
0.0
176
     1
 90
        0
176
     1
290
     0
176
     1
290
     1
176
     1
290
     1
176
     1
290
     0
176
     1
290
     0
176
     1
290
     0
176
     1
290
     0
176
     1
290
     0
176
     1
290
     0
176
     1
 90
       50
176
     1
 40
0.0
176
     1
 40
1.0
176
     1
 90
        0
176
     1
 62
    18
420
        0
176
     1
 90
       50
176
     1
 90
        3
176
     1
 62
     5
420
      255
176
     1
290
     0
176
     1
 90
       50
176
     1
 90
       50
176
     1
 90
       50
176
     1
290
     0
176
     1
 90
       50
176
     1
 62
   256
176
     0
 40
1.0
176
     0
 90
        2
176
     1
  1
strokes_ogs.tif
176
     1
290
     0
176
     1
 40
1.0
176
     1
 40
1.0
176
     1
  0
VISUALSTYLE
  5
2D
102
{ACAD_REACTORS
330
2A
102
}
330
2A
100
AcDbVisualStyle
  2
Gouraud
 70
     2
177
     3
291
     1
 70
    58
 90
        2
176
     1
 90
        2
176
     1
 90
        1
176
     1
 90
        2
176
     1
 40
0.6
176
     1
 40
30.0
176
     1
 62
     7
420
 16777215
176
     1
 90
        0
176
     1
 90
        0
176
     1
 62
     7
176
     1
 62
   257
176
     1
 90
        1
176
     1
 90
        1
176
     1
 40
1.0
176
     1
 90
        0
176
     1
 62
     7
176
     1
 40
1.0
176
     1
 90
        1
176
     1
 90
        6
176
     1
 90
        2
176
     1
 62
     7
176
     1
 90
        5
176
     1
 90
        0
176
     1
 90
        0
176
     1
290
     0
176
     1
 90
       13
176
     1
 40
0.0
176
     1
 90
        0
176
     1
290
     0
176
     1
290
     1
176
     1
290
     1
176
     1
290
     0
176
     1
290
     0
176
     1
290
     0
176
     1
290
     0
176
     1
290
     0
176
     1
290
     0
176
     1
 90
       50
176
     1
 40
0.0
176
     1
 40
1.0
176
     1
 90
        0
176
     1
 62
    18
420
        0
176
     1
 90
       50
176
     1
 90
        3
176
     1
 62
     5
420
      255
176
     1
290
     0
176
     1
 90
       50
176
     1
 90
       50
176
     1
 90
       50
176
     1
290
     0
176
     1
 90
       50
176
     1
 62
   256
176
     0
 40
1.0
176
     0
 90
        2
176
     1
  1
strokes_ogs.tif
176
     1
290
     0
176
     1
 40
1.0
176
     1
 40
1.0
176
     1
  0
VISUALSTYLE
  5
2E
102
{ACAD_REACTORS
330
2A
102
}
330
2A
100
AcDbVisualStyle
  2
GouraudWithEdges
 70
     3
177
     3
291
     1
 70
    58
 90
        2
176
     1
 90
        2
176
     1
 90
        1
176
     1
 90
        2
176
     1
 40
0.6
176
     1
 40
30.0
176
     1
 62
     7
420
 16777215
176
     1
 90
        1
176
     1
 90
        0
176
     1
 62
     7
176
     1
 62
   257
176
     1
 90
        1
176
     1
 90
        1
176
     1
 40
1.0
176
     1
 90
        0
176
     1
 62
   257
176
     1
 40
1.0
176
     1
 90
        1
176
     1
 90
        6
176
     1
 90
        2
176
     1
 62
     7
176
     1
 90
        5
176
     1
 90
        0
176
     1
 90
        0
176
     1
290
     0
176
     1
 90
       13
176
     1
 40
0.0
176
     1
 90
        0
176
     1
290
     0
176
     1
290
     1
176
     1
290
     1
176
     1
290
     0
176
     1
290
     0
176
     1
290
     0
176
     1
290
     0
176
     1
290
     0
176
     1
290
     0
176
     1
 90
       50
176
     1
 40
0.0
176
     1
 40
1.0
176
     1
 90
        0
176
     1
 62
    18
420
        0
176
     1
 90
       50
176
     1
 90
        3
176
     1
 62
     5
420
      255
176
     1
290
     0
176
     1
 90
       50
176
     1
 90
       50
176
     1
 90
       50
176
     1
290
     0
176
     1
 90
       50
176
     1
 62
   256
176
     0
 40
1.0
176
     0
 90
        2
176
     1
  1
strokes_ogs.tif
176
     1
290
     0
176
     1
 40
1.0
176
     1
 40
1.0
176
     1
  0
VISUALSTYLE
  5
31
102
{ACAD_REACTORS
330
2A
102
}
330
2A
100
AcDbVisualStyle
  2
Hidden
 70
     6
177
     3
291
     0
 70
    58
 90
        1
176
     1
 90
        2
176
     1
 90
        2
176
     1
 90
        0
176
     1
 40
0.6
176
     1
 40
30.0
176
     1
 62
     7
420
 16777215
176
     1
 90
        2
176
     1
 90
        2
176
     1
 62
     7
176
     1
 62
   257
176
     1
 90
        2
176
     1
 90
        1
176
     1
 40
40.0
176
     1
 90
        0
176
     1
 62
   257
176
     1
 40
1.0
176
     1
 90
        1
176
     1
 90
        6
176
     1
 90
        2
176
     1
 62
     7
176
     1
 90
        3
176
     1
 90
        0
176
     1
 90
        0
176
     1
290
     0
176
     1
 90
        1
176
     1
 40
0.0
176
     1
 90
        0
176
     1
290
     0
176
     1
290
     1
176
     1
290
     1
176
     1
290
     0
176
     1
290
     0
176
     1
290
     0
176
     1
290
     0
176
     1
290
     0
176
     1
290
     0
176
     1
 90
       50
176
     1
 40
0.0
176
     1
 40
1.0
176
     1
 90
        0
176
     1
 62
    18
420
        0
176
     1
 90
       50
176
     1
 90
        3
176
     1
 62
     5
420
      255
176
     1
290
     0
176
     1
 90
       50
176
     1
 90
       50
176
     1
 90
       50
176
     1
290
     0
176
     1
 90
       50
176
     1
 62
   256
176
     0
 40
1.0
176
     0
 90
        2
176
     1
  1
strokes_ogs.tif
176
     1
290
     0
176
     1
 40
1.0
176
     1
 40
1.0
176
     1
  0
VISUALSTYLE
  5
3B
102
{ACAD_REACTORS
330
2A
102
}
330
2A
100
AcDbVisualStyle
  2
JitterOff
 70
    20
177
     3
291
     1
 70
    58
 90
        2
176
     0
 90
        2
176
     0
 90
        0
176
     0
 90
        0
176
     0
 40
0.6
176
     0
 40
30.0
176
     0
 62
     7
420
 16777215
176
     0
 90
        1
176
     0
 90
        4
176
     0
 62
     7
176
     0
 62
   257
176
     0
 90
        1
176
     0
 90
        1
176
     0
 40
1.0
176
     0
 90
       10
176
     2
 62
     7
176
     0
 40
1.0
176
     0
 90
        1
176
     0
 90
        6
176
     0
 90
        2
176
     0
 62
     7
176
     0
 90
        5
176
     0
 90
        0
176
     0
 90
        0
176
     0
290
     0
176
     0
 90
        1
176
     0
 40
0.0
176
     0
 90
        0
176
     0
290
     0
176
     0
290
     1
176
     0
290
     1
176
     0
290
     0
176
     0
290
     0
176
     0
290
     0
176
     0
290
     0
176
     0
290
     0
176
     0
290
     0
176
     0
 90
       50
176
     0
 40
0.0
176
     0
 40
1.0
176
     0
 90
        0
176
     0
 62
    18
420
        0
176
     0
 90
       50
176
     0
 90
        3
176
     0
 62
     5
420
      255
176
     0
290
     0
176
     0
 90
       50
176
     0
 90
       50
176
     0
 90
       50
176
     0
290
     0
176
     0
 90
       50
176
     0
 62
   256
176
     0
 40
1.0
176
     0
 90
        2
176
     0
  1
strokes_ogs.tif
176
     0
290
     0
176
     0
 40
1.0
176
     0
 40
1.0
176
     0
  0
VISUALSTYLE
  5
38
102
{ACAD_REACTORS
330
2A
102
}
330
2A
100
AcDbVisualStyle
  2
Linepattern
 70
    14
177
     3
291
     1
 70
    58
 90
        2
176
     1
 90
        2
176
     1
 90
        0
176
     1
 90
        0
176
     1
 40
0.6
176
     1
 40
30.0
176
     1
 62
     7
420
 16777215
176
     1
 90
        1
176
     1
 90
        4
176
     1
 62
     7
176
     1
 62
   257
176
     1
 90
        7
176
     1
 90
        7
176
     1
 40
1.0
176
     1
 90
        8
176
     1
 62
     7
176
     1
 40
1.0
176
     1
 90
        1
176
     1
 90
        6
176
     1
 90
        2
176
     1
 62
     7
176
     1
 90
        5
176
     1
 90
        0
176
     1
 90
        0
176
     1
290
     0
176
     1
 90
        1
176
     1
 40
0.0
176
     1
 90
        0
176
     1
290
     0
176
     1
290
     1
176
     1
290
     1
176
     1
290
     0
176
     1
290
     0
176
     1
290
     0
176
     1
290
     0
176
     1
290
     0
176
     1
290
     0
176
     1
 90
       50
176
     1
 40
0.0
176
     1
 40
1.0
176
     1
 90
        0
176
     1
 62
    18
420
        0
176
     1
 90
       50
176
     1
 90
        3
176
     1
 62
     5
420
      255
176
     1
290
     0
176
     1
 90
       50
176
     1
 90
       50
176
     1
 90
       50
176
     1
290
     0
176
     1
 90
       50
176
     1
 62
   256
176
     0
 40
1.0
176
     0
 90
        2
176
     1
  1
strokes_ogs.tif
176
     1
290
     0
176
     1
 40
1.0
176
     1
 40
1.0
176
     1
  0
VISUALSTYLE
  5
3C
102
{ACAD_REACTORS
330
2A
102
}
330
2A
100
AcDbVisualStyle
  2
OverhangOff
 70
    21
177
     3
291
     1
 70
    58
 90
        2
176
     0
 90
        2
176
     0
 90
        0
176
     0
 90
        0
176
     0
 40
0.6
176
     0
 40
30.0
176
     0
 62
     7
420
 16777215
176
     0
 90
        1
176
     0
 90
        4
176
     0
 62
     7
176
     0
 62
   257
176
     0
 90
        1
176
     0
 90
        1
176
     0
 40
1.0
176
     0
 90
        9
176
     2
 62
     7
176
     0
 40
1.0
176
     0
 90
        1
176
     0
 90
        6
176
     0
 90
        2
176
     0
 62
     7
176
     0
 90
        5
176
     0
 90
        0
176
     0
 90
        0
176
     0
290
     0
176
     0
 90
        1
176
     0
 40
0.0
176
     0
 90
        0
176
     0
290
     0
176
     0
290
     1
176
     0
290
     1
176
     0
290
     0
176
     0
290
     0
176
     0
290
     0
176
     0
290
     0
176
     0
290
     0
176
     0
290
     0
176
     0
 90
       50
176
     0
 40
0.0
176
     0
 40
1.0
176
     0
 90
        0
176
     0
 62
    18
420
        0
176
     0
 90
       50
176
     0
 90
        3
176
     0
 62
     5
420
      255
176
     0
290
     0
176
     0
 90
       50
176
     0
 90
       50
176
     0
 90
       50
176
     0
290
     0
176
     0
 90
       50
176
     0
 62
   256
176
     0
 40
1.0
176
     0
 90
        2
176
     0
  1
strokes_ogs.tif
176
     0
290
     0
176
     0
 40
1.0
176
     0
 40
1.0
176
     0
  0
VISUALSTYLE
  5
33
102
{ACAD_REACTORS
330
2A
102
}
330
2A
100
AcDbVisualStyle
  2
Realistic
 70
     8
177
     3
291
     0
 70
    58
 90
        2
176
     1
 90
        3
176
     1
 90
        0
176
     1
 90
        2
176
     1
 40
0.6
176
     1
 40
30.0
176
     1
 62
     7
420
 16777215
176
     1
 90
        0
176
     1
 90
        0
176
     1
 62
     7
176
     1
 62
   257
176
     1
 90
        1
176
     1
 90
        1
176
     1
 40
1.0
176
     1
 90
        8
176
     1
 62
   257
176
     1
 40
1.0
176
     1
 90
        1
176
     1
 90
        6
176
     1
 90
        2
176
     1
 62
     7
176
     1
 90
        3
176
     1
 90
        0
176
     1
 90
        0
176
     1
290
     0
176
     1
 90
       13
176
     1
 40
0.0
176
     1
 90
        0
176
     1
290
     0
176
     1
290
     1
176
     1
290
     1
176
     1
290
     0
176
     1
290
     0
176
     1
290
     0
176
     1
290
     0
176
     1
290
     0
176
     1
290
     0
176
     1
 90
       50
176
     1
 40
0.0
176
     1
 40
1.0
176
     1
 90
        0
176
     1
 62
    18
420
        0
176
     1
 90
       50
176
     1
 90
        3
176
     1
 62
     5
420
      255
176
     1
290
     0
176
     1
 90
       50
176
     1
 90
       50
176
     1
 90
       50
176
     1
290
     0
176
     1
 90
       50
176
     1
 62
   256
176
     0
 40
1.0
176
     0
 90
        2
176
     1
  1
strokes_ogs.tif
176
     1
290
     0
176
     1
 40
1.0
176
     1
 40
1.0
176
     1
  0
VISUALSTYLE
  5
42
102
{ACAD_REACTORS
330
2A
102
}
330
2A
100
AcDbVisualStyle
  2
Shaded
 70
    27
177
     3
291
     0
 70
    58
 90
        2
176
     1
 90
        2
176
     1
 90
        1
176
     1
 90
        2
176
     1
 40
0.6
176
     1
 40
30.0
176
     1
 62
     7
420
 16777215
176
     1
 90
        0
176
     1
 90
        4
176
     1
 62
     7
176
     1
 62
   257
176
     1
 90
        1
176
     1
 90
        1
176
     1
 40
1.0
176
     1
 90
        8
176
     1
 62
   257
176
     1
 40
1.0
176
     1
 90
        1
176
     1
 90
        6
176
     1
 90
        2
176
     1
 62
     8
420
  7895160
176
     1
 90
        3
176
     1
 90
        0
176
     1
 90
        0
176
     1
290
     0
176
     1
 90
        5
176
     1
 40
0.0
176
     1
 90
        0
176
     1
290
     0
176
     1
290
     1
176
     1
290
     1
176
     1
290
     0
176
     1
290
     0
176
     1
290
     0
176
     1
290
     0
176
     1
290
     0
176
     1
290
     0
176
     1
 90
       50
176
     1
 40
0.0
176
     1
 40
1.0
176
     1
 90
        0
176
     1
 62
    18
420
        0
176
     1
 90
       50
176
     1
 90
        3
176
     1
 62
     5
420
      255
176
     1
290
     0
176
     1
 90
       50
176
     1
 90
       50
176
     1
 90
       50
176
     1
290
     0
176
     1
 90
       50
176
     1
 62
   256
176
     0
 40
1.0
176
     0
 90
        2
176
     1
  1
strokes_ogs.tif
176
     1
290
     0
176
     1
 40
1.0
176
     1
 40
1.0
176
     1
  0
VISUALSTYLE
  5
41
102
{ACAD_REACTORS
330
2A
102
}
330
2A
100
AcDbVisualStyle
  2
Shaded with edges
 70
    26
177
     3
291
     0
 70
    58
 90
        2
176
     1
 90
        2
176
     1
 90
        1
176
     1
 90
        2
176
     1
 40
0.6
176
     1
 40
30.0
176
     1
 62
     7
420
 16777215
176
     1
 90
        1
176
     1
 90
       10
176
     1
 62
     7
176
     1
 62
   257
176
     1
 90
        2
176
     1
 90
        1
176
     1
 40
1.0
176
     1
 90
        8
176
     1
 62
   257
176
     1
 40
1.0
176
     1
 90
        1
176
     1
 90
        6
176
     1
 90
        2
176
     1
 62
     7
176
     1
 90
        3
176
     1
 90
        0
176
     1
 90
        0
176
     1
290
     0
176
     1
 90
        5
176
     1
 40
0.0
176
     1
 90
        0
176
     1
290
     0
176
     1
290
     1
176
     1
290
     1
176
     1
290
     0
176
     1
290
     0
176
     1
290
     0
176
     1
290
     0
176
     1
290
     0
176
     1
290
     0
176
     1
 90
       50
176
     1
 40
0.0
176
     1
 40
1.0
176
     1
 90
        0
176
     1
 62
    18
420
        0
176
     1
 90
       50
176
     1
 90
        3
176
     1
 62
     5
420
      255
176
     1
290
     0
176
     1
 90
       50
176
     1
 90
       50
176
     1
 90
       50
176
     1
290
     0
176
     1
 90
       50
176
     1
 62
   256
176
     0
 40
1.0
176
     0
 90
        2
176
     1
  1
strokes_ogs.tif
176
     1
290
     0
176
     1
 40
1.0
176
     1
 40
1.0
176
     1
  0
VISUALSTYLE
  5
3E
102
{ACAD_REACTORS
330
2A
102
}
330
2A
100
AcDbVisualStyle
  2
Shades of Gray
 70
    23
177
     3
291
     0
 70
    58
 90
        2
176
     1
 90
        2
176
     1
 90
        3
176
     1
 90
        0
176
     1
 40
0.6
176
     1
 40
30.0
176
     1
 62
     7
420
 16777215
176
     1
 90
        2
176
     1
 90
        2
176
     1
 62
     7
176
     1
 62
     7
176
     1
 90
        1
176
     1
 90
        1
176
     1
 40
40.0
176
     1
 90
        8
176
     1
 62
     7
176
     1
 40
1.0
176
     1
 90
        1
176
     1
 90
        6
176
     1
 90
        2
176
     1
 62
     7
176
     1
 90
        3
176
     1
 90
        0
176
     1
 90
        0
176
     1
290
     0
176
     1
 90
        1
176
     1
 40
0.0
176
     1
 90
        0
176
     1
290
     0
176
     1
290
     1
176
     1
290
     1
176
     1
290
     0
176
     1
290
     0
176
     1
290
     0
176
     1
290
     0
176
     1
290
     0
176
     1
290
     0
176
     1
 90
       50
176
     1
 40
0.0
176
     1
 40
1.0
176
     1
 90
        0
176
     1
 62
    18
420
        0
176
     1
 90
       50
176
     1
 90
        3
176
     1
 62
     5
420
      255
176
     1
290
     0
176
     1
 90
       50
176
     1
 90
       50
176
     1
 90
       50
176
     1
290
     0
176
     1
 90
       50
176
     1
 62
   256
176
     0
 40
1.0
176
     0
 90
        2
176
     1
  1
strokes_ogs.tif
176
     1
290
     0
176
     1
 40
1.0
176
     1
 40
1.0
176
     1
  0
VISUALSTYLE
  5
3F
102
{ACAD_REACTORS
330
2A
102
}
330
2A
100
AcDbVisualStyle
  2
Sketchy
 70
    24
177
     3
291
     0
 70
    58
 90
        1
176
     1
 90
        2
176
     1
 90
        2
176
     1
 90
        0
176
     1
 40
0.6
176
     1
 40
30.0
176
     1
 62
     7
420
 16777215
176
     1
 90
        2
176
     1
 90
        2
176
     1
 62
     7
176
     1
 62
     7
176
     1
 90
        1
176
     1
 90
        1
176
     1
 40
40.0
176
     1
 90
       11
176
     1
 62
     7
176
     1
 40
1.0
176
     1
 90
        1
176
     1
 90
        6
176
     1
 90
        2
176
     1
 62
     7
176
     1
 90
        6
176
     1
 90
        0
176
     1
 90
        0
176
     1
290
     0
176
     1
 90
        1
176
     1
 40
0.0
176
     1
 90
        0
176
     1
290
     0
176
     1
290
     1
176
     1
290
     1
176
     1
290
     0
176
     1
290
     0
176
     1
290
     0
176
     1
290
     0
176
     1
290
     0
176
     1
290
     0
176
     1
 90
       50
176
     1
 40
0.0
176
     1
 40
1.0
176
     1
 90
        0
176
     1
 62
    18
420
        0
176
     1
 90
       50
176
     1
 90
        3
176
     1
 62
     5
420
      255
176
     1
290
     0
176
     1
 90
       50
176
     1
 90
       50
176
     1
 90
       50
176
     1
290
     0
176
     1
 90
       50
176
     1
 62
   256
176
     0
 40
1.0
176
     0
 90
        2
176
     1
  1
strokes_ogs.tif
176
     1
290
     0
176
     1
 40
1.0
176
     1
 40
1.0
176
     1
  0
VISUALSTYLE
  5
37
102
{ACAD_REACTORS
330
2A
102
}
330
2A
100
AcDbVisualStyle
  2
Thicken
 70
    13
177
     3
291
     1
 70
    58
 90
        2
176
     1
 90
        2
176
     1
 90
        0
176
     1
 90
        0
176
     1
 40
0.6
176
     1
 40
30.0
176
     1
 62
     7
420
 16777215
176
     1
 90
        1
176
     1
 90
        4
176
     1
 62
     7
176
     1
 62
   257
176
     1
 90
        1
176
     1
 90
        1
176
     1
 40
1.0
176
     1
 90
       12
176
     1
 62
     7
176
     1
 40
1.0
176
     1
 90
        1
176
     1
 90
        6
176
     1
 90
        2
176
     1
 62
     7
176
     1
 90
        5
176
     1
 90
        0
176
     1
 90
        0
176
     1
290
     0
176
     1
 90
        1
176
     1
 40
0.0
176
     1
 90
        0
176
     1
290
     0
176
     1
290
     1
176
     1
290
     1
176
     1
290
     0
176
     1
290
     0
176
     1
290
     0
176
     1
290
     0
176
     1
290
     0
176
     1
290
     0
176
     1
 90
       50
176
     1
 40
0.0
176
     1
 40
1.0
176
     1
 90
        0
176
     1
 62
    18
420
        0
176
     1
 90
       50
176
     1
 90
        3
176
     1
 62
     5
420
      255
176
     1
290
     0
176
     1
 90
       50
176
     1
 90
       50
176
     1
 90
       50
176
     1
290
     0
176
     1
 90
       50
176
     1
 62
   256
176
     0
 40
1.0
176
     0
 90
        2
176
     1
  1
strokes_ogs.tif
176
     1
290
     0
176
     1
 40
1.0
176
     1
 40
1.0
176
     1
  0
VISUALSTYLE
  5
30
102
{ACAD_REACTORS
330
2A
102
}
330
2A
100
AcDbVisualStyle
  2
Wireframe
 70
     5
177
     3
291
     0
 70
    58
 90
        0
176
     1
 90
        2
176
     1
 90
        0
176
     1
 90
        0
176
     1
 40
0.6
176
     1
 40
30.0
176
     1
 62
     7
420
 16777215
176
     1
 90
        1
176
     1
 90
        4
176
     1
 62
     7
176
     1
 62
   257
176
     1
 90
        1
176
     1
 90
        1
176
     1
 40
1.0
176
     1
 90
        0
176
     1
 62
   257
176
     1
 40
1.0
176
     1
 90
        1
176
     1
 90
        6
176
     1
 90
        2
176
     1
 62
     7
176
     1
 90
        3
176
     1
 90
        0
176
     1
 90
        0
176
     1
290
     0
176
     1
 90
        1
176
     1
 40
0.0
176
     1
 90
        0
176
     1
290
     0
176
     1
290
     1
176
     1
290
     1
176
     1
290
     0
176
     1
290
     0
176
     1
290
     0
176
     1
290
     0
176
     1
290
     0
176
     1
290
     0
176
     1
 90
       50
176
     1
 40
0.0
176
     1
 40
1.0
176
     1
 90
        0
176
     1
 62
    18
420
        0
176
     1
 90
       50
176
     1
 90
        3
176
     1
 62
     5
420
      255
176
     1
290
     0
176
     1
 90
       50
176
     1
 90
       50
176
     1
 90
       50
176
     1
290
     0
176
     1
 90
       50
176
     1
 62
   256
176
     0
 40
1.0
176
     0
 90
        2
176
     1
  1
strokes_ogs.tif
176
     1
290
     0
176
     1
 40
1.0
176
     1
 40
1.0
176
     1
  0
VISUALSTYLE
  5
40
102
{ACAD_REACTORS
330
2A
102
}
330
2A
100
AcDbVisualStyle
  2
X-Ray
 70
    25
177
     3
291
     0
 70
    58
 90
        2
176
     1
 90
        2
176
     1
 90
        1
176
     1
 90
        1
176
     1
 40
0.5
176
     1
 40
30.0
176
     1
 62
     7
420
 16777215
176
     1
 90
        1
176
     1
 90
        0
176
     1
 62
     7
176
     1
 62
   257
176
     1
 90
        1
176
     1
 90
        1
176
     1
 40
1.0
176
     1
 90
        8
176
     1
 62
     7
176
     1
 40
1.0
176
     1
 90
        1
176
     1
 90
        6
176
     1
 90
        2
176
     1
 62
     7
176
     1
 90
        3
176
     1
 90
        0
176
     1
 90
        0
176
     1
290
     0
176
     1
 90
       13
176
     1
 40
0.0
176
     1
 90
        0
176
     1
290
     0
176
     1
290
     1
176
     1
290
     1
176
     1
290
     0
176
     1
290
     0
176
     1
290
     0
176
     1
290
     0
176
     1
290
     0
176
     1
290
     0
176
     1
 90
       50
176
     1
 40
0.0
176
     1
 40
1.0
176
     1
 90
        0
176
     1
 62
    18
420
        0
176
     1
 90
       50
176
     1
 90
        3
176
     1
 62
     5
420
      255
176
     1
290
     0
176
     1
 90
       50
176
     1
 90
       50
176
     1
 90
       50
176
     1
290
     0
176
     1
 90
       50
176
     1
 62
   256
176
     0
 40
1.0
176
     0
 90
        2
176
     1
  1
strokes_ogs.tif
176
     1
290
     0
176
     1
 40
1.0
176
     1
 40
1.0
176
     1
  0
DICTIONARYVAR
  5
1A3
102
{ACAD_REACTORS
330
1A2
102
}
330
1A2
100
DictionaryVariables
280
     0
  1
1:1
  0
DICTIONARYVAR
  5
1A8
102
{ACAD_REACTORS
330
1A2
102
}
330
1A2
100
DictionaryVariables
280
     0
  1
Standard
  0
DICTIONARYVAR
  5
1A7
102
{ACAD_REACTORS
330
1A2
102
}
330
1A2
100
DictionaryVariables
280
     0
  1
Standard
  0
DICTIONARY
  5
1A4
330
6A
100
AcDbDictionary
280
     1
281
     1
  3
ACAD_ROUNDTRIP_2008_TABLESTYLE_CELLSTYLEMAP
360
1A5
  0
CELLSTYLEMAP
  5
1A5
102
{ACAD_REACTORS
330
1A4
102
}
330
1A4
100
AcDbCellStyleMap
 90
        3
300
CELLSTYLE
  1
TABLEFORMAT_BEGIN
 90
        5
170
     1
 91
        0
 92
    32768
 62
   257
 93
        1
300
CONTENTFORMAT
  1
CONTENTFORMAT_BEGIN
 90
        0
 91
        0
 92
        4
 93
        0
300

 40
0.0
140
1.0
 94
        5
 62
     0
340
11
144
0.25
309
CONTENTFORMAT_END
171
     1
301
MARGIN
  1
CELLMARGIN_BEGIN
 40
0.06
 40
0.06
 40
0.06
 40
0.06
 40
0.06
 40
0.06
309
CELLMARGIN_END
 94
        6
 95
        1
302
GRIDFORMAT
  1
GRIDFORMAT_BEGIN
 90
        0
 91
        1
 62
     0
 92
       -2
340
14
 93
        0
 40
0.045
309
GRIDFORMAT_END
 95
        2
302
GRIDFORMAT
  1
GRIDFORMAT_BEGIN
 90
        0
 91
        1
 62
     0
 92
       -2
340
14
 93
        0
 40
0.045
309
GRIDFORMAT_END
 95
        4
302
GRIDFORMAT
  1
GRIDFORMAT_BEGIN
 90
        0
 91
        1
 62
     0
 92
       -2
340
14
 93
        0
 40
0.045
309
GRIDFORMAT_END
 95
        8
302
GRIDFORMAT
  1
GRIDFORMAT_BEGIN
 90
        0
 91
        1
 62
     0
 92
       -2
340
14
 93
        0
 40
0.045
309
GRIDFORMAT_END
 95
       16
302
GRIDFORMAT
  1
GRIDFORMAT_BEGIN
 90
        0
 91
        1
 62
     0
 92
       -2
340
14
 93
        0
 40
0.045
309
GRIDFORMAT_END
 95
       32
302
GRIDFORMAT
  1
GRIDFORMAT_BEGIN
 90
        0
 91
        1
 62
     0
 92
       -2
340
14
 93
        0
 40
0.045
309
GRIDFORMAT_END
309
TABLEFORMAT_END
  1
CELLSTYLE_BEGIN
 90
        1
 91
        1
300
_TITLE
309
CELLSTYLE_END
300
CELLSTYLE
  1
TABLEFORMAT_BEGIN
 90
        5
170
     1
 91
        0
 92
        0
 62
   257
 93
        1
300
CONTENTFORMAT
  1
CONTENTFORMAT_BEGIN
 90
        0
 91
        0
 92
        4
 93
        0
300

 40
0.0
140
1.0
 94
        5
 62
     0
340
11
144
0.18
309
CONTENTFORMAT_END
171
     1
301
MARGIN
  1
CELLMARGIN_BEGIN
 40
0.06
 40
0.06
 40
0.06
 40
0.06
 40
0.06
 40
0.06
309
CELLMARGIN_END
 94
        6
 95
        1
302
GRIDFORMAT
  1
GRIDFORMAT_BEGIN
 90
        0
 91
        1
 62
     0
 92
       -2
340
14
 93
        0
 40
0.045
309
GRIDFORMAT_END
 95
        2
302
GRIDFORMAT
  1
GRIDFORMAT_BEGIN
 90
        0
 91
        1
 62
     0
 92
       -2
340
14
 93
        0
 40
0.045
309
GRIDFORMAT_END
 95
        4
302
GRIDFORMAT
  1
GRIDFORMAT_BEGIN
 90
        0
 91
        1
 62
     0
 92
       -2
340
14
 93
        0
 40
0.045
309
GRIDFORMAT_END
 95
        8
302
GRIDFORMAT
  1
GRIDFORMAT_BEGIN
 90
        0
 91
        1
 62
     0
 92
       -2
340
14
 93
        0
 40
0.045
309
GRIDFORMAT_END
 95
       16
302
GRIDFORMAT
  1
GRIDFORMAT_BEGIN
 90
        0
 91
        1
 62
     0
 92
       -2
340
14
 93
        0
 40
0.045
309
GRIDFORMAT_END
 95
       32
302
GRIDFORMAT
  1
GRIDFORMAT_BEGIN
 90
        0
 91
        1
 62
     0
 92
       -2
340
14
 93
        0
 40
0.045
309
GRIDFORMAT_END
309
TABLEFORMAT_END
  1
CELLSTYLE_BEGIN
 90
        2
 91
        1
300
_HEADER
309
CELLSTYLE_END
300
CELLSTYLE
  1
TABLEFORMAT_BEGIN
 90
        5
170
     1
 91
        0
 92
        0
 62
   257
 93
        1
300
CONTENTFORMAT
  1
CONTENTFORMAT_BEGIN
 90
        0
 91
        0
 92
        4
 93
        0
300

 40
0.0
140
1.0
 94
        2
 62
     0
340
11
144
0.18
309
CONTENTFORMAT_END
171
     1
301
MARGIN
  1
CELLMARGIN_BEGIN
 40
0.06
 40
0.06
 40
0.06
 40
0.06
 40
0.06
 40
0.06
309
CELLMARGIN_END
 94
        6
 95
        1
302
GRIDFORMAT
  1
GRIDFORMAT_BEGIN
 90
        0
 91
        1
 62
     0
 92
       -2
340
14
 93
        0
 40
0.045
309
GRIDFORMAT_END
 95
        2
302
GRIDFORMAT
  1
GRIDFORMAT_BEGIN
 90
        0
 91
        1
 62
     0
 92
       -2
340
14
 93
        0
 40
0.045
309
GRIDFORMAT_END
 95
        4
302
GRIDFORMAT
  1
GRIDFORMAT_BEGIN
 90
        0
 91
        1
 62
     0
 92
       -2
340
14
 93
        0
 40
0.045
309
GRIDFORMAT_END
 95
        8
302
GRIDFORMAT
  1
GRIDFORMAT_BEGIN
 90
        0
 91
        1
 62
     0
 92
       -2
340
14
 93
        0
 40
0.045
309
GRIDFORMAT_END
 95
       16
302
GRIDFORMAT
  1
GRIDFORMAT_BEGIN
 90
        0
 91
        1
 62
     0
 92
       -2
340
14
 93
        0
 40
0.045
309
GRIDFORMAT_END
 95
       32
302
GRIDFORMAT
  1
GRIDFORMAT_BEGIN
 90
        0
 91
        1
 62
     0
 92
       -2
340
14
 93
        0
 40
0.045
309
GRIDFORMAT_END
309
TABLEFORMAT_END
  1
CELLSTYLE_BEGIN
 90
        3
 91
        2
300
_DATA
309
CELLSTYLE_END
  0
ENDSEC
  0
EOF