0
SECTION
  2
HEADER
  9
$ACADVER
  1
AC1027
  9
$ACADMAINTVER
 70
     8
  9
$DWGCODEPAGE
  3
ANSI_1252
  9
$REQUIREDVERSIONS
160
                 0
  9
$COMMENTS
  1
File was created by Cadenas
  9
$CUSTOMPROPERTYTAG
  1
NN
  9
$CUSTOMPROPERTY
  1
Set Screw Air-Handling Two-Bolt Pillow Block Metric Bore
  9
$CUSTOMPROPERTYTAG
  1
NT
  9
$CUSTOMPROPERTY
  1
SC Pillow Block Bearings -(Normal Duty) -Air Handling
  9
$CUSTOMPROPERTYTAG
  1
NB
  9
$CUSTOMPROPERTY
  1
053717
  9
$CUSTOMPROPERTYTAG
  1
NBSYN
  9
$CUSTOMPROPERTY
  1
$PN.
  9
$CUSTOMPROPERTYTAG
  1
LINA
  9
$CUSTOMPROPERTY
  1
053717
  9
$CUSTOMPROPERTYTAG
  1
SERIES
  9
$CUSTOMPROPERTY
  1
207
  9
$CUSTOMPROPERTYTAG
  1
SS
  9
$CUSTOMPROPERTY
  1
35
  9
$CUSTOMPROPERTYTAG
  1
PN
  9
$CUSTOMPROPERTY
  1
053717
  9
$CUSTOMPROPERTYTAG
  1
DESCRIPTION
  9
$CUSTOMPROPERTY
  1
P2B-SCAH-35M
  9
$CUSTOMPROPERTYTAG
  1
WEIGHT
  9
$CUSTOMPROPERTY
  1
1.5
  9
$CUSTOMPROPERTYTAG
  1
A
  9
$CUSTOMPROPERTY
  1
43.4
  9
$CUSTOMPROPERTYTAG
  1
B
  9
$CUSTOMPROPERTY
  1
165.1
  9
$CUSTOMPROPERTYTAG
  1
C
  9
$CUSTOMPROPERTY
  1
44.5
  9
$CUSTOMPROPERTYTAG
  1
DMIN
  9
$CUSTOMPROPERTY
  1
118.9
  9
$CUSTOMPROPERTYTAG
  1
DMAX
  9
$CUSTOMPROPERTY
  1
138.2
  9
$CUSTOMPROPERTYTAG
  1
F
  9
$CUSTOMPROPERTY
  1
M12
  9
$CUSTOMPROPERTYTAG
  1
G
  9
$CUSTOMPROPERTY
  1
23.9
  9
$CUSTOMPROPERTYTAG
  1
H
  9
$CUSTOMPROPERTY
  1
18.0
  9
$CUSTOMPROPERTYTAG
  1
J
  9
$CUSTOMPROPERTY
  1
95.3
  9
$CUSTOMPROPERTYTAG
  1
L
  9
$CUSTOMPROPERTY
  1
46.7
  9
$CUSTOMPROPERTYTAG
  1
M
  9
$CUSTOMPROPERTY
  1
47.8
  9
$CUSTOMPROPERTYTAG
  1
R
  9
$CUSTOMPROPERTY
  1
17.0
  9
$CUSTOMPROPERTYTAG
  1
S
  9
$CUSTOMPROPERTY
  1
26.4
  9
$CUSTOMPROPERTYTAG
  1
U
  9
$CUSTOMPROPERTY
  1
73.9
  9
$CUSTOMPROPERTYTAG
  1
V
  9
$CUSTOMPROPERTY
  1
147.8
  9
$CUSTOMPROPERTYTAG
  1
W
  9
$CUSTOMPROPERTY
  1
14.2
  9
$CUSTOMPROPERTYTAG
  1
X
  9
$CUSTOMPROPERTY
  1
3.0
  9
$CUSTOMPROPERTYTAG
  1
COMPANY
  9
$CUSTOMPROPERTY
  1
baldor
  9
$INSBASE
 10
0.0
 20
0.0
 30
0.0
  9
$EXTMIN
 10
1.000000000000000E+20
 20
1.000000000000000E+20
 30
1.000000000000000E+20
  9
$EXTMAX
 10
-1.000000000000000E+20
 20
-1.000000000000000E+20
 30
-1.000000000000000E+20
  9
$LIMMIN
 10
0.0
 20
0.0
  9
$LIMMAX
 10
420.0
 20
297.0
  9
$ORTHOMODE
 70
     0
  9
$REGENMODE
 70
     1
  9
$FILLMODE
 70
     1
  9
$QTEXTMODE
 70
     0
  9
$MIRRTEXT
 70
     1
  9
$LTSCALE
 40
1.0
  9
$ATTMODE
 70
     1
  9
$TEXTSIZE
 40
2.5
  9
$TRACEWID
 40
1.0
  9
$TEXTSTYLE
  7
Standard
  9
$CLAYER
  8
0
  9
$CELTYPE
  6
ByLayer
  9
$CECOLOR
 62
   256
  9
$CELTSCALE
 40
1.0
  9
$DISPSILH
 70
     0
  9
$DIMSCALE
 40
1.0
  9
$DIMASZ
 40
2.5
  9
$DIMEXO
 40
0.625
  9
$DIMDLI
 40
3.75
  9
$DIMRND
 40
0.0
  9
$DIMDLE
 40
0.0
  9
$DIMEXE
 40
1.25
  9
$DIMTP
 40
0.0
  9
$DIMTM
 40
0.0
  9
$DIMTXT
 40
2.5
  9
$DIMCEN
 40
2.5
  9
$DIMTSZ
 40
0.0
  9
$DIMTOL
 70
     0
  9
$DIMLIM
 70
     0
  9
$DIMTIH
 70
     0
  9
$DIMTOH
 70
     0
  9
$DIMSE1
 70
     0
  9
$DIMSE2
 70
     0
  9
$DIMTAD
 70
     1
  9
$DIMZIN
 70
     8
  9
$DIMBLK
  1

  9
$DIMASO
 70
     1
  9
$DIMSHO
 70
     1
  9
$DIMPOST
  1

  9
$DIMAPOST
  1

  9
$DIMALT
 70
     0
  9
$DIMALTD
 70
     3
  9
$DIMALTF
 40
0.03937007874016
  9
$DIMLFAC
 40
1.0
  9
$DIMTOFL
 70
     1
  9
$DIMTVP
 40
0.0
  9
$DIMTIX
 70
     0
  9
$DIMSOXD
 70
     0
  9
$DIMSAH
 70
     0
  9
$DIMBLK1
  1

  9
$DIMBLK2
  1

  9
$DIMSTYLE
  2
ISO-25
  9
$DIMCLRD
 70
     0
  9
$DIMCLRE
 70
     0
  9
$DIMCLRT
 70
     0
  9
$DIMTFAC
 40
1.0
  9
$DIMGAP
 40
0.625
  9
$DIMJUST
 70
     0
  9
$DIMSD1
 70
     0
  9
$DIMSD2
 70
     0
  9
$DIMTOLJ
 70
     0
  9
$DIMTZIN
 70
     8
  9
$DIMALTZ
 70
     0
  9
$DIMALTTZ
 70
     0
  9
$DIMUPT
 70
     0
  9
$DIMDEC
 70
     2
  9
$DIMTDEC
 70
     2
  9
$DIMALTU
 70
     2
  9
$DIMALTTD
 70
     3
  9
$DIMTXSTY
  7
Standard
  9
$DIMAUNIT
 70
     0
  9
$DIMADEC
 70
     0
  9
$DIMALTRND
 40
0.0
  9
$DIMAZIN
 70
     0
  9
$DIMDSEP
 70
    44
  9
$DIMATFIT
 70
     3
  9
$DIMFRAC
 70
     0
  9
$DIMLDRBLK
  1

  9
$DIMLUNIT
 70
     2
  9
$DIMLWD
 70
    -2
  9
$DIMLWE
 70
    -2
  9
$DIMTMOVE
 70
     0
  9
$DIMFXL
 40
1.0
  9
$DIMFXLON
 70
     0
  9
$DIMJOGANG
 40
0.7853981633974483
  9
$DIMTFILL
 70
     0
  9
$DIMTFILLCLR
 70
     0
  9
$DIMARCSYM
 70
     0
  9
$DIMLTYPE
  6

  9
$DIMLTEX1
  6

  9
$DIMLTEX2
  6

  9
$DIMTXTDIRECTION
 70
     0
  9
$LUNITS
 70
     2
  9
$LUPREC
 70
     4
  9
$SKETCHINC
 40
1.0
  9
$FILLETRAD
 40
10.0
  9
$AUNITS
 70
     0
  9
$AUPREC
 70
     0
  9
$MENU
  1
.
  9
$ELEVATION
 40
0.0
  9
$PELEVATION
 40
0.0
  9
$THICKNESS
 40
0.0
  9
$LIMCHECK
 70
     0
  9
$CHAMFERA
 40
0.0
  9
$CHAMFERB
 40
0.0
  9
$CHAMFERC
 40
0.0
  9
$CHAMFERD
 40
0.0
  9
$SKPOLY
 70
     0
  9
$TDCREATE
 40
2458168.987066875
  9
$TDUCREATE
 40
2458168.945400208
  9
$TDUPDATE
 40
2458168.98706706
  9
$TDUUPDATE
 40
2458168.945400394
  9
$TDINDWG
 40
0.0000000116
  9
$TDUSRTIMER
 40
0.0000000116
  9
$USRTIMER
 70
     1
  9
$ANGBASE
 50
0.0
  9
$ANGDIR
 70
     0
  9
$PDMODE
 70
     0
  9
$PDSIZE
 40
0.0
  9
$PLINEWID
 40
0.0
  9
$SPLFRAME
 70
     0
  9
$SPLINETYPE
 70
     6
  9
$SPLINESEGS
 70
     8
  9
$HANDSEED
  5
1E7
  9
$SURFTAB1
 70
     6
  9
$SURFTAB2
 70
     6
  9
$SURFTYPE
 70
     6
  9
$SURFU
 70
     6
  9
$SURFV
 70
     6
  9
$UCSBASE
  2

  9
$UCSNAME
  2

  9
$UCSORG
 10
0.0
 20
0.0
 30
0.0
  9
$UCSXDIR
 10
1.0
 20
0.0
 30
0.0
  9
$UCSYDIR
 10
0.0
 20
1.0
 30
0.0
  9
$UCSORTHOREF
  2

  9
$UCSORTHOVIEW
 70
     0
  9
$UCSORGTOP
 10
0.0
 20
0.0
 30
0.0
  9
$UCSORGBOTTOM
 10
0.0
 20
0.0
 30
0.0
  9
$UCSORGLEFT
 10
0.0
 20
0.0
 30
0.0
  9
$UCSORGRIGHT
 10
0.0
 20
0.0
 30
0.0
  9
$UCSORGFRONT
 10
0.0
 20
0.0
 30
0.0
  9
$UCSORGBACK
 10
0.0
 20
0.0
 30
0.0
  9
$PUCSBASE
  2

  9
$PUCSNAME
  2

  9
$PUCSORG
 10
0.0
 20
0.0
 30
0.0
  9
$PUCSXDIR
 10
1.0
 20
0.0
 30
0.0
  9
$PUCSYDIR
 10
0.0
 20
1.0
 30
0.0
  9
$PUCSORTHOREF
  2

  9
$PUCSORTHOVIEW
 70
     0
  9
$PUCSORGTOP
 10
0.0
 20
0.0
 30
0.0
  9
$PUCSORGBOTTOM
 10
0.0
 20
0.0
 30
0.0
  9
$PUCSORGLEFT
 10
0.0
 20
0.0
 30
0.0
  9
$PUCSORGRIGHT
 10
0.0
 20
0.0
 30
0.0
  9
$PUCSORGFRONT
 10
0.0
 20
0.0
 30
0.0
  9
$PUCSORGBACK
 10
0.0
 20
0.0
 30
0.0
  9
$USERI1
 70
     0
  9
$USERI2
 70
     0
  9
$USERI3
 70
     0
  9
$USERI4
 70
     0
  9
$USERI5
 70
     0
  9
$USERR1
 40
0.0
  9
$USERR2
 40
0.0
  9
$USERR3
 40
0.0
  9
$USERR4
 40
0.0
  9
$USERR5
 40
0.0
  9
$WORLDVIEW
 70
     1
  9
$SHADEDGE
 70
     3
  9
$SHADEDIF
 70
    70
  9
$TILEMODE
 70
     1
  9
$MAXACTVP
 70
    64
  9
$PINSBASE
 10
0.0
 20
0.0
 30
0.0
  9
$PLIMCHECK
 70
     0
  9
$PEXTMIN
 10
1.000000000000000E+20
 20
1.000000000000000E+20
 30
1.000000000000000E+20
  9
$PEXTMAX
 10
-1.000000000000000E+20
 20
-1.000000000000000E+20
 30
-1.000000000000000E+20
  9
$PLIMMIN
 10
0.0
 20
0.0
  9
$PLIMMAX
 10
420.0
 20
297.0
  9
$UNITMODE
 70
     0
  9
$VISRETAIN
 70
     1
  9
$PLINEGEN
 70
     0
  9
$PSLTSCALE
 70
     1
  9
$TREEDEPTH
 70
  3020
  9
$CMLSTYLE
  2
Standard
  9
$CMLJUST
 70
     0
  9
$CMLSCALE
 40
20.0
  9
$PROXYGRAPHICS
 70
     1
  9
$MEASUREMENT
 70
     1
  9
$CELWEIGHT
370
    -1
  9
$ENDCAPS
280
     0
  9
$JOINSTYLE
280
     0
  9
$LWDISPLAY
290
     0
  9
$INSUNITS
 70
     4
  9
$HYPERLINKBASE
  1

  9
$STYLESHEET
  1

  9
$XEDIT
290
     1
  9
$CEPSNTYPE
380
     0
  9
$PSTYLEMODE
290
     1
  9
$FINGERPRINTGUID
  2
{99B071EB-EFE5-4FC3-949A-FF199815012B}
  9
$VERSIONGUID
  2
{FAEB1C32-E019-11D5-929B-00C0DF256EC4}
  9
$EXTNAMES
290
     1
  9
$PSVPSCALE
 40
0.0
  9
$OLESTARTUP
290
     0
  9
$SORTENTS
280
   127
  9
$INDEXCTL
280
     0
  9
$HIDETEXT
280
     1
  9
$XCLIPFRAME
280
     2
  9
$HALOGAP
280
     0
  9
$OBSCOLOR
 70
   257
  9
$OBSLTYPE
280
     0
  9
$INTERSECTIONDISPLAY
280
     0
  9
$INTERSECTIONCOLOR
 70
   257
  9
$DIMASSOC
280
     2
  9
$PROJECTNAME
  1

  9
$CAMERADISPLAY
290
     0
  9
$LENSLENGTH
 40
50.0
  9
$CAMERAHEIGHT
 40
0.0
  9
$STEPSPERSEC
 40
2.0
  9
$STEPSIZE
 40
6.0
  9
$3DDWFPREC
 40
2.0
  9
$PSOLWIDTH
 40
5.0
  9
$PSOLHEIGHT
 40
80.0
  9
$LOFTANG1
 40
1.570796326794897
  9
$LOFTANG2
 40
1.570796326794897
  9
$LOFTMAG1
 40
0.0
  9
$LOFTMAG2
 40
0.0
  9
$LOFTPARAM
 70
     7
  9
$LOFTNORMALS
280
     1
  9
$LATITUDE
 40
37.795
  9
$LONGITUDE
 40
-122.394
  9
$NORTHDIRECTION
 40
0.0
  9
$TIMEZONE
 70
 -8000
  9
$LIGHTGLYPHDISPLAY
280
     1
  9
$TILEMODELIGHTSYNCH
280
     1
  9
$CMATERIAL
347
44
  9
$SOLIDHIST
280
     0
  9
$SHOWHIST
280
     1
  9
$DWFFRAME
280
     2
  9
$DGNFRAME
280
     2
  9
$REALWORLDSCALE
290
     1
  9
$INTERFERECOLOR
 62
   256
  9
$CSHADOW
280
     0
  9
$SHADOWPLANELOCATION
 40
0.0
  0
ENDSEC
  0
SECTION
  2
CLASSES
  0
CLASS
  1
ACDBDICTIONARYWDFLT
  2
AcDbDictionaryWithDefault
  3
ObjectDBX Classes
 90
        0
 91
        4
280
     0
281
     0
  0
CLASS
  1
VISUALSTYLE
  2
AcDbVisualStyle
  3
ObjectDBX Classes
 90
     4095
 91
        4
280
     0
281
     0
  0
CLASS
  1
MATERIAL
  2
AcDbMaterial
  3
ObjectDBX Classes
 90
     1153
 91
        4
280
     0
281
     0
  0
CLASS
  1
SCALE
  2
AcDbScale
  3
ObjectDBX Classes
 90
     1153
 91
        4
280
     0
281
     0
  0
CLASS
  1
TABLESTYLE
  2
AcDbTableStyle
  3
ObjectDBX Classes
 90
     4095
 91
        4
280
     0
281
     0
  0
CLASS
  1
MLEADERSTYLE
  2
AcDbMLeaderStyle
  3
ACDB_MLEADERSTYLE_CLASS
 90
     4095
 91
        4
280
     0
281
     0
  0
CLASS
  1
SUN
  2
AcDbSun
  3
SCENEOE
 90
     1153
 91
        4
280
     0
281
     0
  0
CLASS
  1
DICTIONARYVAR
  2
AcDbDictionaryVar
  3
ObjectDBX Classes
 90
        0
 91
        4
280
     0
281
     0
  0
CLASS
  1
CELLSTYLEMAP
  2
AcDbCellStyleMap
  3
ObjectDBX Classes
 90
     1152
 91
        4
280
     0
281
     0
  0
ENDSEC
  0
SECTION
  2
TABLES
  0
TABLE
  2
VPORT
  5
8
330
0
100
AcDbSymbolTable
 70
     1
  0
VPORT
  5
29
330
8
100
AcDbSymbolTableRecord
100
AcDbViewportTableRecord
  2
*Active
 70
     0
 10
0.0
 20
0.0
 11
1.0
 21
1.0
 12
0.0
 22
-2.047500000000014
 13
0.0
 23
0.0
 14
10.0
 24
10.0
 15
10.0
 25
10.0
 16
0.0
 26
0.0
 36
1.0
 17
0.0
 27
0.0
 37
0.0
 40
54.10589999999998
 41
3.112451691959659
 42
50.0
 43
0.0
 44
0.0
 50
0.0
 51
0.0
 71
     0
 72
   100
 73
     1
 74
     3
 75
     0
 76
     0
 77
     0
 78
     0
281
     0
 65
     1
110
0.0
120
0.0
130
0.0
111
1.0
121
0.0
131
0.0
112
0.0
122
1.0
132
0.0
 79
     0
146
0.0
348
2F
 60
     3
 61
     5
292
     1
282
     1
141
0.0
142
0.0
 63
   250
361
6D
  0
ENDTAB
  0
TABLE
  2
LTYPE
  5
5
330
0
100
AcDbSymbolTable
 70
     3
  0
LTYPE
  5
14
330
5
100
AcDbSymbolTableRecord
100
AcDbLinetypeTableRecord
  2
ByBlock
 70
     0
  3

 72
    65
 73
     0
 40
0.0
  0
LTYPE
  5
15
330
5
100
AcDbSymbolTableRecord
100
AcDbLinetypeTableRecord
  2
ByLayer
 70
     0
  3

 72
    65
 73
     0
 40
0.0
  0
LTYPE
  5
16
330
5
100
AcDbSymbolTableRecord
100
AcDbLinetypeTableRecord
  2
Continuous
 70
     0
  3
Solid line
 72
    65
 73
     0
 40
0.0
  0
LTYPE
  5
9B
330
5
100
AcDbSymbolTableRecord
100
AcDbLinetypeTableRecord
  2
Dashed
 70
     0
  3

 72
    65
 73
     2
 40
2.0
 49
1.0
 74
     0
 49
-1.0
 74
     0
  0
LTYPE
  5
119
330
5
100
AcDbSymbolTableRecord
100
AcDbLinetypeTableRecord
  2
Center
 70
     0
  3

 72
    65
 73
     4
 40
1.5
 49
0.45
 74
     0
 49
-0.5
 74
     0
 49
0.05
 74
     0
 49
-0.5
 74
     0
  0
ENDTAB
  0
TABLE
  2
LAYER
  5
2
330
0
100
AcDbSymbolTable
 70
     7
  0
LAYER
  5
10
330
2
100
AcDbSymbolTableRecord
100
AcDbLayerTableRecord
  2
0
 70
     0
 62
     7
  6
Continuous
370
    -3
390
F
347
46
348
0
  0
LAYER
  5
72
330
2
100
AcDbSymbolTableRecord
100
AcDbLayerTableRecord
  2
AM_6
 70
     0
 62
    -2
  6
Continuous
370
    35
390
F
347
46
348
0
  0
LAYER
  5
9C
330
2
100
AcDbSymbolTableRecord
100
AcDbLayerTableRecord
  2
AM_9
 70
     0
 62
     6
  6
Dashed
370
    25
390
F
347
46
348
0
  0
LAYER
  5
B9
330
2
100
AcDbSymbolTableRecord
100
AcDbLayerTableRecord
  2
AM_4
 70
     0
 62
     7
  6
Continuous
370
    50
390
F
347
46
348
0
  0
LAYER
  5
11A
330
2
100
AcDbSymbolTableRecord
100
AcDbLayerTableRecord
  2
AM_7
 70
     0
 62
     7
  6
Center
370
    25
390
F
347
46
348
0
  0
LAYER
  5
12F
330
2
100
AcDbSymbolTableRecord
100
AcDbLayerTableRecord
  2
AM_5
 70
     0
 62
     3
  6
Continuous
370
    25
390
F
347
46
348
0
  0
LAYER
  5
1DA
330
2
100
AcDbSymbolTableRecord
100
AcDbLayerTableRecord
  2
ConnectionPoints
 70
     0
 62
     7
  6
Continuous
370
    50
390
F
347
46
348
0
  0
ENDTAB
  0
TABLE
  2
STYLE
  5
3
330
0
100
AcDbSymbolTable
 70
     1
  0
STYLE
  5
11
330
3
100
AcDbSymbolTableRecord
100
AcDbTextStyleTableRecord
  2
Standard
 70
     0
 40
0.0
 41
1.0
 50
0.0
 71
     0
 42
2.5
  3
txt
  4

  0
ENDTAB
  0
TABLE
  2
VIEW
  5
6
330
0
100
AcDbSymbolTable
 70
     0
  0
ENDTAB
  0
TABLE
  2
UCS
  5
7
330
0
100
AcDbSymbolTable
 70
     0
  0
ENDTAB
  0
TABLE
  2
APPID
  5
9
330
0
100
AcDbSymbolTable
 70
     1
  0
APPID
  5
12
330
9
100
AcDbSymbolTableRecord
100
AcDbRegAppTableRecord
  2
ACAD
 70
     0
  0
ENDTAB
  0
TABLE
  2
DIMSTYLE
  5
A
330
0
100
AcDbSymbolTable
 70
     1
100
AcDbDimStyleTable
  0
DIMSTYLE
105
27
330
A
100
AcDbSymbolTableRecord
100
AcDbDimStyleTableRecord
  2
ISO-25
 70
     0
 41
2.5
 42
0.625
 43
3.75
 44
1.25
 73
     0
 74
     0
 77
     1
 78
     8
140
2.5
141
2.5
143
0.03937007874016
147
0.625
171
     3
172
     1
178
     0
271
     2
272
     2
274
     3
278
    44
283
     0
284
     8
340
11
  0
ENDTAB
  0
TABLE
  2
BLOCK_RECORD
  5
1
330
0
100
AcDbSymbolTable
 70
     5
  0
BLOCK_RECORD
  5
1F
330
1
100
AcDbSymbolTableRecord
100
AcDbBlockTableRecord
  2
*Model_Space
340
22
 70
     0
280
     1
281
     0
  0
BLOCK_RECORD
  5
1B
330
1
100
AcDbSymbolTableRecord
100
AcDbBlockTableRecord
  2
*Paper_Space
340
1E
 70
     0
280
     1
281
     0
  0
BLOCK_RECORD
  5
23
330
1
100
AcDbSymbolTableRecord
100
AcDbBlockTableRecord
  2
*Paper_Space0
340
26
 70
     0
280
     1
281
     0
  0
BLOCK_RECORD
  5
6E
330
1
100
AcDbSymbolTableRecord
100
AcDbBlockTableRecord
  2
1_053717_4
340
0
102
{BLKREFS
331
6F
102
}
 70
     0
280
     1
281
     0
  0
BLOCK_RECORD
  5
8F
330
1
100
AcDbSymbolTableRecord
100
AcDbBlockTableRecord
  2
2_405015E_Metric_0_in_053717_4
340
0
102
{BLKREFS
331
90
102
}
 70
     0
280
     1
281
     0
  0
BLOCK_RECORD
  5
D7
330
1
100
AcDbSymbolTableRecord
100
AcDbBlockTableRecord
  2
3_125808_0_in_053717_4
340
0
102
{BLKREFS
331
D8
102
}
 70
     0
280
     1
281
     0
  0
BLOCK_RECORD
  5
132
330
1
100
AcDbSymbolTableRecord
100
AcDbBlockTableRecord
  2
4_053717H_0_in_053717_4
340
0
102
{BLKREFS
331
133
102
}
 70
     0
280
     1
281
     0
  0
ENDTAB
  0
ENDSEC
  0
SECTION
  2
BLOCKS
  0
BLOCK
  5
20
330
1F
100
AcDbEntity
  8
0
100
AcDbBlockBegin
  2
*Model_Space
 70
     0
 10
0.0
 20
0.0
 30
0.0
  3
*Model_Space
  1

  0
ENDBLK
  5
21
330
1F
100
AcDbEntity
  8
0
100
AcDbBlockEnd
  0
BLOCK
  5
1C
330
1B
100
AcDbEntity
 67
     1
  8
0
100
AcDbBlockBegin
  2
*Paper_Space
 70
     0
 10
0.0
 20
0.0
 30
0.0
  3
*Paper_Space
  1

  0
ENDBLK
  5
1D
330
1B
100
AcDbEntity
 67
     1
  8
0
100
AcDbBlockEnd
  0
BLOCK
  5
24
330
23
100
AcDbEntity
  8
0
100
AcDbBlockBegin
  2
*Paper_Space0
 70
     0
 10
0.0
 20
0.0
 30
0.0
  3
*Paper_Space0
  1

  0
ENDBLK
  5
25
330
23
100
AcDbEntity
  8
0
100
AcDbBlockEnd
  0
BLOCK
  5
70
330
6E
100
AcDbEntity
  8
0
100
AcDbBlockBegin
  2
1_053717_4
 70
     2
 10
0.0
 20
0.0
 30
0.0
  3
1_053717_4
  1

  0
ATTDEF
  5
73
330
6E
100
AcDbEntity
  8
AM_6
100
AcDbText
 10
87.55
 20
24.475
 30
0.0
 40
0.5
  1
Set Screw Air-Handling Two-Bolt Pillow Block Metric Bore
100
AcDbAttributeDefinition
  3

  2
NN
 70
     8
280
     0
  0
ATTDEF
  5
74
330
6E
100
AcDbEntity
  8
AM_6
100
AcDbText
 10
87.55
 20
23.975
 30
0.0
 40
0.5
  1
SC Pillow Block Bearings -(Normal Duty) -Air Handling
100
AcDbAttributeDefinition
  3

  2
NT
 70
     8
280
     0
  0
ATTDEF
  5
75
330
6E
100
AcDbEntity
  8
AM_6
100
AcDbText
 10
87.55
 20
23.475
 30
0.0
 40
0.5
  1
053717
100
AcDbAttributeDefinition
  3

  2
NB
 70
     8
280
     0
  0
ATTDEF
  5
76
330
6E
100
AcDbEntity
  8
AM_6
100
AcDbText
 10
87.55
 20
22.975
 30
0.0
 40
0.5
  1
$PN.
100
AcDbAttributeDefinition
  3

  2
NBSYN
 70
     8
280
     0
  0
ATTDEF
  5
77
330
6E
100
AcDbEntity
  8
AM_6
100
AcDbText
 10
87.55
 20
22.475
 30
0.0
 40
0.5
  1
053717
100
AcDbAttributeDefinition
  3

  2
LINA
 70
     8
280
     0
  0
ATTDEF
  5
78
330
6E
100
AcDbEntity
  8
AM_6
100
AcDbText
 10
87.55
 20
21.975
 30
0.0
 40
0.5
  1
207
100
AcDbAttributeDefinition
  3

  2
SERIES
 70
     8
280
     0
  0
ATTDEF
  5
79
330
6E
100
AcDbEntity
  8
AM_6
100
AcDbText
 10
87.55
 20
21.475
 30
0.0
 40
0.5
  1
35
100
AcDbAttributeDefinition
  3

  2
SS
 70
     8
280
     0
  0
ATTDEF
  5
7A
330
6E
100
AcDbEntity
  8
AM_6
100
AcDbText
 10
87.55
 20
20.975
 30
0.0
 40
0.5
  1
053717
100
AcDbAttributeDefinition
  3

  2
PN
 70
     8
280
     0
  0
ATTDEF
  5
7B
330
6E
100
AcDbEntity
  8
AM_6
100
AcDbText
 10
87.55
 20
20.475
 30
0.0
 40
0.5
  1
P2B-SCAH-35M
100
AcDbAttributeDefinition
  3

  2
DESCRIPTION
 70
     8
280
     0
  0
ATTDEF
  5
7C
330
6E
100
AcDbEntity
  8
AM_6
100
AcDbText
 10
87.55
 20
19.975
 30
0.0
 40
0.5
  1
1.5
100
AcDbAttributeDefinition
  3

  2
WEIGHT
 70
     8
280
     0
  0
ATTDEF
  5
7D
330
6E
100
AcDbEntity
  8
AM_6
100
AcDbText
 10
87.55
 20
19.475
 30
0.0
 40
0.5
  1
43.4
100
AcDbAttributeDefinition
  3

  2
A
 70
     8
280
     0
  0
ATTDEF
  5
7E
330
6E
100
AcDbEntity
  8
AM_6
100
AcDbText
 10
87.55
 20
18.975
 30
0.0
 40
0.5
  1
165.1
100
AcDbAttributeDefinition
  3

  2
B
 70
     8
280
     0
  0
ATTDEF
  5
7F
330
6E
100
AcDbEntity
  8
AM_6
100
AcDbText
 10
87.55
 20
18.475
 30
0.0
 40
0.5
  1
44.5
100
AcDbAttributeDefinition
  3

  2
C
 70
     8
280
     0
  0
ATTDEF
  5
80
330
6E
100
AcDbEntity
  8
AM_6
100
AcDbText
 10
87.55
 20
17.975
 30
0.0
 40
0.5
  1
118.9
100
AcDbAttributeDefinition
  3

  2
DMIN
 70
     8
280
     0
  0
ATTDEF
  5
81
330
6E
100
AcDbEntity
  8
AM_6
100
AcDbText
 10
87.55
 20
17.475
 30
0.0
 40
0.5
  1
138.2
100
AcDbAttributeDefinition
  3

  2
DMAX
 70
     8
280
     0
  0
ATTDEF
  5
82
330
6E
100
AcDbEntity
  8
AM_6
100
AcDbText
 10
87.55
 20
16.975
 30
0.0
 40
0.5
  1
M12
100
AcDbAttributeDefinition
  3

  2
F
 70
     8
280
     0
  0
ATTDEF
  5
83
330
6E
100
AcDbEntity
  8
AM_6
100
AcDbText
 10
87.55
 20
16.475
 30
0.0
 40
0.5
  1
23.9
100
AcDbAttributeDefinition
  3

  2
G
 70
     8
280
     0
  0
ATTDEF
  5
84
330
6E
100
AcDbEntity
  8
AM_6
100
AcDbText
 10
87.55
 20
15.975
 30
0.0
 40
0.5
  1
18.0
100
AcDbAttributeDefinition
  3

  2
H
 70
     8
280
     0
  0
ATTDEF
  5
85
330
6E
100
AcDbEntity
  8
AM_6
100
AcDbText
 10
87.55
 20
15.475
 30
0.0
 40
0.5
  1
95.3
100
AcDbAttributeDefinition
  3

  2
J
 70
     8
280
     0
  0
ATTDEF
  5
86
330
6E
100
AcDbEntity
  8
AM_6
100
AcDbText
 10
87.55
 20
14.975
 30
0.0
 40
0.5
  1
46.7
100
AcDbAttributeDefinition
  3

  2
L
 70
     8
280
     0
  0
ATTDEF
  5
87
330
6E
100
AcDbEntity
  8
AM_6
100
AcDbText
 10
87.55
 20
14.475
 30
0.0
 40
0.5
  1
47.8
100
AcDbAttributeDefinition
  3

  2
M
 70
     8
280
     0
  0
ATTDEF
  5
88
330
6E
100
AcDbEntity
  8
AM_6
100
AcDbText
 10
87.55
 20
13.975
 30
0.0
 40
0.5
  1
17.0
100
AcDbAttributeDefinition
  3

  2
R
 70
     8
280
     0
  0
ATTDEF
  5
89
330
6E
100
AcDbEntity
  8
AM_6
100
AcDbText
 10
87.55
 20
13.475
 30
0.0
 40
0.5
  1
26.4
100
AcDbAttributeDefinition
  3

  2
S
 70
     8
280
     0
  0
ATTDEF
  5
8A
330
6E
100
AcDbEntity
  8
AM_6
100
AcDbText
 10
87.55
 20
12.975
 30
0.0
 40
0.5
  1
73.9
100
AcDbAttributeDefinition
  3

  2
U
 70
     8
280
     0
  0
ATTDEF
  5
8B
330
6E
100
AcDbEntity
  8
AM_6
100
AcDbText
 10
87.55
 20
12.475
 30
0.0
 40
0.5
  1
147.8
100
AcDbAttributeDefinition
  3

  2
V
 70
     8
280
     0
  0
ATTDEF
  5
8C
330
6E
100
AcDbEntity
  8
AM_6
100
AcDbText
 10
87.55
 20
11.975
 30
0.0
 40
0.5
  1
14.2
100
AcDbAttributeDefinition
  3

  2
W
 70
     8
280
     0
  0
ATTDEF
  5
8D
330
6E
100
AcDbEntity
  8
AM_6
100
AcDbText
 10
87.55
 20
11.475
 30
0.0
 40
0.5
  1
3.0
100
AcDbAttributeDefinition
  3

  2
X
 70
     8
280
     0
  0
ATTDEF
  5
8E
330
6E
100
AcDbEntity
  8
AM_6
100
AcDbText
 10
87.55
 20
10.975
 30
0.0
 40
0.5
  1
baldor
100
AcDbAttributeDefinition
  3

  2
COMPANY
 70
     8
280
     0
  0
INSERT
  5
90
330
6E
100
AcDbEntity
  8
0
100
AcDbBlockReference
  2
2_405015E_Metric_0_in_053717_4
 10
0.0
 20
0.0
 30
0.0
  0
INSERT
  5
D8
330
6E
100
AcDbEntity
  8
0
100
AcDbBlockReference
  2
3_125808_0_in_053717_4
 10
0.0
 20
0.0
 30
0.0
  0
INSERT
  5
133
330
6E
100
AcDbEntity
  8
0
100
AcDbBlockReference
  2
4_053717H_0_in_053717_4
 10
0.0
 20
0.0
 30
0.0
  0
ENDBLK
  5
71
330
6E
100
AcDbEntity
  8
0
100
AcDbBlockEnd
  0
BLOCK
  5
91
330
8F
100
AcDbEntity
  8
0
100
AcDbBlockBegin
  2
2_405015E_Metric_0_in_053717_4
 70
     2
 10
0.0
 20
0.0
 30
0.0
  3
2_405015E_Metric_0_in_053717_4
  1

  0
ATTDEF
  5
93
330
8F
100
AcDbEntity
  8
AM_6
100
AcDbText
 10
46.99644885929965
 20
5.000000000000002
 30
0.0
 40
0.5
  1
405015E -Metric
100
AcDbAttributeDefinition
  3

  2
NN
 70
     8
280
     0
  0
ATTDEF
  5
94
330
8F
100
AcDbEntity
  8
AM_6
100
AcDbText
 10
46.99644885929965
 20
4.500000000000002
 30
0.0
 40
0.5
  1
Grease Fitting
100
AcDbAttributeDefinition
  3

  2
NT
 70
     8
280
     0
  0
ATTDEF
  5
95
330
8F
100
AcDbEntity
  8
AM_6
100
AcDbText
 10
46.99644885929965
 20
4.000000000000002
 30
0.0
 40
0.5
  1
405015E-Metric
100
AcDbAttributeDefinition
  3

  2
NB
 70
     8
280
     0
  0
ATTDEF
  5
96
330
8F
100
AcDbEntity
  8
AM_6
100
AcDbText
 10
46.99644885929965
 20
3.500000000000002
 30
0.0
 40
0.5
  1
$MN.-Metric
100
AcDbAttributeDefinition
  3

  2
NBSYN
 70
     8
280
     0
  0
ATTDEF
  5
97
330
8F
100
AcDbEntity
  8
AM_6
100
AcDbText
 10
46.99644885929965
 20
3.000000000000002
 30
0.0
 40
0.5
  1
405015E
100
AcDbAttributeDefinition
  3

  2
LINA
 70
     8
280
     0
  0
ATTDEF
  5
98
330
8F
100
AcDbEntity
  8
AM_6
100
AcDbText
 10
46.99644885929965
 20
2.500000000000002
 30
0.0
 40
0.5
  1
405015E
100
AcDbAttributeDefinition
  3

  2
MN
 70
     8
280
     0
  0
ATTDEF
  5
99
330
8F
100
AcDbEntity
  8
AM_6
100
AcDbText
 10
46.99644885929965
 20
2.000000000000002
 30
0.0
 40
0.5
  1
1/8 x 27PTF
100
AcDbAttributeDefinition
  3

  2
T
 70
     8
280
     0
  0
ATTDEF
  5
9A
330
8F
100
AcDbEntity
  8
AM_6
100
AcDbText
 10
46.99644885929965
 20
1.500000000000002
 30
0.0
 40
0.5
  1
baldor
100
AcDbAttributeDefinition
  3

  2
COMPANY
 70
     8
280
     0
  0
LWPOLYLINE
  5
9D
330
8F
100
AcDbEntity
  8
AM_9
100
AcDbPolyline
 90
        3
 70
     0
 43
0.0
 10
37.81660955350388
 20
0.0000000000000018
 10
37.20106375707275
 20
-1.244379663409131
 10
36.64943428483997
 20
-2.499999999999997
  0
LWPOLYLINE
  5
9E
330
8F
100
AcDbEntity
  8
AM_9
100
AcDbPolyline
 90
        3
 70
     0
 43
0.0
 10
36.64943428483997
 20
2.500000000000002
 10
37.19842752296116
 20
1.250000000000001
 10
37.81660955350388
 20
0.0000000000000018
  0
ELLIPSE
  5
9F
330
8F
100
AcDbEntity
  8
AM_9
100
AcDbEllipse
 10
28.82803636219435
 20
0.0000000000000018
 30
0.0
 11
2.546036870355444E-16
 21
4.15799375318352
 31
0.0
210
0.0
220
0.0
230
1.0
 40
0.7071067811865476
 41
0.0
 42
6.283185307179586
  0
LWPOLYLINE
  5
A0
330
8F
100
AcDbEntity
  8
AM_9
100
AcDbPolyline
 90
        3
 70
     0
 43
0.0
 10
38.77075462839962
 20
-2.499999999999996
 10
39.24238211643808
 20
-1.249999999999997
 10
39.64482081205502
 20
0.0000000000000021
  0
LWPOLYLINE
  5
A1
330
8F
100
AcDbEntity
  8
AM_9
100
AcDbPolyline
 90
        3
 70
     0
 43
0.0
 10
39.64482081205502
 20
0.0000000000000021
 10
39.2443348679366
 20
1.244379663409136
 10
38.77075462839962
 20
2.500000000000002
  0
LWPOLYLINE
  5
A2
330
8F
100
AcDbEntity
  8
AM_9
100
AcDbPolyline
 90
        3
 70
     0
 43
0.0
 10
35.77536810118457
 20
5.000000000000002
 10
36.17585404530298
 20
3.755620336590868
 10
36.64943428483997
 20
2.500000000000002
  0
LINE
  5
A3
330
8F
100
AcDbEntity
  8
AM_9
100
AcDbLine
 10
39.64482081205502
 20
0.0000000000000021
 30
0.0
 11
37.81660955350388
 21
0.0000000000000018
 31
0.0
  0
LWPOLYLINE
  5
A4
330
8F
100
AcDbEntity
  8
AM_9
100
AcDbPolyline
 90
        3
 70
     0
 43
0.0
 10
36.64943428483997
 20
-2.499999999999997
 10
36.17780679680151
 20
-3.749999999999997
 10
35.77536810118457
 20
-4.999999999999998
  0
LINE
  5
A5
330
8F
100
AcDbEntity
  8
AM_9
100
AcDbLine
 10
38.51488927523705
 20
-3.104254568357336
 30
0.0
 11
38.77075462839962
 21
-2.499999999999996
 31
0.0
  0
LINE
  5
A6
330
8F
100
AcDbEntity
  8
AM_9
100
AcDbLine
 10
38.77075462839962
 20
2.500000000000002
 30
0.0
 11
38.50953817668199
 21
3.116449847138779
 31
0.0
  0
LINE
  5
A7
330
8F
100
AcDbEntity
  8
AM_9
100
AcDbLine
 10
29.14718183228918
 20
-4.755705400136178
 30
0.0
 11
33.47801627891862
 21
-4.947206153900054
 31
0.0
  0
LINE
  5
A8
330
8F
100
AcDbEntity
  8
AM_9
100
AcDbLine
 10
33.47801627891862
 20
4.947206153900058
 30
0.0
 11
29.14718183228918
 21
4.755705400136182
 31
0.0
  0
ELLIPSE
  5
A9
330
8F
100
AcDbEntity
  8
AM_9
100
AcDbEllipse
 10
35.70889244991952
 20
-0.000000000000469
 30
0.0
 11
-9.184850993606667E-16
 21
-5.000000000000826
 31
0.0
210
0.0
220
0.0
230
1.0
 40
0.7071067811866509
 41
0.8982051386274623
 42
2.24338751496248
  0
LINE
  5
AA
330
8F
100
AcDbEntity
  8
AM_9
100
AcDbLine
 10
38.48858148033059
 20
1.989928832732516
 30
0.0
 11
38.2247620084437
 21
2.406586417453949
 31
0.0
  0
LINE
  5
AB
330
8F
100
AcDbEntity
  8
AM_9
100
AcDbLine
 10
38.2247620084437
 20
-2.406586417453943
 30
0.0
 11
38.48858148033059
 21
-1.989928832732511
 31
0.0
  0
ELLIPSE
  5
AC
330
8F
100
AcDbEntity
  8
AM_9
100
AcDbEllipse
 10
36.91720591945205
 20
-0.0000000000000251
 30
0.0
 11
-5.479672885901575E-16
 21
-2.982994982562448
 31
0.0
210
0.0
220
0.0
230
1.0
 40
0.7071067811865475
 41
0.3869422381883707
 42
2.754650415401427
  0
ELLIPSE
  5
AD
330
8F
100
AcDbEntity
  8
AM_9
100
AcDbEllipse
 10
36.32436686903017
 20
-0.0000000000036553
 30
0.0
 11
-6.627024103758560E-16
 21
-3.607583894595869
 31
0.0
210
0.0
220
0.0
230
1.0
 40
0.707106781184444
 41
0.6633833151870006
 42
2.478209338404044
  0
LINE
  5
AE
330
8F
100
AcDbEntity
  8
AM_9
100
AcDbLine
 10
38.20811467229367
 20
2.477229919855584
 30
0.0
 11
37.73655302142868
 21
2.748977116714938
 31
0.0
  0
LINE
  5
AF
330
8F
100
AcDbEntity
  8
AM_9
100
AcDbLine
 10
37.73655302142868
 20
-2.748977116714933
 30
0.0
 11
38.20811467229367
 21
-2.477229919855578
 31
0.0
  0
ELLIPSE
  5
B0
330
8F
100
AcDbEntity
  8
AM_9
100
AcDbEllipse
 10
37.49433707241668
 20
-0.000000000000009
 30
0.0
 11
-4.913895281578726E-16
 21
-2.674999999999984
 31
0.0
210
0.0
220
0.0
230
1.0
 40
0.7071067811865472
 41
0.0
 42
3.141592653589793
  0
ELLIPSE
  5
B1
330
8F
100
AcDbEntity
  8
AM_9
100
AcDbEllipse
 10
35.70889244992063
 20
0.000000000000002
 30
0.0
 11
-8.725608443924834E-16
 21
-4.749999999999969
 31
0.0
210
0.0
220
0.0
230
1.0
 40
0.7071067811865533
 41
0.8736482899485711
 42
2.267944363641221
  0
LINE
  5
B2
330
8F
100
AcDbEntity
  8
AM_9
100
AcDbLine
 10
37.61100969131245
 20
-2.674999999999997
 30
0.0
 11
37.98931181924726
 21
-2.674999999999997
 31
0.0
  0
LINE
  5
B3
330
8F
100
AcDbEntity
  8
AM_9
100
AcDbLine
 10
37.98931181924726
 20
2.675000000000002
 30
0.0
 11
37.61100969131245
 21
2.675000000000002
 31
0.0
  0
ELLIPSE
  5
B4
330
8F
100
AcDbEntity
  8
AM_9
100
AcDbEllipse
 10
37.98931181924725
 20
0.0000000000000074
 30
0.0
 11
-4.913895281578777E-16
 21
-2.675000000000012
 31
0.0
210
0.0
220
0.0
230
1.0
 40
0.7071067811865479
 41
5.888394187479827
 42
9.81956908046914
  0
ELLIPSE
  5
B5
330
8F
100
AcDbEntity
  8
AM_9
100
AcDbEllipse
 10
38.90855063478976
 20
0.0000000000000075
 30
0.0
 11
-5.832380380939273E-16
 21
-3.175000000000002
 31
0.0
210
0.0
220
0.0
230
1.0
 40
0.707106781186551
 41
0.4159140521025497
 42
2.725678601487245
  0
ELLIPSE
  5
B6
330
8F
100
AcDbEntity
  8
AM_9
100
AcDbEllipse
 10
33.58757210636097
 20
0.0000000000000029
 30
0.0
 11
-9.184850993605126E-16
 21
-4.999999999999988
 31
0.0
210
0.0
220
0.0
230
1.0
 40
0.707106781186545
 41
0.0
 42
6.283185307179586
  0
ELLIPSE
  5
B7
330
8F
100
AcDbEntity
  8
AM_9
100
AcDbEllipse
 10
33.58757210636099
 20
-0.0000000000000115
 30
0.0
 11
-9.092325864233698E-16
 21
-4.949631665534983
 31
0.0
210
0.0
220
0.0
230
1.0
 40
0.7071067811865476
 41
0.0
 42
6.283185307179586
  0
ELLIPSE
  5
B8
330
8F
100
AcDbEntity
  8
AM_9
100
AcDbEllipse
 10
29.2523256769718
 20
0.0000000000000018
 30
0.0
 11
-8.740358316248941E-16
 21
-4.758029456511771
 31
0.0
210
0.0
220
0.0
230
1.0
 40
0.707106781186547
 41
0.0
 42
6.283185307179586
  0
LWPOLYLINE
  5
BA
330
8F
100
AcDbEntity
  8
AM_4
100
AcDbPolyline
 90
        3
 70
     0
 43
0.0
 10
37.6035793597357
 20
-4.999999999999998
 10
38.21912515616684
 20
-3.755620336590864
 10
38.51488927523705
 20
-3.104254568357336
  0
LWPOLYLINE
  5
BB
330
8F
100
AcDbEntity
  8
AM_4
100
AcDbPolyline
 90
        3
 70
     0
 43
0.0
 10
38.50953817668199
 20
3.116449847138779
 10
38.22176139027843
 20
3.750000000000003
 10
37.6035793597357
 20
5.000000000000002
  0
ELLIPSE
  5
BC
330
8F
100
AcDbEntity
  8
AM_4
100
AcDbEllipse
 10
35.70889244992066
 20
-0.0000000000000551
 30
0.0
 11
-9.184850993605252E-16
 21
-5.000000000000057
 31
0.0
210
0.0
220
0.0
230
1.0
 40
0.7071067811865466
 41
2.243387514962542
 42
7.181390445806855
  0
ELLIPSE
  5
BD
330
8F
100
AcDbEntity
  8
AM_4
100
AcDbEllipse
 10
36.32436686901723
 20
-0.0000000000000036
 30
0.0
 11
-6.627024103768187E-16
 21
-3.60758389460111
 31
0.0
210
0.0
220
0.0
230
1.0
 40
0.7071067811865485
 41
2.478209338400871
 42
6.946568622368515
  0
LINE
  5
BE
330
8F
100
AcDbEntity
  8
AM_4
100
AcDbLine
 10
37.73655302142868
 20
2.748977116714938
 30
0.0
 11
37.71316666677858
 21
2.762453989376798
 31
0.0
  0
LINE
  5
BF
330
8F
100
AcDbEntity
  8
AM_4
100
AcDbLine
 10
37.71316666677858
 20
-2.762453989376794
 30
0.0
 11
37.73655302142868
 21
-2.748977116714933
 31
0.0
  0
ELLIPSE
  5
C0
330
8F
100
AcDbEntity
  8
AM_4
100
AcDbEllipse
 10
36.91720591945201
 20
0.0000000000000018
 30
0.0
 11
-5.479672885901685E-16
 21
-2.982994982562508
 31
0.0
210
0.0
220
0.0
230
1.0
 40
0.7071067811865475
 41
2.754650415401406
 42
6.670127545367974
  0
ELLIPSE
  5
C1
330
8F
100
AcDbEntity
  8
AM_4
100
AcDbEllipse
 10
35.70889244992064
 20
0.0000000000000027
 30
0.0
 11
-8.725608443924896E-16
 21
-4.750000000000003
 31
0.0
210
0.0
220
0.0
230
1.0
 40
0.7071067811865468
 41
2.267944363641219
 42
7.156833597128161
  0
LWPOLYLINE
  5
C2
330
8F
100
AcDbEntity
  8
AM_4
100
AcDbPolyline
 90
        3
 70
     0
 43
0.0
 10
33.52109645509707
 20
5.000000000000002
 10
33.12061051097866
 20
3.755620336590869
 10
32.64703027144166
 20
2.500000000000002
  0
LINE
  5
C3
330
8F
100
AcDbEntity
  8
AM_4
100
AcDbLine
 10
37.6035793597357
 20
5.000000000000002
 30
0.0
 11
31.69288519654594
 21
5.000000000000002
 31
0.0
  0
LWPOLYLINE
  5
C4
330
8F
100
AcDbEntity
  8
AM_4
100
AcDbPolyline
 90
        3
 70
     0
 43
0.0
 10
30.52570992788203
 20
2.500000000000002
 10
31.07470316600321
 20
3.750000000000002
 10
31.69288519654594
 20
5.000000000000002
  0
LWPOLYLINE
  5
C5
330
8F
100
AcDbEntity
  8
AM_4
100
AcDbPolyline
 90
        3
 70
     0
 43
0.0
 10
29.65164374422662
 20
0.0000000000000023
 10
30.05212968834504
 20
1.244379663409135
 10
30.52570992788203
 20
2.500000000000002
  0
LWPOLYLINE
  5
C6
330
8F
100
AcDbEntity
  8
AM_4
100
AcDbPolyline
 90
        3
 70
     0
 43
0.0
 10
32.64703027144166
 20
2.500000000000002
 10
32.09803703332047
 20
1.250000000000002
 10
31.47985500277776
 20
0.0000000000000024
  0
LINE
  5
C7
330
8F
100
AcDbEntity
  8
AM_4
100
AcDbLine
 10
37.6035793597357
 20
-4.999999999999998
 30
0.0
 11
31.69288519654594
 21
-4.999999999999998
 31
0.0
  0
LWPOLYLINE
  5
C8
330
8F
100
AcDbEntity
  8
AM_4
100
AcDbPolyline
 90
        3
 70
     0
 43
0.0
 10
32.64703027144166
 20
-2.499999999999996
 10
33.11865775948014
 20
-3.749999999999997
 10
33.52109645509707
 20
-4.999999999999998
  0
LWPOLYLINE
  5
C9
330
8F
100
AcDbEntity
  8
AM_4
100
AcDbPolyline
 90
        3
 70
     0
 43
0.0
 10
31.47985500277776
 20
0.0000000000000024
 10
32.09540079920889
 20
-1.24437966340913
 10
32.64703027144166
 20
-2.499999999999996
  0
LINE
  5
CA
330
8F
100
AcDbEntity
  8
AM_4
100
AcDbLine
 10
31.47985500277776
 20
0.0000000000000024
 30
0.0
 11
29.65164374422662
 21
0.0000000000000023
 31
0.0
  0
LWPOLYLINE
  5
CB
330
8F
100
AcDbEntity
  8
AM_4
100
AcDbPolyline
 90
        3
 70
     0
 43
0.0
 10
30.52570992788203
 20
-2.499999999999997
 10
30.05408243984356
 20
-1.249999999999997
 10
29.65164374422662
 20
0.0000000000000023
  0
LWPOLYLINE
  5
CC
330
8F
100
AcDbEntity
  8
AM_4
100
AcDbPolyline
 90
        3
 70
     0
 43
0.0
 10
31.69288519654594
 20
-4.999999999999998
 10
31.0773394001148
 20
-3.755620336590864
 10
30.52570992788203
 20
-2.499999999999997
  0
LINE
  5
CD
330
8F
100
AcDbEntity
  8
AM_4
100
AcDbLine
 10
37.49433707241667
 20
-2.674999999999997
 30
0.0
 11
37.61100969131245
 21
-2.674999999999997
 31
0.0
  0
LINE
  5
CE
330
8F
100
AcDbEntity
  8
AM_4
100
AcDbLine
 10
37.61100969131245
 20
2.675000000000002
 30
0.0
 11
37.49433707241667
 21
2.675000000000002
 31
0.0
  0
ELLIPSE
  5
CF
330
8F
100
AcDbEntity
  8
AM_4
100
AcDbEllipse
 10
37.49433707241667
 20
0.0000000000000027
 30
0.0
 11
-4.913895281578752E-16
 21
-2.674999999999998
 31
0.0
210
0.0
220
0.0
230
1.0
 40
0.7071067811865461
 41
3.141592653589793
 42
6.283185307179586
  0
LINE
  5
D0
330
8F
100
AcDbEntity
  8
AM_4
100
AcDbLine
 10
37.26180772706494
 20
-2.469230769230767
 30
0.0
 11
38.04506446930235
 21
-2.930769230769228
 31
0.0
  0
LINE
  5
D1
330
8F
100
AcDbEntity
  8
AM_4
100
AcDbLine
 10
38.04506446930235
 20
2.930769230769233
 30
0.0
 11
37.26180772706494
 21
2.469230769230772
 31
0.0
  0
ELLIPSE
  5
D2
330
8F
100
AcDbEntity
  8
AM_4
100
AcDbEllipse
 10
38.90855063478976
 20
0.0000000000000027
 30
0.0
 11
-5.832380380939246E-16
 21
-3.174999999999987
 31
0.0
210
0.0
220
0.0
230
1.0
 40
0.7071067811865476
 41
2.725678601487244
 42
6.699099359282137
  0
ELLIPSE
  5
D3
330
8F
100
AcDbEntity
  8
AM_4
100
AcDbEllipse
 10
37.98931181924726
 20
0.0000000000000024
 30
0.0
 11
-4.913895281578770E-16
 21
-2.675000000000009
 31
0.0
210
0.0
220
0.0
230
1.0
 40
0.7071067811865461
 41
3.536383773289554
 42
5.888394187479824
  0
LINE
  5
D4
330
8F
100
AcDbEntity
  8
AM_4
100
AcDbLine
 10
40.99897669444418
 20
2.16515911969191
 30
0.0
 11
39.81561538169693
 21
2.904323000259529
 31
0.0
  0
LINE
  5
D5
330
8F
100
AcDbEntity
  8
AM_4
100
AcDbLine
 10
39.81561538169693
 20
-2.904323000259525
 30
0.0
 11
40.99897669444418
 21
-2.165159119691905
 31
0.0
  0
ELLIPSE
  5
D6
330
8F
100
AcDbEntity
  8
AM_4
100
AcDbEllipse
 10
40.32276419716289
 20
0.0000000000000366
 30
0.0
 11
-4.348012108217348E-16
 21
-2.366947548329637
 31
0.0
210
0.0
220
0.0
230
1.0
 40
0.7071067811865465
 41
0.0
 42
6.283185307179586
  0
ENDBLK
  5
92
330
8F
100
AcDbEntity
  8
0
100
AcDbBlockEnd
  0
BLOCK
  5
D9
330
D7
100
AcDbEntity
  8
0
100
AcDbBlockBegin
  2
3_125808_0_in_053717_4
 70
     2
 10
0.0
 20
0.0
 30
0.0
  3
3_125808_0_in_053717_4
  1

  0
ATTDEF
  5
DB
330
D7
100
AcDbEntity
  8
AM_6
100
AcDbText
 10
40.98457015714907
 20
17.0
 30
0.0
 40
0.5
  1
Set Screw Insert Metric Bore - Stainless Steel
100
AcDbAttributeDefinition
  3

  2
NN
 70
     8
280
     0
  0
ATTDEF
  5
DC
330
D7
100
AcDbEntity
  8
AM_6
100
AcDbText
 10
40.98457015714907
 20
16.5
 30
0.0
 40
0.5
  1
SC Bearing Insert -Metric
100
AcDbAttributeDefinition
  3

  2
NT
 70
     8
280
     0
  0
ATTDEF
  5
DD
330
D7
100
AcDbEntity
  8
AM_6
100
AcDbText
 10
40.98457015714907
 20
16.0
 30
0.0
 40
0.5
  1
125808
100
AcDbAttributeDefinition
  3

  2
NB
 70
     8
280
     0
  0
ATTDEF
  5
DE
330
D7
100
AcDbEntity
  8
AM_6
100
AcDbText
 10
40.98457015714907
 20
15.5
 30
0.0
 40
0.5
  1
$PN.
100
AcDbAttributeDefinition
  3

  2
NBSYN
 70
     8
280
     0
  0
ATTDEF
  5
DF
330
D7
100
AcDbEntity
  8
AM_6
100
AcDbText
 10
40.98457015714907
 20
15.0
 30
0.0
 40
0.5
  1
125808
100
AcDbAttributeDefinition
  3

  2
LINA
 70
     8
280
     0
  0
ATTDEF
  5
E0
330
D7
100
AcDbEntity
  8
AM_6
100
AcDbText
 10
40.98457015714907
 20
14.5
 30
0.0
 40
0.5
  1
207
100
AcDbAttributeDefinition
  3

  2
SERIES
 70
     8
280
     0
  0
ATTDEF
  5
E1
330
D7
100
AcDbEntity
  8
AM_6
100
AcDbText
 10
40.98457015714907
 20
14.0
 30
0.0
 40
0.5
  1
35
100
AcDbAttributeDefinition
  3

  2
SS
 70
     8
280
     0
  0
ATTDEF
  5
E2
330
D7
100
AcDbEntity
  8
AM_6
100
AcDbText
 10
40.98457015714907
 20
13.5
 30
0.0
 40
0.5
  1
125808
100
AcDbAttributeDefinition
  3

  2
PN
 70
     8
280
     0
  0
ATTDEF
  5
E3
330
D7
100
AcDbEntity
  8
AM_6
100
AcDbText
 10
40.98457015714907
 20
13.0
 30
0.0
 40
0.5
  1
INS-SC-35
100
AcDbAttributeDefinition
  3

  2
DESCRIPTION
 70
     8
280
     0
  0
ATTDEF
  5
E4
330
D7
100
AcDbEntity
  8
AM_6
100
AcDbText
 10
40.98457015714907
 20
12.5
 30
0.0
 40
0.5
  1
0.44
100
AcDbAttributeDefinition
  3

  2
WEIGHT
 70
     8
280
     0
  0
ATTDEF
  5
E5
330
D7
100
AcDbEntity
  8
AM_6
100
AcDbText
 10
40.98457015714907
 20
12.0
 30
0.0
 40
0.5
  1
43.4
100
AcDbAttributeDefinition
  3

  2
A
 70
     8
280
     0
  0
ATTDEF
  5
E6
330
D7
100
AcDbEntity
  8
AM_6
100
AcDbText
 10
40.98457015714907
 20
11.5
 30
0.0
 40
0.5
  1
19.1
100
AcDbAttributeDefinition
  3

  2
C
 70
     8
280
     0
  0
ATTDEF
  5
E7
330
D7
100
AcDbEntity
  8
AM_6
100
AcDbText
 10
40.98457015714907
 20
11.0
 30
0.0
 40
0.5
  1
72
100
AcDbAttributeDefinition
  3

  2
D
 70
     8
280
     0
  0
ATTDEF
  5
E8
330
D7
100
AcDbEntity
  8
AM_6
100
AcDbText
 10
40.98457015714907
 20
10.5
 30
0.0
 40
0.5
  1
5.1
100
AcDbAttributeDefinition
  3

  2
J
 70
     8
280
     0
  0
ATTDEF
  5
E9
330
D7
100
AcDbEntity
  8
AM_6
100
AcDbText
 10
40.98457015714907
 20
10.0
 30
0.0
 40
0.5
  1
46.7
100
AcDbAttributeDefinition
  3

  2
L
 70
     8
280
     0
  0
ATTDEF
  5
EA
330
D7
100
AcDbEntity
  8
AM_6
100
AcDbText
 10
40.98457015714907
 20
9.5
 30
0.0
 40
0.5
  1
M8 x 1.25
100
AcDbAttributeDefinition
  3

  2
N
 70
     8
280
     0
  0
ATTDEF
  5
EB
330
D7
100
AcDbEntity
  8
AM_6
100
AcDbText
 10
40.98457015714907
 20
9.0
 30
0.0
 40
0.5
  1
17.0
100
AcDbAttributeDefinition
  3

  2
W
 70
     8
280
     0
  0
ATTDEF
  5
EC
330
D7
100
AcDbEntity
  8
AM_6
100
AcDbText
 10
40.98457015714907
 20
8.5
 30
0.0
 40
0.5
  1
26.4
100
AcDbAttributeDefinition
  3

  2
Y
 70
     8
280
     0
  0
ATTDEF
  5
ED
330
D7
100
AcDbEntity
  8
AM_6
100
AcDbText
 10
40.98457015714907
 20
8.0
 30
0.0
 40
0.5
  1
baldor
100
AcDbAttributeDefinition
  3

  2
COMPANY
 70
     8
280
     0
  0
LINE
  5
EE
330
D7
100
AcDbEntity
  8
AM_9
100
AcDbLine
 10
-37.75
 20
5.27363636363636
 30
0.0
 11
-37.75
 21
4.926363636363639
 31
0.0
  0
ARC
  5
EF
330
D7
100
AcDbEntity
  8
AM_9
100
AcDbCircle
 10
-36.01363636363637
 20
4.926363636363629
 30
0.0
 40
1.736363636363635
100
AcDbArc
 50
180.0
 51
270.0
  0
ARC
  5
F0
330
D7
100
AcDbEntity
  8
AM_9
100
AcDbCircle
 10
-36.01363636363637
 20
5.273636363636371
 30
0.0
 40
1.736363636363628
100
AcDbArc
 50
90.0
 51
180.0
  0
LINE
  5
F1
330
D7
100
AcDbEntity
  8
AM_9
100
AcDbLine
 10
-36.01363636363637
 20
7.01
 30
0.0
 11
-36.01363636363637
 21
3.189999999999999
 31
0.0
  0
LINE
  5
F2
330
D7
100
AcDbEntity
  8
AM_9
100
AcDbLine
 10
-36.01363636363637
 20
3.189999999999999
 30
0.0
 11
-35.79302682923721
 21
3.189999999999999
 31
0.0
  0
LINE
  5
F3
330
D7
100
AcDbEntity
  8
AM_9
100
AcDbLine
 10
-34.99103165593423
 20
7.01
 30
0.0
 11
-36.01363636363637
 21
7.01
 31
0.0
  0
LINE
  5
F4
330
D7
100
AcDbEntity
  8
AM_9
100
AcDbLine
 10
15.85845211367429
 20
-21.2985
 30
0.0
 11
20.84946241234214
 21
-21.2985
 31
0.0
  0
LINE
  5
F5
330
D7
100
AcDbEntity
  8
AM_9
100
AcDbLine
 10
20.84946241234214
 20
-14.6515
 30
0.0
 11
15.85965927853118
 21
-14.6515
 31
0.0
  0
LWPOLYLINE
  5
F6
330
D7
100
AcDbEntity
  8
AM_9
100
AcDbPolyline
 90
       21
 70
     0
 43
0.0
 10
15.86028062281762
 20
-21.29849999059831
 10
16.00765080919095
 20
-21.27935313630725
 10
16.21569479879345
 20
-21.17733629479951
 10
16.4054077321082
 20
-20.98364458867844
 10
16.56451075326968
 20
-20.71272530608575
 10
16.69985542443196
 20
-20.358029204015
 10
16.80570986028773
 20
-19.94150689494079
 10
16.88689407938484
 20
-19.45594936824621
 10
16.9402668693067
 20
-18.9409438289089
 10
16.97011284601203
 20
-18.3817843213026
 10
16.97558374762076
 20
-17.83536586885898
 10
16.95782972881632
 20
-17.27702658584056
 10
16.91780558800166
 20
-16.75836921154897
 10
16.85216262552064
 20
-16.25952783028501
 10
16.76204094608113
 20
-15.81601098275081
 10
16.64166372980685
 20
-15.42115078434193
 10
16.4947822695415
 20
-15.10328722162457
 10
16.31454213502086
 20
-14.85927906002824
 10
16.11424601746903
 20
-14.71071838475228
 10
15.88484305202144
 20
-14.65200746466648
 10
15.86050233222718
 20
-14.65150001134621
  0
LWPOLYLINE
  5
F7
330
D7
100
AcDbEntity
  8
AM_9
100
AcDbPolyline
 90
       11
 70
     0
 43
0.0
 10
15.86050233222718
 20
-14.65150001134621
 10
15.64916554411825
 20
-14.68713087314442
 10
15.39737163580238
 20
-14.81528653267586
 10
15.15259986644562
 20
-15.02508080725063
 10
14.91009254706283
 20
-15.32226491429298
 10
14.68976506402818
 20
-15.68833815590592
 10
14.49299916307736
 20
-16.1299905257751
 10
14.33871930235213
 20
-16.61551783153087
 10
14.22820361027346
 20
-17.15572491737522
 10
14.18279492930866
 20
-17.5587503098128
 10
14.16716614494102
 20
-17.975
  0
ELLIPSE
  5
F8
330
D7
100
AcDbEntity
  8
AM_9
100
AcDbEllipse
 10
20.84946241234214
 20
-17.97499999999999
 30
0.0
 11
-6.105170455449374E-16
 21
-3.323500000000017
 31
0.0
210
0.0
220
0.0
230
1.0
 40
0.4226182617406974
 41
3.557502013040002
 42
5.854858726563793
  0
LINE
  5
F9
330
D7
100
AcDbEntity
  8
AM_9
100
AcDbLine
 10
20.19449982888661
 20
-20.91504325527303
 30
0.0
 11
20.3924497694404
 21
-21.16194356076535
 31
0.0
  0
LINE
  5
FA
330
D7
100
AcDbEntity
  8
AM_9
100
AcDbLine
 10
20.39489900340073
 20
-14.7850015425707
 30
0.0
 11
20.19449982888661
 21
-15.03495674472697
 31
0.0
  0
LWPOLYLINE
  5
FB
330
D7
100
AcDbEntity
  8
AM_9
100
AcDbPolyline
 90
       11
 70
     0
 43
0.0
 10
14.16716614494102
 20
-17.975
 10
14.19395240799143
 20
-18.51940072370688
 10
14.27591401363234
 20
-19.06380144741377
 10
14.40400892207538
 20
-19.56225814211511
 10
14.57869397824826
 20
-20.02967502471487
 10
14.78452065986765
 20
-20.43234488771331
 10
15.02155682580949
 20
-20.77632251121018
 10
15.26840333669301
 20
-21.03477789977655
 10
15.52723745530997
 20
-21.21195830946554
 10
15.7705975024789
 20
-21.29187383541676
 10
15.86028062281762
 20
-21.29849999059831
  0
LINE
  5
FC
330
D7
100
AcDbEntity
  8
AM_9
100
AcDbLine
 10
17.5
 20
-25.466
 30
0.0
 11
17.5
 21
16.066
 31
0.0
  0
LINE
  5
FD
330
D7
100
AcDbEntity
  8
AM_9
100
AcDbLine
 10
-17.5
 20
16.066
 30
0.0
 11
-17.5
 21
-25.466
 31
0.0
  0
LINE
  5
FE
330
D7
100
AcDbEntity
  8
AM_9
100
AcDbLine
 10
-17.5
 20
-25.466
 30
0.0
 11
-18.43399999999999
 21
-26.4
 31
0.0
  0
LINE
  5
FF
330
D7
100
AcDbEntity
  8
AM_9
100
AcDbLine
 10
18.43399999999999
 20
-26.4
 30
0.0
 11
17.5
 21
-25.466
 31
0.0
  0
LINE
  5
100
330
D7
100
AcDbEntity
  8
AM_9
100
AcDbLine
 10
17.5
 20
16.066
 30
0.0
 11
18.43399999999999
 21
17.0
 31
0.0
  0
LINE
  5
101
330
D7
100
AcDbEntity
  8
AM_9
100
AcDbLine
 10
-18.43399999999999
 20
17.0
 30
0.0
 11
-17.5
 21
16.066
 31
0.0
  0
LINE
  5
102
330
D7
100
AcDbEntity
  8
AM_9
100
AcDbLine
 10
23.34999999999999
 20
9.55
 30
0.0
 11
23.34999999999999
 21
14.01774188006594
 31
0.0
  0
LINE
  5
103
330
D7
100
AcDbEntity
  8
AM_9
100
AcDbLine
 10
-23.34999999999999
 20
14.01774188006594
 30
0.0
 11
-23.34999999999999
 21
9.55
 31
0.0
  0
LINE
  5
104
330
D7
100
AcDbEntity
  8
AM_9
100
AcDbLine
 10
23.35
 20
-14.01774188006594
 30
0.0
 11
23.35
 21
-9.550000000000002
 31
0.0
  0
LINE
  5
105
330
D7
100
AcDbEntity
  8
AM_9
100
AcDbLine
 10
-23.35
 20
-9.550000000000002
 30
0.0
 11
-23.35
 21
-14.01774188006594
 31
0.0
  0
LINE
  5
106
330
D7
100
AcDbEntity
  8
AM_9
100
AcDbLine
 10
34.09000000000003
 20
-5.863333333333332
 30
0.0
 11
34.09000000000003
 21
-3.316666666666666
 31
0.0
  0
LINE
  5
107
330
D7
100
AcDbEntity
  8
AM_9
100
AcDbLine
 10
-34.09000000000003
 20
-3.316666666666666
 30
0.0
 11
-34.09000000000003
 21
-5.863333333333332
 31
0.0
  0
LINE
  5
108
330
D7
100
AcDbEntity
  8
AM_9
100
AcDbLine
 10
-33.57487804028403
 20
9.55
 30
0.0
 11
33.57487804020023
 21
9.55
 31
0.0
  0
ARC
  5
109
330
D7
100
AcDbEntity
  8
AM_9
100
AcDbCircle
 10
33.57487804028403
 20
8.785999999999998
 30
0.0
 40
0.7640000000000106
100
AcDbArc
 50
21.41248148822832
 51
90.0
  0
ARC
  5
10A
330
D7
100
AcDbEntity
  8
AM_9
100
AcDbCircle
 10
-33.57487804028403
 20
8.785999999999998
 30
0.0
 40
0.7640000000000029
100
AcDbArc
 50
90.0
 51
158.5875185117717
  0
LINE
  5
10B
330
D7
100
AcDbEntity
  8
AM_9
100
AcDbLine
 10
-33.57487804028401
 20
-9.549999999999995
 30
0.0
 11
33.57487804020021
 21
-9.549999999999995
 31
0.0
  0
ARC
  5
10C
330
D7
100
AcDbEntity
  8
AM_9
100
AcDbCircle
 10
33.57487804028401
 20
-8.785999999999987
 30
0.0
 40
0.7640000000000082
100
AcDbArc
 50
270.0
 51
338.5875329531158
  0
ARC
  5
10D
330
D7
100
AcDbEntity
  8
AM_9
100
AcDbCircle
 10
-33.57487804028401
 20
-8.785999999999987
 30
0.0
 40
0.764000000000008
100
AcDbArc
 50
201.4124670468842
 51
270.0
  0
LINE
  5
10E
330
D7
100
AcDbEntity
  8
AM_9
100
AcDbLine
 10
-35.29778941847394
 20
-5.863333333333332
 30
0.0
 11
35.29778941847394
 21
-5.863333333333332
 31
0.0
  0
LINE
  5
10F
330
D7
100
AcDbEntity
  8
AM_9
100
AcDbLine
 10
-34.28614400981684
 20
-9.064920634920627
 30
0.0
 11
34.28614400981684
 21
-9.064920634920627
 31
0.0
  0
ARC
  5
110
330
D7
100
AcDbEntity
  8
AM_9
100
AcDbCircle
 10
11.16999999999932
 20
0.0000000000001847
 30
0.0
 40
24.83000000000072
100
AcDbArc
 50
338.5875329531162
 51
346.3412229076664
  0
ARC
  5
111
330
D7
100
AcDbEntity
  8
AM_9
100
AcDbCircle
 10
-11.1699999999995
 20
0.000000000000127
 30
0.0
 40
24.83000000000053
100
AcDbArc
 50
193.6587770923335
 51
201.4124670468839
  0
LINE
  5
112
330
D7
100
AcDbEntity
  8
AM_9
100
AcDbLine
 10
-35.77749118098436
 20
-3.316666666666673
 30
0.0
 11
35.77749118098435
 21
-3.316666666666673
 31
0.0
  0
LINE
  5
113
330
D7
100
AcDbEntity
  8
AM_9
100
AcDbLine
 10
-34.28614393951517
 20
9.064920814194508
 30
0.0
 11
34.28614393951517
 21
9.064920814194508
 31
0.0
  0
LINE
  5
114
330
D7
100
AcDbEntity
  8
AM_9
100
AcDbLine
 10
-35.12379445105746
 20
6.440673081788047
 30
0.0
 11
-35.10691527140245
 21
6.513683007103332
 31
0.0
  0
ARC
  5
115
330
D7
100
AcDbEntity
  8
AM_9
100
AcDbCircle
 10
11.16999999999986
 20
0.0000000000000032
 30
0.0
 40
24.83000000000014
100
AcDbArc
 50
352.3237742425158
 51
21.41246749123299
  0
ARC
  5
116
330
D7
100
AcDbEntity
  8
AM_9
100
AcDbCircle
 10
-11.17000000000382
 20
0.0000000000013998
 30
0.0
 40
24.82999999999595
100
AcDbArc
 50
158.5875325087667
 51
163.6120517084918
  0
ARC
  5
117
330
D7
100
AcDbEntity
  8
AM_9
100
AcDbCircle
 10
-11.16999999999996
 20
0.0000000000000113
 30
0.0
 40
24.83000000000005
100
AcDbArc
 50
172.6029570999203
 51
187.6762257574842
  0
LWPOLYLINE
  5
118
330
D7
100
AcDbEntity
  8
AM_9
100
AcDbPolyline
 90
       21
 70
     0
 43
0.0
 10
-34.98992443314751
 20
7.009999999924904
 10
-34.99027405785844
 20
7.008541361323193
 10
-34.99967798129933
 20
6.96925400518587
 10
-35.02050919527312
 20
6.881852471032277
 10
-35.05308473063103
 20
6.744129371201415
 10
-35.09488897540632
 20
6.565481362806969
 10
-35.14629917251977
 20
6.342761008642207
 10
-35.20420401820159
 20
6.087775552677685
 10
-35.26862872190367
 20
5.79872848793137
 10
-35.33566176898074
 20
5.491717631624116
 10
-35.40548926794494
 20
5.164767973520275
 10
-35.47306633228409
 20
4.841037990545498
 10
-35.53954937268368
 20
4.515123405498039
 10
-35.59924076336375
 20
4.215871099908391
 10
-35.65438483339059
 20
3.933529508234266
 10
-35.69985345538529
 20
3.69625651478118
 10
-35.73818641839978
 20
3.492936577427506
 10
-35.76588860316811
 20
3.344061806178909
 10
-35.78481316135287
 20
3.241395004723813
 10
-35.79342837108586
 20
3.194392724369465
 10
-35.7942319677059
 20
3.190000000067878
  0
LINE
  5
11B
330
D7
100
AcDbEntity
  8
AM_7
100
AcDbLine
 10
-3.489675000000001
 20
-17.975
 30
0.0
 11
3.489675000000007
 21
-17.975
 31
0.0
  0
LINE
  5
11C
330
D7
100
AcDbEntity
  8
AM_7
100
AcDbLine
 10
-38.47
 20
5.1
 30
0.0
 11
-22.63000000000001
 21
5.1
 31
0.0
  0
ELLIPSE
  5
11D
330
D7
100
AcDbEntity
  8
AM_4
100
AcDbEllipse
 10
20.84946241234215
 20
-17.975
 30
0.0
 11
-6.105170455449341E-16
 21
-3.323499999999999
 31
0.0
210
0.0
220
0.0
230
1.0
 40
0.4226182617406997
 41
5.854858726563789
 42
9.84068732021959
  0
LWPOLYLINE
  5
11E
330
D7
100
AcDbEntity
  8
AM_4
100
AcDbPolyline
 90
       14
 70
     0
 43
0.0
 10
20.3959470504049
 20
-21.16630558505143
 10
20.31387977296423
 20
-21.05770557316677
 10
20.09833727426223
 20
-20.70636590286919
 10
19.90719898471617
 20
-20.29248254046955
 10
19.73696274812385
 20
-19.79224590149461
 10
19.6078684440341
 20
-19.24752137027733
 10
19.52169113703692
 20
-18.63644713197077
 10
19.49031485539904
 20
-18.00782575749133
 10
19.51754096141675
 20
-17.35912924714012
 10
19.60312824356147
 20
-16.72777564588104
 10
19.74466110072802
 20
-16.13142942876426
 10
19.9351192188394
 20
-15.58926062579047
 10
20.15981841719066
 20
-15.13300061807631
 10
20.39621501267133
 20
-14.78336010359176
  0
LWPOLYLINE
  5
11F
330
D7
100
AcDbEntity
  8
AM_4
100
AcDbPolyline
 90
        6
 70
     0
 43
0.0
 10
20.39621501267133
 20
-14.78336010359176
 10
20.41346764236909
 20
-14.76210582234991
 10
20.66759272085539
 20
-14.50776797447624
 10
20.92732642640494
 20
-14.35303333342929
 10
21.08124073346006
 20
-14.312111695034
 10
21.23136535795739
 20
-14.31061673182301
  0
LINE
  5
120
330
D7
100
AcDbEntity
  8
AM_4
100
AcDbLine
 10
-22.41599999999996
 20
17.0
 30
0.0
 11
22.41599999999996
 21
17.0
 31
0.0
  0
LINE
  5
121
330
D7
100
AcDbEntity
  8
AM_4
100
AcDbLine
 10
-22.41599999999996
 20
17.0
 30
0.0
 11
-23.34999999999999
 21
16.066
 31
0.0
  0
LINE
  5
122
330
D7
100
AcDbEntity
  8
AM_4
100
AcDbLine
 10
23.34999999999999
 20
16.066
 30
0.0
 11
22.41599999999996
 21
17.0
 31
0.0
  0
LINE
  5
123
330
D7
100
AcDbEntity
  8
AM_4
100
AcDbLine
 10
-22.41599999999996
 20
-26.4
 30
0.0
 11
22.41599999999996
 21
-26.4
 31
0.0
  0
LINE
  5
124
330
D7
100
AcDbEntity
  8
AM_4
100
AcDbLine
 10
22.41599999999996
 20
-26.4
 30
0.0
 11
23.34999999999999
 21
-25.466
 31
0.0
  0
LINE
  5
125
330
D7
100
AcDbEntity
  8
AM_4
100
AcDbLine
 10
-23.34999999999999
 20
-25.466
 30
0.0
 11
-22.41599999999996
 21
-26.4
 31
0.0
  0
LINE
  5
126
330
D7
100
AcDbEntity
  8
AM_4
100
AcDbLine
 10
-23.34999999999999
 20
16.066
 30
0.0
 11
23.34999999999999
 21
16.066
 31
0.0
  0
LINE
  5
127
330
D7
100
AcDbEntity
  8
AM_4
100
AcDbLine
 10
23.34999999999999
 20
14.01774188006594
 30
0.0
 11
23.34999999999999
 21
16.066
 31
0.0
  0
LINE
  5
128
330
D7
100
AcDbEntity
  8
AM_4
100
AcDbLine
 10
-23.34999999999999
 20
16.066
 30
0.0
 11
-23.34999999999999
 21
14.01774188006594
 31
0.0
  0
CIRCLE
  5
129
330
D7
100
AcDbEntity
  8
AM_4
100
AcDbCircle
 10
0.000000000000003
 20
-17.975
 30
0.0
 40
3.323500000000003
  0
LINE
  5
12A
330
D7
100
AcDbEntity
  8
AM_4
100
AcDbLine
 10
-23.34999999999999
 20
-25.466
 30
0.0
 11
23.35
 21
-25.466
 31
0.0
  0
LWPOLYLINE
  5
12B
330
D7
100
AcDbEntity
  8
AM_4
100
AcDbPolyline
 90
       39
 70
     0
 43
0.0
 10
-2.462494948082511
 20
-15.43398293052221
 10
-2.08944487137177
 20
-15.0741770699456
 10
-1.656607036501404
 20
-14.76774538820588
 10
-1.136537276912583
 20
-14.51594359305659
 10
-0.5607824120572936
 20
-14.35626484039345
 10
-0.0224801750380187
 20
-14.30641614522686
 10
0.533136910955631
 20
-14.35143399358755
 10
1.039713142703369
 20
-14.48090530181676
 10
1.531376977251863
 20
-14.69663893918019
 10
1.981722504329257
 20
-14.98822582429218
 10
2.390620166209779
 20
-15.35607118415767
 10
2.750437609224594
 20
-15.80062923579759
 10
3.043358872765038
 20
-16.30908196362922
 10
3.260963344066633
 20
-16.880198567364
 10
3.387791940047134
 20
-17.49524287336159
 10
3.414125031978913
 20
-18.13164229801147
 10
3.333326321325042
 20
-18.78153948992874
 10
3.148903132264587
 20
-19.39765584436986
 10
2.853885387579113
 20
-19.99009381848207
 10
2.479378693123728
 20
-20.49702660056413
 10
2.005941563358945
 20
-20.94305778760549
 10
1.505049593001726
 20
-21.26741698062355
 10
0.9344754738792882
 20
-21.5033058180606
 10
0.3937419091718948
 20
-21.61913373904086
 10
-0.1769788963718018
 20
-21.63872078452294
 10
-0.6971905634496993
 20
-21.56620296256985
 10
-1.212313719630857
 20
-21.40418492351399
 10
-1.684245758447953
 20
-21.16558577019449
 10
-2.123284263915825
 20
-20.84733555149543
 10
-2.518303913474093
 20
-20.45218886691372
 10
-2.854885030822224
 20
-19.98846370488426
 10
-3.12604316439027
 20
-19.45446807450009
 10
-3.313902017942969
 20
-18.86875091253514
 10
-3.407929707027349
 20
-18.24528843822925
 10
-3.399008093773674
 20
-17.59714603358136
 10
-3.284500697625843
 20
-16.96424972106266
 10
-3.058978720710163
 20
-16.34230768061255
 10
-2.797526076111919
 20
-15.87091637019327
 10
-2.462494948247135
 20
-15.43398293041294
  0
LWPOLYLINE
  5
12C
330
D7
100
AcDbEntity
  8
AM_4
100
AcDbPolyline
 90
       23
 70
     0
 43
0.0
 10
21.23136535795739
 20
-14.31061673182301
 10
21.45113294827052
 20
-14.38631995982567
 10
21.65188205273954
 20
-14.55216880699327
 10
21.8260367580317
 20
-14.7969963402778
 10
21.9762886456688
 20
-15.11361090859613
 10
22.1081893921506
 20
-15.51662964739761
 10
22.21296188785826
 20
-15.9769422088651
 10
22.29585678812313
 20
-16.52016981000758
 10
22.34986608225532
 20
-17.10001114571638
 10
22.37643180500938
 20
-17.73308631147314
 10
22.37278343286688
 20
-18.37272608920635
 10
22.33763756080146
 20
-19.01415818856304
 10
22.27010758097727
 20
-19.62587401150046
 10
22.16942947583521
 20
-20.18477260175674
 10
22.03406596119904
 20
-20.67799398311965
 10
21.8702467217405
 20
-21.07148873663401
 10
21.6741293619156
 20
-21.3724585346324
 10
21.4647992233282
 20
-21.5554894151108
 10
21.23408714037493
 20
-21.63903630977716
 10
21.0043714169463
 20
-21.62194416948445
 10
20.76838726843186
 20
-21.51505454084274
 10
20.53676393223932
 20
-21.324519326748
 10
20.3959470504049
 20
-21.16630558505143
  0
LINE
  5
12D
330
D7
100
AcDbEntity
  8
AM_4
100
AcDbLine
 10
23.35
 20
-25.466
 30
0.0
 11
23.35
 21
-14.01774188006594
 31
0.0
  0
LINE
  5
12E
330
D7
100
AcDbEntity
  8
AM_4
100
AcDbLine
 10
-23.35
 20
-14.01774188006594
 30
0.0
 11
-23.35
 21
-25.466
 31
0.0
  0
ARC
  5
130
330
D7
100
AcDbEntity
  8
AM_5
100
AcDbCircle
 10
-0.0000000000000021
 20
-17.975
 30
0.0
 40
4.000000000000004
100
AcDbArc
 50
74.99999999999996
 51
15.00000000000002
  0
ARC
  5
131
330
D7
100
AcDbEntity
  8
AM_5
100
AcDbCircle
 10
-0.0000000000000018
 20
-18.4
 30
0.0
 40
4.000000000000004
100
AcDbArc
 50
75.0
 51
15.00000000000004
  0
ENDBLK
  5
DA
330
D7
100
AcDbEntity
  8
0
100
AcDbBlockEnd
  0
BLOCK
  5
134
330
132
100
AcDbEntity
  8
0
100
AcDbBlockBegin
  2
4_053717H_0_in_053717_4
 70
     2
 10
0.0
 20
0.0
 30
0.0
  3
4_053717H_0_in_053717_4
  1

  0
ATTDEF
  5
136
330
132
100
AcDbEntity
  8
AM_6
100
AcDbText
 10
87.55
 20
24.475
 30
0.0
 40
0.5
  1
P2B-SCAH - housing -Metric
100
AcDbAttributeDefinition
  3

  2
NN
 70
     8
280
     0
  0
ATTDEF
  5
137
330
132
100
AcDbEntity
  8
AM_6
100
AcDbText
 10
87.55
 20
23.975
 30
0.0
 40
0.5
  1
SC Pillow Block Bearings -(Normal Duty) -Air Handling
100
AcDbAttributeDefinition
  3

  2
NT
 70
     8
280
     0
  0
ATTDEF
  5
138
330
132
100
AcDbEntity
  8
AM_6
100
AcDbText
 10
87.55
 20
23.475
 30
0.0
 40
0.5
  1
053717H
100
AcDbAttributeDefinition
  3

  2
NB
 70
     8
280
     0
  0
ATTDEF
  5
139
330
132
100
AcDbEntity
  8
AM_6
100
AcDbText
 10
87.55
 20
22.975
 30
0.0
 40
0.5
  1
$PN.H
100
AcDbAttributeDefinition
  3

  2
NBSYN
 70
     8
280
     0
  0
ATTDEF
  5
13A
330
132
100
AcDbEntity
  8
AM_6
100
AcDbText
 10
87.55
 20
22.475
 30
0.0
 40
0.5
  1
053717
100
AcDbAttributeDefinition
  3

  2
LINA
 70
     8
280
     0
  0
ATTDEF
  5
13B
330
132
100
AcDbEntity
  8
AM_6
100
AcDbText
 10
87.55
 20
21.975
 30
0.0
 40
0.5
  1
207
100
AcDbAttributeDefinition
  3

  2
SERIES
 70
     8
280
     0
  0
ATTDEF
  5
13C
330
132
100
AcDbEntity
  8
AM_6
100
AcDbText
 10
87.55
 20
21.475
 30
0.0
 40
0.5
  1
35
100
AcDbAttributeDefinition
  3

  2
SS
 70
     8
280
     0
  0
ATTDEF
  5
13D
330
132
100
AcDbEntity
  8
AM_6
100
AcDbText
 10
87.55
 20
20.975
 30
0.0
 40
0.5
  1
053717
100
AcDbAttributeDefinition
  3

  2
PN
 70
     8
280
     0
  0
ATTDEF
  5
13E
330
132
100
AcDbEntity
  8
AM_6
100
AcDbText
 10
87.55
 20
20.475
 30
0.0
 40
0.5
  1
P2B-SCAH-35M
100
AcDbAttributeDefinition
  3

  2
DESCRIPTION
 70
     8
280
     0
  0
ATTDEF
  5
13F
330
132
100
AcDbEntity
  8
AM_6
100
AcDbText
 10
87.55
 20
19.975
 30
0.0
 40
0.5
  1
1.5
100
AcDbAttributeDefinition
  3

  2
WEIGHT
 70
     8
280
     0
  0
ATTDEF
  5
140
330
132
100
AcDbEntity
  8
AM_6
100
AcDbText
 10
87.55
 20
19.475
 30
0.0
 40
0.5
  1
43.4
100
AcDbAttributeDefinition
  3

  2
A
 70
     8
280
     0
  0
ATTDEF
  5
141
330
132
100
AcDbEntity
  8
AM_6
100
AcDbText
 10
87.55
 20
18.975
 30
0.0
 40
0.5
  1
165.1
100
AcDbAttributeDefinition
  3

  2
B
 70
     8
280
     0
  0
ATTDEF
  5
142
330
132
100
AcDbEntity
  8
AM_6
100
AcDbText
 10
87.55
 20
18.475
 30
0.0
 40
0.5
  1
44.5
100
AcDbAttributeDefinition
  3

  2
C
 70
     8
280
     0
  0
ATTDEF
  5
143
330
132
100
AcDbEntity
  8
AM_6
100
AcDbText
 10
87.55
 20
17.975
 30
0.0
 40
0.5
  1
118.9
100
AcDbAttributeDefinition
  3

  2
DMIN
 70
     8
280
     0
  0
ATTDEF
  5
144
330
132
100
AcDbEntity
  8
AM_6
100
AcDbText
 10
87.55
 20
17.475
 30
0.0
 40
0.5
  1
138.2
100
AcDbAttributeDefinition
  3

  2
DMAX
 70
     8
280
     0
  0
ATTDEF
  5
145
330
132
100
AcDbEntity
  8
AM_6
100
AcDbText
 10
87.55
 20
16.975
 30
0.0
 40
0.5
  1
M12
100
AcDbAttributeDefinition
  3

  2
F
 70
     8
280
     0
  0
ATTDEF
  5
146
330
132
100
AcDbEntity
  8
AM_6
100
AcDbText
 10
87.55
 20
16.475
 30
0.0
 40
0.5
  1
23.9
100
AcDbAttributeDefinition
  3

  2
G
 70
     8
280
     0
  0
ATTDEF
  5
147
330
132
100
AcDbEntity
  8
AM_6
100
AcDbText
 10
87.55
 20
15.975
 30
0.0
 40
0.5
  1
18.0
100
AcDbAttributeDefinition
  3

  2
H
 70
     8
280
     0
  0
ATTDEF
  5
148
330
132
100
AcDbEntity
  8
AM_6
100
AcDbText
 10
87.55
 20
15.475
 30
0.0
 40
0.5
  1
95.3
100
AcDbAttributeDefinition
  3

  2
J
 70
     8
280
     0
  0
ATTDEF
  5
149
330
132
100
AcDbEntity
  8
AM_6
100
AcDbText
 10
87.55
 20
14.975
 30
0.0
 40
0.5
  1
46.7
100
AcDbAttributeDefinition
  3

  2
L
 70
     8
280
     0
  0
ATTDEF
  5
14A
330
132
100
AcDbEntity
  8
AM_6
100
AcDbText
 10
87.55
 20
14.475
 30
0.0
 40
0.5
  1
47.8
100
AcDbAttributeDefinition
  3

  2
M
 70
     8
280
     0
  0
ATTDEF
  5
14B
330
132
100
AcDbEntity
  8
AM_6
100
AcDbText
 10
87.55
 20
13.975
 30
0.0
 40
0.5
  1
17.0
100
AcDbAttributeDefinition
  3

  2
R
 70
     8
280
     0
  0
ATTDEF
  5
14C
330
132
100
AcDbEntity
  8
AM_6
100
AcDbText
 10
87.55
 20
13.475
 30
0.0
 40
0.5
  1
26.4
100
AcDbAttributeDefinition
  3

  2
S
 70
     8
280
     0
  0
ATTDEF
  5
14D
330
132
100
AcDbEntity
  8
AM_6
100
AcDbText
 10
87.55
 20
12.975
 30
0.0
 40
0.5
  1
73.9
100
AcDbAttributeDefinition
  3

  2
U
 70
     8
280
     0
  0
ATTDEF
  5
14E
330
132
100
AcDbEntity
  8
AM_6
100
AcDbText
 10
87.55
 20
12.475
 30
0.0
 40
0.5
  1
73.90
100
AcDbAttributeDefinition
  3

  2
U1
 70
     8
280
     0
  0
ATTDEF
  5
14F
330
132
100
AcDbEntity
  8
AM_6
100
AcDbText
 10
87.55
 20
11.975
 30
0.0
 40
0.5
  1
147.8
100
AcDbAttributeDefinition
  3

  2
V
 70
     8
280
     0
  0
ATTDEF
  5
150
330
132
100
AcDbEntity
  8
AM_6
100
AcDbText
 10
87.55
 20
11.475
 30
0.0
 40
0.5
  1
147.80
100
AcDbAttributeDefinition
  3

  2
V1
 70
     8
280
     0
  0
ATTDEF
  5
151
330
132
100
AcDbEntity
  8
AM_6
100
AcDbText
 10
87.55
 20
10.975
 30
0.0
 40
0.5
  1
14.2
100
AcDbAttributeDefinition
  3

  2
W
 70
     8
280
     0
  0
ATTDEF
  5
152
330
132
100
AcDbEntity
  8
AM_6
100
AcDbText
 10
87.55
 20
10.475
 30
0.0
 40
0.5
  1
14.20
100
AcDbAttributeDefinition
  3

  2
W1
 70
     8
280
     0
  0
ATTDEF
  5
153
330
132
100
AcDbEntity
  8
AM_6
100
AcDbText
 10
87.55
 20
9.975000000000001
 30
0.0
 40
0.5
  1
3.0
100
AcDbAttributeDefinition
  3

  2
X
 70
     8
280
     0
  0
ATTDEF
  5
154
330
132
100
AcDbEntity
  8
AM_6
100
AcDbText
 10
87.55
 20
9.475000000000001
 30
0.0
 40
0.5
  1
3.00
100
AcDbAttributeDefinition
  3

  2
X1
 70
     8
280
     0
  0
ATTDEF
  5
155
330
132
100
AcDbEntity
  8
AM_6
100
AcDbText
 10
87.55
 20
8.975000000000001
 30
0.0
 40
0.5
  1
3065
100
AcDbAttributeDefinition
  3

  2
CAPS
 70
     8
280
     0
  0
ATTDEF
  5
156
330
132
100
AcDbEntity
  8
AM_6
100
AcDbText
 10
87.55
 20
8.475000000000001
 30
0.0
 40
0.5
  1
5759
100
AcDbAttributeDefinition
  3

  2
CAPD
 70
     8
280
     0
  0
ATTDEF
  5
157
330
132
100
AcDbEntity
  8
AM_6
100
AcDbText
 10
87.55
 20
7.975000000000001
 30
0.0
 40
0.5
  1
baldor
100
AcDbAttributeDefinition
  3

  2
COMPANY
 70
     8
280
     0
  0
LINE
  5
158
330
132
100
AcDbEntity
  8
AM_9
100
AcDbLine
 10
-37.75000000000001
 20
5.273636363636359
 30
0.0
 11
-37.75000000000001
 21
18.05399999999999
 31
0.0
  0
LINE
  5
159
330
132
100
AcDbEntity
  8
AM_9
100
AcDbLine
 10
-35.95000000000001
 20
11.125
 30
0.0
 11
-35.95
 21
17.79999999999999
 31
0.0
  0
LINE
  5
15A
330
132
100
AcDbEntity
  8
AM_9
100
AcDbLine
 10
-37.75000000000001
 20
-17.80000000000001
 30
0.0
 11
-37.75000000000001
 21
-11.125
 31
0.0
  0
LINE
  5
15B
330
132
100
AcDbEntity
  8
AM_9
100
AcDbLine
 10
-35.95000000000001
 20
-17.8
 30
0.0
 11
-35.95000000000001
 21
-11.125
 31
0.0
  0
LINE
  5
15C
330
132
100
AcDbEntity
  8
AM_9
100
AcDbLine
 10
37.75000000000001
 20
-17.8
 30
0.0
 11
37.75000000000001
 21
-11.125
 31
0.0
  0
LINE
  5
15D
330
132
100
AcDbEntity
  8
AM_9
100
AcDbLine
 10
35.95000000000001
 20
-17.8
 30
0.0
 11
35.95000000000001
 21
-11.125
 31
0.0
  0
LINE
  5
15E
330
132
100
AcDbEntity
  8
AM_9
100
AcDbLine
 10
35.95000000000001
 20
11.125
 30
0.0
 11
35.95000000000001
 21
17.8
 31
0.0
  0
LINE
  5
15F
330
132
100
AcDbEntity
  8
AM_9
100
AcDbLine
 10
-72.625
 20
-11.125
 30
0.0
 11
-72.625
 21
-6.191930232165085
 31
0.0
  0
LINE
  5
160
330
132
100
AcDbEntity
  8
AM_9
100
AcDbLine
 10
-76.225
 20
-11.125
 30
0.0
 11
-76.225
 21
11.125
 31
0.0
  0
LINE
  5
161
330
132
100
AcDbEntity
  8
AM_9
100
AcDbLine
 10
-49.91474495657324
 20
-11.125
 30
0.0
 11
-49.91474495657324
 21
11.125
 31
0.0
  0
LINE
  5
162
330
132
100
AcDbEntity
  8
AM_9
100
AcDbLine
 10
-72.625
 20
6.191930232165099
 30
0.0
 11
-72.625
 21
11.125
 31
0.0
  0
LINE
  5
163
330
132
100
AcDbEntity
  8
AM_9
100
AcDbLine
 10
49.91474495657312
 20
-11.125
 30
0.0
 11
49.91474495657312
 21
11.125
 31
0.0
  0
LINE
  5
164
330
132
100
AcDbEntity
  8
AM_9
100
AcDbLine
 10
72.62499999999997
 20
6.191930232165102
 30
0.0
 11
72.62499999999997
 21
11.125
 31
0.0
  0
LINE
  5
165
330
132
100
AcDbEntity
  8
AM_9
100
AcDbLine
 10
76.225
 20
-11.125
 30
0.0
 11
76.225
 21
11.125
 31
0.0
  0
LINE
  5
166
330
132
100
AcDbEntity
  8
AM_9
100
AcDbLine
 10
72.62499999999997
 20
-11.125
 30
0.0
 11
72.62499999999997
 21
-6.191930232165111
 31
0.0
  0
LINE
  5
167
330
132
100
AcDbEntity
  8
AM_9
100
AcDbLine
 10
-45.25600214472775
 20
-11.125
 30
0.0
 11
-45.25600214472775
 21
11.125
 31
0.0
  0
LINE
  5
168
330
132
100
AcDbEntity
  8
AM_9
100
AcDbLine
 10
45.25600214472774
 20
-11.125
 30
0.0
 11
45.25600214472774
 21
11.125
 31
0.0
  0
LINE
  5
169
330
132
100
AcDbEntity
  8
AM_9
100
AcDbLine
 10
-24.2359710468801
 20
-11.125
 30
0.0
 11
-24.2359710468801
 21
11.125
 31
0.0
  0
LINE
  5
16A
330
132
100
AcDbEntity
  8
AM_9
100
AcDbLine
 10
24.23597188471263
 20
-11.125
 30
0.0
 11
24.23597188471263
 21
11.125
 31
0.0
  0
LINE
  5
16B
330
132
100
AcDbEntity
  8
AM_9
100
AcDbLine
 10
-31.356680993877
 20
-11.125
 30
0.0
 11
-31.356680993877
 21
11.125
 31
0.0
  0
LINE
  5
16C
330
132
100
AcDbEntity
  8
AM_9
100
AcDbLine
 10
76.225
 20
11.125
 30
0.0
 11
-76.225
 21
11.125
 31
0.0
  0
LINE
  5
16D
330
132
100
AcDbEntity
  8
AM_9
100
AcDbLine
 10
76.225
 20
-11.125
 30
0.0
 11
-76.225
 21
-11.125
 31
0.0
  0
LINE
  5
16E
330
132
100
AcDbEntity
  8
AM_9
100
AcDbLine
 10
31.356680993877
 20
-11.125
 30
0.0
 11
31.356680993877
 21
11.125
 31
0.0
  0
LINE
  5
16F
330
132
100
AcDbEntity
  8
AM_9
100
AcDbLine
 10
-31.46029243347875
 20
-6.675000000000003
 30
0.0
 11
-37.75000000000001
 21
-6.675000000000004
 31
0.0
  0
LINE
  5
170
330
132
100
AcDbEntity
  8
AM_9
100
AcDbLine
 10
37.75000000000001
 20
-6.675000000000004
 30
0.0
 11
31.46029243347875
 21
-6.675000000000003
 31
0.0
  0
LINE
  5
171
330
132
100
AcDbEntity
  8
AM_9
100
AcDbLine
 10
33.44865468146665
 20
-6.675000000000003
 30
0.0
 11
33.44865468146665
 21
15.44259379042691
 31
0.0
  0
LINE
  5
172
330
132
100
AcDbEntity
  8
AM_9
100
AcDbLine
 10
37.75000000000001
 20
-6.675000000000004
 30
0.0
 11
37.75000000000001
 21
18.05399999999995
 31
0.0
  0
LINE
  5
173
330
132
100
AcDbEntity
  8
AM_9
100
AcDbLine
 10
-33.44865468146664
 20
-6.675000000000003
 30
0.0
 11
-33.44865468146664
 21
15.44259379042691
 31
0.0
  0
LINE
  5
174
330
132
100
AcDbEntity
  8
AM_9
100
AcDbLine
 10
-37.75000000000001
 20
4.926363636363638
 30
0.0
 11
-37.75000000000001
 21
-6.675000000000004
 31
0.0
  0
LINE
  5
175
330
132
100
AcDbEntity
  8
AM_9
100
AcDbLine
 10
-31.46029243347875
 20
-6.675000000000003
 30
0.0
 11
-31.46029243347875
 21
15.44259379042691
 31
0.0
  0
LINE
  5
176
330
132
100
AcDbEntity
  8
AM_9
100
AcDbLine
 10
31.46029243347875
 20
15.44259379042691
 30
0.0
 11
31.46029243347875
 21
-6.675000000000003
 31
0.0
  0
LINE
  5
177
330
132
100
AcDbEntity
  8
AM_9
100
AcDbLine
 10
36.00000000000001
 20
-17.8
 30
0.0
 11
36.00000000000001
 21
-6.675000000000004
 31
0.0
  0
LINE
  5
178
330
132
100
AcDbEntity
  8
AM_9
100
AcDbLine
 10
-36.00000000000001
 20
-6.675000000000004
 30
0.0
 11
-36.00000000000001
 21
-17.8
 31
0.0
  0
LINE
  5
179
330
132
100
AcDbEntity
  8
AM_9
100
AcDbLine
 10
23.35
 20
-17.8
 30
0.0
 11
-23.35
 21
-17.8
 31
0.0
  0
LINE
  5
17A
330
132
100
AcDbEntity
  8
AM_7
100
AcDbLine
 10
-75.47500000000001
 20
-14.2
 30
0.0
 11
-72.325
 21
-14.2
 31
0.0
  0
LINE
  5
17B
330
132
100
AcDbEntity
  8
AM_7
100
AcDbLine
 10
-73.9
 20
-15.775
 30
0.0
 11
-73.9
 21
-12.625
 31
0.0
  0
LINE
  5
17C
330
132
100
AcDbEntity
  8
AM_7
100
AcDbLine
 10
72.325
 20
-14.2
 30
0.0
 11
75.47500000000001
 21
-14.2
 31
0.0
  0
LINE
  5
17D
330
132
100
AcDbEntity
  8
AM_7
100
AcDbLine
 10
73.9
 20
-15.775
 30
0.0
 11
73.9
 21
-12.625
 31
0.0
  0
LINE
  5
17E
330
132
100
AcDbEntity
  8
AM_7
100
AcDbLine
 10
0.0
 20
24.475
 30
0.0
 11
0.0
 21
-28.57
 31
0.0
  0
LINE
  5
17F
330
132
100
AcDbEntity
  8
AM_7
100
AcDbLine
 10
51.96875000000001
 20
-0.0000000000000036
 30
0.0
 11
76.58125
 21
-0.0000000000000013
 31
0.0
  0
LINE
  5
180
330
132
100
AcDbEntity
  8
AM_7
100
AcDbLine
 10
69.09999999999997
 20
-7.481250000000031
 30
0.0
 11
69.09999999999997
 21
7.481250000000029
 31
0.0
  0
LINE
  5
181
330
132
100
AcDbEntity
  8
AM_7
100
AcDbLine
 10
-76.58125
 20
0.0000000000000058
 30
0.0
 11
-51.96875000000001
 21
0.0000000000000062
 31
0.0
  0
LINE
  5
182
330
132
100
AcDbEntity
  8
AM_7
100
AcDbLine
 10
-69.09999999999997
 20
-7.481250000000024
 30
0.0
 11
-69.09999999999997
 21
7.481250000000037
 31
0.0
  0
LINE
  5
183
330
132
100
AcDbEntity
  8
AM_7
100
AcDbLine
 10
-59.45000000000001
 20
-7.481249999999994
 30
0.0
 11
-59.45000000000001
 21
7.481250000000006
 31
0.0
  0
LINE
  5
184
330
132
100
AcDbEntity
  8
AM_7
100
AcDbLine
 10
59.45000000000001
 20
-7.481250000000004
 30
0.0
 11
59.45000000000001
 21
7.481249999999997
 31
0.0
  0
LINE
  5
185
330
132
100
AcDbEntity
  8
AM_4
100
AcDbLine
 10
82.55
 20
-22.25
 30
0.0
 11
82.55
 21
22.25
 31
0.0
  0
LINE
  5
186
330
132
100
AcDbEntity
  8
AM_4
100
AcDbLine
 10
78.95
 20
-22.25
 30
0.0
 11
78.95
 21
-16.2773791853922
 31
0.0
  0
LINE
  5
187
330
132
100
AcDbEntity
  8
AM_4
100
AcDbLine
 10
-82.55
 20
-22.25
 30
0.0
 11
-82.55
 21
22.25
 31
0.0
  0
LINE
  5
188
330
132
100
AcDbEntity
  8
AM_4
100
AcDbLine
 10
-78.95
 20
16.27737808459219
 30
0.0
 11
-78.95
 21
22.25
 31
0.0
  0
LINE
  5
189
330
132
100
AcDbEntity
  8
AM_4
100
AcDbLine
 10
78.95
 20
16.27737808459219
 30
0.0
 11
78.95
 21
22.25
 31
0.0
  0
LINE
  5
18A
330
132
100
AcDbEntity
  8
AM_4
100
AcDbLine
 10
-78.95
 20
-22.25
 30
0.0
 11
-78.95
 21
-16.27737918539221
 31
0.0
  0
LINE
  5
18B
330
132
100
AcDbEntity
  8
AM_4
100
AcDbLine
 10
-63.80852866937822
 20
-22.25
 30
0.0
 11
-63.80852866937822
 21
-17.2000011008
 31
0.0
  0
LINE
  5
18C
330
132
100
AcDbEntity
  8
AM_4
100
AcDbLine
 10
-63.80852866937822
 20
17.2
 30
0.0
 11
-63.80852866937822
 21
22.25
 31
0.0
  0
LINE
  5
18D
330
132
100
AcDbEntity
  8
AM_4
100
AcDbLine
 10
63.80852866937821
 20
-22.25
 30
0.0
 11
63.80852866937821
 21
-17.2000011008
 31
0.0
  0
LINE
  5
18E
330
132
100
AcDbEntity
  8
AM_4
100
AcDbLine
 10
63.80852866937821
 20
17.2
 30
0.0
 11
63.80852866937821
 21
22.25
 31
0.0
  0
CIRCLE
  5
18F
330
132
100
AcDbEntity
  8
AM_4
100
AcDbCircle
 10
-73.9
 20
-14.2
 30
0.0
 40
1.5
  0
LINE
  5
190
330
132
100
AcDbEntity
  8
AM_4
100
AcDbLine
 10
-59.45000000000001
 20
-7.124999999999999
 30
0.0
 11
-69.1
 21
-7.124999999999995
 31
0.0
  0
ARC
  5
191
330
132
100
AcDbEntity
  8
AM_4
100
AcDbCircle
 10
-75.45
 20
10.10000000000001
 30
0.0
 40
7.099999999999987
100
AcDbArc
 50
90.0
 51
180.0
  0
LINE
  5
192
330
132
100
AcDbEntity
  8
AM_4
100
AcDbLine
 10
-69.1
 20
7.125000000000011
 30
0.0
 11
-59.45000000000001
 21
7.125000000000006
 31
0.0
  0
LINE
  5
193
330
132
100
AcDbEntity
  8
AM_4
100
AcDbLine
 10
-75.44999999999999
 20
-17.20000110080001
 30
0.0
 11
-59.45
 21
-17.20000110080002
 31
0.0
  0
ARC
  5
194
330
132
100
AcDbEntity
  8
AM_4
100
AcDbCircle
 10
-59.45000000000001
 20
0.0000000000000022
 30
0.0
 40
7.125000000000002
100
AcDbArc
 50
270.0
 51
90.0
  0
ARC
  5
195
330
132
100
AcDbEntity
  8
AM_4
100
AcDbCircle
 10
-75.44999999999997
 20
-10.10000110079999
 30
0.0
 40
7.100000000000023
100
AcDbArc
 50
180.0
 51
270.0
  0
LINE
  5
196
330
132
100
AcDbEntity
  8
AM_4
100
AcDbLine
 10
-59.45
 20
17.2
 30
0.0
 11
-75.44999999999997
 21
17.2
 31
0.0
  0
ARC
  5
197
330
132
100
AcDbEntity
  8
AM_4
100
AcDbCircle
 10
-69.1
 20
0.0000000000000067
 30
0.0
 40
7.125000000000004
100
AcDbArc
 50
90.0
 51
270.0
  0
LINE
  5
198
330
132
100
AcDbEntity
  8
AM_4
100
AcDbLine
 10
59.45000000000001
 20
7.125000000000002
 30
0.0
 11
69.1
 21
7.124999999999999
 31
0.0
  0
ARC
  5
199
330
132
100
AcDbEntity
  8
AM_4
100
AcDbCircle
 10
59.45000000000001
 20
0.0
 30
0.0
 40
7.125000000000002
100
AcDbArc
 50
90.0
 51
270.0
  0
LINE
  5
19A
330
132
100
AcDbEntity
  8
AM_4
100
AcDbLine
 10
59.44999999999996
 20
-17.2000011008
 30
0.0
 11
75.44999999999997
 21
-17.2000011008
 31
0.0
  0
ARC
  5
19B
330
132
100
AcDbEntity
  8
AM_4
100
AcDbCircle
 10
69.1
 20
-0.0000000000000027
 30
0.0
 40
7.125000000000004
100
AcDbArc
 50
270.0
 51
90.0
  0
ARC
  5
19C
330
132
100
AcDbEntity
  8
AM_4
100
AcDbCircle
 10
75.44999999999999
 20
-10.1000011008
 30
0.0
 40
7.100000000000001
100
AcDbArc
 50
270.0
 51
0.0
  0
CIRCLE
  5
19D
330
132
100
AcDbEntity
  8
AM_4
100
AcDbCircle
 10
73.9
 20
-14.2
 30
0.0
 40
1.5
  0
LINE
  5
19E
330
132
100
AcDbEntity
  8
AM_4
100
AcDbLine
 10
69.1
 20
-7.125000000000006
 30
0.0
 11
59.45000000000001
 21
-7.125000000000004
 31
0.0
  0
ARC
  5
19F
330
132
100
AcDbEntity
  8
AM_4
100
AcDbCircle
 10
75.45000000000002
 20
10.10000000000001
 30
0.0
 40
7.09999999999998
100
AcDbArc
 50
0.0
 51
90.0
  0
LINE
  5
1A0
330
132
100
AcDbEntity
  8
AM_4
100
AcDbLine
 10
75.45
 20
17.2
 30
0.0
 11
59.45
 21
17.2
 31
0.0
  0
LWPOLYLINE
  5
1A1
330
132
100
AcDbEntity
  8
AM_4
100
AcDbPolyline
 90
       13
 70
     0
 43
0.0
 10
45.22790151210138
 20
-9.64242367343871
 10
46.12203295757208
 20
-10.83655332310236
 10
47.11683721950055
 20
-11.94821025868741
 10
48.20474323677427
 20
-12.96893409967724
 10
49.37747138770615
 20
-13.89095652131201
 10
50.62609650295501
 20
-14.70726037623072
 10
51.94111579145333
 20
-15.4116330991997
 10
53.31252116238529
 20
-15.99871398848529
 10
54.7298753928009
 20
-16.46403500403086
 10
56.1823915611848
 20
-16.80405477193962
 10
57.65901514244235
 20
-17.01618553646824
 10
59.14850813951049
 20
-17.09881285441058
 10
59.3499999999999
 20
-17.1
  0
LINE
  5
1A2
330
132
100
AcDbEntity
  8
AM_4
100
AcDbLine
 10
60.38072981793474
 20
-22.25
 30
0.0
 11
60.38072981793474
 21
-17.2000011008
 31
0.0
  0
LINE
  5
1A3
330
132
100
AcDbEntity
  8
AM_4
100
AcDbLine
 10
59.44999999999996
 20
-17.2000011008
 30
0.0
 11
59.44999999999995
 21
-17.1
 31
0.0
  0
LINE
  5
1A4
330
132
100
AcDbEntity
  8
AM_4
100
AcDbLine
 10
59.34999999999996
 20
-17.1
 30
0.0
 11
59.44999999999995
 21
-17.1
 31
0.0
  0
LWPOLYLINE
  5
1A5
330
132
100
AcDbEntity
  8
AM_4
100
AcDbPolyline
 90
       13
 70
     0
 43
0.0
 10
59.35
 20
17.1
 10
57.85963679901505
 20
17.03492933736884
 10
56.3806161618955
 20
16.84021257650876
 10
54.9241943287469
 20
16.51733162954307
 10
53.50145554913107
 20
16.06874381543903
 10
52.12322772423405
 20
15.49786315832672
 10
50.80000000000001
 20
14.80903440471391
 10
49.54184293839712
 20
14.00749995734177
 10
48.35833187436019
 20
13.09935997733453
 10
47.25847404171004
 20
12.09152595828997
 10
46.25064002266549
 20
10.99166812563984
 10
45.34250004265825
 20
9.808157061602904
 10
45.22790151210137
 20
9.642423673438708
  0
LINE
  5
1A6
330
132
100
AcDbEntity
  8
AM_4
100
AcDbLine
 10
59.44999999999995
 20
17.09999999999999
 30
0.0
 11
59.35
 21
17.09999999999999
 31
0.0
  0
LINE
  5
1A7
330
132
100
AcDbEntity
  8
AM_4
100
AcDbLine
 10
59.44999999999995
 20
17.09999999999999
 30
0.0
 11
59.45
 21
17.2
 31
0.0
  0
LINE
  5
1A8
330
132
100
AcDbEntity
  8
AM_4
100
AcDbLine
 10
60.38072981793474
 20
17.2
 30
0.0
 11
60.38072981793474
 21
22.25
 31
0.0
  0
LWPOLYLINE
  5
1A9
330
132
100
AcDbEntity
  8
AM_4
100
AcDbPolyline
 90
       13
 70
     0
 43
0.0
 10
-45.22790151210138
 20
9.64242367343873
 10
-46.12203295757209
 20
10.83655332310238
 10
-47.11683721950056
 20
11.94821025868742
 10
-48.20474323677427
 20
12.96893409967725
 10
-49.37747138770616
 20
13.89095652131202
 10
-50.62609650295501
 20
14.70726037623073
 10
-51.94111579145333
 20
15.41163309919971
 10
-53.31252116238529
 20
15.99871398848529
 10
-54.7298753928009
 20
16.46403500403087
 10
-56.1823915611848
 20
16.80405477193963
 10
-57.65901514244235
 20
17.01618553646824
 10
-59.14850813951049
 20
17.09881285441059
 10
-59.35
 20
17.10000000000001
  0
LINE
  5
1AA
330
132
100
AcDbEntity
  8
AM_4
100
AcDbLine
 10
-60.38072981793474
 20
17.2
 30
0.0
 11
-60.38072981793474
 21
22.25
 31
0.0
  0
LINE
  5
1AB
330
132
100
AcDbEntity
  8
AM_4
100
AcDbLine
 10
-59.45
 20
17.2
 30
0.0
 11
-59.45
 21
17.09999999999999
 31
0.0
  0
LINE
  5
1AC
330
132
100
AcDbEntity
  8
AM_4
100
AcDbLine
 10
-59.35
 20
17.1
 30
0.0
 11
-59.45
 21
17.09999999999999
 31
0.0
  0
LWPOLYLINE
  5
1AD
330
132
100
AcDbEntity
  8
AM_4
100
AcDbPolyline
 90
       13
 70
     0
 43
0.0
 10
-59.35
 20
-17.09999999999999
 10
-57.85963679901505
 20
-17.03492933736884
 10
-56.3806161618955
 20
-16.84021257650875
 10
-54.9241943287469
 20
-16.51733162954306
 10
-53.50145554913108
 20
-16.06874381543903
 10
-52.12322772423405
 20
-15.49786315832671
 10
-50.80000000000001
 20
-14.8090344047139
 10
-49.54184293839712
 20
-14.00749995734176
 10
-48.35833187436019
 20
-13.09935997733453
 10
-47.25847404171005
 20
-12.09152595828997
 10
-46.25064002266549
 20
-10.99166812563983
 10
-45.34250004265825
 20
-9.808157061602897
 10
-45.22790151210138
 20
-9.642423673438712
  0
LINE
  5
1AE
330
132
100
AcDbEntity
  8
AM_4
100
AcDbLine
 10
-59.44999999999996
 20
-17.09999999999999
 30
0.0
 11
-59.35
 21
-17.09999999999999
 31
0.0
  0
LINE
  5
1AF
330
132
100
AcDbEntity
  8
AM_4
100
AcDbLine
 10
-59.44999999999996
 20
-17.09999999999999
 30
0.0
 11
-59.45
 21
-17.20000110080002
 31
0.0
  0
LINE
  5
1B0
330
132
100
AcDbEntity
  8
AM_4
100
AcDbLine
 10
-60.38072981793474
 20
-22.25
 30
0.0
 11
-60.38072981793474
 21
-17.2000011008
 31
0.0
  0
LINE
  5
1B1
330
132
100
AcDbEntity
  8
AM_4
100
AcDbLine
 10
33.44865468146664
 20
15.44259379042691
 30
0.0
 11
33.44865468146664
 21
17.8
 31
0.0
  0
LINE
  5
1B2
330
132
100
AcDbEntity
  8
AM_4
100
AcDbLine
 10
37.73301343748468
 20
17.96267294786468
 30
0.0
 11
37.7477616319736
 21
18.02035359352129
 31
0.0
  0
LWPOLYLINE
  5
1B3
330
132
100
AcDbEntity
  8
AM_4
100
AcDbPolyline
 90
        5
 70
     0
 43
0.0
 10
37.49600000000002
 20
17.8
 10
37.55143565560281
 20
17.80612324012145
 10
37.64185463474669
 20
17.84605186819086
 10
37.70504659020421
 20
17.90972414226835
 10
37.73301343748468
 20
17.96267294786468
  0
LINE
  5
1B4
330
132
100
AcDbEntity
  8
AM_4
100
AcDbLine
 10
37.75000000000001
 20
17.96119016817594
 30
0.0
 11
37.74776163197357
 21
18.02035359356468
 31
0.0
  0
LINE
  5
1B5
330
132
100
AcDbEntity
  8
AM_4
100
AcDbLine
 10
37.49600000000002
 20
17.8
 30
0.0
 11
-37.49600000000001
 21
17.8
 31
0.0
  0
LWPOLYLINE
  5
1B6
330
132
100
AcDbEntity
  8
AM_4
100
AcDbPolyline
 90
        5
 70
     0
 43
0.0
 10
-37.72070322172758
 20
17.93557507802305
 10
-37.70504659020421
 20
17.90972414226836
 10
-37.64195277303212
 20
17.84612073685854
 10
-37.55143565560281
 20
17.80612324012145
 10
-37.49600000000001
 20
17.8
  0
LINE
  5
1B7
330
132
100
AcDbEntity
  8
AM_4
100
AcDbLine
 10
-37.7477616319736
 20
18.02035359352135
 30
0.0
 11
-37.72070322172758
 21
17.93557507802305
 31
0.0
  0
LINE
  5
1B8
330
132
100
AcDbEntity
  8
AM_4
100
AcDbLine
 10
-33.44865468146665
 20
15.44259379042692
 30
0.0
 11
-33.44865468146665
 21
17.8
 31
0.0
  0
LWPOLYLINE
  5
1B9
330
132
100
AcDbEntity
  8
AM_4
100
AcDbPolyline
 90
        7
 70
     0
 43
0.0
 10
-37.75000000000001
 20
17.96119016817594
 10
-37.6063498529634
 20
17.48767544195271
 10
-37.17649267621086
 20
17.01776444871205
 10
-36.46369994241234
 20
16.55503349485254
 10
-35.47339643466805
 20
16.10300424233763
 10
-34.21311896063355
 20
15.66511690672168
 10
-33.44865468146665
 20
15.44259379042691
  0
LINE
  5
1BA
330
132
100
AcDbEntity
  8
AM_4
100
AcDbLine
 10
31.46029243347875
 20
15.4425937904269
 30
0.0
 11
31.46029243347875
 21
17.8
 31
0.0
  0
LINE
  5
1BB
330
132
100
AcDbEntity
  8
AM_4
100
AcDbLine
 10
-31.46029243347875
 20
17.8
 30
0.0
 11
-31.46029243347875
 21
15.4425937904269
 31
0.0
  0
LINE
  5
1BC
330
132
100
AcDbEntity
  8
AM_4
100
AcDbLine
 10
-23.35
 20
-17.8
 30
0.0
 11
-37.74999999999999
 21
-17.80000000000001
 31
0.0
  0
LINE
  5
1BD
330
132
100
AcDbEntity
  8
AM_4
100
AcDbLine
 10
37.74999999999999
 20
-17.8
 30
0.0
 11
23.35
 21
-17.8
 31
0.0
  0
LINE
  5
1BE
330
132
100
AcDbEntity
  8
AM_4
100
AcDbLine
 10
-45.22790151210138
 20
-15.87218594556617
 30
0.0
 11
-45.2279015121014
 21
-9.642423673438733
 31
0.0
  0
LINE
  5
1BF
330
132
100
AcDbEntity
  8
AM_4
100
AcDbLine
 10
45.22790151210138
 20
-15.87218594556617
 30
0.0
 11
45.22790151210138
 21
-9.64242367343872
 31
0.0
  0
LWPOLYLINE
  5
1C0
330
132
100
AcDbEntity
  8
AM_4
100
AcDbPolyline
 90
       31
 70
     0
 43
0.0
 10
45.22790151210138
 20
9.642423673438724
 10
44.90355669147043
 20
9.149385949443678
 10
44.56876483034173
 20
8.597969926631372
 10
44.22192741739619
 20
7.97197037669755
 10
43.87523796763599
 20
7.276107478707631
 10
43.60410900576382
 20
6.669101548814131
 10
43.34234101779959
 20
6.013722134383858
 10
43.08901615203992
 20
5.290506822239231
 10
42.85722318373223
 20
4.516449146041634
 10
42.69991995138652
 20
3.896669383850973
 10
42.56186164964912
 20
3.250909215816099
 10
42.44326666122761
 20
2.563370899804825
 10
42.35095409150899
 20
1.855380877613905
 10
42.28875532826424
 20
1.14983404819098
 10
42.25552992423788
 20
0.4348480526263891
 10
42.25285994288908
 20
-0.3091589143377792
 10
42.28229172156269
 20
-1.050397125930254
 10
42.33437454626522
 20
-1.69627076526453
 10
42.40959281178972
 20
-2.330794778103264
 10
42.50925750537569
 20
-2.966222382682838
 10
42.62948716086718
 20
-3.582520118072551
 10
42.77252322129905
 20
-4.194837882517588
 10
42.93222080160388
 20
-4.781895669367048
 10
43.10950159258384
 20
-5.353123929499215
 10
43.29851351156298
 20
-5.895742659879565
 10
43.612663021211
 20
-6.689262355561291
 10
43.94023487117587
 20
-7.412768624102324
 10
44.28244455614955
 20
-8.085768424491423
 10
44.62366110030668
 20
-8.691659370418447
 10
44.93034306183007
 20
-9.191528546538123
 10
45.22790151210139
 20
-9.642423673438731
  0
LINE
  5
1C1
330
132
100
AcDbEntity
  8
AM_4
100
AcDbLine
 10
45.22790151210138
 20
9.642423673438724
 30
0.0
 11
45.22790151210138
 21
15.87218594556617
 31
0.0
  0
LINE
  5
1C2
330
132
100
AcDbEntity
  8
AM_4
100
AcDbLine
 10
-45.2279015121014
 20
9.642423673438728
 30
0.0
 11
-45.22790151210138
 21
15.87218594556616
 31
0.0
  0
LWPOLYLINE
  5
1C3
330
132
100
AcDbEntity
  8
AM_4
100
AcDbPolyline
 90
       31
 70
     0
 43
0.0
 10
-45.2279015121014
 20
-9.642423673438733
 10
-44.90355669147044
 20
-9.149385949443687
 10
-44.56876483034174
 20
-8.597969926631377
 10
-44.2219274173962
 20
-7.971970376697554
 10
-43.875237967636
 20
-7.276107478707634
 10
-43.60410900576382
 20
-6.669101548814139
 10
-43.3423410177996
 20
-6.01372213438387
 10
-43.08901615203993
 20
-5.290506822239244
 10
-42.85722318373223
 20
-4.516449146041648
 10
-42.69991995138652
 20
-3.896669383850982
 10
-42.56186164964912
 20
-3.250909215816101
 10
-42.44326666122761
 20
-2.563370899804828
 10
-42.35095409150899
 20
-1.855380877613909
 10
-42.28875532826424
 20
-1.149834048190983
 10
-42.25552992423788
 20
-0.4348480526263913
 10
-42.25285994288908
 20
0.3091589143377809
 10
-42.28229172156269
 20
1.05039712593026
 10
-42.33437454626522
 20
1.696270765264536
 10
-42.40959281178972
 20
2.330794778103269
 10
-42.50925750537569
 20
2.966222382682846
 10
-42.62948716086718
 20
3.58252011807256
 10
-42.77252322129905
 20
4.194837882517596
 10
-42.93222080160388
 20
4.781895669367056
 10
-43.10950159258384
 20
5.353123929499227
 10
-43.29851351156298
 20
5.895742659879581
 10
-43.612663021211
 20
6.689262355561305
 10
-43.94023487117587
 20
7.412768624102337
 10
-44.28244455614955
 20
8.08576842449144
 10
-44.62366110030668
 20
8.691659370418462
 10
-44.93034306183007
 20
9.191528546538137
 10
-45.22790151210139
 20
9.642423673438742
  0
LINE
  5
1C4
330
132
100
AcDbEntity
  8
AM_4
100
AcDbLine
 10
37.74999999999999
 20
-17.8
 30
0.0
 11
37.74999999999999
 21
-22.25
 31
0.0
  0
LINE
  5
1C5
330
132
100
AcDbEntity
  8
AM_4
100
AcDbLine
 10
37.74999999999999
 20
-22.25
 30
0.0
 11
82.55
 21
-22.25
 31
0.0
  0
LINE
  5
1C6
330
132
100
AcDbEntity
  8
AM_4
100
AcDbLine
 10
45.22790151210138
 20
-15.87218594556617
 30
0.0
 11
59.45
 21
-22.25
 31
0.0
  0
LWPOLYLINE
  5
1C7
330
132
100
AcDbEntity
  8
AM_4
100
AcDbPolyline
 90
       30
 70
     0
 43
0.0
 10
-45.22790151210139
 20
-15.87218594556617
 10
-43.79072498291463
 20
-15.31282192865449
 10
-42.02027459504522
 20
-14.77361359317404
 10
-39.93002454497199
 20
-14.2586646401407
 10
-37.53588289770352
 20
-13.77189414202176
 10
-34.85607051679773
 20
-13.31700671622795
 10
-31.91098239258832
 20
-12.8974643307381
 10
-28.72303242399332
 20
-12.51645995643242
 10
-25.31648283521056
 20
-12.17689326665609
 10
-21.71725952554158
 20
-11.88134856895428
 10
-17.95275475764338
 20
-11.63207513693128
 10
-14.05161868586982
 20
-11.4309700919202
 10
-10.04354131129745
 20
-11.27956396474412
 10
-5.959026522890059
 20
-11.17900904745235
 10
-1.829159944484879
 20
-11.13007062368222
 10
2.314627645574803
 20
-11.13312114438845
 10
6.440799521641276
 20
-11.18813739326649
 10
10.51795302428698
 20
-11.29470066344268
 10
14.51505855350418
 20
-11.45199994408631
 10
18.40169572269723
 20
-11.65883809269177
 10
22.14828487619288
 20
-11.9136409460559
 10
25.72631220828066
 20
-12.21446930061042
 10
29.10854677049139
 20
-12.55903367093205
 10
32.2692477155576
 20
-12.94471171410898
 10
35.18436020080392
 20
-13.36856818735387
 10
37.83169846002455
 20
-13.82737728697378
 10
40.19111465056033
 20
-14.31764719868411
 10
42.24465219054679
 20
-14.83564667242366
 10
43.9766824193448
 20
-15.37743341942065
 10
45.22790151210138
 20
-15.87218594556617
  0
LINE
  5
1C8
330
132
100
AcDbEntity
  8
AM_4
100
AcDbLine
 10
-59.45
 20
-22.25
 30
0.0
 11
-45.22790151210138
 21
-15.87218594556617
 31
0.0
  0
LINE
  5
1C9
330
132
100
AcDbEntity
  8
AM_4
100
AcDbLine
 10
-82.55
 20
-22.25
 30
0.0
 11
-37.74999999999999
 21
-22.25
 31
0.0
  0
LINE
  5
1CA
330
132
100
AcDbEntity
  8
AM_4
100
AcDbLine
 10
-37.74999999999999
 20
-22.25
 30
0.0
 11
-37.74999999999999
 21
-17.80000000000001
 31
0.0
  0
LWPOLYLINE
  5
1CB
330
132
100
AcDbEntity
  8
AM_4
100
AcDbPolyline
 90
       37
 70
     0
 43
0.0
 10
35.98257355998873
 20
-17.8
 10
35.74803457227961
 20
-17.34926825227269
 10
35.24143145622202
 20
-16.90319359981396
 10
34.46661976742447
 20
-16.46517094007626
 10
33.42949629068278
 20
-16.0385338899855
 10
32.13795416188727
 20
-15.62652941510338
 10
30.6018227964925
 20
-15.23229311825884
 10
28.83279308173061
 20
-14.85882537571726
 10
26.8443284019003
 20
-14.50896850250538
 10
24.65156217388287
 20
-14.18538512067767
 10
22.27118267270197
 20
-13.89053789515486
 10
19.72130602367404
 20
-13.62667079135678
 10
17.0213383277558
 20
-13.39579199727065
 10
14.19182796939825
 20
-13.19965863992789
 10
11.25430923093356
 20
-13.03976341260645
 10
8.231138403683753
 20
-12.91732321453361
 10
5.14532364308466
 20
-12.83326988954812
 10
2.020349862730332
 20
-12.78824313420592
 10
-1.119999999999975
 20
-12.78258562930304
 10
-4.251825986455791
 20
-12.81634043186791
 10
-7.351293009831955
 20
-12.88925064747128
 10
-10.39481225457122
 20
-13.00076138534803
 10
-13.35922070149395
 20
-13.15002398145089
 10
-16.2219574123603
 20
-13.3359024572963
 10
-18.9612352322329
 20
-13.55698216544658
 10
-21.55620660288134
 20
-13.81158055583113
 10
-23.98712222528845
 20
-14.09775998096842
 10
-26.2354813637407
 20
-14.41334244263328
 10
-28.28417264759812
 20
-14.75592616773855
 10
-30.11760429915693
 20
-15.12290388727847
 10
-31.72182279649247
 20
-15.51148267922013
 10
-33.08461906818642
 20
-15.91870522432657
 10
-34.19562141173228
 20
-16.34147231314183
 10
-35.0463744284541
 20
-16.77656643284628
 10
-35.63040337419594
 20
-17.22067625447196
 10
-35.94326343603437
 20
-17.67042183411545
 10
-35.98257355998873
 20
-17.79999999999999
  0
LINE
  5
1CC
330
132
100
AcDbEntity
  8
AM_4
100
AcDbLine
 10
-33.44865468146664
 20
15.44259379042691
 30
0.0
 11
-31.46029243347875
 21
15.44259379042691
 31
0.0
  0
LINE
  5
1CD
330
132
100
AcDbEntity
  8
AM_4
100
AcDbLine
 10
-37.74776163197356
 20
18.02035359356474
 30
0.0
 11
-37.75000000000001
 21
17.96119016817594
 31
0.0
  0
LWPOLYLINE
  5
1CE
330
132
100
AcDbEntity
  8
AM_4
100
AcDbPolyline
 90
        3
 70
     0
 43
0.0
 10
-37.75
 20
18.05399999999999
 10
-37.74903345331531
 20
18.03186244134209
 10
-37.74776163197356
 20
18.02035359356473
  0
LINE
  5
1CF
330
132
100
AcDbEntity
  8
AM_4
100
AcDbLine
 10
-37.75
 20
18.05399999999999
 30
0.0
 11
-37.75000000000001
 21
22.25
 31
0.0
  0
LINE
  5
1D0
330
132
100
AcDbEntity
  8
AM_4
100
AcDbLine
 10
-82.55
 20
22.25
 30
0.0
 11
-37.75000000000001
 21
22.25
 31
0.0
  0
LINE
  5
1D1
330
132
100
AcDbEntity
  8
AM_4
100
AcDbLine
 10
-45.22790151210138
 20
15.87218594556616
 30
0.0
 11
-59.45000000000002
 21
22.25
 31
0.0
  0
LWPOLYLINE
  5
1D2
330
132
100
AcDbEntity
  8
AM_4
100
AcDbPolyline
 90
       30
 70
     0
 43
0.0
 10
45.22790151210139
 20
15.87218594556617
 10
43.79072498291463
 20
15.31282192865449
 10
42.02027459504522
 20
14.77361359317404
 10
39.930024544972
 20
14.2586646401407
 10
37.53588289770352
 20
13.77189414202176
 10
34.85607051679774
 20
13.31700671622795
 10
31.91098239258833
 20
12.8974643307381
 10
28.72303242399333
 20
12.51645995643242
 10
25.31648283521058
 20
12.17689326665609
 10
21.71725952554159
 20
11.88134856895428
 10
17.9527547576434
 20
11.63207513693129
 10
14.05161868586984
 20
11.4309700919202
 10
10.04354131129747
 20
11.27956396474411
 10
5.95902652289008
 20
11.17900904745235
 10
1.829159944484901
 20
11.13007062368222
 10
-2.314627645574781
 20
11.13312114438844
 10
-6.440799521641254
 20
11.18813739326649
 10
-10.51795302428695
 20
11.29470066344268
 10
-14.51505855350416
 20
11.4519999440863
 10
-18.40169572269721
 20
11.65883809269177
 10
-22.14828487619286
 20
11.9136409460559
 10
-25.72631220828064
 20
12.21446930061042
 10
-29.10854677049138
 20
12.55903367093205
 10
-32.26924771555758
 20
12.94471171410897
 10
-35.1843602008039
 20
13.36856818735386
 10
-37.83169846002455
 20
13.82737728697377
 10
-40.19111465056032
 20
14.3176471986841
 10
-42.24465219054679
 20
14.83564667242365
 10
-43.9766824193448
 20
15.37743341942064
 10
-45.22790151210138
 20
15.87218594556616
  0
LINE
  5
1D3
330
132
100
AcDbEntity
  8
AM_4
100
AcDbLine
 10
59.45000000000001
 20
22.25
 30
0.0
 11
45.22790151210138
 21
15.87218594556617
 31
0.0
  0
LINE
  5
1D4
330
132
100
AcDbEntity
  8
AM_4
100
AcDbLine
 10
37.75000000000001
 20
22.25
 30
0.0
 11
82.55
 21
22.25
 31
0.0
  0
LINE
  5
1D5
330
132
100
AcDbEntity
  8
AM_4
100
AcDbLine
 10
37.75000000000001
 20
22.25
 30
0.0
 11
37.75000000000001
 21
18.0539999999999
 31
0.0
  0
LWPOLYLINE
  5
1D6
330
132
100
AcDbEntity
  8
AM_4
100
AcDbPolyline
 90
        3
 70
     0
 43
0.0
 10
37.74776163197356
 20
18.02035359356467
 10
37.74973608049865
 20
18.04242410032931
 10
37.75000000000001
 20
18.05399999999979
  0
LWPOLYLINE
  5
1D7
330
132
100
AcDbEntity
  8
AM_4
100
AcDbPolyline
 90
        7
 70
     0
 43
0.0
 10
33.44865468146664
 20
15.44259379042691
 10
34.84659795006273
 20
15.87173888457312
 10
35.97933756730772
 20
16.31678596463273
 10
36.83825270074749
 20
16.77434795359971
 10
37.41680648758943
 20
17.24094252845453
 10
37.71059578417535
 20
17.71301862274505
 10
37.75000000000001
 20
17.96119016817594
  0
LINE
  5
1D8
330
132
100
AcDbEntity
  8
AM_4
100
AcDbLine
 10
31.46029243347875
 20
15.44259379042691
 30
0.0
 11
33.44865468146665
 21
15.44259379042691
 31
0.0
  0
LWPOLYLINE
  5
1D9
330
132
100
AcDbEntity
  8
AM_4
100
AcDbPolyline
 90
       26
 70
     0
 43
0.0
 10
-31.46029243347875
 20
15.4425937904269
 10
-29.81535102456337
 20
15.05755763099507
 10
-27.9434967913499
 20
14.69461986843244
 10
-25.85897567480957
 20
14.35654267825993
 10
-23.57765213930753
 20
14.04589903203135
 10
-21.11688843444976
 20
13.76505311546625
 10
-18.49541245787997
 20
13.5161423355691
 10
-15.73317522467033
 20
13.30106105367135
 10
-12.85119902805001
 20
13.12144616819788
 10
-9.871417447060102
 20
12.97866465688156
 10
-6.816508418773243
 20
12.87380317323736
 10
-3.709721645499202
 20
12.80765977647289
 10
-0.5747016505117393
 20
12.78073785777601
 10
2.564692171050462
 20
12.7932423092039
 10
5.684567136587496
 20
12.84507796433081
 10
8.761179113779617
 20
12.93585032252198
 10
11.77111322777129
 20
13.06486855132175
 10
14.69146206250712
 20
13.2311507441056
 10
17.49999999999995
 20
13.43343139298252
 10
20.17535237070386
 20
13.67017102007415
 10
22.69715812765589
 20
13.93956789387105
 10
25.04622480633767
 20
14.23957174149732
 10
27.2046745909192
 20
14.56789935252526
 10
29.1560803752322
 20
14.92205195558533
 10
30.88559078296701
 20
15.29933423552503
 10
31.46029243347875
 20
15.4425937904269
  0
ENDBLK
  5
135
330
132
100
AcDbEntity
  8
0
100
AcDbBlockEnd
  0
ENDSEC
  0
SECTION
  2
ENTITIES
  0
INSERT
  5
6F
330
1F
100
AcDbEntity
  8
0
100
AcDbBlockReference
  2
1_053717_4
 10
0.0
 20
0.0
 30
0.0
  0
POINT
  5
1DB
330
1F
100
AcDbEntity
  8
ConnectionPoints
100
AcDbPoint
 10
0.0
 20
-26.4
 30
0.0000000000000016
  0
POINT
  5
1DC
330
1F
100
AcDbEntity
  8
ConnectionPoints
100
AcDbPoint
 10
33.587572106361
 20
0.0000000000000021
 30
33.58757210636102
  0
POINT
  5
1DD
330
1F
100
AcDbEntity
  8
ConnectionPoints
100
AcDbPoint
 10
0.0
 20
-26.4
 30
0.0000000000000016
  0
ENDSEC
  0
SECTION
  2
OBJECTS
  0
DICTIONARY
  5
C
330
0
100
AcDbDictionary
281
     1
  3
ACAD_DETAILVIEWSTYLE
350
1E5
  3
ACAD_GROUP
350
D
  3
ACAD_LAYOUT
350
1A
  3
ACAD_MATERIAL
350
43
  3
ACAD_MLEADERSTYLE
350
6B
  3
ACAD_MLINESTYLE
350
17
  3
ACAD_PLOTSETTINGS
350
19
  3
ACAD_PLOTSTYLENAME
350
E
  3
ACAD_SCALELIST
350
47
  3
ACAD_SECTIONVIEWSTYLE
350
1E6
  3
ACAD_TABLESTYLE
350
69
  3
ACAD_VISUALSTYLE
350
2A
  3
ACDB_RECOMPOSE_DATA
350
1E2
  3
AcDbVariableDictionary
350
1DE
  0
SUN
  5
6D
330
29
100
AcDbSun
 90
        1
290
     0
 63
     7
421
 16777215
 40
1.0
291
     1
 91
  2455826
 92
 54000000
292
     0
 70
     2
 71
   256
280
     1
  0
DICTIONARY
  5
1E5
102
{ACAD_REACTORS
330
C
102
}
330
C
100
AcDbDictionary
281
     1
  0
DICTIONARY
  5
D
102
{ACAD_REACTORS
330
C
102
}
330
C
100
AcDbDictionary
281
     1
  0
DICTIONARY
  5
1A
102
{ACAD_REACTORS
330
C
102
}
330
C
100
AcDbDictionary
281
     1
  3
Layout1
350
1E
  3
Layout2
350
26
  3
Model
350
22
  0
DICTIONARY
  5
43
102
{ACAD_REACTORS
330
C
102
}
330
C
100
AcDbDictionary
281
     1
  3
ByBlock
350
45
  3
ByLayer
350
44
  3
Global
350
46
  0
DICTIONARY
  5
6B
102
{ACAD_REACTORS
330
C
102
}
330
C
100
AcDbDictionary
281
     1
  3
Standard
350
6C
  0
DICTIONARY
  5
17
102
{ACAD_REACTORS
330
C
102
}
330
C
100
AcDbDictionary
281
     1
  3
Standard
350
18
  0
DICTIONARY
  5
19
102
{ACAD_REACTORS
330
C
102
}
330
C
100
AcDbDictionary
281
     1
  0
ACDBDICTIONARYWDFLT
  5
E
102
{ACAD_REACTORS
330
C
102
}
330
C
100
AcDbDictionary
281
     1
  3
Normal
350
F
100
AcDbDictionaryWithDefault
340
F
  0
DICTIONARY
  5
47
102
{ACAD_REACTORS
330
C
102
}
330
C
100
AcDbDictionary
281
     1
  3
A0
350
48
  3
A1
350
49
  3
A2
350
4A
  3
A3
350
4B
  3
A4
350
4C
  3
A5
350
4D
  3
A6
350
4E
  3
A7
350
4F
  3
A8
350
50
  3
A9
350
51
  3
B0
350
52
  3
B1
350
53
  3
B2
350
54
  3
B3
350
55
  3
B4
350
56
  3
B5
350
57
  3
B6
350
58
  3
B7
350
59
  3
B8
350
5A
  3
B9
350
5B
  3
C0
350
5C
  3
C1
350
5D
  3
C2
350
5E
  3
C3
350
5F
  3
C4
350
60
  3
C5
350
61
  3
C6
350
62
  3
C7
350
63
  3
C8
350
64
  3
C9
350
65
  3
D0
350
66
  3
D1
350
67
  3
D2
350
68
  0
DICTIONARY
  5
1E6
102
{ACAD_REACTORS
330
C
102
}
330
C
100
AcDbDictionary
281
     1
  0
DICTIONARY
  5
69
102
{ACAD_REACTORS
330
C
102
}
330
C
100
AcDbDictionary
281
     1
  3
Standard
350
6A
  0
DICTIONARY
  5
2A
102
{ACAD_REACTORS
330
C
102
}
330
C
100
AcDbDictionary
281
     1
  3
2dWireframe
350
2F
  3
Basic
350
32
  3
Brighten
350
36
  3
ColorChange
350
3A
  3
Conceptual
350
34
  3
Dim
350
35
  3
EdgeColorOff
350
3D
  3
Facepattern
350
39
  3
Flat
350
2B
  3
FlatWithEdges
350
2C
  3
Gouraud
350
2D
  3
GouraudWithEdges
350
2E
  3
Hidden
350
31
  3
JitterOff
350
3B
  3
Linepattern
350
38
  3
OverhangOff
350
3C
  3
Realistic
350
33
  3
Shaded
350
42
  3
Shaded with edges
350
41
  3
Shades of Gray
350
3E
  3
Sketchy
350
3F
  3
Thicken
350
37
  3
Wireframe
350
30
  3
X-Ray
350
40
  0
XRECORD
  5
1E2
102
{ACAD_REACTORS
330
C
102
}
330
C
100
AcDbXrecord
280
     1
 90
        1
330
6A
  0
DICTIONARY
  5
1DE
102
{ACAD_REACTORS
330
C
102
}
330
C
100
AcDbDictionary
281
     1
  3
CANNOSCALE
350
1DF
  3
CMLEADERSTYLE
350
1E4
  3
CTABLESTYLE
350
1E3
  0
LAYOUT
  5
1E
102
{ACAD_REACTORS
330
1A
102
}
330
1A
100
AcDbPlotSettings
  1

  2
none_device
  4

  6

 40
0.0
 41
0.0
 42
0.0
 43
0.0
 44
0.0
 45
0.0
 46
0.0
 47
0.0
 48
0.0
 49
0.0
140
0.0
141
0.0
142
1.0
143
1.0
 70
   688
 72
     1
 73
     0
 74
     5
  7

 75
    16
 76
     0
 77
     2
 78
   300
147
1.0
148
0.0
149
0.0
100
AcDbLayout
  1
Layout1
 70
     1
 71
     1
 10
0.0
 20
0.0
 11
420.0
 21
297.0
 12
0.0
 22
0.0
 32
0.0
 14
1.000000000000000E+20
 24
1.000000000000000E+20
 34
1.000000000000000E+20
 15
-1.000000000000000E+20
 25
-1.000000000000000E+20
 35
-1.000000000000000E+20
146
0.0
 13
0.0
 23
0.0
 33
0.0
 16
1.0
 26
0.0
 36
0.0
 17
0.0
 27
1.0
 37
0.0
 76
     0
330
1B
  0
LAYOUT
  5
26
102
{ACAD_REACTORS
330
1A
102
}
330
1A
100
AcDbPlotSettings
  1

  2
none_device
  4

  6

 40
0.0
 41
0.0
 42
0.0
 43
0.0
 44
0.0
 45
0.0
 46
0.0
 47
0.0
 48
0.0
 49
0.0
140
0.0
141
0.0
142
1.0
143
1.0
 70
   688
 72
     1
 73
     0
 74
     5
  7

 75
    16
 76
     0
 77
     2
 78
   300
147
1.0
148
0.0
149
0.0
100
AcDbLayout
  1
Layout2
 70
     1
 71
     2
 10
0.0
 20
0.0
 11
0.0
 21
0.0
 12
0.0
 22
0.0
 32
0.0
 14
0.0
 24
0.0
 34
0.0
 15
0.0
 25
0.0
 35
0.0
146
0.0
 13
0.0
 23
0.0
 33
0.0
 16
1.0
 26
0.0
 36
0.0
 17
0.0
 27
1.0
 37
0.0
 76
     0
330
23
  0
LAYOUT
  5
22
102
{ACAD_REACTORS
330
1A
102
}
330
1A
100
AcDbPlotSettings
  1

  2
none_device
  4
Letter_(8.50_x_11.00_Inches)
  6

 40
6.35
 41
6.35
 42
6.35000508
 43
6.35000508
 44
215.9
 45
279.4
 46
0.0
 47
0.0
 48
0.0
 49
0.0
140
0.0
141
0.0
142
1.0
143
1.0
 70
  1712
 72
     1
 73
     0
 74
     0
  7

 75
     0
 76
     0
 77
     2
 78
   300
147
1.0
148
0.0
149
0.0
100
AcDbLayout
  1
Model
 70
     1
 71
     0
 10
0.0
 20
0.0
 11
420.0
 21
297.0
 12
0.0
 22
0.0
 32
0.0
 14
1.000000000000000E+20
 24
1.000000000000000E+20
 34
1.000000000000000E+20
 15
-1.000000000000000E+20
 25
-1.000000000000000E+20
 35
-1.000000000000000E+20
146
0.0
 13
0.0
 23
0.0
 33
0.0
 16
1.0
 26
0.0
 36
0.0
 17
0.0
 27
1.0
 37
0.0
 76
     0
330
1F
331
29
  0
MATERIAL
  5
45
102
{ACAD_REACTORS
330
43
102
}
330
43
100
AcDbMaterial
  1
ByBlock
 72
     1
 94
      127
  0
MATERIAL
  5
44
102
{ACAD_REACTORS
330
43
102
}
330
43
100
AcDbMaterial
  1
ByLayer
 72
     1
 94
      127
  0
MATERIAL
  5
46
102
{ACAD_REACTORS
330
43
102
}
330
43
100
AcDbMaterial
  1
Global
 72
     1
 94
      127
  0
MLEADERSTYLE
  5
6C
102
{ACAD_REACTORS
330
6B
102
}
330
6B
100
AcDbMLeaderStyle
179
     2
170
     2
171
     1
172
     0
 90
        2
 40
0.0
 41
0.0
173
     1
 91
-1056964608
340
14
 92
       -2
290
     1
 42
2.0
291
     1
 43
8.0
  3
Standard
341
0
 44
4.0
300

342
11
174
     1
178
     6
175
     1
176
     0
 93
-1056964608
 45
4.0
292
     0
297
     0
 46
4.0
343
0
 94
-1056964608
 47
1.0
 49
1.0
140
1.0
293
     1
141
0.0
294
     1
177
     0
142
1.0
295
     0
296
     0
143
3.75
271
     0
272
     9
273
     9
298
     0
  0
MLINESTYLE
  5
18
102
{ACAD_REACTORS
330
17
102
}
330
17
100
AcDbMlineStyle
  2
Standard
 70
     0
  3

 62
   256
 51
90.0
 52
90.0
 71
     2
 49
0.5
 62
   256
  6
BYLAYER
 49
-0.5
 62
   256
  6
BYLAYER
  0
ACDBPLACEHOLDER
  5
F
102
{ACAD_REACTORS
330
E
102
}
330
E
  0
SCALE
  5
48
102
{ACAD_REACTORS
330
47
102
}
330
47
100
AcDbScale
 70
     0
300
1:1
140
1.0
141
1.0
290
     1
  0
SCALE
  5
49
102
{ACAD_REACTORS
330
47
102
}
330
47
100
AcDbScale
 70
     0
300
1:2
140
1.0
141
2.0
290
     0
  0
SCALE
  5
4A
102
{ACAD_REACTORS
330
47
102
}
330
47
100
AcDbScale
 70
     0
300
1:4
140
1.0
141
4.0
290
     0
  0
SCALE
  5
4B
102
{ACAD_REACTORS
330
47
102
}
330
47
100
AcDbScale
 70
     0
300
1:5
140
1.0
141
5.0
290
     0
  0
SCALE
  5
4C
102
{ACAD_REACTORS
330
47
102
}
330
47
100
AcDbScale
 70
     0
300
1:8
140
1.0
141
8.0
290
     0
  0
SCALE
  5
4D
102
{ACAD_REACTORS
330
47
102
}
330
47
100
AcDbScale
 70
     0
300
1:10
140
1.0
141
10.0
290
     0
  0
SCALE
  5
4E
102
{ACAD_REACTORS
330
47
102
}
330
47
100
AcDbScale
 70
     0
300
1:16
140
1.0
141
16.0
290
     0
  0
SCALE
  5
4F
102
{ACAD_REACTORS
330
47
102
}
330
47
100
AcDbScale
 70
     0
300
1:20
140
1.0
141
20.0
290
     0
  0
SCALE
  5
50
102
{ACAD_REACTORS
330
47
102
}
330
47
100
AcDbScale
 70
     0
300
1:30
140
1.0
141
30.0
290
     0
  0
SCALE
  5
51
102
{ACAD_REACTORS
330
47
102
}
330
47
100
AcDbScale
 70
     0
300
1:40
140
1.0
141
40.0
290
     0
  0
SCALE
  5
52
102
{ACAD_REACTORS
330
47
102
}
330
47
100
AcDbScale
 70
     0
300
1:50
140
1.0
141
50.0
290
     0
  0
SCALE
  5
53
102
{ACAD_REACTORS
330
47
102
}
330
47
100
AcDbScale
 70
     0
300
1:100
140
1.0
141
100.0
290
     0
  0
SCALE
  5
54
102
{ACAD_REACTORS
330
47
102
}
330
47
100
AcDbScale
 70
     0
300
2:1
140
2.0
141
1.0
290
     0
  0
SCALE
  5
55
102
{ACAD_REACTORS
330
47
102
}
330
47
100
AcDbScale
 70
     0
300
4:1
140
4.0
141
1.0
290
     0
  0
SCALE
  5
56
102
{ACAD_REACTORS
330
47
102
}
330
47
100
AcDbScale
 70
     0
300
8:1
140
8.0
141
1.0
290
     0
  0
SCALE
  5
57
102
{ACAD_REACTORS
330
47
102
}
330
47
100
AcDbScale
 70
     0
300
10:1
140
10.0
141
1.0
290
     0
  0
SCALE
  5
58
102
{ACAD_REACTORS
330
47
102
}
330
47
100
AcDbScale
 70
     0
300
100:1
140
100.0
141
1.0
290
     0
  0
SCALE
  5
59
102
{ACAD_REACTORS
330
47
102
}
330
47
100
AcDbScale
 70
     0
300
1/128" = 1'-0"
140
0.0078125
141
12.0
290
     0
  0
SCALE
  5
5A
102
{ACAD_REACTORS
330
47
102
}
330
47
100
AcDbScale
 70
     0
300
1/64" = 1'-0"
140
0.015625
141
12.0
290
     0
  0
SCALE
  5
5B
102
{ACAD_REACTORS
330
47
102
}
330
47
100
AcDbScale
 70
     0
300
1/32" = 1'-0"
140
0.03125
141
12.0
290
     0
  0
SCALE
  5
5C
102
{ACAD_REACTORS
330
47
102
}
330
47
100
AcDbScale
 70
     0
300
1/16" = 1'-0"
140
0.0625
141
12.0
290
     0
  0
SCALE
  5
5D
102
{ACAD_REACTORS
330
47
102
}
330
47
100
AcDbScale
 70
     0
300
3/32" = 1'-0"
140
0.09375
141
12.0
290
     0
  0
SCALE
  5
5E
102
{ACAD_REACTORS
330
47
102
}
330
47
100
AcDbScale
 70
     0
300
1/8" = 1'-0"
140
0.125
141
12.0
290
     0
  0
SCALE
  5
5F
102
{ACAD_REACTORS
330
47
102
}
330
47
100
AcDbScale
 70
     0
300
3/16" = 1'-0"
140
0.1875
141
12.0
290
     0
  0
SCALE
  5
60
102
{ACAD_REACTORS
330
47
102
}
330
47
100
AcDbScale
 70
     0
300
1/4" = 1'-0"
140
0.25
141
12.0
290
     0
  0
SCALE
  5
61
102
{ACAD_REACTORS
330
47
102
}
330
47
100
AcDbScale
 70
     0
300
3/8" = 1'-0"
140
0.375
141
12.0
290
     0
  0
SCALE
  5
62
102
{ACAD_REACTORS
330
47
102
}
330
47
100
AcDbScale
 70
     0
300
1/2" = 1'-0"
140
0.5
141
12.0
290
     0
  0
SCALE
  5
63
102
{ACAD_REACTORS
330
47
102
}
330
47
100
AcDbScale
 70
     0
300
3/4" = 1'-0"
140
0.75
141
12.0
290
     0
  0
SCALE
  5
64
102
{ACAD_REACTORS
330
47
102
}
330
47
100
AcDbScale
 70
     0
300
1" = 1'-0"
140
1.0
141
12.0
290
     0
  0
SCALE
  5
65
102
{ACAD_REACTORS
330
47
102
}
330
47
100
AcDbScale
 70
     0
300
1-1/2" = 1'-0"
140
1.5
141
12.0
290
     0
  0
SCALE
  5
66
102
{ACAD_REACTORS
330
47
102
}
330
47
100
AcDbScale
 70
     0
300
3" = 1'-0"
140
3.0
141
12.0
290
     0
  0
SCALE
  5
67
102
{ACAD_REACTORS
330
47
102
}
330
47
100
AcDbScale
 70
     0
300
6" = 1'-0"
140
6.0
141
12.0
290
     0
  0
SCALE
  5
68
102
{ACAD_REACTORS
330
47
102
}
330
47
100
AcDbScale
 70
     0
300
1'-0" = 1'-0"
140
12.0
141
12.0
290
     0
  0
TABLESTYLE
  5
6A
102
{ACAD_REACTORS
330
69
102
}
102
{ACAD_XDICTIONARY
360
1E0
102
}
330
69
100
AcDbTableStyle
  3
Standard
 70
     0
 71
     0
 40
0.06
 41
0.06
280
     0
281
     0
  7
Standard
140
4.5
170
     2
 62
     0
 63
   257
283
     0
 90
        4
 91
        0
  1

274
    -2
284
     1
 64
     0
275
    -2
285
     1
 65
     0
276
    -2
286
     1
 66
     0
277
    -2
287
     1
 67
     0
278
    -2
288
     1
 68
     0
279
    -2
289
     1
 69
     0
  7
Standard
140
6.0
170
     5
 62
     0
 63
   257
283
     0
 90
        4
 91
        0
  1

274
    -2
284
     1
 64
     0
275
    -2
285
     1
 65
     0
276
    -2
286
     1
 66
     0
277
    -2
287
     1
 67
     0
278
    -2
288
     1
 68
     0
279
    -2
289
     1
 69
     0
  7
Standard
140
4.5
170
     5
 62
     0
 63
   257
283
     0
 90
        4
 91
        0
  1

274
    -2
284
     1
 64
     0
275
    -2
285
     1
 65
     0
276
    -2
286
     1
 66
     0
277
    -2
287
     1
 67
     0
278
    -2
288
     1
 68
     0
279
    -2
289
     1
 69
     0
  0
VISUALSTYLE
  5
2F
102
{ACAD_REACTORS
330
2A
102
}
330
2A
100
AcDbVisualStyle
  2
2dWireframe
 70
     4
177
     3
291
     0
 70
    58
 90
        0
176
     1
 90
        2
176
     1
 90
        0
176
     1
 90
        0
176
     1
 40
0.6
176
     1
 40
30.0
176
     1
 62
     7
420
 16777215
176
     1
 90
        1
176
     1
 90
        4
176
     1
 62
     7
176
     1
 62
   257
176
     1
 90
        1
176
     1
 90
        1
176
     1
 40
1.0
176
     1
 90
        0
176
     1
 62
   257
176
     1
 40
1.0
176
     1
 90
        1
176
     1
 90
        6
176
     1
 90
        2
176
     1
 62
     7
176
     1
 90
        5
176
     1
 90
        0
176
     1
 90
        0
176
     1
290
     0
176
     1
 90
        1
176
     1
 40
0.0
176
     1
 90
        0
176
     1
290
     1
176
     1
290
     1
176
     1
290
     0
176
     1
290
     0
176
     1
290
     0
176
     1
290
     0
176
     1
290
     0
176
     1
290
     0
176
     1
290
     0
176
     1
 90
       50
176
     1
 40
0.0
176
     1
 40
1.0
176
     1
 90
        0
176
     1
 62
    18
420
        0
176
     1
 90
       50
176
     1
 90
        3
176
     1
 62
     5
420
      255
176
     1
290
     0
176
     1
 90
       50
176
     1
 90
       50
176
     1
 90
       50
176
     1
290
     0
176
     1
 90
       50
176
     1
 62
   256
176
     0
 40
1.0
176
     0
 90
        2
176
     1
  1
strokes_ogs.tif
176
     1
290
     0
176
     1
 40
1.0
176
     1
 40
1.0
176
     1
  0
VISUALSTYLE
  5
32
102
{ACAD_REACTORS
330
2A
102
}
330
2A
100
AcDbVisualStyle
  2
Basic
 70
     7
177
     3
291
     1
 70
    58
 90
        1
176
     1
 90
        0
176
     1
 90
        1
176
     1
 90
        0
176
     1
 40
0.6
176
     1
 40
30.0
176
     1
 62
     7
420
 16777215
176
     1
 90
        0
176
     1
 90
        4
176
     1
 62
     7
176
     1
 62
   257
176
     1
 90
        1
176
     1
 90
        1
176
     1
 40
1.0
176
     1
 90
        8
176
     1
 62
     7
176
     1
 40
1.0
176
     1
 90
        1
176
     1
 90
        6
176
     1
 90
        2
176
     1
 62
     7
176
     1
 90
        5
176
     1
 90
        0
176
     1
 90
        0
176
     1
290
     0
176
     1
 90
        1
176
     1
 40
0.0
176
     1
 90
        0
176
     1
290
     0
176
     1
290
     1
176
     1
290
     1
176
     1
290
     0
176
     1
290
     0
176
     1
290
     0
176
     1
290
     0
176
     1
290
     0
176
     1
290
     0
176
     1
 90
       50
176
     1
 40
0.0
176
     1
 40
1.0
176
     1
 90
        0
176
     1
 62
    18
420
        0
176
     1
 90
       50
176
     1
 90
        3
176
     1
 62
     5
420
      255
176
     1
290
     0
176
     1
 90
       50
176
     1
 90
       50
176
     1
 90
       50
176
     1
290
     0
176
     1
 90
       50
176
     1
 62
   256
176
     0
 40
1.0
176
     0
 90
        2
176
     1
  1
strokes_ogs.tif
176
     1
290
     0
176
     1
 40
1.0
176
     1
 40
1.0
176
     1
  0
VISUALSTYLE
  5
36
102
{ACAD_REACTORS
330
2A
102
}
330
2A
100
AcDbVisualStyle
  2
Brighten
 70
    12
177
     3
291
     1
 70
    58
 90
        2
176
     1
 90
        2
176
     1
 90
        0
176
     1
 90
        0
176
     1
 40
0.6
176
     1
 40
30.0
176
     1
 62
     7
420
 16777215
176
     1
 90
        1
176
     1
 90
        4
176
     1
 62
     7
176
     1
 62
   257
176
     1
 90
        1
176
     1
 90
        1
176
     1
 40
1.0
176
     1
 90
        8
176
     1
 62
     7
176
     1
 40
1.0
176
     1
 90
        1
176
     1
 90
        6
176
     1
 90
        2
176
     1
 62
     7
176
     1
 90
        5
176
     1
 90
        0
176
     1
 90
        0
176
     1
290
     0
176
     1
 90
        1
176
     1
 40
50.0
176
     1
 90
        0
176
     1
290
     0
176
     1
290
     1
176
     1
290
     1
176
     1
290
     0
176
     1
290
     0
176
     1
290
     0
176
     1
290
     0
176
     1
290
     0
176
     1
290
     0
176
     1
 90
       50
176
     1
 40
0.0
176
     1
 40
1.0
176
     1
 90
        0
176
     1
 62
    18
420
        0
176
     1
 90
       50
176
     1
 90
        3
176
     1
 62
     5
420
      255
176
     1
290
     0
176
     1
 90
       50
176
     1
 90
       50
176
     1
 90
       50
176
     1
290
     0
176
     1
 90
       50
176
     1
 62
   256
176
     0
 40
1.0
176
     0
 90
        2
176
     1
  1
strokes_ogs.tif
176
     1
290
     0
176
     1
 40
1.0
176
     1
 40
1.0
176
     1
  0
VISUALSTYLE
  5
3A
102
{ACAD_REACTORS
330
2A
102
}
330
2A
100
AcDbVisualStyle
  2
ColorChange
 70
    16
177
     3
291
     1
 70
    58
 90
        2
176
     1
 90
        2
176
     1
 90
        3
176
     1
 90
        0
176
     1
 40
0.6
176
     1
 40
30.0
176
     1
 62
     8
420
  8421504
176
     1
 90
        1
176
     1
 90
        4
176
     1
 62
     7
176
     1
 62
   257
176
     1
 90
        1
176
     1
 90
        1
176
     1
 40
1.0
176
     1
 90
        8
176
     1
 62
     8
420
  8421504
176
     1
 40
1.0
176
     1
 90
        1
176
     1
 90
        6
176
     1
 90
        2
176
     1
 62
     7
176
     1
 90
        5
176
     1
 90
        0
176
     1
 90
        0
176
     1
290
     0
176
     1
 90
        1
176
     1
 40
0.0
176
     1
 90
        0
176
     1
290
     0
176
     1
290
     1
176
     1
290
     1
176
     1
290
     0
176
     1
290
     0
176
     1
290
     0
176
     1
290
     0
176
     1
290
     0
176
     1
290
     0
176
     1
 90
       50
176
     1
 40
0.0
176
     1
 40
1.0
176
     1
 90
        0
176
     1
 62
    18
420
        0
176
     1
 90
       50
176
     1
 90
        3
176
     1
 62
     5
420
      255
176
     1
290
     0
176
     1
 90
       50
176
     1
 90
       50
176
     1
 90
       50
176
     1
290
     0
176
     1
 90
       50
176
     1
 62
   256
176
     0
 40
1.0
176
     0
 90
        2
176
     1
  1
strokes_ogs.tif
176
     1
290
     0
176
     1
 40
1.0
176
     1
 40
1.0
176
     1
  0
VISUALSTYLE
  5
34
102
{ACAD_REACTORS
330
2A
102
}
330
2A
100
AcDbVisualStyle
  2
Conceptual
 70
     9
177
     3
291
     0
 70
    58
 90
        3
176
     1
 90
        2
176
     1
 90
        0
176
     1
 90
        0
176
     1
 40
0.6
176
     1
 40
30.0
176
     1
 62
     7
420
 16777215
176
     1
 90
        2
176
     1
 90
        2
176
     1
 62
     7
176
     1
 62
   257
176
     1
 90
        1
176
     1
 90
        1
176
     1
 40
179.0
176
     1
 90
        8
176
     1
 62
     7
176
     1
 40
1.0
176
     1
 90
        1
176
     1
 90
        6
176
     1
 90
        2
176
     1
 62
     7
176
     1
 90
        3
176
     1
 90
        0
176
     1
 90
        0
176
     1
290
     0
176
     1
 90
        1
176
     1
 40
0.0
176
     1
 90
        0
176
     1
290
     0
176
     1
290
     1
176
     1
290
     1
176
     1
290
     0
176
     1
290
     0
176
     1
290
     0
176
     1
290
     0
176
     1
290
     0
176
     1
290
     0
176
     1
 90
       50
176
     1
 40
0.0
176
     1
 40
1.0
176
     1
 90
        0
176
     1
 62
    18
420
        0
176
     1
 90
       50
176
     1
 90
        3
176
     1
 62
     5
420
      255
176
     1
290
     0
176
     1
 90
       50
176
     1
 90
       50
176
     1
 90
       50
176
     1
290
     0
176
     1
 90
       50
176
     1
 62
   256
176
     0
 40
1.0
176
     0
 90
        2
176
     1
  1
strokes_ogs.tif
176
     1
290
     0
176
     1
 40
1.0
176
     1
 40
1.0
176
     1
  0
VISUALSTYLE
  5
35
102
{ACAD_REACTORS
330
2A
102
}
330
2A
100
AcDbVisualStyle
  2
Dim
 70
    11
177
     3
291
     1
 70
    58
 90
        2
176
     1
 90
        2
176
     1
 90
        0
176
     1
 90
        0
176
     1
 40
0.6
176
     1
 40
30.0
176
     1
 62
     7
420
 16777215
176
     1
 90
        1
176
     1
 90
        4
176
     1
 62
     7
176
     1
 62
   257
176
     1
 90
        1
176
     1
 90
        1
176
     1
 40
1.0
176
     1
 90
        8
176
     1
 62
     7
176
     1
 40
1.0
176
     1
 90
        1
176
     1
 90
        6
176
     1
 90
        2
176
     1
 62
     7
176
     1
 90
        5
176
     1
 90
        0
176
     1
 90
        0
176
     1
290
     0
176
     1
 90
        1
176
     1
 40
-50.0
176
     1
 90
        0
176
     1
290
     0
176
     1
290
     1
176
     1
290
     1
176
     1
290
     0
176
     1
290
     0
176
     1
290
     0
176
     1
290
     0
176
     1
290
     0
176
     1
290
     0
176
     1
 90
       50
176
     1
 40
0.0
176
     1
 40
1.0
176
     1
 90
        0
176
     1
 62
    18
420
        0
176
     1
 90
       50
176
     1
 90
        3
176
     1
 62
     5
420
      255
176
     1
290
     0
176
     1
 90
       50
176
     1
 90
       50
176
     1
 90
       50
176
     1
290
     0
176
     1
 90
       50
176
     1
 62
   256
176
     0
 40
1.0
176
     0
 90
        2
176
     1
  1
strokes_ogs.tif
176
     1
290
     0
176
     1
 40
1.0
176
     1
 40
1.0
176
     1
  0
VISUALSTYLE
  5
3D
102
{ACAD_REACTORS
330
2A
102
}
330
2A
100
AcDbVisualStyle
  2
EdgeColorOff
 70
    22
177
     3
291
     1
 70
    58
 90
        2
176
     0
 90
        2
176
     0
 90
        0
176
     0
 90
        0
176
     0
 40
0.6
176
     0
 40
30.0
176
     0
 62
     7
420
 16777215
176
     0
 90
        1
176
     0
 90
        4
176
     0
 62
     7
176
     0
 62
   257
176
     0
 90
        1
176
     0
 90
        1
176
     0
 40
1.0
176
     0
 90
        8
176
     2
 62
     7
176
     0
 40
1.0
176
     0
 90
        1
176
     0
 90
        6
176
     0
 90
        2
176
     0
 62
     7
176
     0
 90
        5
176
     0
 90
        0
176
     0
 90
        0
176
     0
290
     0
176
     0
 90
        1
176
     0
 40
0.0
176
     0
 90
        0
176
     0
290
     0
176
     0
290
     1
176
     0
290
     1
176
     0
290
     0
176
     0
290
     0
176
     0
290
     0
176
     0
290
     0
176
     0
290
     0
176
     0
290
     0
176
     0
 90
       50
176
     0
 40
0.0
176
     0
 40
1.0
176
     0
 90
        0
176
     0
 62
    18
420
        0
176
     0
 90
       50
176
     0
 90
        3
176
     0
 62
     5
420
      255
176
     0
290
     0
176
     0
 90
       50
176
     0
 90
       50
176
     0
 90
       50
176
     0
290
     0
176
     0
 90
       50
176
     0
 62
   256
176
     0
 40
1.0
176
     0
 90
        2
176
     0
  1
strokes_ogs.tif
176
     0
290
     0
176
     0
 40
1.0
176
     0
 40
1.0
176
     0
  0
VISUALSTYLE
  5
39
102
{ACAD_REACTORS
330
2A
102
}
330
2A
100
AcDbVisualStyle
  2
Facepattern
 70
    15
177
     3
291
     1
 70
    58
 90
        2
176
     1
 90
        2
176
     1
 90
        0
176
     1
 90
        0
176
     1
 40
0.6
176
     1
 40
30.0
176
     1
 62
     7
420
 16777215
176
     1
 90
        1
176
     1
 90
        4
176
     1
 62
     7
176
     1
 62
   257
176
     1
 90
        1
176
     1
 90
        1
176
     1
 40
1.0
176
     1
 90
        8
176
     1
 62
     7
176
     1
 40
1.0
176
     1
 90
        1
176
     1
 90
        6
176
     1
 90
        2
176
     1
 62
     7
176
     1
 90
        5
176
     1
 90
        0
176
     1
 90
        0
176
     1
290
     0
176
     1
 90
        1
176
     1
 40
0.0
176
     1
 90
        0
176
     1
290
     0
176
     1
290
     1
176
     1
290
     1
176
     1
290
     0
176
     1
290
     0
176
     1
290
     0
176
     1
290
     0
176
     1
290
     0
176
     1
290
     0
176
     1
 90
       50
176
     1
 40
0.0
176
     1
 40
1.0
176
     1
 90
        0
176
     1
 62
    18
420
        0
176
     1
 90
       50
176
     1
 90
        3
176
     1
 62
     5
420
      255
176
     1
290
     0
176
     1
 90
       50
176
     1
 90
       50
176
     1
 90
       50
176
     1
290
     0
176
     1
 90
       50
176
     1
 62
   256
176
     0
 40
1.0
176
     0
 90
        2
176
     1
  1
strokes_ogs.tif
176
     1
290
     0
176
     1
 40
1.0
176
     1
 40
1.0
176
     1
  0
VISUALSTYLE
  5
2B
102
{ACAD_REACTORS
330
2A
102
}
330
2A
100
AcDbVisualStyle
  2
Flat
 70
     0
177
     3
291
     1
 70
    58
 90
        2
176
     1
 90
        1
176
     1
 90
        1
176
     1
 90
        2
176
     1
 40
0.6
176
     1
 40
30.0
176
     1
 62
     7
420
 16777215
176
     1
 90
        0
176
     1
 90
        0
176
     1
 62
     7
176
     1
 62
   257
176
     1
 90
        1
176
     1
 90
        1
176
     1
 40
1.0
176
     1
 90
        8
176
     1
 62
     7
176
     1
 40
1.0
176
     1
 90
        1
176
     1
 90
        6
176
     1
 90
        2
176
     1
 62
     7
176
     1
 90
        5
176
     1
 90
        0
176
     1
 90
        0
176
     1
290
     0
176
     1
 90
       13
176
     1
 40
0.0
176
     1
 90
        0
176
     1
290
     0
176
     1
290
     1
176
     1
290
     1
176
     1
290
     0
176
     1
290
     0
176
     1
290
     0
176
     1
290
     0
176
     1
290
     0
176
     1
290
     0
176
     1
 90
       50
176
     1
 40
0.0
176
     1
 40
1.0
176
     1
 90
        0
176
     1
 62
    18
420
        0
176
     1
 90
       50
176
     1
 90
        3
176
     1
 62
     5
420
      255
176
     1
290
     0
176
     1
 90
       50
176
     1
 90
       50
176
     1
 90
       50
176
     1
290
     0
176
     1
 90
       50
176
     1
 62
   256
176
     0
 40
1.0
176
     0
 90
        2
176
     1
  1
strokes_ogs.tif
176
     1
290
     0
176
     1
 40
1.0
176
     1
 40
1.0
176
     1
  0
VISUALSTYLE
  5
2C
102
{ACAD_REACTORS
330
2A
102
}
330
2A
100
AcDbVisualStyle
  2
FlatWithEdges
 70
     1
177
     3
291
     1
 70
    58
 90
        2
176
     1
 90
        1
176
     1
 90
        1
176
     1
 90
        2
176
     1
 40
0.6
176
     1
 40
30.0
176
     1
 62
     7
420
 16777215
176
     1
 90
        1
176
     1
 90
        0
176
     1
 62
     7
176
     1
 62
   257
176
     1
 90
        1
176
     1
 90
        1
176
     1
 40
1.0
176
     1
 90
        0
176
     1
 62
   257
176
     1
 40
1.0
176
     1
 90
        1
176
     1
 90
        6
176
     1
 90
        2
176
     1
 62
     7
176
     1
 90
        5
176
     1
 90
        0
176
     1
 90
        0
176
     1
290
     0
176
     1
 90
       13
176
     1
 40
0.0
176
     1
 90
        0
176
     1
290
     0
176
     1
290
     1
176
     1
290
     1
176
     1
290
     0
176
     1
290
     0
176
     1
290
     0
176
     1
290
     0
176
     1
290
     0
176
     1
290
     0
176
     1
 90
       50
176
     1
 40
0.0
176
     1
 40
1.0
176
     1
 90
        0
176
     1
 62
    18
420
        0
176
     1
 90
       50
176
     1
 90
        3
176
     1
 62
     5
420
      255
176
     1
290
     0
176
     1
 90
       50
176
     1
 90
       50
176
     1
 90
       50
176
     1
290
     0
176
     1
 90
       50
176
     1
 62
   256
176
     0
 40
1.0
176
     0
 90
        2
176
     1
  1
strokes_ogs.tif
176
     1
290
     0
176
     1
 40
1.0
176
     1
 40
1.0
176
     1
  0
VISUALSTYLE
  5
2D
102
{ACAD_REACTORS
330
2A
102
}
330
2A
100
AcDbVisualStyle
  2
Gouraud
 70
     2
177
     3
291
     1
 70
    58
 90
        2
176
     1
 90
        2
176
     1
 90
        1
176
     1
 90
        2
176
     1
 40
0.6
176
     1
 40
30.0
176
     1
 62
     7
420
 16777215
176
     1
 90
        0
176
     1
 90
        0
176
     1
 62
     7
176
     1
 62
   257
176
     1
 90
        1
176
     1
 90
        1
176
     1
 40
1.0
176
     1
 90
        0
176
     1
 62
     7
176
     1
 40
1.0
176
     1
 90
        1
176
     1
 90
        6
176
     1
 90
        2
176
     1
 62
     7
176
     1
 90
        5
176
     1
 90
        0
176
     1
 90
        0
176
     1
290
     0
176
     1
 90
       13
176
     1
 40
0.0
176
     1
 90
        0
176
     1
290
     0
176
     1
290
     1
176
     1
290
     1
176
     1
290
     0
176
     1
290
     0
176
     1
290
     0
176
     1
290
     0
176
     1
290
     0
176
     1
290
     0
176
     1
 90
       50
176
     1
 40
0.0
176
     1
 40
1.0
176
     1
 90
        0
176
     1
 62
    18
420
        0
176
     1
 90
       50
176
     1
 90
        3
176
     1
 62
     5
420
      255
176
     1
290
     0
176
     1
 90
       50
176
     1
 90
       50
176
     1
 90
       50
176
     1
290
     0
176
     1
 90
       50
176
     1
 62
   256
176
     0
 40
1.0
176
     0
 90
        2
176
     1
  1
strokes_ogs.tif
176
     1
290
     0
176
     1
 40
1.0
176
     1
 40
1.0
176
     1
  0
VISUALSTYLE
  5
2E
102
{ACAD_REACTORS
330
2A
102
}
330
2A
100
AcDbVisualStyle
  2
GouraudWithEdges
 70
     3
177
     3
291
     1
 70
    58
 90
        2
176
     1
 90
        2
176
     1
 90
        1
176
     1
 90
        2
176
     1
 40
0.6
176
     1
 40
30.0
176
     1
 62
     7
420
 16777215
176
     1
 90
        1
176
     1
 90
        0
176
     1
 62
     7
176
     1
 62
   257
176
     1
 90
        1
176
     1
 90
        1
176
     1
 40
1.0
176
     1
 90
        0
176
     1
 62
   257
176
     1
 40
1.0
176
     1
 90
        1
176
     1
 90
        6
176
     1
 90
        2
176
     1
 62
     7
176
     1
 90
        5
176
     1
 90
        0
176
     1
 90
        0
176
     1
290
     0
176
     1
 90
       13
176
     1
 40
0.0
176
     1
 90
        0
176
     1
290
     0
176
     1
290
     1
176
     1
290
     1
176
     1
290
     0
176
     1
290
     0
176
     1
290
     0
176
     1
290
     0
176
     1
290
     0
176
     1
290
     0
176
     1
 90
       50
176
     1
 40
0.0
176
     1
 40
1.0
176
     1
 90
        0
176
     1
 62
    18
420
        0
176
     1
 90
       50
176
     1
 90
        3
176
     1
 62
     5
420
      255
176
     1
290
     0
176
     1
 90
       50
176
     1
 90
       50
176
     1
 90
       50
176
     1
290
     0
176
     1
 90
       50
176
     1
 62
   256
176
     0
 40
1.0
176
     0
 90
        2
176
     1
  1
strokes_ogs.tif
176
     1
290
     0
176
     1
 40
1.0
176
     1
 40
1.0
176
     1
  0
VISUALSTYLE
  5
31
102
{ACAD_REACTORS
330
2A
102
}
330
2A
100
AcDbVisualStyle
  2
Hidden
 70
     6
177
     3
291
     0
 70
    58
 90
        1
176
     1
 90
        2
176
     1
 90
        2
176
     1
 90
        0
176
     1
 40
0.6
176
     1
 40
30.0
176
     1
 62
     7
420
 16777215
176
     1
 90
        2
176
     1
 90
        2
176
     1
 62
     7
176
     1
 62
   257
176
     1
 90
        2
176
     1
 90
        1
176
     1
 40
40.0
176
     1
 90
        0
176
     1
 62
   257
176
     1
 40
1.0
176
     1
 90
        1
176
     1
 90
        6
176
     1
 90
        2
176
     1
 62
     7
176
     1
 90
        3
176
     1
 90
        0
176
     1
 90
        0
176
     1
290
     0
176
     1
 90
        1
176
     1
 40
0.0
176
     1
 90
        0
176
     1
290
     0
176
     1
290
     1
176
     1
290
     1
176
     1
290
     0
176
     1
290
     0
176
     1
290
     0
176
     1
290
     0
176
     1
290
     0
176
     1
290
     0
176
     1
 90
       50
176
     1
 40
0.0
176
     1
 40
1.0
176
     1
 90
        0
176
     1
 62
    18
420
        0
176
     1
 90
       50
176
     1
 90
        3
176
     1
 62
     5
420
      255
176
     1
290
     0
176
     1
 90
       50
176
     1
 90
       50
176
     1
 90
       50
176
     1
290
     0
176
     1
 90
       50
176
     1
 62
   256
176
     0
 40
1.0
176
     0
 90
        2
176
     1
  1
strokes_ogs.tif
176
     1
290
     0
176
     1
 40
1.0
176
     1
 40
1.0
176
     1
  0
VISUALSTYLE
  5
3B
102
{ACAD_REACTORS
330
2A
102
}
330
2A
100
AcDbVisualStyle
  2
JitterOff
 70
    20
177
     3
291
     1
 70
    58
 90
        2
176
     0
 90
        2
176
     0
 90
        0
176
     0
 90
        0
176
     0
 40
0.6
176
     0
 40
30.0
176
     0
 62
     7
420
 16777215
176
     0
 90
        1
176
     0
 90
        4
176
     0
 62
     7
176
     0
 62
   257
176
     0
 90
        1
176
     0
 90
        1
176
     0
 40
1.0
176
     0
 90
       10
176
     2
 62
     7
176
     0
 40
1.0
176
     0
 90
        1
176
     0
 90
        6
176
     0
 90
        2
176
     0
 62
     7
176
     0
 90
        5
176
     0
 90
        0
176
     0
 90
        0
176
     0
290
     0
176
     0
 90
        1
176
     0
 40
0.0
176
     0
 90
        0
176
     0
290
     0
176
     0
290
     1
176
     0
290
     1
176
     0
290
     0
176
     0
290
     0
176
     0
290
     0
176
     0
290
     0
176
     0
290
     0
176
     0
290
     0
176
     0
 90
       50
176
     0
 40
0.0
176
     0
 40
1.0
176
     0
 90
        0
176
     0
 62
    18
420
        0
176
     0
 90
       50
176
     0
 90
        3
176
     0
 62
     5
420
      255
176
     0
290
     0
176
     0
 90
       50
176
     0
 90
       50
176
     0
 90
       50
176
     0
290
     0
176
     0
 90
       50
176
     0
 62
   256
176
     0
 40
1.0
176
     0
 90
        2
176
     0
  1
strokes_ogs.tif
176
     0
290
     0
176
     0
 40
1.0
176
     0
 40
1.0
176
     0
  0
VISUALSTYLE
  5
38
102
{ACAD_REACTORS
330
2A
102
}
330
2A
100
AcDbVisualStyle
  2
Linepattern
 70
    14
177
     3
291
     1
 70
    58
 90
        2
176
     1
 90
        2
176
     1
 90
        0
176
     1
 90
        0
176
     1
 40
0.6
176
     1
 40
30.0
176
     1
 62
     7
420
 16777215
176
     1
 90
        1
176
     1
 90
        4
176
     1
 62
     7
176
     1
 62
   257
176
     1
 90
        7
176
     1
 90
        7
176
     1
 40
1.0
176
     1
 90
        8
176
     1
 62
     7
176
     1
 40
1.0
176
     1
 90
        1
176
     1
 90
        6
176
     1
 90
        2
176
     1
 62
     7
176
     1
 90
        5
176
     1
 90
        0
176
     1
 90
        0
176
     1
290
     0
176
     1
 90
        1
176
     1
 40
0.0
176
     1
 90
        0
176
     1
290
     0
176
     1
290
     1
176
     1
290
     1
176
     1
290
     0
176
     1
290
     0
176
     1
290
     0
176
     1
290
     0
176
     1
290
     0
176
     1
290
     0
176
     1
 90
       50
176
     1
 40
0.0
176
     1
 40
1.0
176
     1
 90
        0
176
     1
 62
    18
420
        0
176
     1
 90
       50
176
     1
 90
        3
176
     1
 62
     5
420
      255
176
     1
290
     0
176
     1
 90
       50
176
     1
 90
       50
176
     1
 90
       50
176
     1
290
     0
176
     1
 90
       50
176
     1
 62
   256
176
     0
 40
1.0
176
     0
 90
        2
176
     1
  1
strokes_ogs.tif
176
     1
290
     0
176
     1
 40
1.0
176
     1
 40
1.0
176
     1
  0
VISUALSTYLE
  5
3C
102
{ACAD_REACTORS
330
2A
102
}
330
2A
100
AcDbVisualStyle
  2
OverhangOff
 70
    21
177
     3
291
     1
 70
    58
 90
        2
176
     0
 90
        2
176
     0
 90
        0
176
     0
 90
        0
176
     0
 40
0.6
176
     0
 40
30.0
176
     0
 62
     7
420
 16777215
176
     0
 90
        1
176
     0
 90
        4
176
     0
 62
     7
176
     0
 62
   257
176
     0
 90
        1
176
     0
 90
        1
176
     0
 40
1.0
176
     0
 90
        9
176
     2
 62
     7
176
     0
 40
1.0
176
     0
 90
        1
176
     0
 90
        6
176
     0
 90
        2
176
     0
 62
     7
176
     0
 90
        5
176
     0
 90
        0
176
     0
 90
        0
176
     0
290
     0
176
     0
 90
        1
176
     0
 40
0.0
176
     0
 90
        0
176
     0
290
     0
176
     0
290
     1
176
     0
290
     1
176
     0
290
     0
176
     0
290
     0
176
     0
290
     0
176
     0
290
     0
176
     0
290
     0
176
     0
290
     0
176
     0
 90
       50
176
     0
 40
0.0
176
     0
 40
1.0
176
     0
 90
        0
176
     0
 62
    18
420
        0
176
     0
 90
       50
176
     0
 90
        3
176
     0
 62
     5
420
      255
176
     0
290
     0
176
     0
 90
       50
176
     0
 90
       50
176
     0
 90
       50
176
     0
290
     0
176
     0
 90
       50
176
     0
 62
   256
176
     0
 40
1.0
176
     0
 90
        2
176
     0
  1
strokes_ogs.tif
176
     0
290
     0
176
     0
 40
1.0
176
     0
 40
1.0
176
     0
  0
VISUALSTYLE
  5
33
102
{ACAD_REACTORS
330
2A
102
}
330
2A
100
AcDbVisualStyle
  2
Realistic
 70
     8
177
     3
291
     0
 70
    58
 90
        2
176
     1
 90
        3
176
     1
 90
        0
176
     1
 90
        2
176
     1
 40
0.6
176
     1
 40
30.0
176
     1
 62
     7
420
 16777215
176
     1
 90
        0
176
     1
 90
        0
176
     1
 62
     7
176
     1
 62
   257
176
     1
 90
        1
176
     1
 90
        1
176
     1
 40
1.0
176
     1
 90
        8
176
     1
 62
   257
176
     1
 40
1.0
176
     1
 90
        1
176
     1
 90
        6
176
     1
 90
        2
176
     1
 62
     7
176
     1
 90
        3
176
     1
 90
        0
176
     1
 90
        0
176
     1
290
     0
176
     1
 90
       13
176
     1
 40
0.0
176
     1
 90
        0
176
     1
290
     0
176
     1
290
     1
176
     1
290
     1
176
     1
290
     0
176
     1
290
     0
176
     1
290
     0
176
     1
290
     0
176
     1
290
     0
176
     1
290
     0
176
     1
 90
       50
176
     1
 40
0.0
176
     1
 40
1.0
176
     1
 90
        0
176
     1
 62
    18
420
        0
176
     1
 90
       50
176
     1
 90
        3
176
     1
 62
     5
420
      255
176
     1
290
     0
176
     1
 90
       50
176
     1
 90
       50
176
     1
 90
       50
176
     1
290
     0
176
     1
 90
       50
176
     1
 62
   256
176
     0
 40
1.0
176
     0
 90
        2
176
     1
  1
strokes_ogs.tif
176
     1
290
     0
176
     1
 40
1.0
176
     1
 40
1.0
176
     1
  0
VISUALSTYLE
  5
42
102
{ACAD_REACTORS
330
2A
102
}
330
2A
100
AcDbVisualStyle
  2
Shaded
 70
    27
177
     3
291
     0
 70
    58
 90
        2
176
     1
 90
        2
176
     1
 90
        1
176
     1
 90
        2
176
     1
 40
0.6
176
     1
 40
30.0
176
     1
 62
     7
420
 16777215
176
     1
 90
        0
176
     1
 90
        4
176
     1
 62
     7
176
     1
 62
   257
176
     1
 90
        1
176
     1
 90
        1
176
     1
 40
1.0
176
     1
 90
        8
176
     1
 62
   257
176
     1
 40
1.0
176
     1
 90
        1
176
     1
 90
        6
176
     1
 90
        2
176
     1
 62
     8
420
  7895160
176
     1
 90
        3
176
     1
 90
        0
176
     1
 90
        0
176
     1
290
     0
176
     1
 90
        5
176
     1
 40
0.0
176
     1
 90
        0
176
     1
290
     0
176
     1
290
     1
176
     1
290
     1
176
     1
290
     0
176
     1
290
     0
176
     1
290
     0
176
     1
290
     0
176
     1
290
     0
176
     1
290
     0
176
     1
 90
       50
176
     1
 40
0.0
176
     1
 40
1.0
176
     1
 90
        0
176
     1
 62
    18
420
        0
176
     1
 90
       50
176
     1
 90
        3
176
     1
 62
     5
420
      255
176
     1
290
     0
176
     1
 90
       50
176
     1
 90
       50
176
     1
 90
       50
176
     1
290
     0
176
     1
 90
       50
176
     1
 62
   256
176
     0
 40
1.0
176
     0
 90
        2
176
     1
  1
strokes_ogs.tif
176
     1
290
     0
176
     1
 40
1.0
176
     1
 40
1.0
176
     1
  0
VISUALSTYLE
  5
41
102
{ACAD_REACTORS
330
2A
102
}
330
2A
100
AcDbVisualStyle
  2
Shaded with edges
 70
    26
177
     3
291
     0
 70
    58
 90
        2
176
     1
 90
        2
176
     1
 90
        1
176
     1
 90
        2
176
     1
 40
0.6
176
     1
 40
30.0
176
     1
 62
     7
420
 16777215
176
     1
 90
        1
176
     1
 90
       10
176
     1
 62
     7
176
     1
 62
   257
176
     1
 90
        2
176
     1
 90
        1
176
     1
 40
1.0
176
     1
 90
        8
176
     1
 62
   257
176
     1
 40
1.0
176
     1
 90
        1
176
     1
 90
        6
176
     1
 90
        2
176
     1
 62
     7
176
     1
 90
        3
176
     1
 90
        0
176
     1
 90
        0
176
     1
290
     0
176
     1
 90
        5
176
     1
 40
0.0
176
     1
 90
        0
176
     1
290
     0
176
     1
290
     1
176
     1
290
     1
176
     1
290
     0
176
     1
290
     0
176
     1
290
     0
176
     1
290
     0
176
     1
290
     0
176
     1
290
     0
176
     1
 90
       50
176
     1
 40
0.0
176
     1
 40
1.0
176
     1
 90
        0
176
     1
 62
    18
420
        0
176
     1
 90
       50
176
     1
 90
        3
176
     1
 62
     5
420
      255
176
     1
290
     0
176
     1
 90
       50
176
     1
 90
       50
176
     1
 90
       50
176
     1
290
     0
176
     1
 90
       50
176
     1
 62
   256
176
     0
 40
1.0
176
     0
 90
        2
176
     1
  1
strokes_ogs.tif
176
     1
290
     0
176
     1
 40
1.0
176
     1
 40
1.0
176
     1
  0
VISUALSTYLE
  5
3E
102
{ACAD_REACTORS
330
2A
102
}
330
2A
100
AcDbVisualStyle
  2
Shades of Gray
 70
    23
177
     3
291
     0
 70
    58
 90
        2
176
     1
 90
        2
176
     1
 90
        3
176
     1
 90
        0
176
     1
 40
0.6
176
     1
 40
30.0
176
     1
 62
     7
420
 16777215
176
     1
 90
        2
176
     1
 90
        2
176
     1
 62
     7
176
     1
 62
     7
176
     1
 90
        1
176
     1
 90
        1
176
     1
 40
40.0
176
     1
 90
        8
176
     1
 62
     7
176
     1
 40
1.0
176
     1
 90
        1
176
     1
 90
        6
176
     1
 90
        2
176
     1
 62
     7
176
     1
 90
        3
176
     1
 90
        0
176
     1
 90
        0
176
     1
290
     0
176
     1
 90
        1
176
     1
 40
0.0
176
     1
 90
        0
176
     1
290
     0
176
     1
290
     1
176
     1
290
     1
176
     1
290
     0
176
     1
290
     0
176
     1
290
     0
176
     1
290
     0
176
     1
290
     0
176
     1
290
     0
176
     1
 90
       50
176
     1
 40
0.0
176
     1
 40
1.0
176
     1
 90
        0
176
     1
 62
    18
420
        0
176
     1
 90
       50
176
     1
 90
        3
176
     1
 62
     5
420
      255
176
     1
290
     0
176
     1
 90
       50
176
     1
 90
       50
176
     1
 90
       50
176
     1
290
     0
176
     1
 90
       50
176
     1
 62
   256
176
     0
 40
1.0
176
     0
 90
        2
176
     1
  1
strokes_ogs.tif
176
     1
290
     0
176
     1
 40
1.0
176
     1
 40
1.0
176
     1
  0
VISUALSTYLE
  5
3F
102
{ACAD_REACTORS
330
2A
102
}
330
2A
100
AcDbVisualStyle
  2
Sketchy
 70
    24
177
     3
291
     0
 70
    58
 90
        1
176
     1
 90
        2
176
     1
 90
        2
176
     1
 90
        0
176
     1
 40
0.6
176
     1
 40
30.0
176
     1
 62
     7
420
 16777215
176
     1
 90
        2
176
     1
 90
        2
176
     1
 62
     7
176
     1
 62
     7
176
     1
 90
        1
176
     1
 90
        1
176
     1
 40
40.0
176
     1
 90
       11
176
     1
 62
     7
176
     1
 40
1.0
176
     1
 90
        1
176
     1
 90
        6
176
     1
 90
        2
176
     1
 62
     7
176
     1
 90
        6
176
     1
 90
        0
176
     1
 90
        0
176
     1
290
     0
176
     1
 90
        1
176
     1
 40
0.0
176
     1
 90
        0
176
     1
290
     0
176
     1
290
     1
176
     1
290
     1
176
     1
290
     0
176
     1
290
     0
176
     1
290
     0
176
     1
290
     0
176
     1
290
     0
176
     1
290
     0
176
     1
 90
       50
176
     1
 40
0.0
176
     1
 40
1.0
176
     1
 90
        0
176
     1
 62
    18
420
        0
176
     1
 90
       50
176
     1
 90
        3
176
     1
 62
     5
420
      255
176
     1
290
     0
176
     1
 90
       50
176
     1
 90
       50
176
     1
 90
       50
176
     1
290
     0
176
     1
 90
       50
176
     1
 62
   256
176
     0
 40
1.0
176
     0
 90
        2
176
     1
  1
strokes_ogs.tif
176
     1
290
     0
176
     1
 40
1.0
176
     1
 40
1.0
176
     1
  0
VISUALSTYLE
  5
37
102
{ACAD_REACTORS
330
2A
102
}
330
2A
100
AcDbVisualStyle
  2
Thicken
 70
    13
177
     3
291
     1
 70
    58
 90
        2
176
     1
 90
        2
176
     1
 90
        0
176
     1
 90
        0
176
     1
 40
0.6
176
     1
 40
30.0
176
     1
 62
     7
420
 16777215
176
     1
 90
        1
176
     1
 90
        4
176
     1
 62
     7
176
     1
 62
   257
176
     1
 90
        1
176
     1
 90
        1
176
     1
 40
1.0
176
     1
 90
       12
176
     1
 62
     7
176
     1
 40
1.0
176
     1
 90
        1
176
     1
 90
        6
176
     1
 90
        2
176
     1
 62
     7
176
     1
 90
        5
176
     1
 90
        0
176
     1
 90
        0
176
     1
290
     0
176
     1
 90
        1
176
     1
 40
0.0
176
     1
 90
        0
176
     1
290
     0
176
     1
290
     1
176
     1
290
     1
176
     1
290
     0
176
     1
290
     0
176
     1
290
     0
176
     1
290
     0
176
     1
290
     0
176
     1
290
     0
176
     1
 90
       50
176
     1
 40
0.0
176
     1
 40
1.0
176
     1
 90
        0
176
     1
 62
    18
420
        0
176
     1
 90
       50
176
     1
 90
        3
176
     1
 62
     5
420
      255
176
     1
290
     0
176
     1
 90
       50
176
     1
 90
       50
176
     1
 90
       50
176
     1
290
     0
176
     1
 90
       50
176
     1
 62
   256
176
     0
 40
1.0
176
     0
 90
        2
176
     1
  1
strokes_ogs.tif
176
     1
290
     0
176
     1
 40
1.0
176
     1
 40
1.0
176
     1
  0
VISUALSTYLE
  5
30
102
{ACAD_REACTORS
330
2A
102
}
330
2A
100
AcDbVisualStyle
  2
Wireframe
 70
     5
177
     3
291
     0
 70
    58
 90
        0
176
     1
 90
        2
176
     1
 90
        0
176
     1
 90
        0
176
     1
 40
0.6
176
     1
 40
30.0
176
     1
 62
     7
420
 16777215
176
     1
 90
        1
176
     1
 90
        4
176
     1
 62
     7
176
     1
 62
   257
176
     1
 90
        1
176
     1
 90
        1
176
     1
 40
1.0
176
     1
 90
        0
176
     1
 62
   257
176
     1
 40
1.0
176
     1
 90
        1
176
     1
 90
        6
176
     1
 90
        2
176
     1
 62
     7
176
     1
 90
        3
176
     1
 90
        0
176
     1
 90
        0
176
     1
290
     0
176
     1
 90
        1
176
     1
 40
0.0
176
     1
 90
        0
176
     1
290
     0
176
     1
290
     1
176
     1
290
     1
176
     1
290
     0
176
     1
290
     0
176
     1
290
     0
176
     1
290
     0
176
     1
290
     0
176
     1
290
     0
176
     1
 90
       50
176
     1
 40
0.0
176
     1
 40
1.0
176
     1
 90
        0
176
     1
 62
    18
420
        0
176
     1
 90
       50
176
     1
 90
        3
176
     1
 62
     5
420
      255
176
     1
290
     0
176
     1
 90
       50
176
     1
 90
       50
176
     1
 90
       50
176
     1
290
     0
176
     1
 90
       50
176
     1
 62
   256
176
     0
 40
1.0
176
     0
 90
        2
176
     1
  1
strokes_ogs.tif
176
     1
290
     0
176
     1
 40
1.0
176
     1
 40
1.0
176
     1
  0
VISUALSTYLE
  5
40
102
{ACAD_REACTORS
330
2A
102
}
330
2A
100
AcDbVisualStyle
  2
X-Ray
 70
    25
177
     3
291
     0
 70
    58
 90
        2
176
     1
 90
        2
176
     1
 90
        1
176
     1
 90
        1
176
     1
 40
0.5
176
     1
 40
30.0
176
     1
 62
     7
420
 16777215
176
     1
 90
        1
176
     1
 90
        0
176
     1
 62
     7
176
     1
 62
   257
176
     1
 90
        1
176
     1
 90
        1
176
     1
 40
1.0
176
     1
 90
        8
176
     1
 62
     7
176
     1
 40
1.0
176
     1
 90
        1
176
     1
 90
        6
176
     1
 90
        2
176
     1
 62
     7
176
     1
 90
        3
176
     1
 90
        0
176
     1
 90
        0
176
     1
290
     0
176
     1
 90
       13
176
     1
 40
0.0
176
     1
 90
        0
176
     1
290
     0
176
     1
290
     1
176
     1
290
     1
176
     1
290
     0
176
     1
290
     0
176
     1
290
     0
176
     1
290
     0
176
     1
290
     0
176
     1
290
     0
176
     1
 90
       50
176
     1
 40
0.0
176
     1
 40
1.0
176
     1
 90
        0
176
     1
 62
    18
420
        0
176
     1
 90
       50
176
     1
 90
        3
176
     1
 62
     5
420
      255
176
     1
290
     0
176
     1
 90
       50
176
     1
 90
       50
176
     1
 90
       50
176
     1
290
     0
176
     1
 90
       50
176
     1
 62
   256
176
     0
 40
1.0
176
     0
 90
        2
176
     1
  1
strokes_ogs.tif
176
     1
290
     0
176
     1
 40
1.0
176
     1
 40
1.0
176
     1
  0
DICTIONARYVAR
  5
1DF
102
{ACAD_REACTORS
330
1DE
102
}
330
1DE
100
DictionaryVariables
280
     0
  1
1:1
  0
DICTIONARYVAR
  5
1E4
102
{ACAD_REACTORS
330
1DE
102
}
330
1DE
100
DictionaryVariables
280
     0
  1
Standard
  0
DICTIONARYVAR
  5
1E3
102
{ACAD_REACTORS
330
1DE
102
}
330
1DE
100
DictionaryVariables
280
     0
  1
Standard
  0
DICTIONARY
  5
1E0
330
6A
100
AcDbDictionary
280
     1
281
     1
  3
ACAD_ROUNDTRIP_2008_TABLESTYLE_CELLSTYLEMAP
360
1E1
  0
CELLSTYLEMAP
  5
1E1
102
{ACAD_REACTORS
330
1E0
102
}
330
1E0
100
AcDbCellStyleMap
 90
        3
300
CELLSTYLE
  1
TABLEFORMAT_BEGIN
 90
        5
170
     1
 91
        0
 92
    32768
 62
   257
 93
        1
300
CONTENTFORMAT
  1
CONTENTFORMAT_BEGIN
 90
        0
 91
        0
 92
        4
 93
        0
300

 40
0.0
140
1.0
 94
        5
 62
     0
340
11
144
6.0
309
CONTENTFORMAT_END
171
     1
301
MARGIN
  1
CELLMARGIN_BEGIN
 40
1.5
 40
1.5
 40
1.5
 40
1.5
 40
1.5
 40
1.5
309
CELLMARGIN_END
 94
        6
 95
        1
302
GRIDFORMAT
  1
GRIDFORMAT_BEGIN
 90
        0
 91
        1
 62
     0
 92
       -2
340
14
 93
        0
 40
0.045
309
GRIDFORMAT_END
 95
        2
302
GRIDFORMAT
  1
GRIDFORMAT_BEGIN
 90
        0
 91
        1
 62
     0
 92
       -2
340
14
 93
        0
 40
0.045
309
GRIDFORMAT_END
 95
        4
302
GRIDFORMAT
  1
GRIDFORMAT_BEGIN
 90
        0
 91
        1
 62
     0
 92
       -2
340
14
 93
        0
 40
0.045
309
GRIDFORMAT_END
 95
        8
302
GRIDFORMAT
  1
GRIDFORMAT_BEGIN
 90
        0
 91
        1
 62
     0
 92
       -2
340
14
 93
        0
 40
0.045
309
GRIDFORMAT_END
 95
       16
302
GRIDFORMAT
  1
GRIDFORMAT_BEGIN
 90
        0
 91
        1
 62
     0
 92
       -2
340
14
 93
        0
 40
0.045
309
GRIDFORMAT_END
 95
       32
302
GRIDFORMAT
  1
GRIDFORMAT_BEGIN
 90
        0
 91
        1
 62
     0
 92
       -2
340
14
 93
        0
 40
0.045
309
GRIDFORMAT_END
309
TABLEFORMAT_END
  1
CELLSTYLE_BEGIN
 90
        1
 91
        1
300
_TITLE
309
CELLSTYLE_END
300
CELLSTYLE
  1
TABLEFORMAT_BEGIN
 90
        5
170
     1
 91
        0
 92
        0
 62
   257
 93
        1
300
CONTENTFORMAT
  1
CONTENTFORMAT_BEGIN
 90
        0
 91
        0
 92
        4
 93
        0
300

 40
0.0
140
1.0
 94
        5
 62
     0
340
11
144
4.5
309
CONTENTFORMAT_END
171
     1
301
MARGIN
  1
CELLMARGIN_BEGIN
 40
1.5
 40
1.5
 40
1.5
 40
1.5
 40
1.5
 40
1.5
309
CELLMARGIN_END
 94
        6
 95
        1
302
GRIDFORMAT
  1
GRIDFORMAT_BEGIN
 90
        0
 91
        1
 62
     0
 92
       -2
340
14
 93
        0
 40
0.045
309
GRIDFORMAT_END
 95
        2
302
GRIDFORMAT
  1
GRIDFORMAT_BEGIN
 90
        0
 91
        1
 62
     0
 92
       -2
340
14
 93
        0
 40
0.045
309
GRIDFORMAT_END
 95
        4
302
GRIDFORMAT
  1
GRIDFORMAT_BEGIN
 90
        0
 91
        1
 62
     0
 92
       -2
340
14
 93
        0
 40
0.045
309
GRIDFORMAT_END
 95
        8
302
GRIDFORMAT
  1
GRIDFORMAT_BEGIN
 90
        0
 91
        1
 62
     0
 92
       -2
340
14
 93
        0
 40
0.045
309
GRIDFORMAT_END
 95
       16
302
GRIDFORMAT
  1
GRIDFORMAT_BEGIN
 90
        0
 91
        1
 62
     0
 92
       -2
340
14
 93
        0
 40
0.045
309
GRIDFORMAT_END
 95
       32
302
GRIDFORMAT
  1
GRIDFORMAT_BEGIN
 90
        0
 91
        1
 62
     0
 92
       -2
340
14
 93
        0
 40
0.045
309
GRIDFORMAT_END
309
TABLEFORMAT_END
  1
CELLSTYLE_BEGIN
 90
        2
 91
        1
300
_HEADER
309
CELLSTYLE_END
300
CELLSTYLE
  1
TABLEFORMAT_BEGIN
 90
        5
170
     1
 91
        0
 92
        0
 62
   257
 93
        1
300
CONTENTFORMAT
  1
CONTENTFORMAT_BEGIN
 90
        0
 91
        0
 92
        4
 93
        0
300

 40
0.0
140
1.0
 94
        2
 62
     0
340
11
144
4.5
309
CONTENTFORMAT_END
171
     1
301
MARGIN
  1
CELLMARGIN_BEGIN
 40
1.5
 40
1.5
 40
1.5
 40
1.5
 40
1.5
 40
1.5
309
CELLMARGIN_END
 94
        6
 95
        1
302
GRIDFORMAT
  1
GRIDFORMAT_BEGIN
 90
        0
 91
        1
 62
     0
 92
       -2
340
14
 93
        0
 40
0.045
309
GRIDFORMAT_END
 95
        2
302
GRIDFORMAT
  1
GRIDFORMAT_BEGIN
 90
        0
 91
        1
 62
     0
 92
       -2
340
14
 93
        0
 40
0.045
309
GRIDFORMAT_END
 95
        4
302
GRIDFORMAT
  1
GRIDFORMAT_BEGIN
 90
        0
 91
        1
 62
     0
 92
       -2
340
14
 93
        0
 40
0.045
309
GRIDFORMAT_END
 95
        8
302
GRIDFORMAT
  1
GRIDFORMAT_BEGIN
 90
        0
 91
        1
 62
     0
 92
       -2
340
14
 93
        0
 40
0.045
309
GRIDFORMAT_END
 95
       16
302
GRIDFORMAT
  1
GRIDFORMAT_BEGIN
 90
        0
 91
        1
 62
     0
 92
       -2
340
14
 93
        0
 40
0.045
309
GRIDFORMAT_END
 95
       32
302
GRIDFORMAT
  1
GRIDFORMAT_BEGIN
 90
        0
 91
        1
 62
     0
 92
       -2
340
14
 93
        0
 40
0.045
309
GRIDFORMAT_END
309
TABLEFORMAT_END
  1
CELLSTYLE_BEGIN
 90
        3
 91
        2
300
_DATA
309
CELLSTYLE_END
  0
ENDSEC
  0
EOF