0
SECTION
  2
HEADER
  9
$ACADVER
  1
AC1027
  9
$ACADMAINTVER
 70
     8
  9
$DWGCODEPAGE
  3
ANSI_1252
  9
$REQUIREDVERSIONS
160
                 0
  9
$COMMENTS
  1
File was created by Cadenas
  9
$CUSTOMPROPERTYTAG
  1
NN
  9
$CUSTOMPROPERTY
  1
Set Screw High Backing Height Two-Bolt Pillow Block Expansion Metric Bore
  9
$CUSTOMPROPERTYTAG
  1
NT
  9
$CUSTOMPROPERTY
  1
SC Pillow Block Bearings -(Normal Duty) -Expansion
  9
$CUSTOMPROPERTYTAG
  1
NB
  9
$CUSTOMPROPERTY
  1
053025
  9
$CUSTOMPROPERTYTAG
  1
NBSYN
  9
$CUSTOMPROPERTY
  1
$PN.
  9
$CUSTOMPROPERTYTAG
  1
LINA
  9
$CUSTOMPROPERTY
  1
053025
  9
$CUSTOMPROPERTYTAG
  1
SERIES
  9
$CUSTOMPROPERTY
  1
211
  9
$CUSTOMPROPERTYTAG
  1
SS
  9
$CUSTOMPROPERTY
  1
55
  9
$CUSTOMPROPERTYTAG
  1
PN
  9
$CUSTOMPROPERTY
  1
053025
  9
$CUSTOMPROPERTYTAG
  1
DESCRIPTION
  9
$CUSTOMPROPERTY
  1
P2B-SCH-55M-E
  9
$CUSTOMPROPERTYTAG
  1
WEIGHT
  9
$CUSTOMPROPERTY
  1
5.9
  9
$CUSTOMPROPERTYTAG
  1
A
  9
$CUSTOMPROPERTY
  1
56.4
  9
$CUSTOMPROPERTYTAG
  1
B
  9
$CUSTOMPROPERTY
  1
241.3
  9
$CUSTOMPROPERTYTAG
  1
C
  9
$CUSTOMPROPERTY
  1
60.2
  9
$CUSTOMPROPERTYTAG
  1
DMIN
  9
$CUSTOMPROPERTY
  1
174.8
  9
$CUSTOMPROPERTYTAG
  1
DMAX
  9
$CUSTOMPROPERTY
  1
201.7
  9
$CUSTOMPROPERTYTAG
  1
F
  9
$CUSTOMPROPERTY
  1
M16
  9
$CUSTOMPROPERTYTAG
  1
G
  9
$CUSTOMPROPERTY
  1
30.7
  9
$CUSTOMPROPERTYTAG
  1
H
  9
$CUSTOMPROPERTY
  1
22.4
  9
$CUSTOMPROPERTYTAG
  1
J
  9
$CUSTOMPROPERTY
  1
137.2
  9
$CUSTOMPROPERTYTAG
  1
L
  9
$CUSTOMPROPERTY
  1
68.8
  9
$CUSTOMPROPERTYTAG
  1
M
  9
$CUSTOMPROPERTY
  1
69.9
  9
$CUSTOMPROPERTYTAG
  1
R
  9
$CUSTOMPROPERTY
  1
22.1
  9
$CUSTOMPROPERTYTAG
  1
S
  9
$CUSTOMPROPERTY
  1
34.3
  9
$CUSTOMPROPERTYTAG
  1
T
  9
$CUSTOMPROPERTY
  1
5.6
  9
$CUSTOMPROPERTYTAG
  1
U
  9
$CUSTOMPROPERTY
  1
108.0
  9
$CUSTOMPROPERTYTAG
  1
V
  9
$CUSTOMPROPERTY
  1
215.9
  9
$CUSTOMPROPERTYTAG
  1
W
  9
$CUSTOMPROPERTY
  1
22.4
  9
$CUSTOMPROPERTYTAG
  1
X
  9
$CUSTOMPROPERTY
  1
3.0
  9
$CUSTOMPROPERTYTAG
  1
COMPANY
  9
$CUSTOMPROPERTY
  1
baldor
  9
$INSBASE
 10
0.0
 20
0.0
 30
0.0
  9
$EXTMIN
 10
1.000000000000000E+20
 20
1.000000000000000E+20
 30
1.000000000000000E+20
  9
$EXTMAX
 10
-1.000000000000000E+20
 20
-1.000000000000000E+20
 30
-1.000000000000000E+20
  9
$LIMMIN
 10
0.0
 20
0.0
  9
$LIMMAX
 10
420.0
 20
297.0
  9
$ORTHOMODE
 70
     0
  9
$REGENMODE
 70
     1
  9
$FILLMODE
 70
     1
  9
$QTEXTMODE
 70
     0
  9
$MIRRTEXT
 70
     1
  9
$LTSCALE
 40
1.0
  9
$ATTMODE
 70
     1
  9
$TEXTSIZE
 40
2.5
  9
$TRACEWID
 40
1.0
  9
$TEXTSTYLE
  7
Standard
  9
$CLAYER
  8
0
  9
$CELTYPE
  6
ByLayer
  9
$CECOLOR
 62
   256
  9
$CELTSCALE
 40
1.0
  9
$DISPSILH
 70
     0
  9
$DIMSCALE
 40
1.0
  9
$DIMASZ
 40
2.5
  9
$DIMEXO
 40
0.625
  9
$DIMDLI
 40
3.75
  9
$DIMRND
 40
0.0
  9
$DIMDLE
 40
0.0
  9
$DIMEXE
 40
1.25
  9
$DIMTP
 40
0.0
  9
$DIMTM
 40
0.0
  9
$DIMTXT
 40
2.5
  9
$DIMCEN
 40
2.5
  9
$DIMTSZ
 40
0.0
  9
$DIMTOL
 70
     0
  9
$DIMLIM
 70
     0
  9
$DIMTIH
 70
     0
  9
$DIMTOH
 70
     0
  9
$DIMSE1
 70
     0
  9
$DIMSE2
 70
     0
  9
$DIMTAD
 70
     1
  9
$DIMZIN
 70
     8
  9
$DIMBLK
  1

  9
$DIMASO
 70
     1
  9
$DIMSHO
 70
     1
  9
$DIMPOST
  1

  9
$DIMAPOST
  1

  9
$DIMALT
 70
     0
  9
$DIMALTD
 70
     3
  9
$DIMALTF
 40
0.03937007874016
  9
$DIMLFAC
 40
1.0
  9
$DIMTOFL
 70
     1
  9
$DIMTVP
 40
0.0
  9
$DIMTIX
 70
     0
  9
$DIMSOXD
 70
     0
  9
$DIMSAH
 70
     0
  9
$DIMBLK1
  1

  9
$DIMBLK2
  1

  9
$DIMSTYLE
  2
ISO-25
  9
$DIMCLRD
 70
     0
  9
$DIMCLRE
 70
     0
  9
$DIMCLRT
 70
     0
  9
$DIMTFAC
 40
1.0
  9
$DIMGAP
 40
0.625
  9
$DIMJUST
 70
     0
  9
$DIMSD1
 70
     0
  9
$DIMSD2
 70
     0
  9
$DIMTOLJ
 70
     0
  9
$DIMTZIN
 70
     8
  9
$DIMALTZ
 70
     0
  9
$DIMALTTZ
 70
     0
  9
$DIMUPT
 70
     0
  9
$DIMDEC
 70
     2
  9
$DIMTDEC
 70
     2
  9
$DIMALTU
 70
     2
  9
$DIMALTTD
 70
     3
  9
$DIMTXSTY
  7
Standard
  9
$DIMAUNIT
 70
     0
  9
$DIMADEC
 70
     0
  9
$DIMALTRND
 40
0.0
  9
$DIMAZIN
 70
     0
  9
$DIMDSEP
 70
    44
  9
$DIMATFIT
 70
     3
  9
$DIMFRAC
 70
     0
  9
$DIMLDRBLK
  1

  9
$DIMLUNIT
 70
     2
  9
$DIMLWD
 70
    -2
  9
$DIMLWE
 70
    -2
  9
$DIMTMOVE
 70
     0
  9
$DIMFXL
 40
1.0
  9
$DIMFXLON
 70
     0
  9
$DIMJOGANG
 40
0.7853981633974483
  9
$DIMTFILL
 70
     0
  9
$DIMTFILLCLR
 70
     0
  9
$DIMARCSYM
 70
     0
  9
$DIMLTYPE
  6

  9
$DIMLTEX1
  6

  9
$DIMLTEX2
  6

  9
$DIMTXTDIRECTION
 70
     0
  9
$LUNITS
 70
     2
  9
$LUPREC
 70
     4
  9
$SKETCHINC
 40
1.0
  9
$FILLETRAD
 40
10.0
  9
$AUNITS
 70
     0
  9
$AUPREC
 70
     0
  9
$MENU
  1
.
  9
$ELEVATION
 40
0.0
  9
$PELEVATION
 40
0.0
  9
$THICKNESS
 40
0.0
  9
$LIMCHECK
 70
     0
  9
$CHAMFERA
 40
0.0
  9
$CHAMFERB
 40
0.0
  9
$CHAMFERC
 40
0.0
  9
$CHAMFERD
 40
0.0
  9
$SKPOLY
 70
     0
  9
$TDCREATE
 40
2458168.991490486
  9
$TDUCREATE
 40
2458168.94982382
  9
$TDUPDATE
 40
2458168.991490671
  9
$TDUUPDATE
 40
2458168.949824004
  9
$TDINDWG
 40
0.0000000116
  9
$TDUSRTIMER
 40
0.0000000116
  9
$USRTIMER
 70
     1
  9
$ANGBASE
 50
0.0
  9
$ANGDIR
 70
     0
  9
$PDMODE
 70
     0
  9
$PDSIZE
 40
0.0
  9
$PLINEWID
 40
0.0
  9
$SPLFRAME
 70
     0
  9
$SPLINETYPE
 70
     6
  9
$SPLINESEGS
 70
     8
  9
$HANDSEED
  5
1D1
  9
$SURFTAB1
 70
     6
  9
$SURFTAB2
 70
     6
  9
$SURFTYPE
 70
     6
  9
$SURFU
 70
     6
  9
$SURFV
 70
     6
  9
$UCSBASE
  2

  9
$UCSNAME
  2

  9
$UCSORG
 10
0.0
 20
0.0
 30
0.0
  9
$UCSXDIR
 10
1.0
 20
0.0
 30
0.0
  9
$UCSYDIR
 10
0.0
 20
1.0
 30
0.0
  9
$UCSORTHOREF
  2

  9
$UCSORTHOVIEW
 70
     0
  9
$UCSORGTOP
 10
0.0
 20
0.0
 30
0.0
  9
$UCSORGBOTTOM
 10
0.0
 20
0.0
 30
0.0
  9
$UCSORGLEFT
 10
0.0
 20
0.0
 30
0.0
  9
$UCSORGRIGHT
 10
0.0
 20
0.0
 30
0.0
  9
$UCSORGFRONT
 10
0.0
 20
0.0
 30
0.0
  9
$UCSORGBACK
 10
0.0
 20
0.0
 30
0.0
  9
$PUCSBASE
  2

  9
$PUCSNAME
  2

  9
$PUCSORG
 10
0.0
 20
0.0
 30
0.0
  9
$PUCSXDIR
 10
1.0
 20
0.0
 30
0.0
  9
$PUCSYDIR
 10
0.0
 20
1.0
 30
0.0
  9
$PUCSORTHOREF
  2

  9
$PUCSORTHOVIEW
 70
     0
  9
$PUCSORGTOP
 10
0.0
 20
0.0
 30
0.0
  9
$PUCSORGBOTTOM
 10
0.0
 20
0.0
 30
0.0
  9
$PUCSORGLEFT
 10
0.0
 20
0.0
 30
0.0
  9
$PUCSORGRIGHT
 10
0.0
 20
0.0
 30
0.0
  9
$PUCSORGFRONT
 10
0.0
 20
0.0
 30
0.0
  9
$PUCSORGBACK
 10
0.0
 20
0.0
 30
0.0
  9
$USERI1
 70
     0
  9
$USERI2
 70
     0
  9
$USERI3
 70
     0
  9
$USERI4
 70
     0
  9
$USERI5
 70
     0
  9
$USERR1
 40
0.0
  9
$USERR2
 40
0.0
  9
$USERR3
 40
0.0
  9
$USERR4
 40
0.0
  9
$USERR5
 40
0.0
  9
$WORLDVIEW
 70
     1
  9
$SHADEDGE
 70
     3
  9
$SHADEDIF
 70
    70
  9
$TILEMODE
 70
     1
  9
$MAXACTVP
 70
    64
  9
$PINSBASE
 10
0.0
 20
0.0
 30
0.0
  9
$PLIMCHECK
 70
     0
  9
$PEXTMIN
 10
1.000000000000000E+20
 20
1.000000000000000E+20
 30
1.000000000000000E+20
  9
$PEXTMAX
 10
-1.000000000000000E+20
 20
-1.000000000000000E+20
 30
-1.000000000000000E+20
  9
$PLIMMIN
 10
0.0
 20
0.0
  9
$PLIMMAX
 10
420.0
 20
297.0
  9
$UNITMODE
 70
     0
  9
$VISRETAIN
 70
     1
  9
$PLINEGEN
 70
     0
  9
$PSLTSCALE
 70
     1
  9
$TREEDEPTH
 70
  3020
  9
$CMLSTYLE
  2
Standard
  9
$CMLJUST
 70
     0
  9
$CMLSCALE
 40
20.0
  9
$PROXYGRAPHICS
 70
     1
  9
$MEASUREMENT
 70
     1
  9
$CELWEIGHT
370
    -1
  9
$ENDCAPS
280
     0
  9
$JOINSTYLE
280
     0
  9
$LWDISPLAY
290
     0
  9
$INSUNITS
 70
     4
  9
$HYPERLINKBASE
  1

  9
$STYLESHEET
  1

  9
$XEDIT
290
     1
  9
$CEPSNTYPE
380
     0
  9
$PSTYLEMODE
290
     1
  9
$FINGERPRINTGUID
  2
{3FCF8AF9-5A59-4F12-A715-4CB351433142}
  9
$VERSIONGUID
  2
{FAEB1C32-E019-11D5-929B-00C0DF256EC4}
  9
$EXTNAMES
290
     1
  9
$PSVPSCALE
 40
0.0
  9
$OLESTARTUP
290
     0
  9
$SORTENTS
280
   127
  9
$INDEXCTL
280
     0
  9
$HIDETEXT
280
     1
  9
$XCLIPFRAME
280
     2
  9
$HALOGAP
280
     0
  9
$OBSCOLOR
 70
   257
  9
$OBSLTYPE
280
     0
  9
$INTERSECTIONDISPLAY
280
     0
  9
$INTERSECTIONCOLOR
 70
   257
  9
$DIMASSOC
280
     2
  9
$PROJECTNAME
  1

  9
$CAMERADISPLAY
290
     0
  9
$LENSLENGTH
 40
50.0
  9
$CAMERAHEIGHT
 40
0.0
  9
$STEPSPERSEC
 40
2.0
  9
$STEPSIZE
 40
6.0
  9
$3DDWFPREC
 40
2.0
  9
$PSOLWIDTH
 40
5.0
  9
$PSOLHEIGHT
 40
80.0
  9
$LOFTANG1
 40
1.570796326794897
  9
$LOFTANG2
 40
1.570796326794897
  9
$LOFTMAG1
 40
0.0
  9
$LOFTMAG2
 40
0.0
  9
$LOFTPARAM
 70
     7
  9
$LOFTNORMALS
280
     1
  9
$LATITUDE
 40
37.795
  9
$LONGITUDE
 40
-122.394
  9
$NORTHDIRECTION
 40
0.0
  9
$TIMEZONE
 70
 -8000
  9
$LIGHTGLYPHDISPLAY
280
     1
  9
$TILEMODELIGHTSYNCH
280
     1
  9
$CMATERIAL
347
44
  9
$SOLIDHIST
280
     0
  9
$SHOWHIST
280
     1
  9
$DWFFRAME
280
     2
  9
$DGNFRAME
280
     2
  9
$REALWORLDSCALE
290
     1
  9
$INTERFERECOLOR
 62
   256
  9
$CSHADOW
280
     0
  9
$SHADOWPLANELOCATION
 40
0.0
  0
ENDSEC
  0
SECTION
  2
CLASSES
  0
CLASS
  1
ACDBDICTIONARYWDFLT
  2
AcDbDictionaryWithDefault
  3
ObjectDBX Classes
 90
        0
 91
        4
280
     0
281
     0
  0
CLASS
  1
VISUALSTYLE
  2
AcDbVisualStyle
  3
ObjectDBX Classes
 90
     4095
 91
        4
280
     0
281
     0
  0
CLASS
  1
MATERIAL
  2
AcDbMaterial
  3
ObjectDBX Classes
 90
     1153
 91
        4
280
     0
281
     0
  0
CLASS
  1
SCALE
  2
AcDbScale
  3
ObjectDBX Classes
 90
     1153
 91
        4
280
     0
281
     0
  0
CLASS
  1
TABLESTYLE
  2
AcDbTableStyle
  3
ObjectDBX Classes
 90
     4095
 91
        4
280
     0
281
     0
  0
CLASS
  1
MLEADERSTYLE
  2
AcDbMLeaderStyle
  3
ACDB_MLEADERSTYLE_CLASS
 90
     4095
 91
        4
280
     0
281
     0
  0
CLASS
  1
SUN
  2
AcDbSun
  3
SCENEOE
 90
     1153
 91
        4
280
     0
281
     0
  0
CLASS
  1
DICTIONARYVAR
  2
AcDbDictionaryVar
  3
ObjectDBX Classes
 90
        0
 91
        4
280
     0
281
     0
  0
CLASS
  1
CELLSTYLEMAP
  2
AcDbCellStyleMap
  3
ObjectDBX Classes
 90
     1152
 91
        4
280
     0
281
     0
  0
ENDSEC
  0
SECTION
  2
TABLES
  0
TABLE
  2
VPORT
  5
8
330
0
100
AcDbSymbolTable
 70
     1
  0
VPORT
  5
29
330
8
100
AcDbSymbolTableRecord
100
AcDbViewportTableRecord
  2
*Active
 70
     0
 10
0.0
 20
0.0
 11
1.0
 21
1.0
 12
0.0
 22
-2.004999999999995
 13
0.0
 23
0.0
 14
10.0
 24
10.0
 15
10.0
 25
10.0
 16
0.0
 26
0.0
 36
1.0
 17
0.0
 27
0.0
 37
0.0
 40
71.63460000000002
 41
3.435853623807489
 42
50.0
 43
0.0
 44
0.0
 50
0.0
 51
0.0
 71
     0
 72
   100
 73
     1
 74
     3
 75
     0
 76
     0
 77
     0
 78
     0
281
     0
 65
     1
110
0.0
120
0.0
130
0.0
111
1.0
121
0.0
131
0.0
112
0.0
122
1.0
132
0.0
 79
     0
146
0.0
348
2F
 60
     3
 61
     5
292
     1
282
     1
141
0.0
142
0.0
 63
   250
361
6D
  0
ENDTAB
  0
TABLE
  2
LTYPE
  5
5
330
0
100
AcDbSymbolTable
 70
     3
  0
LTYPE
  5
14
330
5
100
AcDbSymbolTableRecord
100
AcDbLinetypeTableRecord
  2
ByBlock
 70
     0
  3

 72
    65
 73
     0
 40
0.0
  0
LTYPE
  5
15
330
5
100
AcDbSymbolTableRecord
100
AcDbLinetypeTableRecord
  2
ByLayer
 70
     0
  3

 72
    65
 73
     0
 40
0.0
  0
LTYPE
  5
16
330
5
100
AcDbSymbolTableRecord
100
AcDbLinetypeTableRecord
  2
Continuous
 70
     0
  3
Solid line
 72
    65
 73
     0
 40
0.0
  0
LTYPE
  5
A2
330
5
100
AcDbSymbolTableRecord
100
AcDbLinetypeTableRecord
  2
Dashed
 70
     0
  3

 72
    65
 73
     2
 40
2.0
 49
1.0
 74
     0
 49
-1.0
 74
     0
  0
LTYPE
  5
124
330
5
100
AcDbSymbolTableRecord
100
AcDbLinetypeTableRecord
  2
Center
 70
     0
  3

 72
    65
 73
     4
 40
1.5
 49
0.45
 74
     0
 49
-0.5
 74
     0
 49
0.05
 74
     0
 49
-0.5
 74
     0
  0
ENDTAB
  0
TABLE
  2
LAYER
  5
2
330
0
100
AcDbSymbolTable
 70
     7
  0
LAYER
  5
10
330
2
100
AcDbSymbolTableRecord
100
AcDbLayerTableRecord
  2
0
 70
     0
 62
     7
  6
Continuous
370
    -3
390
F
347
46
348
0
  0
LAYER
  5
72
330
2
100
AcDbSymbolTableRecord
100
AcDbLayerTableRecord
  2
AM_6
 70
     0
 62
    -2
  6
Continuous
370
    35
390
F
347
46
348
0
  0
LAYER
  5
A3
330
2
100
AcDbSymbolTableRecord
100
AcDbLayerTableRecord
  2
AM_9
 70
     0
 62
     6
  6
Dashed
370
    25
390
F
347
46
348
0
  0
LAYER
  5
BF
330
2
100
AcDbSymbolTableRecord
100
AcDbLayerTableRecord
  2
AM_4
 70
     0
 62
     7
  6
Continuous
370
    50
390
F
347
46
348
0
  0
LAYER
  5
125
330
2
100
AcDbSymbolTableRecord
100
AcDbLayerTableRecord
  2
AM_7
 70
     0
 62
     7
  6
Center
370
    25
390
F
347
46
348
0
  0
LAYER
  5
13A
330
2
100
AcDbSymbolTableRecord
100
AcDbLayerTableRecord
  2
AM_5
 70
     0
 62
     3
  6
Continuous
370
    25
390
F
347
46
348
0
  0
LAYER
  5
1C4
330
2
100
AcDbSymbolTableRecord
100
AcDbLayerTableRecord
  2
ConnectionPoints
 70
     0
 62
     7
  6
Continuous
370
    50
390
F
347
46
348
0
  0
ENDTAB
  0
TABLE
  2
STYLE
  5
3
330
0
100
AcDbSymbolTable
 70
     1
  0
STYLE
  5
11
330
3
100
AcDbSymbolTableRecord
100
AcDbTextStyleTableRecord
  2
Standard
 70
     0
 40
0.0
 41
1.0
 50
0.0
 71
     0
 42
2.5
  3
txt
  4

  0
ENDTAB
  0
TABLE
  2
VIEW
  5
6
330
0
100
AcDbSymbolTable
 70
     0
  0
ENDTAB
  0
TABLE
  2
UCS
  5
7
330
0
100
AcDbSymbolTable
 70
     0
  0
ENDTAB
  0
TABLE
  2
APPID
  5
9
330
0
100
AcDbSymbolTable
 70
     1
  0
APPID
  5
12
330
9
100
AcDbSymbolTableRecord
100
AcDbRegAppTableRecord
  2
ACAD
 70
     0
  0
ENDTAB
  0
TABLE
  2
DIMSTYLE
  5
A
330
0
100
AcDbSymbolTable
 70
     1
100
AcDbDimStyleTable
  0
DIMSTYLE
105
27
330
A
100
AcDbSymbolTableRecord
100
AcDbDimStyleTableRecord
  2
ISO-25
 70
     0
 41
2.5
 42
0.625
 43
3.75
 44
1.25
 73
     0
 74
     0
 77
     1
 78
     8
140
2.5
141
2.5
143
0.03937007874016
147
0.625
171
     3
172
     1
178
     0
271
     2
272
     2
274
     3
278
    44
283
     0
284
     8
340
11
  0
ENDTAB
  0
TABLE
  2
BLOCK_RECORD
  5
1
330
0
100
AcDbSymbolTable
 70
     5
  0
BLOCK_RECORD
  5
1F
330
1
100
AcDbSymbolTableRecord
100
AcDbBlockTableRecord
  2
*Model_Space
340
22
 70
     0
280
     1
281
     0
  0
BLOCK_RECORD
  5
1B
330
1
100
AcDbSymbolTableRecord
100
AcDbBlockTableRecord
  2
*Paper_Space
340
1E
 70
     0
280
     1
281
     0
  0
BLOCK_RECORD
  5
23
330
1
100
AcDbSymbolTableRecord
100
AcDbBlockTableRecord
  2
*Paper_Space0
340
26
 70
     0
280
     1
281
     0
  0
BLOCK_RECORD
  5
6E
330
1
100
AcDbSymbolTableRecord
100
AcDbBlockTableRecord
  2
1_053025_4
340
0
102
{BLKREFS
331
6F
102
}
 70
     0
280
     1
281
     0
  0
BLOCK_RECORD
  5
90
330
1
100
AcDbSymbolTableRecord
100
AcDbBlockTableRecord
  2
2_405020c_M_0_in_053025_4
340
0
102
{BLKREFS
331
91
102
}
 70
     0
280
     1
281
     0
  0
BLOCK_RECORD
  5
E0
330
1
100
AcDbSymbolTableRecord
100
AcDbBlockTableRecord
  2
3_125816_0_in_053025_4
340
0
102
{BLKREFS
331
E1
102
}
 70
     0
280
     1
281
     0
  0
BLOCK_RECORD
  5
13D
330
1
100
AcDbSymbolTableRecord
100
AcDbBlockTableRecord
  2
4_053025H_0_in_053025_4
340
0
102
{BLKREFS
331
13E
102
}
 70
     0
280
     1
281
     0
  0
ENDTAB
  0
ENDSEC
  0
SECTION
  2
BLOCKS
  0
BLOCK
  5
20
330
1F
100
AcDbEntity
  8
0
100
AcDbBlockBegin
  2
*Model_Space
 70
     0
 10
0.0
 20
0.0
 30
0.0
  3
*Model_Space
  1

  0
ENDBLK
  5
21
330
1F
100
AcDbEntity
  8
0
100
AcDbBlockEnd
  0
BLOCK
  5
1C
330
1B
100
AcDbEntity
 67
     1
  8
0
100
AcDbBlockBegin
  2
*Paper_Space
 70
     0
 10
0.0
 20
0.0
 30
0.0
  3
*Paper_Space
  1

  0
ENDBLK
  5
1D
330
1B
100
AcDbEntity
 67
     1
  8
0
100
AcDbBlockEnd
  0
BLOCK
  5
24
330
23
100
AcDbEntity
  8
0
100
AcDbBlockBegin
  2
*Paper_Space0
 70
     0
 10
0.0
 20
0.0
 30
0.0
  3
*Paper_Space0
  1

  0
ENDBLK
  5
25
330
23
100
AcDbEntity
  8
0
100
AcDbBlockEnd
  0
BLOCK
  5
70
330
6E
100
AcDbEntity
  8
0
100
AcDbBlockBegin
  2
1_053025_4
 70
     2
 10
0.0
 20
0.0
 30
0.0
  3
1_053025_4
  1

  0
ATTDEF
  5
73
330
6E
100
AcDbEntity
  8
AM_6
100
AcDbText
 10
125.65
 20
33.11
 30
0.0
 40
0.5
  1
Set Screw High Backing Height Two-Bolt Pillow Block Expansion Metric Bore
100
AcDbAttributeDefinition
  3

  2
NN
 70
     8
280
     0
  0
ATTDEF
  5
74
330
6E
100
AcDbEntity
  8
AM_6
100
AcDbText
 10
125.65
 20
32.61
 30
0.0
 40
0.5
  1
SC Pillow Block Bearings -(Normal Duty) -Expansion
100
AcDbAttributeDefinition
  3

  2
NT
 70
     8
280
     0
  0
ATTDEF
  5
75
330
6E
100
AcDbEntity
  8
AM_6
100
AcDbText
 10
125.65
 20
32.11
 30
0.0
 40
0.5
  1
053025
100
AcDbAttributeDefinition
  3

  2
NB
 70
     8
280
     0
  0
ATTDEF
  5
76
330
6E
100
AcDbEntity
  8
AM_6
100
AcDbText
 10
125.65
 20
31.61
 30
0.0
 40
0.5
  1
$PN.
100
AcDbAttributeDefinition
  3

  2
NBSYN
 70
     8
280
     0
  0
ATTDEF
  5
77
330
6E
100
AcDbEntity
  8
AM_6
100
AcDbText
 10
125.65
 20
31.11
 30
0.0
 40
0.5
  1
053025
100
AcDbAttributeDefinition
  3

  2
LINA
 70
     8
280
     0
  0
ATTDEF
  5
78
330
6E
100
AcDbEntity
  8
AM_6
100
AcDbText
 10
125.65
 20
30.61
 30
0.0
 40
0.5
  1
211
100
AcDbAttributeDefinition
  3

  2
SERIES
 70
     8
280
     0
  0
ATTDEF
  5
79
330
6E
100
AcDbEntity
  8
AM_6
100
AcDbText
 10
125.65
 20
30.11
 30
0.0
 40
0.5
  1
55
100
AcDbAttributeDefinition
  3

  2
SS
 70
     8
280
     0
  0
ATTDEF
  5
7A
330
6E
100
AcDbEntity
  8
AM_6
100
AcDbText
 10
125.65
 20
29.61
 30
0.0
 40
0.5
  1
053025
100
AcDbAttributeDefinition
  3

  2
PN
 70
     8
280
     0
  0
ATTDEF
  5
7B
330
6E
100
AcDbEntity
  8
AM_6
100
AcDbText
 10
125.65
 20
29.11
 30
0.0
 40
0.5
  1
P2B-SCH-55M-E
100
AcDbAttributeDefinition
  3

  2
DESCRIPTION
 70
     8
280
     0
  0
ATTDEF
  5
7C
330
6E
100
AcDbEntity
  8
AM_6
100
AcDbText
 10
125.65
 20
28.61
 30
0.0
 40
0.5
  1
5.9
100
AcDbAttributeDefinition
  3

  2
WEIGHT
 70
     8
280
     0
  0
ATTDEF
  5
7D
330
6E
100
AcDbEntity
  8
AM_6
100
AcDbText
 10
125.65
 20
28.11
 30
0.0
 40
0.5
  1
56.4
100
AcDbAttributeDefinition
  3

  2
A
 70
     8
280
     0
  0
ATTDEF
  5
7E
330
6E
100
AcDbEntity
  8
AM_6
100
AcDbText
 10
125.65
 20
27.61
 30
0.0
 40
0.5
  1
241.3
100
AcDbAttributeDefinition
  3

  2
B
 70
     8
280
     0
  0
ATTDEF
  5
7F
330
6E
100
AcDbEntity
  8
AM_6
100
AcDbText
 10
125.65
 20
27.11
 30
0.0
 40
0.5
  1
60.2
100
AcDbAttributeDefinition
  3

  2
C
 70
     8
280
     0
  0
ATTDEF
  5
80
330
6E
100
AcDbEntity
  8
AM_6
100
AcDbText
 10
125.65
 20
26.61
 30
0.0
 40
0.5
  1
174.8
100
AcDbAttributeDefinition
  3

  2
DMIN
 70
     8
280
     0
  0
ATTDEF
  5
81
330
6E
100
AcDbEntity
  8
AM_6
100
AcDbText
 10
125.65
 20
26.11
 30
0.0
 40
0.5
  1
201.7
100
AcDbAttributeDefinition
  3

  2
DMAX
 70
     8
280
     0
  0
ATTDEF
  5
82
330
6E
100
AcDbEntity
  8
AM_6
100
AcDbText
 10
125.65
 20
25.61
 30
0.0
 40
0.5
  1
M16
100
AcDbAttributeDefinition
  3

  2
F
 70
     8
280
     0
  0
ATTDEF
  5
83
330
6E
100
AcDbEntity
  8
AM_6
100
AcDbText
 10
125.65
 20
25.11
 30
0.0
 40
0.5
  1
30.7
100
AcDbAttributeDefinition
  3

  2
G
 70
     8
280
     0
  0
ATTDEF
  5
84
330
6E
100
AcDbEntity
  8
AM_6
100
AcDbText
 10
125.65
 20
24.61
 30
0.0
 40
0.5
  1
22.4
100
AcDbAttributeDefinition
  3

  2
H
 70
     8
280
     0
  0
ATTDEF
  5
85
330
6E
100
AcDbEntity
  8
AM_6
100
AcDbText
 10
125.65
 20
24.11
 30
0.0
 40
0.5
  1
137.2
100
AcDbAttributeDefinition
  3

  2
J
 70
     8
280
     0
  0
ATTDEF
  5
86
330
6E
100
AcDbEntity
  8
AM_6
100
AcDbText
 10
125.65
 20
23.61
 30
0.0
 40
0.5
  1
68.8
100
AcDbAttributeDefinition
  3

  2
L
 70
     8
280
     0
  0
ATTDEF
  5
87
330
6E
100
AcDbEntity
  8
AM_6
100
AcDbText
 10
125.65
 20
23.11
 30
0.0
 40
0.5
  1
69.9
100
AcDbAttributeDefinition
  3

  2
M
 70
     8
280
     0
  0
ATTDEF
  5
88
330
6E
100
AcDbEntity
  8
AM_6
100
AcDbText
 10
125.65
 20
22.61
 30
0.0
 40
0.5
  1
22.1
100
AcDbAttributeDefinition
  3

  2
R
 70
     8
280
     0
  0
ATTDEF
  5
89
330
6E
100
AcDbEntity
  8
AM_6
100
AcDbText
 10
125.65
 20
22.11
 30
0.0
 40
0.5
  1
34.3
100
AcDbAttributeDefinition
  3

  2
S
 70
     8
280
     0
  0
ATTDEF
  5
8A
330
6E
100
AcDbEntity
  8
AM_6
100
AcDbText
 10
125.65
 20
21.61
 30
0.0
 40
0.5
  1
5.6
100
AcDbAttributeDefinition
  3

  2
T
 70
     8
280
     0
  0
ATTDEF
  5
8B
330
6E
100
AcDbEntity
  8
AM_6
100
AcDbText
 10
125.65
 20
21.11
 30
0.0
 40
0.5
  1
108.0
100
AcDbAttributeDefinition
  3

  2
U
 70
     8
280
     0
  0
ATTDEF
  5
8C
330
6E
100
AcDbEntity
  8
AM_6
100
AcDbText
 10
125.65
 20
20.61
 30
0.0
 40
0.5
  1
215.9
100
AcDbAttributeDefinition
  3

  2
V
 70
     8
280
     0
  0
ATTDEF
  5
8D
330
6E
100
AcDbEntity
  8
AM_6
100
AcDbText
 10
125.65
 20
20.11
 30
0.0
 40
0.5
  1
22.4
100
AcDbAttributeDefinition
  3

  2
W
 70
     8
280
     0
  0
ATTDEF
  5
8E
330
6E
100
AcDbEntity
  8
AM_6
100
AcDbText
 10
125.65
 20
19.61
 30
0.0
 40
0.5
  1
3.0
100
AcDbAttributeDefinition
  3

  2
X
 70
     8
280
     0
  0
ATTDEF
  5
8F
330
6E
100
AcDbEntity
  8
AM_6
100
AcDbText
 10
125.65
 20
19.11
 30
0.0
 40
0.5
  1
baldor
100
AcDbAttributeDefinition
  3

  2
COMPANY
 70
     8
280
     0
  0
INSERT
  5
91
330
6E
100
AcDbEntity
  8
0
100
AcDbBlockReference
  2
2_405020c_M_0_in_053025_4
 10
0.0
 20
0.0
 30
0.0
  0
INSERT
  5
E1
330
6E
100
AcDbEntity
  8
0
100
AcDbBlockReference
  2
3_125816_0_in_053025_4
 10
0.0
 20
0.0
 30
0.0
  0
INSERT
  5
13E
330
6E
100
AcDbEntity
  8
0
100
AcDbBlockReference
  2
4_053025H_0_in_053025_4
 10
0.0
 20
0.0
 30
0.0
  0
ENDBLK
  5
71
330
6E
100
AcDbEntity
  8
0
100
AcDbBlockEnd
  0
BLOCK
  5
92
330
90
100
AcDbEntity
  8
0
100
AcDbBlockBegin
  2
2_405020c_M_0_in_053025_4
 70
     2
 10
0.0
 20
0.0
 30
0.0
  3
2_405020c_M_0_in_053025_4
  1

  0
ATTDEF
  5
94
330
90
100
AcDbEntity
  8
AM_6
100
AcDbText
 10
62.21611093481643
 20
3.50000000000003
 30
0.0
 40
0.5
  1
405020C -Metric
100
AcDbAttributeDefinition
  3

  2
NN
 70
     8
280
     0
  0
ATTDEF
  5
95
330
90
100
AcDbEntity
  8
AM_6
100
AcDbText
 10
62.21611093481643
 20
3.00000000000003
 30
0.0
 40
0.5
  1
Grease fitting
100
AcDbAttributeDefinition
  3

  2
NT
 70
     8
280
     0
  0
ATTDEF
  5
96
330
90
100
AcDbEntity
  8
AM_6
100
AcDbText
 10
62.21611093481643
 20
2.50000000000003
 30
0.0
 40
0.5
  1
405020c-M
100
AcDbAttributeDefinition
  3

  2
NB
 70
     8
280
     0
  0
ATTDEF
  5
97
330
90
100
AcDbEntity
  8
AM_6
100
AcDbText
 10
62.21611093481643
 20
2.00000000000003
 30
0.0
 40
0.5
  1
$MN.-M
100
AcDbAttributeDefinition
  3

  2
NBSYN
 70
     8
280
     0
  0
ATTDEF
  5
98
330
90
100
AcDbEntity
  8
AM_6
100
AcDbText
 10
62.21611093481643
 20
1.50000000000003
 30
0.0
 40
0.5
  1
405020c
100
AcDbAttributeDefinition
  3

  2
LINA
 70
     8
280
     0
  0
ATTDEF
  5
99
330
90
100
AcDbEntity
  8
AM_6
100
AcDbText
 10
62.21611093481643
 20
1.00000000000003
 30
0.0
 40
0.5
  1
405020c
100
AcDbAttributeDefinition
  3

  2
MN
 70
     8
280
     0
  0
ATTDEF
  5
9A
330
90
100
AcDbEntity
  8
AM_6
100
AcDbText
 10
62.21611093481643
 20
0.5000000000000302
 30
0.0
 40
0.5
  1
5.842
100
AcDbAttributeDefinition
  3

  2
NDR
 70
     8
280
     0
  0
ATTDEF
  5
9B
330
90
100
AcDbEntity
  8
AM_6
100
AcDbText
 10
62.21611093481643
 20
0.0000000000000302
 30
0.0
 40
0.5
  1
5.359
100
AcDbAttributeDefinition
  3

  2
KDR
 70
     8
280
     0
  0
ATTDEF
  5
9C
330
90
100
AcDbEntity
  8
AM_6
100
AcDbText
 10
62.21611093481643
 20
-0.4999999999999698
 30
0.0
 40
0.5
  1
4.000
100
AcDbAttributeDefinition
  3

  2
BZE
 70
     8
280
     0
  0
ATTDEF
  5
9D
330
90
100
AcDbEntity
  8
AM_6
100
AcDbText
 10
62.21611093481643
 20
-0.9999999999999698
 30
0.0
 40
0.5
  1
7
100
AcDbAttributeDefinition
  3

  2
WAF
 70
     8
280
     0
  0
ATTDEF
  5
9E
330
90
100
AcDbEntity
  8
AM_6
100
AcDbText
 10
62.21611093481643
 20
-1.49999999999997
 30
0.0
 40
0.5
  1
7.0000
100
AcDbAttributeDefinition
  3

  2
WAF1
 70
     8
280
     0
  0
ATTDEF
  5
9F
330
90
100
AcDbEntity
  8
AM_6
100
AcDbText
 10
62.21611093481643
 20
-1.99999999999997
 30
0.0
 40
0.5
  1
13.843
100
AcDbAttributeDefinition
  3

  2
BL
 70
     8
280
     0
  0
ATTDEF
  5
A0
330
90
100
AcDbEntity
  8
AM_6
100
AcDbText
 10
62.21611093481643
 20
-2.49999999999997
 30
0.0
 40
0.5
  1
5.080
100
AcDbAttributeDefinition
  3

  2
TL
 70
     8
280
     0
  0
ATTDEF
  5
A1
330
90
100
AcDbEntity
  8
AM_6
100
AcDbText
 10
62.21611093481643
 20
-2.99999999999997
 30
0.0
 40
0.5
  1
baldor
100
AcDbAttributeDefinition
  3

  2
COMPANY
 70
     8
280
     0
  0
LWPOLYLINE
  5
A4
330
90
100
AcDbEntity
  8
AM_9
100
AcDbPolyline
 90
        3
 70
     0
 43
0.0
 10
52.34466381106849
 20
0.0000000000000029
 10
51.91378175356669
 20
-0.8710657643863903
 10
51.52764112300375
 20
-1.749999999999997
  0
LWPOLYLINE
  5
A5
330
90
100
AcDbEntity
  8
AM_9
100
AcDbPolyline
 90
        3
 70
     0
 43
0.0
 10
51.52764112300375
 20
1.750000000000002
 10
51.91193638968858
 20
0.8750000000000024
 10
52.34466381106849
 20
0.0000000000000029
  0
ELLIPSE
  5
A6
330
90
100
AcDbEntity
  8
AM_9
100
AcDbEllipse
 10
45.7922351496408
 20
0.0000000000000028
 30
0.0
 11
-4.692312313253165E-16
 21
-2.55437585025611
 31
0.0
210
0.0
220
0.0
230
1.0
 40
0.7071067811865476
 41
0.0
 42
6.283185307179586
  0
LWPOLYLINE
  5
A7
330
90
100
AcDbEntity
  8
AM_9
100
AcDbPolyline
 90
        3
 70
     0
 43
0.0
 10
52.6024434304073
 20
-1.749999999999997
 10
52.93258267203423
 20
-0.8749999999999967
 10
53.21428975896607
 20
0.000000000000003
  0
LWPOLYLINE
  5
A8
330
90
100
AcDbEntity
  8
AM_9
100
AcDbPolyline
 90
        3
 70
     0
 43
0.0
 10
53.21428975896607
 20
0.000000000000003
 10
52.93394959808319
 20
0.8710657643863964
 10
52.6024434304073
 20
1.750000000000002
  0
LWPOLYLINE
  5
A9
330
90
100
AcDbEntity
  8
AM_9
100
AcDbPolyline
 90
        3
 70
     0
 43
0.0
 10
50.91579479444496
 20
3.500000000000003
 10
51.19613495532786
 20
2.628934235613609
 10
51.52764112300375
 20
1.750000000000002
  0
LINE
  5
AA
330
90
100
AcDbEntity
  8
AM_9
100
AcDbLine
 10
53.21428975896607
 20
0.000000000000003
 30
0.0
 11
52.34466381106849
 21
0.0000000000000029
 31
0.0
  0
LWPOLYLINE
  5
AB
330
90
100
AcDbEntity
  8
AM_9
100
AcDbPolyline
 90
        3
 70
     0
 43
0.0
 10
51.52764112300375
 20
-1.749999999999997
 10
51.19750188137682
 20
-2.624999999999997
 10
50.91579479444496
 20
-3.499999999999997
  0
LWPOLYLINE
  5
AC
330
90
100
AcDbEntity
  8
AM_9
100
AcDbPolyline
 90
        3
 70
     0
 43
0.0
 10
52.6024434304073
 20
1.750000000000002
 10
52.21814816372247
 20
2.625000000000003
 10
52.16883054839365
 20
2.729433783086945
  0
LWPOLYLINE
  5
AD
330
90
100
AcDbEntity
  8
AM_9
100
AcDbPolyline
 90
        3
 70
     0
 43
0.0
 10
52.16881174525021
 20
-2.729473325454356
 10
52.21630279984435
 20
-2.628934235613603
 10
52.6024434304073
 20
-1.749999999999997
  0
LINE
  5
AE
330
90
100
AcDbEntity
  8
AM_9
100
AcDbLine
 10
45.9066377213119
 20
-2.802418772605762
 30
0.0
 11
49.31904293033777
 21
-2.953308440111943
 31
0.0
  0
LINE
  5
AF
330
90
100
AcDbEntity
  8
AM_9
100
AcDbLine
 10
49.31904293033777
 20
2.953308440111949
 30
0.0
 11
45.9066377213119
 21
2.802418772605768
 31
0.0
  0
ELLIPSE
  5
B0
330
90
100
AcDbEntity
  8
AM_9
100
AcDbEllipse
 10
50.45913990547204
 20
0.0000000000000278
 30
0.0
 11
2.143131898507842E-16
 21
3.499999999999957
 31
0.0
210
0.0
220
0.0
230
1.0
 40
0.7071067811865475
 41
3.850326533439279
 42
5.574451427330089
  0
ELLIPSE
  5
B1
330
90
100
AcDbEntity
  8
AM_9
100
AcDbEllipse
 10
51.17559682392471
 20
-0.0000000000000278
 30
0.0
 11
1.522711690942057E-16
 21
2.486776909068358
 31
0.0
210
0.0
220
0.0
230
1.0
 40
0.7071067811865241
 41
5.471489428941166
 42
5.984242208656168
  0
ELLIPSE
  5
B2
330
90
100
AcDbEntity
  8
AM_9
100
AcDbEllipse
 10
51.17559682392443
 20
-0.0000000000000266
 30
0.0
 11
1.522711690942014E-16
 21
2.486776909068288
 31
0.0
210
0.0
220
0.0
230
1.0
 40
0.7071067811865814
 41
3.440535752113348
 42
3.926339046558011
  0
ELLIPSE
  5
B3
330
90
100
AcDbEntity
  8
AM_9
100
AcDbEllipse
 10
51.17559682391912
 20
0.0000000000009381
 30
0.0
 11
1.522711690943121E-16
 21
2.486776909070096
 31
0.0
210
0.0
220
0.0
230
1.0
 40
0.7071067811880731
 41
4.138245716276616
 42
5.239700562327745
  0
LWPOLYLINE
  5
B4
330
90
100
AcDbEntity
  8
AM_9
100
AcDbPolyline
 90
       11
 70
     0
 43
0.0
 10
51.49704971693716
 20
2.167354355009758
 10
51.62621340049915
 20
2.1918421754052
 10
51.77494783046911
 20
2.18563442311063
 10
51.91223052656318
 20
2.147459439283272
 10
52.04771624903847
 20
2.079966860250426
 10
52.18441423238313
 20
1.981409541656625
 10
52.33364753296321
 20
1.835687508164981
 10
52.47476141484199
 20
1.654115516455267
 10
52.60381055670875
 20
1.438457572270676
 10
52.71656369263754
 20
1.191758188197671
 10
52.74025666382813
 20
1.129710268328956
  0
LWPOLYLINE
  5
B5
330
90
100
AcDbEntity
  8
AM_9
100
AcDbPolyline
 90
        3
 70
     0
 43
0.0
 10
51.23724801148925
 20
2.036139011966234
 10
51.35937103934338
 20
2.111387527518447
 10
51.36808780500105
 20
2.115833774750207
  0
LWPOLYLINE
  5
B6
330
90
100
AcDbEntity
  8
AM_9
100
AcDbPolyline
 90
        3
 70
     0
 43
0.0
 10
51.32991980893195
 20
-2.095460621393959
 10
51.23752177059856
 20
-2.036335140174837
 10
51.23341878887246
 20
-2.033382475707735
  0
LWPOLYLINE
  5
B7
330
90
100
AcDbEntity
  8
AM_9
100
AcDbPolyline
 90
       11
 70
     0
 43
0.0
 10
52.72912402688062
 20
-1.159420816009346
 10
52.71717743615172
 20
-1.190205765046083
 10
52.60525701272469
 20
-1.435695945208138
 10
52.47815158770149
 20
-1.649130456767867
 10
52.34115866384272
 20
-1.82718552635916
 10
52.20013198620626
 20
-1.968024119986876
 10
52.06022422924875
 20
-2.072241980353592
 10
51.92463725410651
 20
-2.142505441014951
 10
51.79232878140947
 20
-2.182504632778699
 10
51.65400671758083
 20
-2.193493299335821
 10
51.52934261169585
 20
-2.176048790768899
  0
ELLIPSE
  5
B8
330
90
100
AcDbEntity
  8
AM_9
100
AcDbEllipse
 10
51.97443306265472
 20
0.0000000000000047
 30
0.0
 11
1.400736253841402E-16
 21
2.287575903218217
 31
0.0
210
0.0
220
0.0
230
1.0
 40
0.707106781186544
 41
2.656480407116013
 42
6.768297553653371
  0
ELLIPSE
  5
B9
330
90
100
AcDbEntity
  8
AM_9
100
AcDbEllipse
 10
53.52761972418553
 20
0.0000000000000038
 30
0.0
 11
2.027916041956615E-16
 21
3.311838226937806
 31
0.0
210
0.0
220
0.0
230
1.0
 40
0.7071067811865465
 41
2.656480407116014
 42
6.768297553653365
  0
ELLIPSE
  5
BA
330
90
100
AcDbEntity
  8
AM_9
100
AcDbEllipse
 10
54.10274459349109
 20
0.0000000000000024
 30
0.0
 11
2.036609237928308E-16
 21
3.326035293353601
 31
0.0
210
0.0
220
0.0
230
1.0
 40
0.7071067811865496
 41
3.579974428543796
 42
5.844803532225583
  0
ELLIPSE
  5
BB
330
90
100
AcDbEntity
  8
AM_9
100
AcDbEllipse
 10
55.36530524628782
 20
0.0000000000023412
 30
0.0
 11
1.572521564387272E-16
 21
2.568122605606976
 31
0.0
210
0.0
220
0.0
230
1.0
 40
0.7071067811885643
 41
3.579974428548702
 42
5.844803532219903
  0
ELLIPSE
  5
BC
330
90
100
AcDbEntity
  8
AM_9
100
AcDbEllipse
 10
49.38433759806847
 20
0.000000000000004
 30
0.0
 11
1.809263597659741E-16
 21
2.95475168664046
 31
0.0
210
0.0
220
0.0
230
1.0
 40
0.7071067811865467
 41
0.0
 42
6.283185307179586
  0
ELLIPSE
  5
BD
330
90
100
AcDbEntity
  8
AM_9
100
AcDbEllipse
 10
45.96859637084349
 20
0.0000000000000071
 30
0.0
 11
1.716825172003264E-16
 21
2.803788281157612
 31
0.0
210
0.0
220
0.0
230
1.0
 40
0.707106781186551
 41
0.0
 42
6.283185307179586
  0
ELLIPSE
  5
BE
330
90
100
AcDbEntity
  8
AM_9
100
AcDbEllipse
 10
49.38433759806848
 20
0.0000000000000022
 30
0.0
 11
2.143131898507885E-16
 21
3.500000000000028
 31
0.0
210
0.0
220
0.0
230
1.0
 40
0.7071067811865476
 41
0.0
 42
6.283185307179586
  0
LINE
  5
C0
330
90
100
AcDbEntity
  8
AM_4
100
AcDbLine
 10
52.16883054839365
 20
2.729433783086945
 30
0.0
 11
51.78542074234256
 21
3.500000000000003
 31
0.0
  0
LINE
  5
C1
330
90
100
AcDbEntity
  8
AM_4
100
AcDbLine
 10
51.78542074234256
 20
-3.499999999999997
 30
0.0
 11
52.16881174525021
 21
-2.729473325454356
 31
0.0
  0
LINE
  5
C2
330
90
100
AcDbEntity
  8
AM_4
100
AcDbLine
 10
51.78542074234256
 20
3.500000000000003
 30
0.0
 11
48.05805676119792
 21
3.500000000000003
 31
0.0
  0
LWPOLYLINE
  5
C3
330
90
100
AcDbEntity
  8
AM_4
100
AcDbPolyline
 90
        3
 70
     0
 43
0.0
 10
47.24103407313318
 20
1.750000000000002
 10
47.62532933981802
 20
2.625000000000003
 10
48.05805676119792
 20
3.500000000000003
  0
LWPOLYLINE
  5
C4
330
90
100
AcDbEntity
  8
AM_4
100
AcDbPolyline
 90
        3
 70
     0
 43
0.0
 10
46.62918774457439
 20
0.0000000000000032
 10
46.90952790545729
 20
0.8710657643863964
 10
47.24103407313318
 20
1.750000000000002
  0
LWPOLYLINE
  5
C5
330
90
100
AcDbEntity
  8
AM_4
100
AcDbPolyline
 90
        3
 70
     0
 43
0.0
 10
48.92768270909552
 20
3.500000000000003
 10
48.64734254821263
 20
2.628934235613609
 10
48.31583638053674
 20
1.750000000000003
  0
LINE
  5
C6
330
90
100
AcDbEntity
  8
AM_4
100
AcDbLine
 10
47.498813692472
 20
0.0000000000000033
 30
0.0
 11
46.62918774457439
 21
0.0000000000000032
 31
0.0
  0
LWPOLYLINE
  5
C7
330
90
100
AcDbEntity
  8
AM_4
100
AcDbPolyline
 90
        3
 70
     0
 43
0.0
 10
47.24103407313318
 20
-1.749999999999996
 10
46.91089483150625
 20
-0.8749999999999966
 10
46.62918774457439
 20
0.0000000000000032
  0
LWPOLYLINE
  5
C8
330
90
100
AcDbEntity
  8
AM_4
100
AcDbPolyline
 90
        3
 70
     0
 43
0.0
 10
48.05805676119792
 20
-3.499999999999997
 10
47.62717470369612
 20
-2.628934235613603
 10
47.24103407313318
 20
-1.749999999999996
  0
LINE
  5
C9
330
90
100
AcDbEntity
  8
AM_4
100
AcDbLine
 10
51.78542074234256
 20
-3.499999999999997
 30
0.0
 11
48.05805676119792
 21
-3.499999999999997
 31
0.0
  0
LWPOLYLINE
  5
CA
330
90
100
AcDbEntity
  8
AM_4
100
AcDbPolyline
 90
        3
 70
     0
 43
0.0
 10
48.31583638053674
 20
-1.749999999999996
 10
48.64597562216366
 20
-2.624999999999997
 10
48.92768270909552
 20
-3.499999999999997
  0
LWPOLYLINE
  5
CB
330
90
100
AcDbEntity
  8
AM_4
100
AcDbPolyline
 90
        3
 70
     0
 43
0.0
 10
48.31583638053674
 20
1.750000000000003
 10
47.9315411138519
 20
0.875000000000003
 10
47.498813692472
 20
0.0000000000000033
  0
LWPOLYLINE
  5
CC
330
90
100
AcDbEntity
  8
AM_4
100
AcDbPolyline
 90
        3
 70
     0
 43
0.0
 10
47.498813692472
 20
0.0000000000000033
 10
47.9296957499738
 20
-0.8710657643863899
 10
48.31583638053674
 20
-1.749999999999996
  0
ELLIPSE
  5
CD
330
90
100
AcDbEntity
  8
AM_4
100
AcDbEllipse
 10
50.45913990547204
 20
0.0000000000000032
 30
0.0
 11
2.143131898507867E-16
 21
3.499999999999998
 31
0.0
210
0.0
220
0.0
230
1.0
 40
0.7071067811865557
 41
5.574451427330098
 42
10.13351184061886
  0
ELLIPSE
  5
CE
330
90
100
AcDbEntity
  8
AM_4
100
AcDbEllipse
 10
51.17559682392459
 20
0.0000000000000013
 30
0.0
 11
1.522711690942035E-16
 21
2.486776909068323
 31
0.0
210
0.0
220
0.0
230
1.0
 40
0.7071067811865485
 41
5.984242208656113
 42
9.723721059292854
  0
ELLIPSE
  5
CF
330
90
100
AcDbEntity
  8
AM_4
100
AcDbEllipse
 10
51.97443306265472
 20
-0.0000000000000016
 30
0.0
 11
1.400736253841415E-16
 21
2.287575903218237
 31
0.0
210
0.0
220
0.0
230
1.0
 40
0.7071067811865442
 41
0.4851122464737809
 42
2.65648040711601
  0
LINE
  5
D0
330
90
100
AcDbEntity
  8
AM_4
100
AcDbLine
 10
51.22015224491774
 20
-2.023641373606681
 30
0.0
 11
52.4356096000568
 21
-2.929726987111133
 31
0.0
  0
LINE
  5
D1
330
90
100
AcDbEntity
  8
AM_4
100
AcDbLine
 10
52.4356096000568
 20
2.92972698711114
 30
0.0
 11
51.22015224491774
 21
2.023641373606687
 31
0.0
  0
ELLIPSE
  5
D2
330
90
100
AcDbEntity
  8
AM_4
100
AcDbEllipse
 10
53.52761972425559
 20
-0.0000000000669247
 30
0.0
 11
2.027916041910041E-16
 21
3.311838226861744
 31
0.0
210
0.0
220
0.0
230
1.0
 40
0.707106781200244
 41
-3.638895974499639
 42
-3.626704900091471
  0
ELLIPSE
  5
D3
330
90
100
AcDbEntity
  8
AM_4
100
AcDbEllipse
 10
53.52761972418546
 20
0.0000000000000235
 30
0.0
 11
2.027916041956592E-16
 21
3.311838226937768
 31
0.0
210
0.0
220
0.0
230
1.0
 40
0.7071067811865374
 41
0.4988282373487394
 42
2.644289332707787
  0
LWPOLYLINE
  5
D4
330
90
100
AcDbEntity
  8
AM_4
100
AcDbPolyline
 90
       10
 70
     0
 43
0.0
 10
52.43230065116057
 20
-2.927256203806783
 10
52.72800122539482
 20
-3.118166721899978
 10
53.03895943328872
 20
-3.261352597431326
 10
53.35879928158285
 20
-3.355475000100742
 10
53.68192075601338
 20
-3.400784860349953
 10
54.00344157974422
 20
-3.398411947033517
 10
54.31917410905109
 20
-3.349915121119266
 10
54.62497871310192
 20
-3.257183510821212
 10
54.91798060360676
 20
-3.121963707548308
 10
55.11936701487309
 20
-2.999266620552298
  0
LINE
  5
D5
330
90
100
AcDbEntity
  8
AM_4
100
AcDbLine
 10
52.40563566394044
 20
-2.90704636568534
 30
0.0
 11
52.43230065116057
 21
-2.927256203806783
 31
0.0
  0
LWPOLYLINE
  5
D6
330
90
100
AcDbEntity
  8
AM_4
100
AcDbPolyline
 90
       10
 70
     0
 43
0.0
 10
55.06371627142921
 20
3.035807560747295
 10
54.76462625923138
 20
3.198743291702282
 10
54.4483095624075
 20
3.316448948219403
 10
54.12610715392618
 20
3.385080091014144
 10
53.80325649790084
 20
3.405408269362333
 10
53.48425323566023
 20
3.378832095145504
 10
53.17329584053623
 20
3.307100759601897
 10
52.87381325058298
 20
3.192074895337008
 10
52.58850653418901
 20
3.035367779232088
 10
52.40181278417012
 20
2.904104908530627
  0
LINE
  5
D7
330
90
100
AcDbEntity
  8
AM_4
100
AcDbLine
 10
55.10591780059493
 20
3.008289733448628
 30
0.0
 11
55.06371627142921
 21
3.035807560747295
 31
0.0
  0
ELLIPSE
  5
D8
330
90
100
AcDbEntity
  8
AM_4
100
AcDbEllipse
 10
53.52761972405185
 20
0.0000000001528999
 30
0.0
 11
2.027916041850320E-16
 21
3.311838226764213
 31
0.0
210
0.0
220
0.0
230
1.0
 40
0.7071067811758436
 41
0.4851122464510551
 42
0.498828237327077
  0
ELLIPSE
  5
D9
330
90
100
AcDbEntity
  8
AM_4
100
AcDbEllipse
 10
55.58071432160617
 20
0.0000000000000034
 30
0.0
 11
-3.872094701371913E-16
 21
-2.107870178878142
 31
0.0
210
0.0
220
0.0
230
1.0
 40
0.7071067811865464
 41
0.0
 42
6.283185307179586
  0
LWPOLYLINE
  5
DA
330
90
100
AcDbEntity
  8
AM_4
100
AcDbPolyline
 90
       18
 70
     0
 43
0.0
 10
56.19281430819435
 20
-2.286169901426014
 10
56.25627091133562
 20
-2.238627123220164
 10
56.47263577062301
 20
-2.042568281526721
 10
56.66778821796078
 20
-1.809162206732801
 10
56.83790278864161
 20
-1.542109206151539
 10
56.97946093958873
 20
-1.246368856744237
 10
57.0896626158321
 20
-0.9277449792470989
 10
57.16652988790626
 20
-0.5924957049354538
 10
57.20888403407506
 20
-0.2467533967999231
 10
57.21611093481643
 20
0.1034992626090454
 10
57.18802471955653
 20
0.4523529277503112
 10
57.12482848301067
 20
0.7938862677323183
 10
57.02707650045709
 20
1.1223173391733
 10
56.89566545726354
 20
1.431925408020383
 10
56.73192185480006
 20
1.716947580250005
 10
56.53803365251046
 20
1.97127073083306
 10
56.31728003237372
 20
2.188925014755654
 10
56.1371541697714
 20
2.324597273136926
  0
LINE
  5
DB
330
90
100
AcDbEntity
  8
AM_4
100
AcDbLine
 10
56.14290641825767
 20
-2.320762582212174
 30
0.0
 11
56.19281430819435
 21
-2.286169901426014
 31
0.0
  0
ELLIPSE
  5
DC
330
90
100
AcDbEntity
  8
AM_4
100
AcDbEllipse
 10
54.10274459349109
 20
0.0000000000000031
 30
0.0
 11
2.036609237928309E-16
 21
3.326035293353603
 31
0.0
210
0.0
220
0.0
230
1.0
 40
0.7071067811865472
 41
5.844803532225583
 42
9.863159735723384
  0
ELLIPSE
  5
DD
330
90
100
AcDbEntity
  8
AM_4
100
AcDbEllipse
 10
55.36530524630063
 20
-0.0000000000000044
 30
0.0
 11
1.572521564385678E-16
 21
2.568122605604372
 31
0.0
210
0.0
220
0.0
230
1.0
 40
0.7071067811865477
 41
5.844803532225584
 42
9.863159735723386
  0
LINE
  5
DE
330
90
100
AcDbEntity
  8
AM_4
100
AcDbLine
 10
56.13612473214152
 20
2.325280275130747
 30
0.0
 11
55.10105083055181
 21
3.011524545263593
 31
0.0
  0
LINE
  5
DF
330
90
100
AcDbEntity
  8
AM_4
100
AcDbLine
 10
55.10105083055181
 20
-3.011524545263586
 30
0.0
 11
56.13612473214152
 21
-2.32528027513074
 31
0.0
  0
ENDBLK
  5
93
330
90
100
AcDbEntity
  8
0
100
AcDbBlockEnd
  0
BLOCK
  5
E2
330
E0
100
AcDbEntity
  8
0
100
AcDbBlockBegin
  2
3_125816_0_in_053025_4
 70
     2
 10
0.0
 20
0.0
 30
0.0
  3
3_125816_0_in_053025_4
  1

  0
ATTDEF
  5
E4
330
E0
100
AcDbEntity
  8
AM_6
100
AcDbText
 10
54.98108159025695
 20
22.09999999999998
 30
0.0
 40
0.5
  1
Set Screw Insert Metric Bore - Stainless Steel
100
AcDbAttributeDefinition
  3

  2
NN
 70
     8
280
     0
  0
ATTDEF
  5
E5
330
E0
100
AcDbEntity
  8
AM_6
100
AcDbText
 10
54.98108159025695
 20
21.59999999999998
 30
0.0
 40
0.5
  1
SC Bearing Insert -Metric
100
AcDbAttributeDefinition
  3

  2
NT
 70
     8
280
     0
  0
ATTDEF
  5
E6
330
E0
100
AcDbEntity
  8
AM_6
100
AcDbText
 10
54.98108159025695
 20
21.09999999999998
 30
0.0
 40
0.5
  1
125816
100
AcDbAttributeDefinition
  3

  2
NB
 70
     8
280
     0
  0
ATTDEF
  5
E7
330
E0
100
AcDbEntity
  8
AM_6
100
AcDbText
 10
54.98108159025695
 20
20.59999999999998
 30
0.0
 40
0.5
  1
$PN.
100
AcDbAttributeDefinition
  3

  2
NBSYN
 70
     8
280
     0
  0
ATTDEF
  5
E8
330
E0
100
AcDbEntity
  8
AM_6
100
AcDbText
 10
54.98108159025695
 20
20.09999999999998
 30
0.0
 40
0.5
  1
125816
100
AcDbAttributeDefinition
  3

  2
LINA
 70
     8
280
     0
  0
ATTDEF
  5
E9
330
E0
100
AcDbEntity
  8
AM_6
100
AcDbText
 10
54.98108159025695
 20
19.59999999999998
 30
0.0
 40
0.5
  1
211
100
AcDbAttributeDefinition
  3

  2
SERIES
 70
     8
280
     0
  0
ATTDEF
  5
EA
330
E0
100
AcDbEntity
  8
AM_6
100
AcDbText
 10
54.98108159025695
 20
19.09999999999998
 30
0.0
 40
0.5
  1
55
100
AcDbAttributeDefinition
  3

  2
SS
 70
     8
280
     0
  0
ATTDEF
  5
EB
330
E0
100
AcDbEntity
  8
AM_6
100
AcDbText
 10
54.98108159025695
 20
18.59999999999998
 30
0.0
 40
0.5
  1
125816
100
AcDbAttributeDefinition
  3

  2
PN
 70
     8
280
     0
  0
ATTDEF
  5
EC
330
E0
100
AcDbEntity
  8
AM_6
100
AcDbText
 10
54.98108159025695
 20
18.09999999999998
 30
0.0
 40
0.5
  1
INS-SC-55
100
AcDbAttributeDefinition
  3

  2
DESCRIPTION
 70
     8
280
     0
  0
ATTDEF
  5
ED
330
E0
100
AcDbEntity
  8
AM_6
100
AcDbText
 10
54.98108159025695
 20
17.59999999999998
 30
0.0
 40
0.5
  1
0.89
100
AcDbAttributeDefinition
  3

  2
WEIGHT
 70
     8
280
     0
  0
ATTDEF
  5
EE
330
E0
100
AcDbEntity
  8
AM_6
100
AcDbText
 10
54.98108159025695
 20
17.09999999999998
 30
0.0
 40
0.5
  1
56.4
100
AcDbAttributeDefinition
  3

  2
A
 70
     8
280
     0
  0
ATTDEF
  5
EF
330
E0
100
AcDbEntity
  8
AM_6
100
AcDbText
 10
54.98108159025695
 20
16.59999999999998
 30
0.0
 40
0.5
  1
23.9
100
AcDbAttributeDefinition
  3

  2
C
 70
     8
280
     0
  0
ATTDEF
  5
F0
330
E0
100
AcDbEntity
  8
AM_6
100
AcDbText
 10
54.98108159025695
 20
16.09999999999998
 30
0.0
 40
0.5
  1
100
100
AcDbAttributeDefinition
  3

  2
D
 70
     8
280
     0
  0
ATTDEF
  5
F1
330
E0
100
AcDbEntity
  8
AM_6
100
AcDbText
 10
54.98108159025695
 20
15.59999999999998
 30
0.0
 40
0.5
  1
6.4
100
AcDbAttributeDefinition
  3

  2
J
 70
     8
280
     0
  0
ATTDEF
  5
F2
330
E0
100
AcDbEntity
  8
AM_6
100
AcDbText
 10
54.98108159025695
 20
15.09999999999998
 30
0.0
 40
0.5
  1
68.8
100
AcDbAttributeDefinition
  3

  2
L
 70
     8
280
     0
  0
ATTDEF
  5
F3
330
E0
100
AcDbEntity
  8
AM_6
100
AcDbText
 10
54.98108159025695
 20
14.59999999999998
 30
0.0
 40
0.5
  1
M10 x 1.5
100
AcDbAttributeDefinition
  3

  2
N
 70
     8
280
     0
  0
ATTDEF
  5
F4
330
E0
100
AcDbEntity
  8
AM_6
100
AcDbText
 10
54.98108159025695
 20
14.09999999999998
 30
0.0
 40
0.5
  1
22.1
100
AcDbAttributeDefinition
  3

  2
W
 70
     8
280
     0
  0
ATTDEF
  5
F5
330
E0
100
AcDbEntity
  8
AM_6
100
AcDbText
 10
54.98108159025695
 20
13.59999999999998
 30
0.0
 40
0.5
  1
34.3
100
AcDbAttributeDefinition
  3

  2
Y
 70
     8
280
     0
  0
ATTDEF
  5
F6
330
E0
100
AcDbEntity
  8
AM_6
100
AcDbText
 10
54.98108159025695
 20
13.09999999999998
 30
0.0
 40
0.5
  1
baldor
100
AcDbAttributeDefinition
  3

  2
COMPANY
 70
     8
280
     0
  0
LINE
  5
F7
330
E0
100
AcDbEntity
  8
AM_9
100
AcDbLine
 10
-52.75
 20
6.617272727272731
 30
0.0
 11
-52.75
 21
6.18272727272727
 31
0.0
  0
ARC
  5
F8
330
E0
100
AcDbEntity
  8
AM_9
100
AcDbCircle
 10
-50.57727272727274
 20
6.182727272727274
 30
0.0
 40
2.172727272727265
100
AcDbArc
 50
180.0
 51
270.0
  0
ARC
  5
F9
330
E0
100
AcDbEntity
  8
AM_9
100
AcDbCircle
 10
-50.57727272727274
 20
6.617272727272729
 30
0.0
 40
2.172727272727263
100
AcDbArc
 50
90.0
 51
180.0
  0
LINE
  5
FA
330
E0
100
AcDbEntity
  8
AM_9
100
AcDbLine
 10
-50.57727272727274
 20
8.789999999999994
 30
0.0
 11
-50.57727272727274
 21
4.010000000000007
 31
0.0
  0
LINE
  5
FB
330
E0
100
AcDbEntity
  8
AM_9
100
AcDbLine
 10
-50.57727272727274
 20
4.010000000000007
 30
0.0
 11
-49.73865656465158
 21
4.010000000000007
 31
0.0
  0
LINE
  5
FC
330
E0
100
AcDbEntity
  8
AM_9
100
AcDbLine
 10
-48.73206865675088
 20
8.789999999999994
 30
0.0
 11
-50.57727272727274
 21
8.789999999999994
 31
0.0
  0
LINE
  5
FD
330
E0
100
AcDbEntity
  8
AM_9
100
AcDbLine
 10
24.92154625024347
 20
-27.313
 30
0.0
 11
30.84590293342454
 21
-27.313
 31
0.0
  0
LINE
  5
FE
330
E0
100
AcDbEntity
  8
AM_9
100
AcDbLine
 10
30.84590293342454
 20
-18.937
 30
0.0
 11
24.9231288651351
 21
-18.937
 31
0.0
  0
LWPOLYLINE
  5
FF
330
E0
100
AcDbEntity
  8
AM_9
100
AcDbPolyline
 90
       21
 70
     0
 43
0.0
 10
24.92331588742095
 20
-27.31299998530803
 10
25.11506519917817
 20
-27.28747490281286
 10
25.38261086714229
 20
-27.15574685149483
 10
25.6302861027031
 20
-26.90702880781054
 10
25.840919417053
 20
-26.56062728977599
 10
26.02310136589237
 20
-26.10763129921575
 10
26.16705023290328
 20
-25.57963587134006
 10
26.27902989182513
 20
-24.96537366741304
 10
26.35325929767705
 20
-24.31570796331229
 10
26.39462634179601
 20
-23.61185769349357
 10
26.4012675896881
 20
-22.92098623365241
 10
26.37425039401077
 20
-22.2159453892985
 10
26.31519870593224
 20
-21.55952944557112
 10
26.2201211622004
 20
-20.92904535214871
 10
26.0926192164644
 20
-20.37216422739404
 10
25.92572372381117
 20
-19.87791555060663
 10
25.72740002218973
 20
-19.48405276153581
 10
25.48916428379081
 20
-19.18396379068214
 10
25.22911330741699
 20
-19.0037719467383
 10
24.93662376392377
 20
-18.93711604222496
 10
24.9235417221192
 20
-18.93700000402307
  0
LWPOLYLINE
  5
100
330
E0
100
AcDbEntity
  8
AM_9
100
AcDbPolyline
 90
       11
 70
     0
 43
0.0
 10
24.9235417221192
 20
-18.93700000402307
 10
24.63903543040125
 20
-18.98873165243515
 10
24.32543823422859
 20
-19.15869132956799
 10
24.02406441951439
 20
-19.43234181449702
 10
23.728903997648
 20
-19.81728563179886
 10
23.46524481666654
 20
-20.28669509187432
 10
23.23259488568457
 20
-20.85080984290786
 10
23.05338893657966
 20
-21.46630370258525
 10
22.9274966159913
 20
-22.14854226825986
 10
22.87932745706674
 20
-22.62982456129345
 10
22.86282439196578
 20
-23.125
  0
ELLIPSE
  5
101
330
E0
100
AcDbEntity
  8
AM_9
100
AcDbEllipse
 10
30.84590293342455
 20
-23.125
 30
0.0
 11
-7.693231192243657E-16
 21
-4.187999999999992
 31
0.0
210
0.0
220
0.0
230
1.0
 40
0.4226182617407021
 41
3.544777879554141
 42
5.84830643896095
  0
LINE
  5
102
330
E0
100
AcDbEntity
  8
AM_9
100
AcDbLine
 10
30.02057322091911
 20
-26.82979950446317
 30
0.0
 11
30.22944368758141
 21
-27.0903208356794
 31
0.0
  0
LINE
  5
103
330
E0
100
AcDbEntity
  8
AM_9
100
AcDbLine
 10
30.2339128856219
 20
-19.15410479355587
 30
0.0
 11
30.02057322091911
 21
-19.42020049553683
 31
0.0
  0
LWPOLYLINE
  5
104
330
E0
100
AcDbEntity
  8
AM_9
100
AcDbPolyline
 90
        4
 70
     0
 43
0.0
 10
30.75094924335335
 20
-18.69226296635751
 10
30.87395258787555
 20
-18.63332474941129
 10
31.07109626818564
 20
-18.5794747200768
 10
31.26420831044271
 20
-18.57705682305819
  0
LWPOLYLINE
  5
105
330
E0
100
AcDbEntity
  8
AM_9
100
AcDbPolyline
 90
       11
 70
     0
 43
0.0
 10
22.86282439196578
 20
-23.125
 10
22.89481350871085
 20
-23.8135579253152
 10
22.99284674641189
 20
-24.5021158506304
 10
23.14657052622978
 20
-25.13267684268023
 10
23.3571773572534
 20
-25.72384223392553
 10
23.60551540453295
 20
-26.23047045148927
 10
23.89322975669765
 20
-26.66265106352416
 10
24.19410958508051
 20
-26.98572618014408
 10
24.5122336342296
 20
-27.20644692712379
 10
24.81581238140828
 20
-27.30539669791705
 10
24.92331588742095
 20
-27.31299998530803
  0
LINE
  5
106
330
E0
100
AcDbEntity
  8
AM_9
100
AcDbLine
 10
27.5
 20
-32.924
 30
0.0
 11
27.5
 21
20.72399999999999
 31
0.0
  0
LINE
  5
107
330
E0
100
AcDbEntity
  8
AM_9
100
AcDbLine
 10
-27.5
 20
20.72399999999999
 30
0.0
 11
-27.5
 21
-32.924
 31
0.0
  0
LINE
  5
108
330
E0
100
AcDbEntity
  8
AM_9
100
AcDbLine
 10
27.5
 20
20.72399999999999
 30
0.0
 11
28.87600000000001
 21
22.09999999999998
 31
0.0
  0
LINE
  5
109
330
E0
100
AcDbEntity
  8
AM_9
100
AcDbLine
 10
-28.87600000000001
 20
22.09999999999998
 30
0.0
 11
-27.5
 21
20.72399999999999
 31
0.0
  0
LINE
  5
10A
330
E0
100
AcDbEntity
  8
AM_9
100
AcDbLine
 10
-27.5
 20
-32.924
 30
0.0
 11
-28.87600000000001
 21
-34.3
 31
0.0
  0
LINE
  5
10B
330
E0
100
AcDbEntity
  8
AM_9
100
AcDbLine
 10
28.87600000000001
 20
-34.3
 30
0.0
 11
27.5
 21
-32.924
 31
0.0
  0
LWPOLYLINE
  5
10C
330
E0
100
AcDbEntity
  8
AM_9
100
AcDbPolyline
 90
        3
 70
     0
 43
0.0
 10
31.26420831044271
 20
-18.57705682305819
 10
31.53860414095853
 20
-18.66946107462991
 10
31.71608459945571
 20
-18.7974534854599
  0
LINE
  5
10D
330
E0
100
AcDbEntity
  8
AM_9
100
AcDbLine
 10
34.40000000000001
 20
-19.11592080721372
 30
0.0
 11
34.40000000000001
 21
-11.95
 31
0.0
  0
LINE
  5
10E
330
E0
100
AcDbEntity
  8
AM_9
100
AcDbLine
 10
-34.40000000000001
 20
-11.95
 30
0.0
 11
-34.40000000000001
 21
-19.11592080721372
 31
0.0
  0
LINE
  5
10F
330
E0
100
AcDbEntity
  8
AM_9
100
AcDbLine
 10
34.40000000000001
 20
11.95
 30
0.0
 11
34.40000000000001
 21
19.11592080721372
 31
0.0
  0
LINE
  5
110
330
E0
100
AcDbEntity
  8
AM_9
100
AcDbLine
 10
-34.40000000000001
 20
19.11592080721372
 30
0.0
 11
-34.40000000000001
 21
11.95
 31
0.0
  0
LINE
  5
111
330
E0
100
AcDbEntity
  8
AM_9
100
AcDbLine
 10
47.61000000000003
 20
-7.353333333333333
 30
0.0
 11
47.61000000000003
 21
-4.16666666666667
 31
0.0
  0
LINE
  5
112
330
E0
100
AcDbEntity
  8
AM_9
100
AcDbLine
 10
-47.61000000000003
 20
-4.16666666666667
 30
0.0
 11
-47.61000000000003
 21
-7.353333333333333
 31
0.0
  0
LINE
  5
113
330
E0
100
AcDbEntity
  8
AM_9
100
AcDbLine
 10
-46.96542332119775
 20
-11.95
 30
0.0
 11
46.96542332117892
 21
-11.95
 31
0.0
  0
ARC
  5
114
330
E0
100
AcDbEntity
  8
AM_9
100
AcDbCircle
 10
46.96542330695225
 20
-10.99400000000003
 30
0.0
 40
0.9559999999999764
100
AcDbArc
 50
270.0
 51
338.5875329531169
  0
ARC
  5
115
330
E0
100
AcDbEntity
  8
AM_9
100
AcDbCircle
 10
-46.96542330695224
 20
-10.99400000000001
 30
0.0
 40
0.9559999999999935
100
AcDbArc
 50
201.4124670468837
 51
270.0
  0
LINE
  5
116
330
E0
100
AcDbEntity
  8
AM_9
100
AcDbLine
 10
-46.96542330695223
 20
11.95
 30
0.0
 11
46.9654233069334
 21
11.95
 31
0.0
  0
ARC
  5
117
330
E0
100
AcDbEntity
  8
AM_9
100
AcDbCircle
 10
46.96542330695225
 20
10.994
 30
0.0
 40
0.9559999999999902
100
AcDbArc
 50
21.41246704688436
 51
90.0
  0
ARC
  5
118
330
E0
100
AcDbEntity
  8
AM_9
100
AcDbCircle
 10
-46.96542330695225
 20
10.994
 30
0.0
 40
0.955999999999996
100
AcDbArc
 50
90.0
 51
158.5875329531156
  0
LINE
  5
119
330
E0
100
AcDbEntity
  8
AM_9
100
AcDbLine
 10
-49.11730509483896
 20
-7.353333333333333
 30
0.0
 11
49.11730509483897
 21
-7.353333333333333
 31
0.0
  0
LINE
  5
11A
330
E0
100
AcDbEntity
  8
AM_9
100
AcDbLine
 10
-47.85543674526818
 20
-11.34301587301588
 30
0.0
 11
47.85543674526818
 21
-11.34301587301588
 31
0.0
  0
ARC
  5
11B
330
E0
100
AcDbEntity
  8
AM_9
100
AcDbCircle
 10
18.93000000000135
 20
-0.0000000000002771
 30
0.0
 40
31.06999999999866
100
AcDbArc
 50
338.5875329531155
 51
346.3099227445071
  0
ARC
  5
11C
330
E0
100
AcDbEntity
  8
AM_9
100
AcDbCircle
 10
-18.93000000000085
 20
-0.0000000000001332
 30
0.0
 40
31.06999999999918
100
AcDbArc
 50
193.690077255493
 51
201.4124670468844
  0
LINE
  5
11D
330
E0
100
AcDbEntity
  8
AM_9
100
AcDbLine
 10
-49.71934537934983
 20
-4.166666666666672
 30
0.0
 11
49.71934537934983
 21
-4.166666666666672
 31
0.0
  0
LINE
  5
11E
330
E0
100
AcDbEntity
  8
AM_9
100
AcDbLine
 10
-47.85543674526818
 20
11.34301587301588
 30
0.0
 11
47.85543674526818
 21
11.34301587301588
 31
0.0
  0
LINE
  5
11F
330
E0
100
AcDbEntity
  8
AM_9
100
AcDbLine
 10
-48.90249063411913
 20
8.0755214786154
 30
0.0
 11
-48.88022554774447
 21
8.169955906491838
 31
0.0
  0
ARC
  5
120
330
E0
100
AcDbEntity
  8
AM_9
100
AcDbCircle
 10
18.92999999999382
 20
-0.0000000000007739
 30
0.0
 40
31.07000000000604
100
AcDbArc
 50
352.2930851783909
 51
21.41246704688124
  0
ARC
  5
121
330
E0
100
AcDbEntity
  8
AM_9
100
AcDbCircle
 10
-18.93000000000131
 20
0.0000000000003304
 30
0.0
 40
31.06999999999867
100
AcDbArc
 50
158.5875329531156
 51
163.5770093333052
  0
ARC
  5
122
330
E0
100
AcDbEntity
  8
AM_9
100
AcDbCircle
 10
-18.93000000000132
 20
0.0000000000000024
 30
0.0
 40
31.06999999999872
100
AcDbArc
 50
172.569140537549
 51
187.7069148216124
  0
LWPOLYLINE
  5
123
330
E0
100
AcDbEntity
  8
AM_9
100
AcDbPolyline
 90
       21
 70
     0
 43
0.0
 10
-48.73068455605327
 20
8.78999999935929
 10
-48.73110160138947
 20
8.788304014212098
 10
-48.74301869741605
 20
8.739764785431351
 10
-48.769549836373
 20
8.631167494080668
 10
-48.81105246080031
 20
8.459786953218368
 10
-48.86430198494507
 20
8.237147735853387
 10
-48.92967538635213
 20
7.959445574427678
 10
-49.0032407031199
 20
7.640938162165059
 10
-49.08487110440119
 20
7.279691363881533
 10
-49.16960334503258
 20
6.895515275302402
 10
-49.25756572433851
 20
6.486141815310777
 10
-49.34233561154807
 20
6.08076021516011
 10
-49.42540643635409
 20
5.672415949931147
 10
-49.49961604360647
 20
5.297684528060346
 10
-49.56791031258505
 20
4.943948595409124
 10
-49.62399509218046
 20
4.64667951817075
 10
-49.67114797468114
 20
4.391750216804263
 10
-49.70517969312491
 20
4.204783309696865
 10
-49.72843550216079
 20
4.07552873726214
 10
-49.73909854691143
 20
4.015849635498594
 10
-49.74014118759874
 20
4.010000000021275
  0
LINE
  5
126
330
E0
100
AcDbEntity
  8
AM_7
100
AcDbLine
 10
-4.397399999999999
 20
-23.125
 30
0.0
 11
4.39739999999999
 21
-23.125
 31
0.0
  0
LINE
  5
127
330
E0
100
AcDbEntity
  8
AM_7
100
AcDbLine
 10
-53.6675
 20
6.4
 30
0.0
 11
-33.4825
 21
6.4
 31
0.0
  0
ELLIPSE
  5
128
330
E0
100
AcDbEntity
  8
AM_4
100
AcDbEllipse
 10
30.84590293342453
 20
-23.125
 30
0.0
 11
-7.693231192243670E-16
 21
-4.187999999999999
 31
0.0
210
0.0
220
0.0
230
1.0
 40
0.4226182617406988
 41
5.848306438960956
 42
9.827963186733722
  0
LWPOLYLINE
  5
129
330
E0
100
AcDbEntity
  8
AM_4
100
AcDbPolyline
 90
       14
 70
     0
 43
0.0
 10
30.23410487363396
 20
-27.09613458512186
 10
30.12219537788484
 20
-26.94690334845157
 10
29.85620789727644
 20
-26.50521425455696
 10
29.62146187485422
 20
-25.98372412413877
 10
29.41566987187417
 20
-25.35928319124896
 10
29.26059297300792
 20
-24.67914948150456
 10
29.15887542618206
 20
-23.92222093847961
 10
29.12308332378158
 20
-23.14401410777732
 10
29.15747176188555
 20
-22.34392055627062
 10
29.26150420514506
 20
-21.56583609467128
 10
29.43232267695343
 20
-20.83187249206304
 10
29.66185167770747
 20
-20.16506330973516
 10
29.9334866448595
 20
-19.60285091636364
 10
30.23443468690436
 20
-19.15345395787243
  0
LWPOLYLINE
  5
12A
330
E0
100
AcDbEntity
  8
AM_4
100
AcDbPolyline
 90
        4
 70
     0
 43
0.0
 10
30.23443468690436
 20
-19.15345395787243
 10
30.24088811736627
 20
-19.14543558285319
 10
30.55305206053457
 20
-18.82795060635999
 10
30.75094924335335
 20
-18.69226296635751
  0
LWPOLYLINE
  5
12B
330
E0
100
AcDbEntity
  8
AM_4
100
AcDbPolyline
 90
       22
 70
     0
 43
0.0
 10
31.71608459945571
 20
-18.7974534854599
 10
31.79180437298769
 20
-18.87160301242778
 10
32.01872732942288
 20
-19.17824180455807
 10
32.2161471953629
 20
-19.57723491512117
 10
32.38916204886976
 20
-20.08193612588775
 10
32.52759691262757
 20
-20.65947128850105
 10
32.63663338045649
 20
-21.33485773508206
 10
32.70789470658794
 20
-22.05589255067659
 10
32.7424910307296
 20
-22.83830828620892
 10
32.73704380405692
 20
-23.62852924959347
 10
32.68993078401569
 20
-24.41925428941283
 10
32.600570218507
 20
-25.17299294831536
 10
32.46874608472584
 20
-25.86153241687946
 10
32.29364311138094
 20
-26.46920490363956
 10
32.08342448655003
 20
-26.95661581073708
 10
31.834727787814
 20
-27.33064229756592
 10
31.56901053763831
 20
-27.56256262611011
 10
31.27855865723055
 20
-27.67101396116874
 10
30.98803447218187
 20
-27.65360528678627
 10
30.69111011577805
 20
-27.5221303656193
 10
30.40057133642464
 20
-27.28351550979946
 10
30.23410487363396
 20
-27.09613458512186
  0
LINE
  5
12C
330
E0
100
AcDbEntity
  8
AM_4
100
AcDbLine
 10
34.40000000000001
 20
-32.924
 30
0.0
 11
34.40000000000001
 21
-19.11592080721372
 31
0.0
  0
LINE
  5
12D
330
E0
100
AcDbEntity
  8
AM_4
100
AcDbLine
 10
-34.40000000000001
 20
-19.11592080721372
 30
0.0
 11
-34.40000000000001
 21
-32.924
 31
0.0
  0
LINE
  5
12E
330
E0
100
AcDbEntity
  8
AM_4
100
AcDbLine
 10
-33.02400000000001
 20
22.09999999999998
 30
0.0
 11
33.02400000000001
 21
22.09999999999998
 31
0.0
  0
LINE
  5
12F
330
E0
100
AcDbEntity
  8
AM_4
100
AcDbLine
 10
-33.02400000000001
 20
22.09999999999998
 30
0.0
 11
-34.40000000000001
 21
20.72399999999998
 31
0.0
  0
LINE
  5
130
330
E0
100
AcDbEntity
  8
AM_4
100
AcDbLine
 10
34.40000000000001
 20
20.72399999999998
 30
0.0
 11
33.02400000000001
 21
22.09999999999998
 31
0.0
  0
LINE
  5
131
330
E0
100
AcDbEntity
  8
AM_4
100
AcDbLine
 10
-34.40000000000001
 20
20.72399999999998
 30
0.0
 11
34.40000000000001
 21
20.72399999999998
 31
0.0
  0
LINE
  5
132
330
E0
100
AcDbEntity
  8
AM_4
100
AcDbLine
 10
34.40000000000001
 20
19.11592080721372
 30
0.0
 11
34.40000000000001
 21
20.72399999999998
 31
0.0
  0
LINE
  5
133
330
E0
100
AcDbEntity
  8
AM_4
100
AcDbLine
 10
-34.40000000000001
 20
20.72399999999998
 30
0.0
 11
-34.40000000000001
 21
19.11592080721372
 31
0.0
  0
LINE
  5
134
330
E0
100
AcDbEntity
  8
AM_4
100
AcDbLine
 10
-33.02400000000001
 20
-34.3
 30
0.0
 11
33.02400000000001
 21
-34.3
 31
0.0
  0
LINE
  5
135
330
E0
100
AcDbEntity
  8
AM_4
100
AcDbLine
 10
-34.40000000000001
 20
-32.924
 30
0.0
 11
34.40000000000001
 21
-32.924
 31
0.0
  0
LINE
  5
136
330
E0
100
AcDbEntity
  8
AM_4
100
AcDbLine
 10
33.02400000000001
 20
-34.3
 30
0.0
 11
34.40000000000001
 21
-32.924
 31
0.0
  0
LINE
  5
137
330
E0
100
AcDbEntity
  8
AM_4
100
AcDbLine
 10
-34.40000000000001
 20
-32.924
 30
0.0
 11
-33.02400000000001
 21
-34.3
 31
0.0
  0
LWPOLYLINE
  5
138
330
E0
100
AcDbEntity
  8
AM_4
100
AcDbPolyline
 90
       39
 70
     0
 43
0.0
 10
-3.078850107564872
 20
-19.9603278457594
 10
-2.609241112369466
 20
-19.51503057151198
 10
-2.065621706152057
 20
-19.13696414984866
 10
-1.413894622370472
 20
-18.82736395473811
 10
-0.694559945911908
 20
-18.63206960135921
 10
-0.0146028626540541
 20
-18.57171470306649
 10
0.6865162635673575
 20
-18.63067012969688
 10
1.329801504238399
 20
-18.79709268104526
 10
1.953804994972948
 20
-19.07374207899776
 10
2.522219435253044
 20
-19.44580825726087
 10
3.037247135671194
 20
-19.91526484658305
 10
3.484005728859886
 20
-20.47644775393801
 10
3.845397720808597
 20
-21.11785682549782
 10
4.107909971136392
 20
-21.83013751935584
 10
4.256235075188436
 20
-22.59595333363391
 10
4.278470543355288
 20
-23.38244871270106
 10
4.167518065302937
 20
-24.18387858823086
 10
3.929064935800716
 20
-24.94040528684725
 10
3.554418211394641
 20
-25.66584744793829
 10
3.08323169892619
 20
-26.28485298176812
 10
2.491846125688137
 20
-26.82750610925577
 10
1.865303800908545
 20
-27.2231668687785
 10
1.154888690890638
 20
-27.50936590223742
 10
0.4741422642833172
 20
-27.65027237173126
 10
-0.2429050451112852
 20
-27.67096924801287
 10
-0.9028265612448602
 20
-27.57581850662637
 10
-1.555771689997665
 20
-27.36680637764181
 10
-2.152959714073138
 20
-27.06045701663191
 10
-2.707551128558564
 20
-26.65223126294007
 10
-3.200483305211306
 20
-26.15040192488353
 10
-3.618364808669614
 20
-25.56194470478895
 10
-3.948361663810026
 20
-24.89260869084258
 10
-4.172915400278068
 20
-24.15966876349715
 10
-4.278234766082992
 20
-23.38682180957491
 10
-4.255040430850888
 20
-22.58524459526792
 10
-4.101311532917792
 20
-21.80679341935399
 10
-3.810405893757949
 20
-21.04400968189646
 10
-3.4873107530704
 20
-20.48135812888007
 10
-3.078850107673327
 20
-19.96032784568829
  0
CIRCLE
  5
139
330
E0
100
AcDbEntity
  8
AM_4
100
AcDbCircle
 10
-0.0000000000000049
 20
-23.125
 30
0.0
 40
4.187999999999995
  0
ARC
  5
13B
330
E0
100
AcDbEntity
  8
AM_5
100
AcDbCircle
 10
-0.0000000000000033
 20
-24.29999999999999
 30
0.0
 40
5.000000000000004
100
AcDbArc
 50
75.0
 51
15.0
  0
ARC
  5
13C
330
E0
100
AcDbEntity
  8
AM_5
100
AcDbCircle
 10
0.0000000000000024
 20
-23.125
 30
0.0
 40
4.999999999999996
100
AcDbArc
 50
75.0
 51
14.99999999999994
  0
ENDBLK
  5
E3
330
E0
100
AcDbEntity
  8
0
100
AcDbBlockEnd
  0
BLOCK
  5
13F
330
13D
100
AcDbEntity
  8
0
100
AcDbBlockBegin
  2
4_053025H_0_in_053025_4
 70
     2
 10
0.0
 20
0.0
 30
0.0
  3
4_053025H_0_in_053025_4
  1

  0
ATTDEF
  5
141
330
13D
100
AcDbEntity
  8
AM_6
100
AcDbText
 10
125.65
 20
33.11
 30
0.0
 40
0.5
  1
P2B-SCH-E -housing-Metric
100
AcDbAttributeDefinition
  3

  2
NN
 70
     8
280
     0
  0
ATTDEF
  5
142
330
13D
100
AcDbEntity
  8
AM_6
100
AcDbText
 10
125.65
 20
32.61
 30
0.0
 40
0.5
  1
SC Pillow Block Bearings -(Normal Duty) -Expansion
100
AcDbAttributeDefinition
  3

  2
NT
 70
     8
280
     0
  0
ATTDEF
  5
143
330
13D
100
AcDbEntity
  8
AM_6
100
AcDbText
 10
125.65
 20
32.11
 30
0.0
 40
0.5
  1
053025H
100
AcDbAttributeDefinition
  3

  2
NB
 70
     8
280
     0
  0
ATTDEF
  5
144
330
13D
100
AcDbEntity
  8
AM_6
100
AcDbText
 10
125.65
 20
31.61
 30
0.0
 40
0.5
  1
$PN.H
100
AcDbAttributeDefinition
  3

  2
NBSYN
 70
     8
280
     0
  0
ATTDEF
  5
145
330
13D
100
AcDbEntity
  8
AM_6
100
AcDbText
 10
125.65
 20
31.11
 30
0.0
 40
0.5
  1
053025
100
AcDbAttributeDefinition
  3

  2
LINA
 70
     8
280
     0
  0
ATTDEF
  5
146
330
13D
100
AcDbEntity
  8
AM_6
100
AcDbText
 10
125.65
 20
30.61
 30
0.0
 40
0.5
  1
211
100
AcDbAttributeDefinition
  3

  2
SERIES
 70
     8
280
     0
  0
ATTDEF
  5
147
330
13D
100
AcDbEntity
  8
AM_6
100
AcDbText
 10
125.65
 20
30.11
 30
0.0
 40
0.5
  1
55
100
AcDbAttributeDefinition
  3

  2
SS
 70
     8
280
     0
  0
ATTDEF
  5
148
330
13D
100
AcDbEntity
  8
AM_6
100
AcDbText
 10
125.65
 20
29.61
 30
0.0
 40
0.5
  1
053025
100
AcDbAttributeDefinition
  3

  2
PN
 70
     8
280
     0
  0
ATTDEF
  5
149
330
13D
100
AcDbEntity
  8
AM_6
100
AcDbText
 10
125.65
 20
29.11
 30
0.0
 40
0.5
  1
P2B-SCH-55M-E
100
AcDbAttributeDefinition
  3

  2
DESCRIPTION
 70
     8
280
     0
  0
ATTDEF
  5
14A
330
13D
100
AcDbEntity
  8
AM_6
100
AcDbText
 10
125.65
 20
28.61
 30
0.0
 40
0.5
  1
5.9
100
AcDbAttributeDefinition
  3

  2
WEIGHT
 70
     8
280
     0
  0
ATTDEF
  5
14B
330
13D
100
AcDbEntity
  8
AM_6
100
AcDbText
 10
125.65
 20
28.11
 30
0.0
 40
0.5
  1
56.4
100
AcDbAttributeDefinition
  3

  2
A
 70
     8
280
     0
  0
ATTDEF
  5
14C
330
13D
100
AcDbEntity
  8
AM_6
100
AcDbText
 10
125.65
 20
27.61
 30
0.0
 40
0.5
  1
241.3
100
AcDbAttributeDefinition
  3

  2
B
 70
     8
280
     0
  0
ATTDEF
  5
14D
330
13D
100
AcDbEntity
  8
AM_6
100
AcDbText
 10
125.65
 20
27.11
 30
0.0
 40
0.5
  1
60.2
100
AcDbAttributeDefinition
  3

  2
C
 70
     8
280
     0
  0
ATTDEF
  5
14E
330
13D
100
AcDbEntity
  8
AM_6
100
AcDbText
 10
125.65
 20
26.61
 30
0.0
 40
0.5
  1
174.8
100
AcDbAttributeDefinition
  3

  2
DMIN
 70
     8
280
     0
  0
ATTDEF
  5
14F
330
13D
100
AcDbEntity
  8
AM_6
100
AcDbText
 10
125.65
 20
26.11
 30
0.0
 40
0.5
  1
201.7
100
AcDbAttributeDefinition
  3

  2
DMAX
 70
     8
280
     0
  0
ATTDEF
  5
150
330
13D
100
AcDbEntity
  8
AM_6
100
AcDbText
 10
125.65
 20
25.61
 30
0.0
 40
0.5
  1
M16
100
AcDbAttributeDefinition
  3

  2
F
 70
     8
280
     0
  0
ATTDEF
  5
151
330
13D
100
AcDbEntity
  8
AM_6
100
AcDbText
 10
125.65
 20
25.11
 30
0.0
 40
0.5
  1
30.7
100
AcDbAttributeDefinition
  3

  2
G
 70
     8
280
     0
  0
ATTDEF
  5
152
330
13D
100
AcDbEntity
  8
AM_6
100
AcDbText
 10
125.65
 20
24.61
 30
0.0
 40
0.5
  1
22.4
100
AcDbAttributeDefinition
  3

  2
H
 70
     8
280
     0
  0
ATTDEF
  5
153
330
13D
100
AcDbEntity
  8
AM_6
100
AcDbText
 10
125.65
 20
24.11
 30
0.0
 40
0.5
  1
137.2
100
AcDbAttributeDefinition
  3

  2
J
 70
     8
280
     0
  0
ATTDEF
  5
154
330
13D
100
AcDbEntity
  8
AM_6
100
AcDbText
 10
125.65
 20
23.61
 30
0.0
 40
0.5
  1
68.8
100
AcDbAttributeDefinition
  3

  2
L
 70
     8
280
     0
  0
ATTDEF
  5
155
330
13D
100
AcDbEntity
  8
AM_6
100
AcDbText
 10
125.65
 20
23.11
 30
0.0
 40
0.5
  1
69.9
100
AcDbAttributeDefinition
  3

  2
M
 70
     8
280
     0
  0
ATTDEF
  5
156
330
13D
100
AcDbEntity
  8
AM_6
100
AcDbText
 10
125.65
 20
22.61
 30
0.0
 40
0.5
  1
22.1
100
AcDbAttributeDefinition
  3

  2
R
 70
     8
280
     0
  0
ATTDEF
  5
157
330
13D
100
AcDbEntity
  8
AM_6
100
AcDbText
 10
125.65
 20
22.11
 30
0.0
 40
0.5
  1
34.3
100
AcDbAttributeDefinition
  3

  2
S
 70
     8
280
     0
  0
ATTDEF
  5
158
330
13D
100
AcDbEntity
  8
AM_6
100
AcDbText
 10
125.65
 20
21.61
 30
0.0
 40
0.5
  1
5.6
100
AcDbAttributeDefinition
  3

  2
T
 70
     8
280
     0
  0
ATTDEF
  5
159
330
13D
100
AcDbEntity
  8
AM_6
100
AcDbText
 10
125.65
 20
21.11
 30
0.0
 40
0.5
  1
108.0
100
AcDbAttributeDefinition
  3

  2
U
 70
     8
280
     0
  0
ATTDEF
  5
15A
330
13D
100
AcDbEntity
  8
AM_6
100
AcDbText
 10
125.65
 20
20.61
 30
0.0
 40
0.5
  1
215.9
100
AcDbAttributeDefinition
  3

  2
V
 70
     8
280
     0
  0
ATTDEF
  5
15B
330
13D
100
AcDbEntity
  8
AM_6
100
AcDbText
 10
125.65
 20
20.11
 30
0.0
 40
0.5
  1
22.4
100
AcDbAttributeDefinition
  3

  2
W
 70
     8
280
     0
  0
ATTDEF
  5
15C
330
13D
100
AcDbEntity
  8
AM_6
100
AcDbText
 10
125.65
 20
19.61
 30
0.0
 40
0.5
  1
3.0
100
AcDbAttributeDefinition
  3

  2
X
 70
     8
280
     0
  0
ATTDEF
  5
15D
330
13D
100
AcDbEntity
  8
AM_6
100
AcDbText
 10
125.65
 20
19.11
 30
0.0
 40
0.5
  1
5630
100
AcDbAttributeDefinition
  3

  2
CAPS
 70
     8
280
     0
  0
ATTDEF
  5
15E
330
13D
100
AcDbEntity
  8
AM_6
100
AcDbText
 10
125.65
 20
18.61
 30
0.0
 40
0.5
  1
9975
100
AcDbAttributeDefinition
  3

  2
CAPD
 70
     8
280
     0
  0
ATTDEF
  5
15F
330
13D
100
AcDbEntity
  8
AM_6
100
AcDbText
 10
125.65
 20
18.11
 30
0.0
 40
0.5
  1
baldor
100
AcDbAttributeDefinition
  3

  2
COMPANY
 70
     8
280
     0
  0
LINE
  5
160
330
13D
100
AcDbEntity
  8
AM_9
100
AcDbLine
 10
-52.74999999999999
 20
6.617272727272731
 30
0.0
 11
-52.74999999999999
 21
26.94666680999999
 31
0.0
  0
LINE
  5
161
330
13D
100
AcDbEntity
  8
AM_9
100
AcDbLine
 10
-52.74999999999999
 20
-26.94666680999999
 30
0.0
 11
-52.74999999999999
 21
6.182727272727272
 31
0.0
  0
LINE
  5
162
330
13D
100
AcDbEntity
  8
AM_9
100
AcDbLine
 10
-50.50999999999999
 20
-24.14933463294273
 30
0.0
 11
-50.50999999999999
 21
24.14933463294272
 31
0.0
  0
LINE
  5
163
330
13D
100
AcDbEntity
  8
AM_9
100
AcDbLine
 10
52.74999999999999
 20
-26.94666681
 30
0.0
 11
52.74999999999999
 21
26.94666680999989
 31
0.0
  0
LINE
  5
164
330
13D
100
AcDbEntity
  8
AM_9
100
AcDbLine
 10
50.51000000000001
 20
-24.14933463294274
 30
0.0
 11
50.51000000000001
 21
24.14933463294273
 31
0.0
  0
LINE
  5
165
330
13D
100
AcDbEntity
  8
AM_9
100
AcDbLine
 10
34.40000000000001
 20
-24.08000000000001
 30
0.0
 11
-34.40000000000001
 21
-24.08
 31
0.0
  0
LINE
  5
166
330
13D
100
AcDbEntity
  8
AM_9
100
AcDbLine
 10
50.0
 20
-23.87286585365854
 30
0.0
 11
50.0
 21
23.87286585365853
 31
0.0
  0
LINE
  5
167
330
13D
100
AcDbEntity
  8
AM_9
100
AcDbLine
 10
-50.0
 20
23.87286585365853
 30
0.0
 11
-50.0
 21
-23.87286585365854
 31
0.0
  0
ELLIPSE
  5
168
330
13D
100
AcDbEntity
  8
AM_9
100
AcDbEllipse
 10
47.58828637426521
 20
-0.0000000013416095
 30
0.0
 11
-2.332952152622160E-15
 21
-12.70000000134162
 31
0.0
210
0.0
220
0.0
230
1.0
 40
0.7071067811864039
 41
0.0
 42
3.141592653589793
  0
ELLIPSE
  5
169
330
13D
100
AcDbEntity
  8
AM_9
100
AcDbEllipse
 10
49.3843375980685
 20
0.000000000000016
 30
0.0
 11
-1.866361721900559E-15
 21
-10.15999999999996
 31
0.0
210
0.0
220
0.0
230
1.0
 40
0.7071067811865477
 41
1.360577706637033
 42
1.780991481898369
  0
LINE
  5
16A
330
13D
100
AcDbEntity
  8
AM_9
100
AcDbLine
 10
47.71641888499288
 20
12.69870369010142
 30
0.0
 11
47.58828637385462
 21
12.70000000000002
 31
0.0
  0
LWPOLYLINE
  5
16B
330
13D
100
AcDbEntity
  8
AM_9
100
AcDbPolyline
 90
       29
 70
     0
 43
0.0
 10
47.58828637385463
 20
-12.7
 10
48.54206176597911
 20
-12.62668669029718
 10
49.49016420540892
 20
-12.39857117579855
 10
50.39837580904118
 20
-12.01917522263472
 10
51.25171745036909
 20
-11.49587157666395
 10
52.04815255789713
 20
-10.82772435183034
 10
52.77947459008737
 20
-10.02556750311087
 10
53.43583691155366
 20
-9.104039044278123
 10
54.02222351991552
 20
-8.052924810870097
 10
54.52711641277141
 20
-6.896625623390658
 10
54.94452001251801
 20
-5.65633626621967
 10
55.27300855010056
 20
-4.33997196897286
 10
55.51214174647806
 20
-2.962931929673108
 10
55.65914086249824
 20
-1.551671490939249
 10
55.7126300778156
 20
-0.1416460704457734
 10
55.67641946864046
 20
1.274697770024696
 10
55.55092186039143
 20
2.670302930070175
 10
55.33761870011408
 20
4.020166313019236
 10
55.03713319510464
 20
5.324245011033987
 10
54.65278552219292
 20
6.558965072175832
 10
54.17841895569824
 20
7.725434378748743
 10
53.62011648455706
 20
8.799558303191523
 10
52.98453359285168
 20
9.762087180448846
 10
52.26255690783282
 20
10.61337543465047
 10
51.46650188677896
 20
11.33318136048008
 10
50.60808541472956
 20
11.90764386335383
 10
49.69660775162807
 20
12.32692497480181
 10
48.73540980030994
 20
12.5922340545261
 10
47.74552931621611
 20
12.69804651270971
  0
LINE
  5
16C
330
13D
100
AcDbEntity
  8
AM_7
100
AcDbLine
 10
-109.525
 20
-22.4
 30
0.0
 11
-106.375
 21
-22.4
 31
0.0
  0
LINE
  5
16D
330
13D
100
AcDbEntity
  8
AM_7
100
AcDbLine
 10
-107.95
 20
-23.975
 30
0.0
 11
-107.95
 21
-20.825
 31
0.0
  0
LINE
  5
16E
330
13D
100
AcDbEntity
  8
AM_7
100
AcDbLine
 10
106.375
 20
-22.4
 30
0.0
 11
109.525
 21
-22.4
 31
0.0
  0
LINE
  5
16F
330
13D
100
AcDbEntity
  8
AM_7
100
AcDbLine
 10
107.95
 20
-23.975
 30
0.0
 11
107.95
 21
-20.825
 31
0.0
  0
LINE
  5
170
330
13D
100
AcDbEntity
  8
AM_7
100
AcDbLine
 10
0.0
 20
33.11
 30
0.0
 11
0.0
 21
-37.12
 31
0.0
  0
LINE
  5
171
330
13D
100
AcDbEntity
  8
AM_7
100
AcDbLine
 10
78.34375
 20
-0.0000000000000027
 30
0.0
 11
109.90625
 21
-0.0000000000000036
 31
0.0
  0
LINE
  5
172
330
13D
100
AcDbEntity
  8
AM_7
100
AcDbLine
 10
100.85
 20
-9.056250000000064
 30
0.0
 11
100.85
 21
9.056250000000057
 31
0.0
  0
LINE
  5
173
330
13D
100
AcDbEntity
  8
AM_7
100
AcDbLine
 10
-109.90625
 20
0.0000000000000107
 30
0.0
 11
-78.34375
 21
0.0000000000000089
 31
0.0
  0
LINE
  5
174
330
13D
100
AcDbEntity
  8
AM_7
100
AcDbLine
 10
-100.85
 20
-9.05625000000005
 30
0.0
 11
-100.85
 21
9.056250000000071
 31
0.0
  0
LINE
  5
175
330
13D
100
AcDbEntity
  8
AM_7
100
AcDbLine
 10
87.40000000000005
 20
-9.056250000000048
 30
0.0
 11
87.40000000000005
 21
9.056250000000041
 31
0.0
  0
LINE
  5
176
330
13D
100
AcDbEntity
  8
AM_7
100
AcDbLine
 10
-87.40000000000005
 20
-9.056250000000036
 30
0.0
 11
-87.40000000000005
 21
9.056250000000054
 31
0.0
  0
LINE
  5
177
330
13D
100
AcDbEntity
  8
AM_4
100
AcDbLine
 10
-120.65
 20
-24.07999999999998
 30
0.0
 11
-114.63
 21
-30.09999999999999
 31
0.0
  0
LINE
  5
178
330
13D
100
AcDbEntity
  8
AM_4
100
AcDbLine
 10
-114.63
 20
30.1
 30
0.0
 11
-120.65
 21
24.07999999999999
 31
0.0
  0
LINE
  5
179
330
13D
100
AcDbEntity
  8
AM_4
100
AcDbLine
 10
-120.65
 20
-24.07999999999998
 30
0.0
 11
-120.65
 21
24.08
 31
0.0
  0
LINE
  5
17A
330
13D
100
AcDbEntity
  8
AM_4
100
AcDbLine
 10
-55.61666680999999
 20
30.1
 30
0.0
 11
-114.63
 21
30.1
 31
0.0
  0
LINE
  5
17B
330
13D
100
AcDbEntity
  8
AM_4
100
AcDbLine
 10
-55.61666680999999
 20
-30.1
 30
0.0
 11
-114.63
 21
-30.09999999999999
 31
0.0
  0
LINE
  5
17C
330
13D
100
AcDbEntity
  8
AM_4
100
AcDbLine
 10
-87.40000000000002
 20
8.625000000000014
 30
0.0
 11
-100.85
 21
8.625000000000018
 31
0.0
  0
ARC
  5
17D
330
13D
100
AcDbEntity
  8
AM_4
100
AcDbCircle
 10
-87.4
 20
0.0000000000000036
 30
0.0
 40
8.625000000000004
100
AcDbArc
 50
270.0
 51
90.0
  0
LINE
  5
17E
330
13D
100
AcDbEntity
  8
AM_4
100
AcDbLine
 10
-100.85
 20
-8.624999999999996
 30
0.0
 11
-87.4
 21
-8.625
 31
0.0
  0
ARC
  5
17F
330
13D
100
AcDbEntity
  8
AM_4
100
AcDbCircle
 10
-100.85
 20
0.000000000000008
 30
0.0
 40
8.62500000000001
100
AcDbArc
 50
90.0
 51
270.0
  0
LINE
  5
180
330
13D
100
AcDbEntity
  8
AM_4
100
AcDbLine
 10
-116.17
 20
-28.55999999999998
 30
0.0
 11
-116.17
 21
28.56
 31
0.0
  0
CIRCLE
  5
181
330
13D
100
AcDbEntity
  8
AM_4
100
AcDbCircle
 10
-107.95
 20
-22.4
 30
0.0
 40
1.5
  0
LINE
  5
182
330
13D
100
AcDbEntity
  8
AM_4
100
AcDbLine
 10
114.63
 20
-30.1
 30
0.0
 11
120.65
 21
-24.08000000000003
 31
0.0
  0
LINE
  5
183
330
13D
100
AcDbEntity
  8
AM_4
100
AcDbLine
 10
120.65
 20
24.08
 30
0.0
 11
114.63
 21
30.1
 31
0.0
  0
LINE
  5
184
330
13D
100
AcDbEntity
  8
AM_4
100
AcDbLine
 10
114.63
 20
30.1
 30
0.0
 11
55.61666680999999
 21
30.1
 31
0.0
  0
LINE
  5
185
330
13D
100
AcDbEntity
  8
AM_4
100
AcDbLine
 10
100.85
 20
8.625000000000004
 30
0.0
 11
87.40000000000002
 21
8.625000000000004
 31
0.0
  0
ARC
  5
186
330
13D
100
AcDbEntity
  8
AM_4
100
AcDbCircle
 10
100.85
 20
-0.0000000000000009
 30
0.0
 40
8.62500000000001
100
AcDbArc
 50
270.0
 51
90.0
  0
LINE
  5
187
330
13D
100
AcDbEntity
  8
AM_4
100
AcDbLine
 10
87.40000000000002
 20
-8.62500000000001
 30
0.0
 11
100.85
 21
-8.62500000000001
 31
0.0
  0
ARC
  5
188
330
13D
100
AcDbEntity
  8
AM_4
100
AcDbCircle
 10
87.4
 20
-0.0000000000000062
 30
0.0
 40
8.62500000000001
100
AcDbArc
 50
90.0
 51
270.0
  0
LINE
  5
189
330
13D
100
AcDbEntity
  8
AM_4
100
AcDbLine
 10
114.63
 20
-30.1
 30
0.0
 11
55.61666681
 21
-30.10000000000002
 31
0.0
  0
CIRCLE
  5
18A
330
13D
100
AcDbEntity
  8
AM_4
100
AcDbCircle
 10
107.95
 20
-22.4
 30
0.0
 40
1.5
  0
LINE
  5
18B
330
13D
100
AcDbEntity
  8
AM_4
100
AcDbLine
 10
120.65
 20
-24.08000000000003
 30
0.0
 11
120.65
 21
24.08
 31
0.0
  0
LINE
  5
18C
330
13D
100
AcDbEntity
  8
AM_4
100
AcDbLine
 10
116.17
 20
-28.56000000000005
 30
0.0
 11
116.17
 21
28.56000000000003
 31
0.0
  0
LINE
  5
18D
330
13D
100
AcDbEntity
  8
AM_4
100
AcDbLine
 10
-97.0591500731681
 20
16.00000000000001
 30
0.0
 11
-87.4
 21
16.0
 31
0.0
  0
LINE
  5
18E
330
13D
100
AcDbEntity
  8
AM_4
100
AcDbLine
 10
-97.0591500731681
 20
16.00000000000001
 30
0.0
 11
-97.0591500731681
 21
30.1
 31
0.0
  0
LINE
  5
18F
330
13D
100
AcDbEntity
  8
AM_4
100
AcDbLine
 10
-87.4
 20
-16.0
 30
0.0
 11
-97.0591500731681
 21
-15.99999999999999
 31
0.0
  0
LINE
  5
190
330
13D
100
AcDbEntity
  8
AM_4
100
AcDbLine
 10
-97.0591500731681
 20
-30.1
 30
0.0
 11
-97.0591500731681
 21
-15.99999999999999
 31
0.0
  0
LINE
  5
191
330
13D
100
AcDbEntity
  8
AM_4
100
AcDbLine
 10
97.05915007316808
 20
-16.0
 30
0.0
 11
87.4
 21
-16.0
 31
0.0
  0
LINE
  5
192
330
13D
100
AcDbEntity
  8
AM_4
100
AcDbLine
 10
97.05915007316817
 20
-30.1
 30
0.0
 11
97.05915007316808
 21
-16.0
 31
0.0
  0
LINE
  5
193
330
13D
100
AcDbEntity
  8
AM_4
100
AcDbLine
 10
87.4
 20
16.0
 30
0.0
 11
97.05915007316808
 21
16.0
 31
0.0
  0
LINE
  5
194
330
13D
100
AcDbEntity
  8
AM_4
100
AcDbLine
 10
97.05915007316808
 20
16.0
 30
0.0
 11
97.05915007316815
 21
30.1
 31
0.0
  0
LINE
  5
195
330
13D
100
AcDbEntity
  8
AM_4
100
AcDbLine
 10
-92.95243377523565
 20
-29.74739081362932
 30
0.0
 11
-92.95243377523565
 21
-15.99999999999999
 31
0.0
  0
LINE
  5
196
330
13D
100
AcDbEntity
  8
AM_4
100
AcDbLine
 10
-92.95243377523565
 20
16.00000000000001
 30
0.0
 11
-92.95243377523565
 21
29.74739081362931
 31
0.0
  0
LWPOLYLINE
  5
197
330
13D
100
AcDbEntity
  8
AM_4
100
AcDbPolyline
 90
       37
 70
     0
 43
0.0
 10
-87.4
 20
-16.0
 10
-86.00550811603748
 20
-15.93911516946793
 10
-84.62162915732912
 20
-15.75692404819533
 10
-83.25889527835969
 20
-15.45481322062509
 10
-81.92767770678931
 20
-15.03508193257453
 10
-80.63810781214882
 20
-14.5009245925864
 10
-79.4
 20
-13.85640646055102
 10
-78.22277701838327
 20
-13.10643270862387
 10
-77.11539824501538
 20
-12.25671108990365
 10
-76.08629150101525
 20
-11.31370849898476
 10
-75.14328891009636
 20
-10.28460175498464
 10
-74.29356729137615
 20
-9.177222981616747
 10
-73.54359353944899
 20
-8.00000000000001
 10
-72.8990754074136
 20
-6.761892187851204
 10
-72.36491806742548
 20
-5.472322293210715
 10
-71.94518677937492
 20
-4.141104721640349
 10
-71.64307595180468
 20
-2.778370842670904
 10
-71.46088483053208
 20
-1.394491883962551
 10
-71.4
 20
-0.0000000000000214
 10
-71.46088483053207
 20
1.394491883962508
 10
-71.64307595180466
 20
2.778370842670862
 10
-71.9451867793749
 20
4.141104721640308
 10
-72.36491806742545
 20
5.472322293210675
 10
-72.89907540741358
 20
6.761892187851167
 10
-73.54359353944896
 20
7.999999999999976
 10
-74.2935672913761
 20
9.177222981616714
 10
-75.14328891009632
 20
10.28460175498461
 10
-76.08629150101521
 20
11.31370849898474
 10
-77.11539824501534
 20
12.25671108990363
 10
-78.22277701838321
 20
13.10643270862385
 10
-79.39999999999996
 20
13.85640646055101
 10
-80.63810781214876
 20
14.50092459258639
 10
-81.92767770678925
 20
15.03508193257453
 10
-83.25889527835962
 20
15.45481322062509
 10
-84.62162915732907
 20
15.75692404819533
 10
-86.0055081160374
 20
15.93911516946793
 10
-87.39999999999995
 20
16.00000000000001
  0
LINE
  5
198
330
13D
100
AcDbEntity
  8
AM_4
100
AcDbLine
 10
92.95243377523563
 20
-29.74739081362931
 30
0.0
 11
92.95243377523565
 21
-16.0
 31
0.0
  0
LWPOLYLINE
  5
199
330
13D
100
AcDbEntity
  8
AM_4
100
AcDbPolyline
 90
       37
 70
     0
 43
0.0
 10
87.4
 20
16.0
 10
86.00550811603748
 20
15.93911516946793
 10
84.62162915732912
 20
15.75692404819534
 10
83.25889527835969
 20
15.4548132206251
 10
81.92767770678931
 20
15.03508193257454
 10
80.63810781214882
 20
14.50092459258641
 10
79.4
 20
13.85640646055103
 10
78.22277701838327
 20
13.10643270862388
 10
77.11539824501538
 20
12.25671108990366
 10
76.08629150101525
 20
11.31370849898478
 10
75.14328891009636
 20
10.28460175498465
 10
74.29356729137615
 20
9.177222981616756
 10
73.543593539449
 20
8.000000000000021
 10
72.8990754074136
 20
6.761892187851215
 10
72.36491806742548
 20
5.472322293210726
 10
71.94518677937492
 20
4.141104721640359
 10
71.64307595180468
 20
2.778370842670915
 10
71.4608848305321
 20
1.394491883962562
 10
71.4
 20
0.0000000000000324
 10
71.46088483053208
 20
-1.394491883962497
 10
71.64307595180466
 20
-2.778370842670851
 10
71.94518677937491
 20
-4.141104721640297
 10
72.36491806742545
 20
-5.472322293210664
 10
72.89907540741359
 20
-6.761892187851156
 10
73.54359353944896
 20
-7.999999999999965
 10
74.2935672913761
 20
-9.177222981616703
 10
75.14328891009633
 20
-10.2846017549846
 10
76.08629150101521
 20
-11.31370849898473
 10
77.11539824501534
 20
-12.25671108990362
 10
78.22277701838323
 20
-13.10643270862384
 10
79.39999999999996
 20
-13.85640646055099
 10
80.63810781214876
 20
-14.50092459258638
 10
81.92767770678925
 20
-15.03508193257452
 10
83.25889527835963
 20
-15.45481322062508
 10
84.62162915732907
 20
-15.75692404819532
 10
86.0055081160374
 20
-15.93911516946793
 10
87.39999999999995
 20
-16.0
  0
LINE
  5
19A
330
13D
100
AcDbEntity
  8
AM_4
100
AcDbLine
 10
92.95243377523565
 20
16.0
 30
0.0
 11
92.95243377523563
 21
29.74739081362931
 31
0.0
  0
LINE
  5
19B
330
13D
100
AcDbEntity
  8
AM_4
100
AcDbLine
 10
-34.40000000000001
 20
-24.08
 30
0.0
 11
-49.88333318999999
 21
-24.08
 31
0.0
  0
LINE
  5
19C
330
13D
100
AcDbEntity
  8
AM_4
100
AcDbLine
 10
49.88333318999999
 20
-24.08000000000002
 30
0.0
 11
34.40000000000001
 21
-24.08000000000001
 31
0.0
  0
LINE
  5
19D
330
13D
100
AcDbEntity
  8
AM_4
100
AcDbLine
 10
49.88333318999999
 20
-24.08000000000001
 30
0.0
 11
49.97467747501093
 21
-24.08145567970762
 31
0.0
  0
LWPOLYLINE
  5
19E
330
13D
100
AcDbEntity
  8
AM_4
100
AcDbPolyline
 90
        3
 70
     0
 43
0.0
 10
-49.97467747501094
 20
-24.08145567970761
 10
-49.94573685823386
 20
-24.08067930448876
 10
-49.88333318999999
 20
-24.08
  0
LINE
  5
19F
330
13D
100
AcDbEntity
  8
AM_4
100
AcDbLine
 10
-49.88333318999999
 20
24.08000000000001
 30
0.0
 11
49.88333318999999
 21
24.08000000000001
 31
0.0
  0
LINE
  5
1A0
330
13D
100
AcDbEntity
  8
AM_4
100
AcDbLine
 10
-49.88333318999999
 20
24.08
 30
0.0
 11
-49.97467747501094
 21
24.08145567970761
 31
0.0
  0
LWPOLYLINE
  5
1A1
330
13D
100
AcDbEntity
  8
AM_4
100
AcDbPolyline
 90
        3
 70
     0
 43
0.0
 10
49.97467747501093
 20
24.08145567970761
 10
49.94573685823386
 20
24.08067930448876
 10
49.88333318999999
 20
24.08000000000001
  0
LWPOLYLINE
  5
1A2
330
13D
100
AcDbEntity
  8
AM_4
100
AcDbPolyline
 90
       37
 70
     0
 43
0.0
 10
50.0
 20
-23.87286585365854
 10
49.80973490458728
 20
-23.30157058869676
 10
49.24038765061041
 20
-22.73462322565884
 10
48.29629131445343
 20
-22.1763385763097
 10
46.98463103929543
 20
-21.63096552393236
 10
45.31538935183252
 20
-21.10265468676067
 10
43.30127018922195
 20
-20.59542682926829
 10
40.95760221444962
 20
-20.11314226172333
 10
38.30222215594894
 20
-19.65947146089616
 10
35.35533905932742
 20
-19.23786713551501
 10
32.13938048432701
 20
-18.85153794906768
 10
28.67882181755236
 20
-18.50342409993497
 10
25.00000000000006
 20
-18.19617494470566
 10
21.13091308703504
 20
-17.93212883497318
 10
17.10100716628351
 20
-17.71329532106798
 10
12.94095225512612
 20
-17.54133985816617
 10
8.682408883346607
 20
-17.41757113116998
 10
4.357787137383005
 20
-17.34293109482545
 10
0.0000000000001011
 20
-17.31798780487805
 10
-4.357787137382803
 20
-17.34293109482545
 10
-8.682408883346408
 20
-17.41757113116997
 10
-12.94095225512593
 20
-17.54133985816616
 10
-17.10100716628332
 20
-17.71329532106797
 10
-21.13091308703486
 20
-17.93212883497317
 10
-24.99999999999989
 20
-18.19617494470565
 10
-28.67882181755219
 20
-18.50342409993495
 10
-32.13938048432686
 20
-18.85153794906766
 10
-35.35533905932727
 20
-19.23786713551499
 10
-38.3022221559488
 20
-19.65947146089615
 10
-40.9576022144495
 20
-20.11314226172331
 10
-43.30127018922185
 20
-20.59542682926828
 10
-45.31538935183244
 20
-21.10265468676064
 10
-46.98463103929537
 20
-21.63096552393233
 10
-48.29629131445337
 20
-22.17633857630967
 10
-49.24038765061037
 20
-22.73462322565882
 10
-49.80973490458726
 20
-23.30157058869673
 10
-50.0
 20
-23.87286585365852
  0
LINE
  5
1A3
330
13D
100
AcDbEntity
  8
AM_4
100
AcDbLine
 10
-50.0
 20
-23.87286585365854
 30
0.0
 11
-49.97467747501094
 21
-24.08145567970761
 31
0.0
  0
LWPOLYLINE
  5
1A4
330
13D
100
AcDbEntity
  8
AM_4
100
AcDbPolyline
 90
       37
 70
     0
 43
0.0
 10
-50.0
 20
23.87286585365853
 10
-49.80973490458728
 20
23.30157058869675
 10
-49.24038765061041
 20
22.73462322565884
 10
-48.29629131445343
 20
22.1763385763097
 10
-46.98463103929543
 20
21.63096552393235
 10
-45.31538935183251
 20
21.10265468676066
 10
-43.30127018922195
 20
20.59542682926829
 10
-40.95760221444962
 20
20.11314226172333
 10
-38.30222215594893
 20
19.65947146089616
 10
-35.35533905932741
 20
19.23786713551501
 10
-32.13938048432701
 20
18.85153794906767
 10
-28.67882181755235
 20
18.50342409993496
 10
-25.00000000000006
 20
18.19617494470566
 10
-21.13091308703504
 20
17.93212883497317
 10
-17.10100716628351
 20
17.71329532106797
 10
-12.94095225512612
 20
17.54133985816616
 10
-8.682408883346602
 20
17.41757113116997
 10
-4.357787137382998
 20
17.34293109482544
 10
-0.0000000000000949
 20
17.31798780487804
 10
4.357787137382809
 20
17.34293109482544
 10
8.682408883346413
 20
17.41757113116997
 10
12.94095225512593
 20
17.54133985816616
 10
17.10100716628333
 20
17.71329532106796
 10
21.13091308703487
 20
17.93212883497317
 10
24.99999999999989
 20
18.19617494470564
 10
28.6788218175522
 20
18.50342409993495
 10
32.13938048432686
 20
18.85153794906766
 10
35.35533905932728
 20
19.23786713551499
 10
38.3022221559488
 20
19.65947146089614
 10
40.9576022144495
 20
20.1131422617233
 10
43.30127018922185
 20
20.59542682926827
 10
45.31538935183244
 20
21.10265468676063
 10
46.98463103929537
 20
21.63096552393233
 10
48.29629131445337
 20
22.17633857630967
 10
49.24038765061037
 20
22.73462322565882
 10
49.80973490458726
 20
23.30157058869672
 10
50.0
 20
23.87286585365851
  0
LINE
  5
1A5
330
13D
100
AcDbEntity
  8
AM_4
100
AcDbLine
 10
50.0
 20
23.87286585365853
 30
0.0
 11
49.97467747501093
 21
24.08145567970761
 31
0.0
  0
ELLIPSE
  5
1A6
330
13D
100
AcDbEntity
  8
AM_4
100
AcDbEllipse
 10
47.58828637385464
 20
0.0000000000000204
 30
0.0
 11
-2.332952152375710E-15
 21
-12.70000000000001
 31
0.0
210
0.0
220
0.0
230
1.0
 40
0.7071067811865481
 41
3.141592653589793
 42
6.283185307179586
  0
ELLIPSE
  5
1A7
330
13D
100
AcDbEntity
  8
AM_4
100
AcDbEllipse
 10
49.38433759806847
 20
-0.000000000000032
 30
0.0
 11
-1.866361721900572E-15
 21
-10.16000000000003
 31
0.0
210
0.0
220
0.0
230
1.0
 40
0.7071067811865478
 41
1.780991481898372
 42
7.643763013816625
  0
LWPOLYLINE
  5
1A8
330
13D
100
AcDbEntity
  8
AM_4
100
AcDbPolyline
 90
       54
 70
     0
 43
0.0
 10
47.59036320237779
 20
-12.69999971698053
 10
47.623992998091
 20
-12.69991634070339
 10
48.21876868914393
 20
-12.67388698074661
 10
48.80980593852551
 20
-12.6016700127039
 10
49.39510630947211
 20
-12.4837465643039
 10
49.97290463422712
 20
-12.32060540411282
 10
50.54147133077011
 20
-12.11274410050325
 10
51.09907873507539
 20
-11.86068504480254
 10
51.64396945327655
 20
-11.56500719104323
 10
52.17433166417401
 20
-11.22639149401066
 10
52.68828679604618
 20
-10.84567510791663
 10
53.18389410422415
 20
-10.42390638799376
 10
53.65917404142686
 20
-9.962390829894037
 10
54.11214832296997
 20
-9.462718528543919
 10
54.54089043695268
 20
-8.926767088755076
 10
54.9435776483312
 20
-8.356679435254414
 10
55.31853548712482
 20
-7.754821723403427
 10
55.66426831521702
 20
-7.123730383414089
 10
55.97947364036543
 20
-6.466058047776571
 10
56.26304171911924
 20
-5.784526036224826
 10
56.5140393377586
 20
-5.081903094580218
 10
56.73168780448066
 20
-4.361013046538902
 10
56.9153876111458
 20
-3.62457804568156
 10
57.0646593604996
 20
-2.875306587592965
 10
57.17912917336851
 20
-2.115892436447333
 10
57.25851721360358
 20
-1.349015702836088
 10
57.30262911356733
 20
-0.5773446826791492
 10
57.31134983230761
 20
0.1964622266257812
 10
57.28463947768941
 20
0.9697547669956136
 10
57.22253457867572
 20
1.739852275442131
 10
57.12514581977137
 20
2.504107237240305
 10
56.99265439961533
 20
3.259891162841565
 10
56.82531352532057
 20
4.004579195105408
 10
56.62345209053264
 20
4.735545899014985
 10
56.387481444911
 20
5.450160038186958
 10
56.1179061959987
 20
6.145778734563461
 10
55.8153400099331
 20
6.81974200188044
 10
55.4805470503194
 20
7.469333270449762
 10
55.11448728018553
 20
8.091774213432124
 10
54.71829503155998
 20
8.684339472004973
 10
54.2933319968791
 20
9.244329465311122
 10
53.84121122099055
 20
9.769113179082012
 10
53.3638076957793
 20
10.25618611587958
 10
52.86324909883624
 20
10.70323851755977
 10
52.3418832569064
 20
11.10822453546444
 10
51.80222419042639
 20
11.469420275328
 10
51.24688427007592
 20
11.7854595196303
 10
50.67850360575034
 20
12.05534072407488
 10
50.0996876397346
 20
12.27840579649662
 10
49.51296034277456
 20
12.4542972705209
 10
48.92073541724243
 20
12.5829035520526
 10
48.32530377879833
 20
12.66430158078423
 10
47.72883357826456
 20
12.69870376398928
 10
47.58427315736902
 20
12.69999894318194
  0
LINE
  5
1A9
330
13D
100
AcDbEntity
  8
AM_4
100
AcDbLine
 10
52.74999999999999
 20
-26.94666680999999
 30
0.0
 11
52.74999999999999
 21
-27.23333318999999
 31
0.0
  0
LWPOLYLINE
  5
1AA
330
13D
100
AcDbEntity
  8
AM_4
100
AcDbPolyline
 90
       19
 70
     0
 43
0.0
 10
52.74999999999999
 20
-27.23333318999996
 10
52.76090853268241
 20
-27.48317966503557
 10
52.79355111020921
 20
-27.73112465753474
 10
52.84767930285528
 20
-27.97528115639126
 10
52.9228811623911
 20
-28.21379098322311
 10
53.01858435725746
 20
-28.44483893423193
 10
53.13406052835428
 20
-28.66666659499998
 10
53.26843083229306
 20
-28.8775857230856
 10
53.42067262992585
 20
-29.07599109656762
 10
53.58962726924656
 20
-29.26037273075339
 10
53.77400890343232
 20
-29.42932737007409
 10
53.97241427691434
 20
-29.58156916770689
 10
54.18333340499996
 20
-29.71593947164569
 10
54.40516106576801
 20
-29.83141564274251
 10
54.63620901677682
 20
-29.92711883760888
 10
54.87471884360866
 20
-30.0023206971447
 10
55.11887534246518
 20
-30.05644888979078
 10
55.36682033496434
 20
-30.08909146731759
 10
55.61666680999995
 20
-30.10000000000002
  0
LWPOLYLINE
  5
1AB
330
13D
100
AcDbEntity
  8
AM_4
100
AcDbPolyline
 90
       15
 70
     0
 43
0.0
 10
97.05915032295066
 20
-30.1
 10
96.66869259449065
 20
-30.09776508407471
 10
96.28120648320807
 20
-30.09107733965051
 10
95.89964099238026
 20
-30.07998766450065
 10
95.52690006578796
 20
-30.06458045774914
 10
95.16582048694967
 20
-30.04497297754249
 10
94.81915028948617
 20
-30.0213144486444
 10
94.48952784292534
 20
-29.99378492674517
 10
94.179461773117
 20
-29.96259392812927
 10
93.89131187007537
 20
-29.92797883512977
 10
93.62727112855227
 20
-29.89020308950559
 10
93.38934905802286
 20
-29.84955418749053
 10
93.17935638910515
 20
-29.80634149177341
 10
92.99889129280665
 20
-29.76089387706118
 10
92.95243377523563
 20
-29.74739081362931
  0
LINE
  5
1AC
330
13D
100
AcDbEntity
  8
AM_4
100
AcDbLine
 10
61.69241224349494
 20
-20.34700853632764
 30
0.0
 11
92.95243377523563
 21
-29.74739081362931
 31
0.0
  0
LINE
  5
1AD
330
13D
100
AcDbEntity
  8
AM_4
100
AcDbLine
 10
-92.95243377523565
 20
-29.74739081362932
 30
0.0
 11
-61.69241224349494
 21
-20.34700853632764
 31
0.0
  0
LWPOLYLINE
  5
1AE
330
13D
100
AcDbEntity
  8
AM_4
100
AcDbPolyline
 90
       15
 70
     0
 43
0.0
 10
-92.95243377523565
 20
-29.74739081362932
 10
-93.12409860517094
 20
-29.79342063077079
 10
-93.32571155282675
 20
-29.83731386447122
 10
-93.55573822193415
 20
-29.87873646071867
 10
-93.81242797064738
 20
-29.91737316854406
 10
-94.09382723498517
 20
-29.95292993927135
 10
-94.39779439663243
 20
-29.98513616440554
 10
-94.72201608194862
 20
-30.01374673512671
 10
-95.06402476813808
 20
-30.03854390771613
 10
-95.42121756258841
 20
-30.05933896071747
 10
-95.79087601245493
 20
-30.07597363122098
 10
-96.17018679372832
 20
-30.08832131933984
 10
-96.55626312232893
 20
-30.09628805171173
 10
-96.94616672427688
 20
-30.09981319669286
 10
-97.0591500731681
 20
-30.1
  0
LWPOLYLINE
  5
1AF
330
13D
100
AcDbEntity
  8
AM_4
100
AcDbPolyline
 90
       19
 70
     0
 43
0.0
 10
-55.61666680999998
 20
-30.09999999999999
 10
-55.36682033496438
 20
-30.08909146731758
 10
-55.11887534246522
 20
-30.05644888979077
 10
-54.8747188436087
 20
-30.0023206971447
 10
-54.63620901677685
 20
-29.92711883760888
 10
-54.40516106576803
 20
-29.83141564274251
 10
-54.18333340499999
 20
-29.7159394716457
 10
-53.97241427691437
 20
-29.5815691677069
 10
-53.77400890343235
 20
-29.42932737007411
 10
-53.58962726924658
 20
-29.26037273075341
 10
-53.42067262992588
 20
-29.07599109656764
 10
-53.26843083229308
 20
-28.87758572308562
 10
-53.1340605283543
 20
-28.666666595
 10
-53.01858435725748
 20
-28.44483893423196
 10
-52.92288116239111
 20
-28.21379098322314
 10
-52.8476793028553
 20
-27.97528115639129
 10
-52.79355111020921
 20
-27.73112465753477
 10
-52.76090853268241
 20
-27.48317966503562
 10
-52.74999999999999
 20
-27.23333319000001
  0
LINE
  5
1B0
330
13D
100
AcDbEntity
  8
AM_4
100
AcDbLine
 10
-52.74999999999999
 20
-27.23333319
 30
0.0
 11
-52.75
 21
-26.94666680999998
 31
0.0
  0
LWPOLYLINE
  5
1B1
330
13D
100
AcDbEntity
  8
AM_4
100
AcDbPolyline
 90
       19
 70
     0
 43
0.0
 10
-49.97467747501079
 20
-24.0814556797076
 10
-50.22404948661821
 20
-24.10031985209512
 10
-50.47082844147825
 20
-24.14084644350358
 10
-50.71313620273521
 20
-24.20272702210174
 10
-50.9491286620165
 20
-24.28549063932195
 10
-51.17700977421084
 20
-24.38850741406312
 10
-51.39504522645606
 20
-24.51099332646625
 10
-51.60157563730716
 20
-24.65201618477892
 10
-51.7950291856311
 20
-24.81050271989747
 10
-51.97393357311468
 20
-24.98524675359283
 10
-52.13692722934374
 20
-25.17491837825526
 10
-52.2827696741761
 20
-25.37807407829423
 10
-52.41035095854453
 20
-25.59316771616366
 10
-52.51870011183927
 20
-25.81856229940228
 10
-52.60699253158078
 20
-26.05254243913468
 10
-52.67455625914238
 20
-26.29332740521642
 10
-52.72087709376122
 20
-26.53908467866569
 10
-52.7456025059166
 20
-26.78794389823922
 10
-52.74999999999999
 20
-26.94666680999995
  0
LINE
  5
1B2
330
13D
100
AcDbEntity
  8
AM_4
100
AcDbLine
 10
49.97467747501093
 20
-24.08145567970762
 30
0.0
 11
50.0
 21
-23.87286585365854
 31
0.0
  0
LWPOLYLINE
  5
1B3
330
13D
100
AcDbEntity
  8
AM_4
100
AcDbPolyline
 90
       19
 70
     0
 43
0.0
 10
52.74999999999999
 20
-26.94666680999999
 10
52.73909146731757
 20
-26.69682033496438
 10
52.70644888979076
 20
-26.44887534246522
 10
52.65232069714469
 20
-26.20471884360871
 10
52.57711883760887
 20
-25.96620901677686
 10
52.48141564274251
 20
-25.73516106576804
 10
52.3659394716457
 20
-25.513333405
 10
52.23156916770689
 20
-25.30241427691438
 10
52.0793273700741
 20
-25.10400890343237
 10
51.91037273075341
 20
-24.9196272692466
 10
51.72599109656763
 20
-24.7506726299259
 10
51.52758572308563
 20
-24.59843083229311
 10
51.316666595
 20
-24.46406052835431
 10
51.09483893423196
 20
-24.3485843572575
 10
50.86379098322315
 20
-24.25288116239113
 10
50.6252811563913
 20
-24.17767930285531
 10
50.38112465753478
 20
-24.12355111020923
 10
50.13317966503563
 20
-24.09090853268243
 10
49.97467747501082
 20
-24.08145567970761
  0
LINE
  5
1B4
330
13D
100
AcDbEntity
  8
AM_4
100
AcDbLine
 10
-52.74999999999999
 20
26.94666680999999
 30
0.0
 11
-52.75
 21
27.23333318999985
 31
0.0
  0
LWPOLYLINE
  5
1B5
330
13D
100
AcDbEntity
  8
AM_4
100
AcDbPolyline
 90
       19
 70
     0
 43
0.0
 10
-52.74999999999999
 20
27.23333318999971
 10
-52.76090853268239
 20
27.48317966503532
 10
-52.79355111020917
 20
27.73112465753449
 10
-52.84767930285522
 20
27.97528115639101
 10
-52.92288116239101
 20
28.21379098322287
 10
-53.01858435725735
 20
28.44483893423169
 10
-53.13406052835415
 20
28.66666659499975
 10
-53.26843083229292
 20
28.87758572308539
 10
-53.4206726299257
 20
29.07599109656742
 10
-53.58962726924638
 20
29.2603727307532
 10
-53.77400890343213
 20
29.42932737007392
 10
-53.97241427691414
 20
29.58156916770674
 10
-54.18333340499974
 20
29.71593947164555
 10
-54.40516106576777
 20
29.83141564274239
 10
-54.63620901677658
 20
29.92711883760878
 10
-54.87471884360842
 20
30.00232069714462
 10
-55.11887534246493
 20
30.05644888979072
 10
-55.36682033496409
 20
30.08909146731755
 10
-55.6166668099997
 20
30.1
  0
LWPOLYLINE
  5
1B6
330
13D
100
AcDbEntity
  8
AM_4
100
AcDbPolyline
 90
       15
 70
     0
 43
0.0
 10
-97.05914938911033
 20
30.09999999999999
 10
-96.66869166420388
 20
30.09776507340473
 10
-96.28120556355488
 20
30.09107731839176
 10
-95.89964009035977
 20
30.07998763281492
 10
-95.52689918826509
 20
30.06458041587759
 10
-95.16581964060293
 20
30.04497292580378
 10
-94.81914948075675
 20
30.02131438743229
 10
-94.48952707796815
 20
29.99378485652553
 10
-94.17946105775383
 20
29.9625938494365
 10
-93.89131120975055
 20
29.92797874856279
 10
-93.6272705282913
 20
29.89020299572321
 10
-93.38934852239409
 20
29.8495540872065
 10
-93.17935592218502
 20
29.80634138575094
 10
-92.9988908981487
 20
29.76089376610717
 10
-92.95243377523565
 20
29.74739081362931
  0
LINE
  5
1B7
330
13D
100
AcDbEntity
  8
AM_4
100
AcDbLine
 10
-61.69241224349494
 20
20.34700853632762
 30
0.0
 11
-92.95243377523565
 21
29.74739081362931
 31
0.0
  0
LINE
  5
1B8
330
13D
100
AcDbEntity
  8
AM_4
100
AcDbLine
 10
92.95243377523563
 20
29.74739081362931
 30
0.0
 11
61.69241224349494
 21
20.34700853632762
 31
0.0
  0
LWPOLYLINE
  5
1B9
330
13D
100
AcDbEntity
  8
AM_4
100
AcDbPolyline
 90
       15
 70
     0
 43
0.0
 10
92.95243377523563
 20
29.74739081362931
 10
93.12409860517093
 20
29.79342063077078
 10
93.32571155282672
 20
29.83731386447121
 10
93.55573822193413
 20
29.87873646071866
 10
93.81242797064735
 20
29.91737316854405
 10
94.09382723498514
 20
29.95292993927134
 10
94.3977943966324
 20
29.98513616440553
 10
94.7220160819486
 20
30.01374673512669
 10
95.06402476813805
 20
30.03854390771613
 10
95.42121756258837
 20
30.05933896071746
 10
95.79087601245492
 20
30.07597363122097
 10
96.17018679372828
 20
30.08832131933983
 10
96.5562631223289
 20
30.09628805171172
 10
96.94616672427684
 20
30.09981319669285
 10
97.05915007316808
 20
30.1
  0
LWPOLYLINE
  5
1BA
330
13D
100
AcDbEntity
  8
AM_4
100
AcDbPolyline
 90
       19
 70
     0
 43
0.0
 10
55.61666680999999
 20
30.1
 10
55.36682033496438
 20
30.08909146731758
 10
55.11887534246522
 20
30.05644888979078
 10
54.8747188436087
 20
30.0023206971447
 10
54.63620901677685
 20
29.92711883760888
 10
54.40516106576803
 20
29.83141564274251
 10
54.18333340499999
 20
29.7159394716457
 10
53.97241427691437
 20
29.5815691677069
 10
53.77400890343235
 20
29.42932737007411
 10
53.58962726924658
 20
29.26037273075341
 10
53.42067262992588
 20
29.07599109656764
 10
53.26843083229308
 20
28.87758572308562
 10
53.13406052835429
 20
28.666666595
 10
53.01858435725747
 20
28.44483893423196
 10
52.92288116239111
 20
28.21379098322314
 10
52.84767930285529
 20
27.97528115639129
 10
52.79355111020921
 20
27.73112465753477
 10
52.76090853268241
 20
27.48317966503561
 10
52.74999999999999
 20
27.23333319
  0
LINE
  5
1BB
330
13D
100
AcDbEntity
  8
AM_4
100
AcDbLine
 10
52.74999999999999
 20
27.23333319
 30
0.0
 11
52.74999999999999
 21
26.94666680999978
 31
0.0
  0
LWPOLYLINE
  5
1BC
330
13D
100
AcDbEntity
  8
AM_4
100
AcDbPolyline
 90
       19
 70
     0
 43
0.0
 10
49.97467747501117
 20
24.08145567970762
 10
50.2240494866186
 20
24.10031985209518
 10
50.47082844147863
 20
24.14084644350367
 10
50.71313620273559
 20
24.20272702210186
 10
50.94912866201686
 20
24.2854906393221
 10
51.17700977421119
 20
24.3885074140633
 10
51.39504522645639
 20
24.51099332646646
 10
51.60157563730748
 20
24.65201618477917
 10
51.79502918563139
 20
24.81050271989773
 10
51.97393357311495
 20
24.98524675359312
 10
52.13692722934398
 20
25.17491837825558
 10
52.28276967417632
 20
25.37807407829456
 10
52.41035095854471
 20
25.59316771616401
 10
52.51870011183944
 20
25.81856229940265
 10
52.6069925315809
 20
26.05254243913506
 10
52.67455625914246
 20
26.29332740521681
 10
52.72087709376128
 20
26.53908467866608
 10
52.74560250591662
 20
26.78794389823962
 10
52.74999999999999
 20
26.94666680999956
  0
LINE
  5
1BD
330
13D
100
AcDbEntity
  8
AM_4
100
AcDbLine
 10
-49.97467747501093
 20
24.08145567970761
 30
0.0
 11
-50.0
 21
23.87286585365853
 31
0.0
  0
LWPOLYLINE
  5
1BE
330
13D
100
AcDbEntity
  8
AM_4
100
AcDbPolyline
 90
       19
 70
     0
 43
0.0
 10
-52.74999999999999
 20
26.94666680999999
 10
-52.73909146731757
 20
26.69682033496438
 10
-52.70644888979076
 20
26.44887534246522
 10
-52.65232069714469
 20
26.20471884360871
 10
-52.57711883760887
 20
25.96620901677686
 10
-52.4814156427425
 20
25.73516106576804
 10
-52.36593947164569
 20
25.513333405
 10
-52.23156916770689
 20
25.30241427691438
 10
-52.0793273700741
 20
25.10400890343237
 10
-51.9103727307534
 20
24.91962726924659
 10
-51.72599109656763
 20
24.75067262992589
 10
-51.52758572308561
 20
24.5984308322931
 10
-51.316666595
 20
24.4640605283543
 10
-51.09483893423195
 20
24.34858435725749
 10
-50.86379098322313
 20
24.25288116239112
 10
-50.62528115639129
 20
24.1776793028553
 10
-50.38112465753478
 20
24.12355111020923
 10
-50.13317966503561
 20
24.09090853268242
 10
-49.97467747501121
 20
24.08145567970762
  0
LINE
  5
1BF
330
13D
100
AcDbEntity
  8
AM_4
100
AcDbLine
 10
-61.69241224349494
 20
-20.34700853632764
 30
0.0
 11
-61.69241224349494
 21
20.34700853632762
 31
0.0
  0
LWPOLYLINE
  5
1C0
330
13D
100
AcDbEntity
  8
AM_4
100
AcDbPolyline
 90
       28
 70
     0
 43
0.0
 10
-61.69241224349495
 20
-20.34700853632764
 10
-59.11360799022574
 20
-19.65553382792993
 10
-56.08491348637853
 20
-18.99615556274271
 10
-52.62937892590332
 20
-18.37389200750755
 10
-48.77330301331412
 20
-17.7934789636128
 10
-44.54603281466805
 20
-17.25933372478545
 10
-39.97974040867233
 20
-16.77552145881871
 10
-35.10917803773935
 20
-16.34572426919042
 10
-29.97141362243784
 20
-15.97321317203228
 10
-24.60554865223525
 20
-15.66082320172202
 10
-19.05242059955265
 20
-15.41093183455993
 10
-13.35429212194138
 20
-15.22544089473863
 10
-7.554529417740073
 20
-15.10576208031267
 10
-1.69727218312019
 20
-15.05280621932386
 10
4.172902317654202
 20
-15.06697633784995
 10
10.01131851212394
 20
-15.14816459273281
 10
15.77354252771701
 20
-15.29575309232998
 10
21.41572036034879
 20
-15.50861859904314
 10
26.89491162987279
 20
-15.7851410778345
 10
32.16941638230182
 20
-16.12321602567161
 10
37.19909245163684
 20
-16.52027048806622
 10
41.94566096598877
 20
-16.97328264081144
 10
46.37299767290695
 20
-17.47880478788868
 10
50.44740786675274
 20
-18.03298960051607
 10
54.13788282575485
 20
-18.63161939764355
 10
57.41633580710555
 20
-19.27013824505245
 10
60.25781580403275
 20
-19.94368662876576
 10
61.69241224349492
 20
-20.34700853632764
  0
LINE
  5
1C1
330
13D
100
AcDbEntity
  8
AM_4
100
AcDbLine
 10
61.69241224349494
 20
-20.34700853632764
 30
0.0
 11
61.69241224349494
 21
20.34700853632762
 31
0.0
  0
LWPOLYLINE
  5
1C2
330
13D
100
AcDbEntity
  8
AM_4
100
AcDbPolyline
 90
       28
 70
     0
 43
0.0
 10
61.69241224349494
 20
20.34700853632763
 10
59.11360799022574
 20
19.65553382792992
 10
56.08491348637852
 20
18.99615556274271
 10
52.6293789259033
 20
18.37389200750755
 10
48.77330301331411
 20
17.79347896361279
 10
44.54603281466802
 20
17.25933372478544
 10
39.97974040867232
 20
16.77552145881871
 10
35.10917803773933
 20
16.34572426919041
 10
29.97141362243783
 20
15.97321317203228
 10
24.60554865223523
 20
15.66082320172202
 10
19.05242059955264
 20
15.41093183455992
 10
13.35429212194136
 20
15.22544089473863
 10
7.554529417740059
 20
15.10576208031266
 10
1.697272183120175
 20
15.05280621932385
 10
-4.172902317654217
 20
15.06697633784995
 10
-10.01131851212395
 20
15.14816459273281
 10
-15.77354252771703
 20
15.29575309232997
 10
-21.4157203603488
 20
15.50861859904313
 10
-26.89491162987281
 20
15.78514107783449
 10
-32.16941638230183
 20
16.12321602567161
 10
-37.19909245163686
 20
16.52027048806621
 10
-41.94566096598879
 20
16.97328264081144
 10
-46.37299767290696
 20
17.47880478788868
 10
-50.44740786675276
 20
18.03298960051606
 10
-54.13788282575486
 20
18.63161939764354
 10
-57.41633580710556
 20
19.27013824505244
 10
-60.25781580403275
 20
19.94368662876575
 10
-61.69241224349494
 20
20.34700853632763
  0
LWPOLYLINE
  5
1C3
330
13D
100
AcDbEntity
  8
AM_4
100
AcDbPolyline
 90
       29
 70
     0
 43
0.0
 10
47.58828637385462
 20
12.70000000000002
 10
46.63613239821781
 20
12.62902042607585
 10
45.67387608798079
 20
12.41860074814296
 10
44.71870090695159
 20
12.07251953196079
 10
43.73173687985829
 20
11.56360652846874
 10
42.77419456424643
 20
10.91310548207655
 10
41.86596612241576
 20
10.13310732255828
 10
41.00687688642987
 20
9.215049254585619
 10
40.2209745632092
 20
8.179371100620093
 10
39.52608104735755
 20
7.044850259765155
 10
38.92864801053518
 20
5.808886742267534
 10
38.44292515151115
 20
4.493868930716904
 10
38.08127815321834
 20
3.124661736886857
 10
37.83599677092609
 20
1.574832986489692
 10
37.75302966112253
 20
0.0000000000000034
 10
37.82010833116571
 20
-1.409328642310117
 10
38.01791019637242
 20
-2.805174980726008
 10
38.34128403935841
 20
-4.161157079209731
 10
38.78667812066549
 20
-5.4631847785297
 10
39.34540134011657
 20
-6.701063463126582
 10
40.00409145271438
 20
-7.852521446562205
 10
40.76367794527735
 20
-8.917492950072726
 10
41.60560554641225
 20
-9.874299868293312
 10
42.51107871841231
 20
-10.70544615226153
 10
43.47682435554569
 20
-11.40621372831471
 10
44.48355677525532
 20
-11.9646178278561
 10
45.50959608040033
 20
-12.36957176252471
 10
46.5527297396872
 20
-12.61680115031858
 10
47.58828637385463
 20
-12.7
  0
ENDBLK
  5
140
330
13D
100
AcDbEntity
  8
0
100
AcDbBlockEnd
  0
ENDSEC
  0
SECTION
  2
ENTITIES
  0
INSERT
  5
6F
330
1F
100
AcDbEntity
  8
0
100
AcDbBlockReference
  2
1_053025_4
 10
0.0
 20
0.0
 30
0.0
  0
POINT
  5
1C5
330
1F
100
AcDbEntity
  8
ConnectionPoints
100
AcDbPoint
 10
0.0
 20
-34.3
 30
0.0000000000000021
  0
POINT
  5
1C6
330
1F
100
AcDbEntity
  8
ConnectionPoints
100
AcDbPoint
 10
49.38433759806846
 20
0.000000000000003
 30
49.38433759806848
  0
POINT
  5
1C7
330
1F
100
AcDbEntity
  8
ConnectionPoints
100
AcDbPoint
 10
0.0
 20
-34.3
 30
0.0000000000000021
  0
ENDSEC
  0
SECTION
  2
OBJECTS
  0
DICTIONARY
  5
C
330
0
100
AcDbDictionary
281
     1
  3
ACAD_DETAILVIEWSTYLE
350
1CF
  3
ACAD_GROUP
350
D
  3
ACAD_LAYOUT
350
1A
  3
ACAD_MATERIAL
350
43
  3
ACAD_MLEADERSTYLE
350
6B
  3
ACAD_MLINESTYLE
350
17
  3
ACAD_PLOTSETTINGS
350
19
  3
ACAD_PLOTSTYLENAME
350
E
  3
ACAD_SCALELIST
350
47
  3
ACAD_SECTIONVIEWSTYLE
350
1D0
  3
ACAD_TABLESTYLE
350
69
  3
ACAD_VISUALSTYLE
350
2A
  3
ACDB_RECOMPOSE_DATA
350
1CC
  3
AcDbVariableDictionary
350
1C8
  0
SUN
  5
6D
330
29
100
AcDbSun
 90
        1
290
     0
 63
     7
421
 16777215
 40
1.0
291
     1
 91
  2455826
 92
 54000000
292
     0
 70
     2
 71
   256
280
     1
  0
DICTIONARY
  5
1CF
102
{ACAD_REACTORS
330
C
102
}
330
C
100
AcDbDictionary
281
     1
  0
DICTIONARY
  5
D
102
{ACAD_REACTORS
330
C
102
}
330
C
100
AcDbDictionary
281
     1
  0
DICTIONARY
  5
1A
102
{ACAD_REACTORS
330
C
102
}
330
C
100
AcDbDictionary
281
     1
  3
Layout1
350
1E
  3
Layout2
350
26
  3
Model
350
22
  0
DICTIONARY
  5
43
102
{ACAD_REACTORS
330
C
102
}
330
C
100
AcDbDictionary
281
     1
  3
ByBlock
350
45
  3
ByLayer
350
44
  3
Global
350
46
  0
DICTIONARY
  5
6B
102
{ACAD_REACTORS
330
C
102
}
330
C
100
AcDbDictionary
281
     1
  3
Standard
350
6C
  0
DICTIONARY
  5
17
102
{ACAD_REACTORS
330
C
102
}
330
C
100
AcDbDictionary
281
     1
  3
Standard
350
18
  0
DICTIONARY
  5
19
102
{ACAD_REACTORS
330
C
102
}
330
C
100
AcDbDictionary
281
     1
  0
ACDBDICTIONARYWDFLT
  5
E
102
{ACAD_REACTORS
330
C
102
}
330
C
100
AcDbDictionary
281
     1
  3
Normal
350
F
100
AcDbDictionaryWithDefault
340
F
  0
DICTIONARY
  5
47
102
{ACAD_REACTORS
330
C
102
}
330
C
100
AcDbDictionary
281
     1
  3
A0
350
48
  3
A1
350
49
  3
A2
350
4A
  3
A3
350
4B
  3
A4
350
4C
  3
A5
350
4D
  3
A6
350
4E
  3
A7
350
4F
  3
A8
350
50
  3
A9
350
51
  3
B0
350
52
  3
B1
350
53
  3
B2
350
54
  3
B3
350
55
  3
B4
350
56
  3
B5
350
57
  3
B6
350
58
  3
B7
350
59
  3
B8
350
5A
  3
B9
350
5B
  3
C0
350
5C
  3
C1
350
5D
  3
C2
350
5E
  3
C3
350
5F
  3
C4
350
60
  3
C5
350
61
  3
C6
350
62
  3
C7
350
63
  3
C8
350
64
  3
C9
350
65
  3
D0
350
66
  3
D1
350
67
  3
D2
350
68
  0
DICTIONARY
  5
1D0
102
{ACAD_REACTORS
330
C
102
}
330
C
100
AcDbDictionary
281
     1
  0
DICTIONARY
  5
69
102
{ACAD_REACTORS
330
C
102
}
330
C
100
AcDbDictionary
281
     1
  3
Standard
350
6A
  0
DICTIONARY
  5
2A
102
{ACAD_REACTORS
330
C
102
}
330
C
100
AcDbDictionary
281
     1
  3
2dWireframe
350
2F
  3
Basic
350
32
  3
Brighten
350
36
  3
ColorChange
350
3A
  3
Conceptual
350
34
  3
Dim
350
35
  3
EdgeColorOff
350
3D
  3
Facepattern
350
39
  3
Flat
350
2B
  3
FlatWithEdges
350
2C
  3
Gouraud
350
2D
  3
GouraudWithEdges
350
2E
  3
Hidden
350
31
  3
JitterOff
350
3B
  3
Linepattern
350
38
  3
OverhangOff
350
3C
  3
Realistic
350
33
  3
Shaded
350
42
  3
Shaded with edges
350
41
  3
Shades of Gray
350
3E
  3
Sketchy
350
3F
  3
Thicken
350
37
  3
Wireframe
350
30
  3
X-Ray
350
40
  0
XRECORD
  5
1CC
102
{ACAD_REACTORS
330
C
102
}
330
C
100
AcDbXrecord
280
     1
 90
        1
330
6A
  0
DICTIONARY
  5
1C8
102
{ACAD_REACTORS
330
C
102
}
330
C
100
AcDbDictionary
281
     1
  3
CANNOSCALE
350
1C9
  3
CMLEADERSTYLE
350
1CE
  3
CTABLESTYLE
350
1CD
  0
LAYOUT
  5
1E
102
{ACAD_REACTORS
330
1A
102
}
330
1A
100
AcDbPlotSettings
  1

  2
none_device
  4

  6

 40
0.0
 41
0.0
 42
0.0
 43
0.0
 44
0.0
 45
0.0
 46
0.0
 47
0.0
 48
0.0
 49
0.0
140
0.0
141
0.0
142
1.0
143
1.0
 70
   688
 72
     1
 73
     0
 74
     5
  7

 75
    16
 76
     0
 77
     2
 78
   300
147
1.0
148
0.0
149
0.0
100
AcDbLayout
  1
Layout1
 70
     1
 71
     1
 10
0.0
 20
0.0
 11
420.0
 21
297.0
 12
0.0
 22
0.0
 32
0.0
 14
1.000000000000000E+20
 24
1.000000000000000E+20
 34
1.000000000000000E+20
 15
-1.000000000000000E+20
 25
-1.000000000000000E+20
 35
-1.000000000000000E+20
146
0.0
 13
0.0
 23
0.0
 33
0.0
 16
1.0
 26
0.0
 36
0.0
 17
0.0
 27
1.0
 37
0.0
 76
     0
330
1B
  0
LAYOUT
  5
26
102
{ACAD_REACTORS
330
1A
102
}
330
1A
100
AcDbPlotSettings
  1

  2
none_device
  4

  6

 40
0.0
 41
0.0
 42
0.0
 43
0.0
 44
0.0
 45
0.0
 46
0.0
 47
0.0
 48
0.0
 49
0.0
140
0.0
141
0.0
142
1.0
143
1.0
 70
   688
 72
     1
 73
     0
 74
     5
  7

 75
    16
 76
     0
 77
     2
 78
   300
147
1.0
148
0.0
149
0.0
100
AcDbLayout
  1
Layout2
 70
     1
 71
     2
 10
0.0
 20
0.0
 11
0.0
 21
0.0
 12
0.0
 22
0.0
 32
0.0
 14
0.0
 24
0.0
 34
0.0
 15
0.0
 25
0.0
 35
0.0
146
0.0
 13
0.0
 23
0.0
 33
0.0
 16
1.0
 26
0.0
 36
0.0
 17
0.0
 27
1.0
 37
0.0
 76
     0
330
23
  0
LAYOUT
  5
22
102
{ACAD_REACTORS
330
1A
102
}
330
1A
100
AcDbPlotSettings
  1

  2
none_device
  4
Letter_(8.50_x_11.00_Inches)
  6

 40
6.35
 41
6.35
 42
6.35000508
 43
6.35000508
 44
215.9
 45
279.4
 46
0.0
 47
0.0
 48
0.0
 49
0.0
140
0.0
141
0.0
142
1.0
143
1.0
 70
  1712
 72
     1
 73
     0
 74
     0
  7

 75
     0
 76
     0
 77
     2
 78
   300
147
1.0
148
0.0
149
0.0
100
AcDbLayout
  1
Model
 70
     1
 71
     0
 10
0.0
 20
0.0
 11
420.0
 21
297.0
 12
0.0
 22
0.0
 32
0.0
 14
1.000000000000000E+20
 24
1.000000000000000E+20
 34
1.000000000000000E+20
 15
-1.000000000000000E+20
 25
-1.000000000000000E+20
 35
-1.000000000000000E+20
146
0.0
 13
0.0
 23
0.0
 33
0.0
 16
1.0
 26
0.0
 36
0.0
 17
0.0
 27
1.0
 37
0.0
 76
     0
330
1F
331
29
  0
MATERIAL
  5
45
102
{ACAD_REACTORS
330
43
102
}
330
43
100
AcDbMaterial
  1
ByBlock
 72
     1
 94
      127
  0
MATERIAL
  5
44
102
{ACAD_REACTORS
330
43
102
}
330
43
100
AcDbMaterial
  1
ByLayer
 72
     1
 94
      127
  0
MATERIAL
  5
46
102
{ACAD_REACTORS
330
43
102
}
330
43
100
AcDbMaterial
  1
Global
 72
     1
 94
      127
  0
MLEADERSTYLE
  5
6C
102
{ACAD_REACTORS
330
6B
102
}
330
6B
100
AcDbMLeaderStyle
179
     2
170
     2
171
     1
172
     0
 90
        2
 40
0.0
 41
0.0
173
     1
 91
-1056964608
340
14
 92
       -2
290
     1
 42
2.0
291
     1
 43
8.0
  3
Standard
341
0
 44
4.0
300

342
11
174
     1
178
     6
175
     1
176
     0
 93
-1056964608
 45
4.0
292
     0
297
     0
 46
4.0
343
0
 94
-1056964608
 47
1.0
 49
1.0
140
1.0
293
     1
141
0.0
294
     1
177
     0
142
1.0
295
     0
296
     0
143
3.75
271
     0
272
     9
273
     9
298
     0
  0
MLINESTYLE
  5
18
102
{ACAD_REACTORS
330
17
102
}
330
17
100
AcDbMlineStyle
  2
Standard
 70
     0
  3

 62
   256
 51
90.0
 52
90.0
 71
     2
 49
0.5
 62
   256
  6
BYLAYER
 49
-0.5
 62
   256
  6
BYLAYER
  0
ACDBPLACEHOLDER
  5
F
102
{ACAD_REACTORS
330
E
102
}
330
E
  0
SCALE
  5
48
102
{ACAD_REACTORS
330
47
102
}
330
47
100
AcDbScale
 70
     0
300
1:1
140
1.0
141
1.0
290
     1
  0
SCALE
  5
49
102
{ACAD_REACTORS
330
47
102
}
330
47
100
AcDbScale
 70
     0
300
1:2
140
1.0
141
2.0
290
     0
  0
SCALE
  5
4A
102
{ACAD_REACTORS
330
47
102
}
330
47
100
AcDbScale
 70
     0
300
1:4
140
1.0
141
4.0
290
     0
  0
SCALE
  5
4B
102
{ACAD_REACTORS
330
47
102
}
330
47
100
AcDbScale
 70
     0
300
1:5
140
1.0
141
5.0
290
     0
  0
SCALE
  5
4C
102
{ACAD_REACTORS
330
47
102
}
330
47
100
AcDbScale
 70
     0
300
1:8
140
1.0
141
8.0
290
     0
  0
SCALE
  5
4D
102
{ACAD_REACTORS
330
47
102
}
330
47
100
AcDbScale
 70
     0
300
1:10
140
1.0
141
10.0
290
     0
  0
SCALE
  5
4E
102
{ACAD_REACTORS
330
47
102
}
330
47
100
AcDbScale
 70
     0
300
1:16
140
1.0
141
16.0
290
     0
  0
SCALE
  5
4F
102
{ACAD_REACTORS
330
47
102
}
330
47
100
AcDbScale
 70
     0
300
1:20
140
1.0
141
20.0
290
     0
  0
SCALE
  5
50
102
{ACAD_REACTORS
330
47
102
}
330
47
100
AcDbScale
 70
     0
300
1:30
140
1.0
141
30.0
290
     0
  0
SCALE
  5
51
102
{ACAD_REACTORS
330
47
102
}
330
47
100
AcDbScale
 70
     0
300
1:40
140
1.0
141
40.0
290
     0
  0
SCALE
  5
52
102
{ACAD_REACTORS
330
47
102
}
330
47
100
AcDbScale
 70
     0
300
1:50
140
1.0
141
50.0
290
     0
  0
SCALE
  5
53
102
{ACAD_REACTORS
330
47
102
}
330
47
100
AcDbScale
 70
     0
300
1:100
140
1.0
141
100.0
290
     0
  0
SCALE
  5
54
102
{ACAD_REACTORS
330
47
102
}
330
47
100
AcDbScale
 70
     0
300
2:1
140
2.0
141
1.0
290
     0
  0
SCALE
  5
55
102
{ACAD_REACTORS
330
47
102
}
330
47
100
AcDbScale
 70
     0
300
4:1
140
4.0
141
1.0
290
     0
  0
SCALE
  5
56
102
{ACAD_REACTORS
330
47
102
}
330
47
100
AcDbScale
 70
     0
300
8:1
140
8.0
141
1.0
290
     0
  0
SCALE
  5
57
102
{ACAD_REACTORS
330
47
102
}
330
47
100
AcDbScale
 70
     0
300
10:1
140
10.0
141
1.0
290
     0
  0
SCALE
  5
58
102
{ACAD_REACTORS
330
47
102
}
330
47
100
AcDbScale
 70
     0
300
100:1
140
100.0
141
1.0
290
     0
  0
SCALE
  5
59
102
{ACAD_REACTORS
330
47
102
}
330
47
100
AcDbScale
 70
     0
300
1/128" = 1'-0"
140
0.0078125
141
12.0
290
     0
  0
SCALE
  5
5A
102
{ACAD_REACTORS
330
47
102
}
330
47
100
AcDbScale
 70
     0
300
1/64" = 1'-0"
140
0.015625
141
12.0
290
     0
  0
SCALE
  5
5B
102
{ACAD_REACTORS
330
47
102
}
330
47
100
AcDbScale
 70
     0
300
1/32" = 1'-0"
140
0.03125
141
12.0
290
     0
  0
SCALE
  5
5C
102
{ACAD_REACTORS
330
47
102
}
330
47
100
AcDbScale
 70
     0
300
1/16" = 1'-0"
140
0.0625
141
12.0
290
     0
  0
SCALE
  5
5D
102
{ACAD_REACTORS
330
47
102
}
330
47
100
AcDbScale
 70
     0
300
3/32" = 1'-0"
140
0.09375
141
12.0
290
     0
  0
SCALE
  5
5E
102
{ACAD_REACTORS
330
47
102
}
330
47
100
AcDbScale
 70
     0
300
1/8" = 1'-0"
140
0.125
141
12.0
290
     0
  0
SCALE
  5
5F
102
{ACAD_REACTORS
330
47
102
}
330
47
100
AcDbScale
 70
     0
300
3/16" = 1'-0"
140
0.1875
141
12.0
290
     0
  0
SCALE
  5
60
102
{ACAD_REACTORS
330
47
102
}
330
47
100
AcDbScale
 70
     0
300
1/4" = 1'-0"
140
0.25
141
12.0
290
     0
  0
SCALE
  5
61
102
{ACAD_REACTORS
330
47
102
}
330
47
100
AcDbScale
 70
     0
300
3/8" = 1'-0"
140
0.375
141
12.0
290
     0
  0
SCALE
  5
62
102
{ACAD_REACTORS
330
47
102
}
330
47
100
AcDbScale
 70
     0
300
1/2" = 1'-0"
140
0.5
141
12.0
290
     0
  0
SCALE
  5
63
102
{ACAD_REACTORS
330
47
102
}
330
47
100
AcDbScale
 70
     0
300
3/4" = 1'-0"
140
0.75
141
12.0
290
     0
  0
SCALE
  5
64
102
{ACAD_REACTORS
330
47
102
}
330
47
100
AcDbScale
 70
     0
300
1" = 1'-0"
140
1.0
141
12.0
290
     0
  0
SCALE
  5
65
102
{ACAD_REACTORS
330
47
102
}
330
47
100
AcDbScale
 70
     0
300
1-1/2" = 1'-0"
140
1.5
141
12.0
290
     0
  0
SCALE
  5
66
102
{ACAD_REACTORS
330
47
102
}
330
47
100
AcDbScale
 70
     0
300
3" = 1'-0"
140
3.0
141
12.0
290
     0
  0
SCALE
  5
67
102
{ACAD_REACTORS
330
47
102
}
330
47
100
AcDbScale
 70
     0
300
6" = 1'-0"
140
6.0
141
12.0
290
     0
  0
SCALE
  5
68
102
{ACAD_REACTORS
330
47
102
}
330
47
100
AcDbScale
 70
     0
300
1'-0" = 1'-0"
140
12.0
141
12.0
290
     0
  0
TABLESTYLE
  5
6A
102
{ACAD_REACTORS
330
69
102
}
102
{ACAD_XDICTIONARY
360
1CA
102
}
330
69
100
AcDbTableStyle
  3
Standard
 70
     0
 71
     0
 40
0.06
 41
0.06
280
     0
281
     0
  7
Standard
140
4.5
170
     2
 62
     0
 63
   257
283
     0
 90
        4
 91
        0
  1

274
    -2
284
     1
 64
     0
275
    -2
285
     1
 65
     0
276
    -2
286
     1
 66
     0
277
    -2
287
     1
 67
     0
278
    -2
288
     1
 68
     0
279
    -2
289
     1
 69
     0
  7
Standard
140
6.0
170
     5
 62
     0
 63
   257
283
     0
 90
        4
 91
        0
  1

274
    -2
284
     1
 64
     0
275
    -2
285
     1
 65
     0
276
    -2
286
     1
 66
     0
277
    -2
287
     1
 67
     0
278
    -2
288
     1
 68
     0
279
    -2
289
     1
 69
     0
  7
Standard
140
4.5
170
     5
 62
     0
 63
   257
283
     0
 90
        4
 91
        0
  1

274
    -2
284
     1
 64
     0
275
    -2
285
     1
 65
     0
276
    -2
286
     1
 66
     0
277
    -2
287
     1
 67
     0
278
    -2
288
     1
 68
     0
279
    -2
289
     1
 69
     0
  0
VISUALSTYLE
  5
2F
102
{ACAD_REACTORS
330
2A
102
}
330
2A
100
AcDbVisualStyle
  2
2dWireframe
 70
     4
177
     3
291
     0
 70
    58
 90
        0
176
     1
 90
        2
176
     1
 90
        0
176
     1
 90
        0
176
     1
 40
0.6
176
     1
 40
30.0
176
     1
 62
     7
420
 16777215
176
     1
 90
        1
176
     1
 90
        4
176
     1
 62
     7
176
     1
 62
   257
176
     1
 90
        1
176
     1
 90
        1
176
     1
 40
1.0
176
     1
 90
        0
176
     1
 62
   257
176
     1
 40
1.0
176
     1
 90
        1
176
     1
 90
        6
176
     1
 90
        2
176
     1
 62
     7
176
     1
 90
        5
176
     1
 90
        0
176
     1
 90
        0
176
     1
290
     0
176
     1
 90
        1
176
     1
 40
0.0
176
     1
 90
        0
176
     1
290
     1
176
     1
290
     1
176
     1
290
     0
176
     1
290
     0
176
     1
290
     0
176
     1
290
     0
176
     1
290
     0
176
     1
290
     0
176
     1
290
     0
176
     1
 90
       50
176
     1
 40
0.0
176
     1
 40
1.0
176
     1
 90
        0
176
     1
 62
    18
420
        0
176
     1
 90
       50
176
     1
 90
        3
176
     1
 62
     5
420
      255
176
     1
290
     0
176
     1
 90
       50
176
     1
 90
       50
176
     1
 90
       50
176
     1
290
     0
176
     1
 90
       50
176
     1
 62
   256
176
     0
 40
1.0
176
     0
 90
        2
176
     1
  1
strokes_ogs.tif
176
     1
290
     0
176
     1
 40
1.0
176
     1
 40
1.0
176
     1
  0
VISUALSTYLE
  5
32
102
{ACAD_REACTORS
330
2A
102
}
330
2A
100
AcDbVisualStyle
  2
Basic
 70
     7
177
     3
291
     1
 70
    58
 90
        1
176
     1
 90
        0
176
     1
 90
        1
176
     1
 90
        0
176
     1
 40
0.6
176
     1
 40
30.0
176
     1
 62
     7
420
 16777215
176
     1
 90
        0
176
     1
 90
        4
176
     1
 62
     7
176
     1
 62
   257
176
     1
 90
        1
176
     1
 90
        1
176
     1
 40
1.0
176
     1
 90
        8
176
     1
 62
     7
176
     1
 40
1.0
176
     1
 90
        1
176
     1
 90
        6
176
     1
 90
        2
176
     1
 62
     7
176
     1
 90
        5
176
     1
 90
        0
176
     1
 90
        0
176
     1
290
     0
176
     1
 90
        1
176
     1
 40
0.0
176
     1
 90
        0
176
     1
290
     0
176
     1
290
     1
176
     1
290
     1
176
     1
290
     0
176
     1
290
     0
176
     1
290
     0
176
     1
290
     0
176
     1
290
     0
176
     1
290
     0
176
     1
 90
       50
176
     1
 40
0.0
176
     1
 40
1.0
176
     1
 90
        0
176
     1
 62
    18
420
        0
176
     1
 90
       50
176
     1
 90
        3
176
     1
 62
     5
420
      255
176
     1
290
     0
176
     1
 90
       50
176
     1
 90
       50
176
     1
 90
       50
176
     1
290
     0
176
     1
 90
       50
176
     1
 62
   256
176
     0
 40
1.0
176
     0
 90
        2
176
     1
  1
strokes_ogs.tif
176
     1
290
     0
176
     1
 40
1.0
176
     1
 40
1.0
176
     1
  0
VISUALSTYLE
  5
36
102
{ACAD_REACTORS
330
2A
102
}
330
2A
100
AcDbVisualStyle
  2
Brighten
 70
    12
177
     3
291
     1
 70
    58
 90
        2
176
     1
 90
        2
176
     1
 90
        0
176
     1
 90
        0
176
     1
 40
0.6
176
     1
 40
30.0
176
     1
 62
     7
420
 16777215
176
     1
 90
        1
176
     1
 90
        4
176
     1
 62
     7
176
     1
 62
   257
176
     1
 90
        1
176
     1
 90
        1
176
     1
 40
1.0
176
     1
 90
        8
176
     1
 62
     7
176
     1
 40
1.0
176
     1
 90
        1
176
     1
 90
        6
176
     1
 90
        2
176
     1
 62
     7
176
     1
 90
        5
176
     1
 90
        0
176
     1
 90
        0
176
     1
290
     0
176
     1
 90
        1
176
     1
 40
50.0
176
     1
 90
        0
176
     1
290
     0
176
     1
290
     1
176
     1
290
     1
176
     1
290
     0
176
     1
290
     0
176
     1
290
     0
176
     1
290
     0
176
     1
290
     0
176
     1
290
     0
176
     1
 90
       50
176
     1
 40
0.0
176
     1
 40
1.0
176
     1
 90
        0
176
     1
 62
    18
420
        0
176
     1
 90
       50
176
     1
 90
        3
176
     1
 62
     5
420
      255
176
     1
290
     0
176
     1
 90
       50
176
     1
 90
       50
176
     1
 90
       50
176
     1
290
     0
176
     1
 90
       50
176
     1
 62
   256
176
     0
 40
1.0
176
     0
 90
        2
176
     1
  1
strokes_ogs.tif
176
     1
290
     0
176
     1
 40
1.0
176
     1
 40
1.0
176
     1
  0
VISUALSTYLE
  5
3A
102
{ACAD_REACTORS
330
2A
102
}
330
2A
100
AcDbVisualStyle
  2
ColorChange
 70
    16
177
     3
291
     1
 70
    58
 90
        2
176
     1
 90
        2
176
     1
 90
        3
176
     1
 90
        0
176
     1
 40
0.6
176
     1
 40
30.0
176
     1
 62
     8
420
  8421504
176
     1
 90
        1
176
     1
 90
        4
176
     1
 62
     7
176
     1
 62
   257
176
     1
 90
        1
176
     1
 90
        1
176
     1
 40
1.0
176
     1
 90
        8
176
     1
 62
     8
420
  8421504
176
     1
 40
1.0
176
     1
 90
        1
176
     1
 90
        6
176
     1
 90
        2
176
     1
 62
     7
176
     1
 90
        5
176
     1
 90
        0
176
     1
 90
        0
176
     1
290
     0
176
     1
 90
        1
176
     1
 40
0.0
176
     1
 90
        0
176
     1
290
     0
176
     1
290
     1
176
     1
290
     1
176
     1
290
     0
176
     1
290
     0
176
     1
290
     0
176
     1
290
     0
176
     1
290
     0
176
     1
290
     0
176
     1
 90
       50
176
     1
 40
0.0
176
     1
 40
1.0
176
     1
 90
        0
176
     1
 62
    18
420
        0
176
     1
 90
       50
176
     1
 90
        3
176
     1
 62
     5
420
      255
176
     1
290
     0
176
     1
 90
       50
176
     1
 90
       50
176
     1
 90
       50
176
     1
290
     0
176
     1
 90
       50
176
     1
 62
   256
176
     0
 40
1.0
176
     0
 90
        2
176
     1
  1
strokes_ogs.tif
176
     1
290
     0
176
     1
 40
1.0
176
     1
 40
1.0
176
     1
  0
VISUALSTYLE
  5
34
102
{ACAD_REACTORS
330
2A
102
}
330
2A
100
AcDbVisualStyle
  2
Conceptual
 70
     9
177
     3
291
     0
 70
    58
 90
        3
176
     1
 90
        2
176
     1
 90
        0
176
     1
 90
        0
176
     1
 40
0.6
176
     1
 40
30.0
176
     1
 62
     7
420
 16777215
176
     1
 90
        2
176
     1
 90
        2
176
     1
 62
     7
176
     1
 62
   257
176
     1
 90
        1
176
     1
 90
        1
176
     1
 40
179.0
176
     1
 90
        8
176
     1
 62
     7
176
     1
 40
1.0
176
     1
 90
        1
176
     1
 90
        6
176
     1
 90
        2
176
     1
 62
     7
176
     1
 90
        3
176
     1
 90
        0
176
     1
 90
        0
176
     1
290
     0
176
     1
 90
        1
176
     1
 40
0.0
176
     1
 90
        0
176
     1
290
     0
176
     1
290
     1
176
     1
290
     1
176
     1
290
     0
176
     1
290
     0
176
     1
290
     0
176
     1
290
     0
176
     1
290
     0
176
     1
290
     0
176
     1
 90
       50
176
     1
 40
0.0
176
     1
 40
1.0
176
     1
 90
        0
176
     1
 62
    18
420
        0
176
     1
 90
       50
176
     1
 90
        3
176
     1
 62
     5
420
      255
176
     1
290
     0
176
     1
 90
       50
176
     1
 90
       50
176
     1
 90
       50
176
     1
290
     0
176
     1
 90
       50
176
     1
 62
   256
176
     0
 40
1.0
176
     0
 90
        2
176
     1
  1
strokes_ogs.tif
176
     1
290
     0
176
     1
 40
1.0
176
     1
 40
1.0
176
     1
  0
VISUALSTYLE
  5
35
102
{ACAD_REACTORS
330
2A
102
}
330
2A
100
AcDbVisualStyle
  2
Dim
 70
    11
177
     3
291
     1
 70
    58
 90
        2
176
     1
 90
        2
176
     1
 90
        0
176
     1
 90
        0
176
     1
 40
0.6
176
     1
 40
30.0
176
     1
 62
     7
420
 16777215
176
     1
 90
        1
176
     1
 90
        4
176
     1
 62
     7
176
     1
 62
   257
176
     1
 90
        1
176
     1
 90
        1
176
     1
 40
1.0
176
     1
 90
        8
176
     1
 62
     7
176
     1
 40
1.0
176
     1
 90
        1
176
     1
 90
        6
176
     1
 90
        2
176
     1
 62
     7
176
     1
 90
        5
176
     1
 90
        0
176
     1
 90
        0
176
     1
290
     0
176
     1
 90
        1
176
     1
 40
-50.0
176
     1
 90
        0
176
     1
290
     0
176
     1
290
     1
176
     1
290
     1
176
     1
290
     0
176
     1
290
     0
176
     1
290
     0
176
     1
290
     0
176
     1
290
     0
176
     1
290
     0
176
     1
 90
       50
176
     1
 40
0.0
176
     1
 40
1.0
176
     1
 90
        0
176
     1
 62
    18
420
        0
176
     1
 90
       50
176
     1
 90
        3
176
     1
 62
     5
420
      255
176
     1
290
     0
176
     1
 90
       50
176
     1
 90
       50
176
     1
 90
       50
176
     1
290
     0
176
     1
 90
       50
176
     1
 62
   256
176
     0
 40
1.0
176
     0
 90
        2
176
     1
  1
strokes_ogs.tif
176
     1
290
     0
176
     1
 40
1.0
176
     1
 40
1.0
176
     1
  0
VISUALSTYLE
  5
3D
102
{ACAD_REACTORS
330
2A
102
}
330
2A
100
AcDbVisualStyle
  2
EdgeColorOff
 70
    22
177
     3
291
     1
 70
    58
 90
        2
176
     0
 90
        2
176
     0
 90
        0
176
     0
 90
        0
176
     0
 40
0.6
176
     0
 40
30.0
176
     0
 62
     7
420
 16777215
176
     0
 90
        1
176
     0
 90
        4
176
     0
 62
     7
176
     0
 62
   257
176
     0
 90
        1
176
     0
 90
        1
176
     0
 40
1.0
176
     0
 90
        8
176
     2
 62
     7
176
     0
 40
1.0
176
     0
 90
        1
176
     0
 90
        6
176
     0
 90
        2
176
     0
 62
     7
176
     0
 90
        5
176
     0
 90
        0
176
     0
 90
        0
176
     0
290
     0
176
     0
 90
        1
176
     0
 40
0.0
176
     0
 90
        0
176
     0
290
     0
176
     0
290
     1
176
     0
290
     1
176
     0
290
     0
176
     0
290
     0
176
     0
290
     0
176
     0
290
     0
176
     0
290
     0
176
     0
290
     0
176
     0
 90
       50
176
     0
 40
0.0
176
     0
 40
1.0
176
     0
 90
        0
176
     0
 62
    18
420
        0
176
     0
 90
       50
176
     0
 90
        3
176
     0
 62
     5
420
      255
176
     0
290
     0
176
     0
 90
       50
176
     0
 90
       50
176
     0
 90
       50
176
     0
290
     0
176
     0
 90
       50
176
     0
 62
   256
176
     0
 40
1.0
176
     0
 90
        2
176
     0
  1
strokes_ogs.tif
176
     0
290
     0
176
     0
 40
1.0
176
     0
 40
1.0
176
     0
  0
VISUALSTYLE
  5
39
102
{ACAD_REACTORS
330
2A
102
}
330
2A
100
AcDbVisualStyle
  2
Facepattern
 70
    15
177
     3
291
     1
 70
    58
 90
        2
176
     1
 90
        2
176
     1
 90
        0
176
     1
 90
        0
176
     1
 40
0.6
176
     1
 40
30.0
176
     1
 62
     7
420
 16777215
176
     1
 90
        1
176
     1
 90
        4
176
     1
 62
     7
176
     1
 62
   257
176
     1
 90
        1
176
     1
 90
        1
176
     1
 40
1.0
176
     1
 90
        8
176
     1
 62
     7
176
     1
 40
1.0
176
     1
 90
        1
176
     1
 90
        6
176
     1
 90
        2
176
     1
 62
     7
176
     1
 90
        5
176
     1
 90
        0
176
     1
 90
        0
176
     1
290
     0
176
     1
 90
        1
176
     1
 40
0.0
176
     1
 90
        0
176
     1
290
     0
176
     1
290
     1
176
     1
290
     1
176
     1
290
     0
176
     1
290
     0
176
     1
290
     0
176
     1
290
     0
176
     1
290
     0
176
     1
290
     0
176
     1
 90
       50
176
     1
 40
0.0
176
     1
 40
1.0
176
     1
 90
        0
176
     1
 62
    18
420
        0
176
     1
 90
       50
176
     1
 90
        3
176
     1
 62
     5
420
      255
176
     1
290
     0
176
     1
 90
       50
176
     1
 90
       50
176
     1
 90
       50
176
     1
290
     0
176
     1
 90
       50
176
     1
 62
   256
176
     0
 40
1.0
176
     0
 90
        2
176
     1
  1
strokes_ogs.tif
176
     1
290
     0
176
     1
 40
1.0
176
     1
 40
1.0
176
     1
  0
VISUALSTYLE
  5
2B
102
{ACAD_REACTORS
330
2A
102
}
330
2A
100
AcDbVisualStyle
  2
Flat
 70
     0
177
     3
291
     1
 70
    58
 90
        2
176
     1
 90
        1
176
     1
 90
        1
176
     1
 90
        2
176
     1
 40
0.6
176
     1
 40
30.0
176
     1
 62
     7
420
 16777215
176
     1
 90
        0
176
     1
 90
        0
176
     1
 62
     7
176
     1
 62
   257
176
     1
 90
        1
176
     1
 90
        1
176
     1
 40
1.0
176
     1
 90
        8
176
     1
 62
     7
176
     1
 40
1.0
176
     1
 90
        1
176
     1
 90
        6
176
     1
 90
        2
176
     1
 62
     7
176
     1
 90
        5
176
     1
 90
        0
176
     1
 90
        0
176
     1
290
     0
176
     1
 90
       13
176
     1
 40
0.0
176
     1
 90
        0
176
     1
290
     0
176
     1
290
     1
176
     1
290
     1
176
     1
290
     0
176
     1
290
     0
176
     1
290
     0
176
     1
290
     0
176
     1
290
     0
176
     1
290
     0
176
     1
 90
       50
176
     1
 40
0.0
176
     1
 40
1.0
176
     1
 90
        0
176
     1
 62
    18
420
        0
176
     1
 90
       50
176
     1
 90
        3
176
     1
 62
     5
420
      255
176
     1
290
     0
176
     1
 90
       50
176
     1
 90
       50
176
     1
 90
       50
176
     1
290
     0
176
     1
 90
       50
176
     1
 62
   256
176
     0
 40
1.0
176
     0
 90
        2
176
     1
  1
strokes_ogs.tif
176
     1
290
     0
176
     1
 40
1.0
176
     1
 40
1.0
176
     1
  0
VISUALSTYLE
  5
2C
102
{ACAD_REACTORS
330
2A
102
}
330
2A
100
AcDbVisualStyle
  2
FlatWithEdges
 70
     1
177
     3
291
     1
 70
    58
 90
        2
176
     1
 90
        1
176
     1
 90
        1
176
     1
 90
        2
176
     1
 40
0.6
176
     1
 40
30.0
176
     1
 62
     7
420
 16777215
176
     1
 90
        1
176
     1
 90
        0
176
     1
 62
     7
176
     1
 62
   257
176
     1
 90
        1
176
     1
 90
        1
176
     1
 40
1.0
176
     1
 90
        0
176
     1
 62
   257
176
     1
 40
1.0
176
     1
 90
        1
176
     1
 90
        6
176
     1
 90
        2
176
     1
 62
     7
176
     1
 90
        5
176
     1
 90
        0
176
     1
 90
        0
176
     1
290
     0
176
     1
 90
       13
176
     1
 40
0.0
176
     1
 90
        0
176
     1
290
     0
176
     1
290
     1
176
     1
290
     1
176
     1
290
     0
176
     1
290
     0
176
     1
290
     0
176
     1
290
     0
176
     1
290
     0
176
     1
290
     0
176
     1
 90
       50
176
     1
 40
0.0
176
     1
 40
1.0
176
     1
 90
        0
176
     1
 62
    18
420
        0
176
     1
 90
       50
176
     1
 90
        3
176
     1
 62
     5
420
      255
176
     1
290
     0
176
     1
 90
       50
176
     1
 90
       50
176
     1
 90
       50
176
     1
290
     0
176
     1
 90
       50
176
     1
 62
   256
176
     0
 40
1.0
176
     0
 90
        2
176
     1
  1
strokes_ogs.tif
176
     1
290
     0
176
     1
 40
1.0
176
     1
 40
1.0
176
     1
  0
VISUALSTYLE
  5
2D
102
{ACAD_REACTORS
330
2A
102
}
330
2A
100
AcDbVisualStyle
  2
Gouraud
 70
     2
177
     3
291
     1
 70
    58
 90
        2
176
     1
 90
        2
176
     1
 90
        1
176
     1
 90
        2
176
     1
 40
0.6
176
     1
 40
30.0
176
     1
 62
     7
420
 16777215
176
     1
 90
        0
176
     1
 90
        0
176
     1
 62
     7
176
     1
 62
   257
176
     1
 90
        1
176
     1
 90
        1
176
     1
 40
1.0
176
     1
 90
        0
176
     1
 62
     7
176
     1
 40
1.0
176
     1
 90
        1
176
     1
 90
        6
176
     1
 90
        2
176
     1
 62
     7
176
     1
 90
        5
176
     1
 90
        0
176
     1
 90
        0
176
     1
290
     0
176
     1
 90
       13
176
     1
 40
0.0
176
     1
 90
        0
176
     1
290
     0
176
     1
290
     1
176
     1
290
     1
176
     1
290
     0
176
     1
290
     0
176
     1
290
     0
176
     1
290
     0
176
     1
290
     0
176
     1
290
     0
176
     1
 90
       50
176
     1
 40
0.0
176
     1
 40
1.0
176
     1
 90
        0
176
     1
 62
    18
420
        0
176
     1
 90
       50
176
     1
 90
        3
176
     1
 62
     5
420
      255
176
     1
290
     0
176
     1
 90
       50
176
     1
 90
       50
176
     1
 90
       50
176
     1
290
     0
176
     1
 90
       50
176
     1
 62
   256
176
     0
 40
1.0
176
     0
 90
        2
176
     1
  1
strokes_ogs.tif
176
     1
290
     0
176
     1
 40
1.0
176
     1
 40
1.0
176
     1
  0
VISUALSTYLE
  5
2E
102
{ACAD_REACTORS
330
2A
102
}
330
2A
100
AcDbVisualStyle
  2
GouraudWithEdges
 70
     3
177
     3
291
     1
 70
    58
 90
        2
176
     1
 90
        2
176
     1
 90
        1
176
     1
 90
        2
176
     1
 40
0.6
176
     1
 40
30.0
176
     1
 62
     7
420
 16777215
176
     1
 90
        1
176
     1
 90
        0
176
     1
 62
     7
176
     1
 62
   257
176
     1
 90
        1
176
     1
 90
        1
176
     1
 40
1.0
176
     1
 90
        0
176
     1
 62
   257
176
     1
 40
1.0
176
     1
 90
        1
176
     1
 90
        6
176
     1
 90
        2
176
     1
 62
     7
176
     1
 90
        5
176
     1
 90
        0
176
     1
 90
        0
176
     1
290
     0
176
     1
 90
       13
176
     1
 40
0.0
176
     1
 90
        0
176
     1
290
     0
176
     1
290
     1
176
     1
290
     1
176
     1
290
     0
176
     1
290
     0
176
     1
290
     0
176
     1
290
     0
176
     1
290
     0
176
     1
290
     0
176
     1
 90
       50
176
     1
 40
0.0
176
     1
 40
1.0
176
     1
 90
        0
176
     1
 62
    18
420
        0
176
     1
 90
       50
176
     1
 90
        3
176
     1
 62
     5
420
      255
176
     1
290
     0
176
     1
 90
       50
176
     1
 90
       50
176
     1
 90
       50
176
     1
290
     0
176
     1
 90
       50
176
     1
 62
   256
176
     0
 40
1.0
176
     0
 90
        2
176
     1
  1
strokes_ogs.tif
176
     1
290
     0
176
     1
 40
1.0
176
     1
 40
1.0
176
     1
  0
VISUALSTYLE
  5
31
102
{ACAD_REACTORS
330
2A
102
}
330
2A
100
AcDbVisualStyle
  2
Hidden
 70
     6
177
     3
291
     0
 70
    58
 90
        1
176
     1
 90
        2
176
     1
 90
        2
176
     1
 90
        0
176
     1
 40
0.6
176
     1
 40
30.0
176
     1
 62
     7
420
 16777215
176
     1
 90
        2
176
     1
 90
        2
176
     1
 62
     7
176
     1
 62
   257
176
     1
 90
        2
176
     1
 90
        1
176
     1
 40
40.0
176
     1
 90
        0
176
     1
 62
   257
176
     1
 40
1.0
176
     1
 90
        1
176
     1
 90
        6
176
     1
 90
        2
176
     1
 62
     7
176
     1
 90
        3
176
     1
 90
        0
176
     1
 90
        0
176
     1
290
     0
176
     1
 90
        1
176
     1
 40
0.0
176
     1
 90
        0
176
     1
290
     0
176
     1
290
     1
176
     1
290
     1
176
     1
290
     0
176
     1
290
     0
176
     1
290
     0
176
     1
290
     0
176
     1
290
     0
176
     1
290
     0
176
     1
 90
       50
176
     1
 40
0.0
176
     1
 40
1.0
176
     1
 90
        0
176
     1
 62
    18
420
        0
176
     1
 90
       50
176
     1
 90
        3
176
     1
 62
     5
420
      255
176
     1
290
     0
176
     1
 90
       50
176
     1
 90
       50
176
     1
 90
       50
176
     1
290
     0
176
     1
 90
       50
176
     1
 62
   256
176
     0
 40
1.0
176
     0
 90
        2
176
     1
  1
strokes_ogs.tif
176
     1
290
     0
176
     1
 40
1.0
176
     1
 40
1.0
176
     1
  0
VISUALSTYLE
  5
3B
102
{ACAD_REACTORS
330
2A
102
}
330
2A
100
AcDbVisualStyle
  2
JitterOff
 70
    20
177
     3
291
     1
 70
    58
 90
        2
176
     0
 90
        2
176
     0
 90
        0
176
     0
 90
        0
176
     0
 40
0.6
176
     0
 40
30.0
176
     0
 62
     7
420
 16777215
176
     0
 90
        1
176
     0
 90
        4
176
     0
 62
     7
176
     0
 62
   257
176
     0
 90
        1
176
     0
 90
        1
176
     0
 40
1.0
176
     0
 90
       10
176
     2
 62
     7
176
     0
 40
1.0
176
     0
 90
        1
176
     0
 90
        6
176
     0
 90
        2
176
     0
 62
     7
176
     0
 90
        5
176
     0
 90
        0
176
     0
 90
        0
176
     0
290
     0
176
     0
 90
        1
176
     0
 40
0.0
176
     0
 90
        0
176
     0
290
     0
176
     0
290
     1
176
     0
290
     1
176
     0
290
     0
176
     0
290
     0
176
     0
290
     0
176
     0
290
     0
176
     0
290
     0
176
     0
290
     0
176
     0
 90
       50
176
     0
 40
0.0
176
     0
 40
1.0
176
     0
 90
        0
176
     0
 62
    18
420
        0
176
     0
 90
       50
176
     0
 90
        3
176
     0
 62
     5
420
      255
176
     0
290
     0
176
     0
 90
       50
176
     0
 90
       50
176
     0
 90
       50
176
     0
290
     0
176
     0
 90
       50
176
     0
 62
   256
176
     0
 40
1.0
176
     0
 90
        2
176
     0
  1
strokes_ogs.tif
176
     0
290
     0
176
     0
 40
1.0
176
     0
 40
1.0
176
     0
  0
VISUALSTYLE
  5
38
102
{ACAD_REACTORS
330
2A
102
}
330
2A
100
AcDbVisualStyle
  2
Linepattern
 70
    14
177
     3
291
     1
 70
    58
 90
        2
176
     1
 90
        2
176
     1
 90
        0
176
     1
 90
        0
176
     1
 40
0.6
176
     1
 40
30.0
176
     1
 62
     7
420
 16777215
176
     1
 90
        1
176
     1
 90
        4
176
     1
 62
     7
176
     1
 62
   257
176
     1
 90
        7
176
     1
 90
        7
176
     1
 40
1.0
176
     1
 90
        8
176
     1
 62
     7
176
     1
 40
1.0
176
     1
 90
        1
176
     1
 90
        6
176
     1
 90
        2
176
     1
 62
     7
176
     1
 90
        5
176
     1
 90
        0
176
     1
 90
        0
176
     1
290
     0
176
     1
 90
        1
176
     1
 40
0.0
176
     1
 90
        0
176
     1
290
     0
176
     1
290
     1
176
     1
290
     1
176
     1
290
     0
176
     1
290
     0
176
     1
290
     0
176
     1
290
     0
176
     1
290
     0
176
     1
290
     0
176
     1
 90
       50
176
     1
 40
0.0
176
     1
 40
1.0
176
     1
 90
        0
176
     1
 62
    18
420
        0
176
     1
 90
       50
176
     1
 90
        3
176
     1
 62
     5
420
      255
176
     1
290
     0
176
     1
 90
       50
176
     1
 90
       50
176
     1
 90
       50
176
     1
290
     0
176
     1
 90
       50
176
     1
 62
   256
176
     0
 40
1.0
176
     0
 90
        2
176
     1
  1
strokes_ogs.tif
176
     1
290
     0
176
     1
 40
1.0
176
     1
 40
1.0
176
     1
  0
VISUALSTYLE
  5
3C
102
{ACAD_REACTORS
330
2A
102
}
330
2A
100
AcDbVisualStyle
  2
OverhangOff
 70
    21
177
     3
291
     1
 70
    58
 90
        2
176
     0
 90
        2
176
     0
 90
        0
176
     0
 90
        0
176
     0
 40
0.6
176
     0
 40
30.0
176
     0
 62
     7
420
 16777215
176
     0
 90
        1
176
     0
 90
        4
176
     0
 62
     7
176
     0
 62
   257
176
     0
 90
        1
176
     0
 90
        1
176
     0
 40
1.0
176
     0
 90
        9
176
     2
 62
     7
176
     0
 40
1.0
176
     0
 90
        1
176
     0
 90
        6
176
     0
 90
        2
176
     0
 62
     7
176
     0
 90
        5
176
     0
 90
        0
176
     0
 90
        0
176
     0
290
     0
176
     0
 90
        1
176
     0
 40
0.0
176
     0
 90
        0
176
     0
290
     0
176
     0
290
     1
176
     0
290
     1
176
     0
290
     0
176
     0
290
     0
176
     0
290
     0
176
     0
290
     0
176
     0
290
     0
176
     0
290
     0
176
     0
 90
       50
176
     0
 40
0.0
176
     0
 40
1.0
176
     0
 90
        0
176
     0
 62
    18
420
        0
176
     0
 90
       50
176
     0
 90
        3
176
     0
 62
     5
420
      255
176
     0
290
     0
176
     0
 90
       50
176
     0
 90
       50
176
     0
 90
       50
176
     0
290
     0
176
     0
 90
       50
176
     0
 62
   256
176
     0
 40
1.0
176
     0
 90
        2
176
     0
  1
strokes_ogs.tif
176
     0
290
     0
176
     0
 40
1.0
176
     0
 40
1.0
176
     0
  0
VISUALSTYLE
  5
33
102
{ACAD_REACTORS
330
2A
102
}
330
2A
100
AcDbVisualStyle
  2
Realistic
 70
     8
177
     3
291
     0
 70
    58
 90
        2
176
     1
 90
        3
176
     1
 90
        0
176
     1
 90
        2
176
     1
 40
0.6
176
     1
 40
30.0
176
     1
 62
     7
420
 16777215
176
     1
 90
        0
176
     1
 90
        0
176
     1
 62
     7
176
     1
 62
   257
176
     1
 90
        1
176
     1
 90
        1
176
     1
 40
1.0
176
     1
 90
        8
176
     1
 62
   257
176
     1
 40
1.0
176
     1
 90
        1
176
     1
 90
        6
176
     1
 90
        2
176
     1
 62
     7
176
     1
 90
        3
176
     1
 90
        0
176
     1
 90
        0
176
     1
290
     0
176
     1
 90
       13
176
     1
 40
0.0
176
     1
 90
        0
176
     1
290
     0
176
     1
290
     1
176
     1
290
     1
176
     1
290
     0
176
     1
290
     0
176
     1
290
     0
176
     1
290
     0
176
     1
290
     0
176
     1
290
     0
176
     1
 90
       50
176
     1
 40
0.0
176
     1
 40
1.0
176
     1
 90
        0
176
     1
 62
    18
420
        0
176
     1
 90
       50
176
     1
 90
        3
176
     1
 62
     5
420
      255
176
     1
290
     0
176
     1
 90
       50
176
     1
 90
       50
176
     1
 90
       50
176
     1
290
     0
176
     1
 90
       50
176
     1
 62
   256
176
     0
 40
1.0
176
     0
 90
        2
176
     1
  1
strokes_ogs.tif
176
     1
290
     0
176
     1
 40
1.0
176
     1
 40
1.0
176
     1
  0
VISUALSTYLE
  5
42
102
{ACAD_REACTORS
330
2A
102
}
330
2A
100
AcDbVisualStyle
  2
Shaded
 70
    27
177
     3
291
     0
 70
    58
 90
        2
176
     1
 90
        2
176
     1
 90
        1
176
     1
 90
        2
176
     1
 40
0.6
176
     1
 40
30.0
176
     1
 62
     7
420
 16777215
176
     1
 90
        0
176
     1
 90
        4
176
     1
 62
     7
176
     1
 62
   257
176
     1
 90
        1
176
     1
 90
        1
176
     1
 40
1.0
176
     1
 90
        8
176
     1
 62
   257
176
     1
 40
1.0
176
     1
 90
        1
176
     1
 90
        6
176
     1
 90
        2
176
     1
 62
     8
420
  7895160
176
     1
 90
        3
176
     1
 90
        0
176
     1
 90
        0
176
     1
290
     0
176
     1
 90
        5
176
     1
 40
0.0
176
     1
 90
        0
176
     1
290
     0
176
     1
290
     1
176
     1
290
     1
176
     1
290
     0
176
     1
290
     0
176
     1
290
     0
176
     1
290
     0
176
     1
290
     0
176
     1
290
     0
176
     1
 90
       50
176
     1
 40
0.0
176
     1
 40
1.0
176
     1
 90
        0
176
     1
 62
    18
420
        0
176
     1
 90
       50
176
     1
 90
        3
176
     1
 62
     5
420
      255
176
     1
290
     0
176
     1
 90
       50
176
     1
 90
       50
176
     1
 90
       50
176
     1
290
     0
176
     1
 90
       50
176
     1
 62
   256
176
     0
 40
1.0
176
     0
 90
        2
176
     1
  1
strokes_ogs.tif
176
     1
290
     0
176
     1
 40
1.0
176
     1
 40
1.0
176
     1
  0
VISUALSTYLE
  5
41
102
{ACAD_REACTORS
330
2A
102
}
330
2A
100
AcDbVisualStyle
  2
Shaded with edges
 70
    26
177
     3
291
     0
 70
    58
 90
        2
176
     1
 90
        2
176
     1
 90
        1
176
     1
 90
        2
176
     1
 40
0.6
176
     1
 40
30.0
176
     1
 62
     7
420
 16777215
176
     1
 90
        1
176
     1
 90
       10
176
     1
 62
     7
176
     1
 62
   257
176
     1
 90
        2
176
     1
 90
        1
176
     1
 40
1.0
176
     1
 90
        8
176
     1
 62
   257
176
     1
 40
1.0
176
     1
 90
        1
176
     1
 90
        6
176
     1
 90
        2
176
     1
 62
     7
176
     1
 90
        3
176
     1
 90
        0
176
     1
 90
        0
176
     1
290
     0
176
     1
 90
        5
176
     1
 40
0.0
176
     1
 90
        0
176
     1
290
     0
176
     1
290
     1
176
     1
290
     1
176
     1
290
     0
176
     1
290
     0
176
     1
290
     0
176
     1
290
     0
176
     1
290
     0
176
     1
290
     0
176
     1
 90
       50
176
     1
 40
0.0
176
     1
 40
1.0
176
     1
 90
        0
176
     1
 62
    18
420
        0
176
     1
 90
       50
176
     1
 90
        3
176
     1
 62
     5
420
      255
176
     1
290
     0
176
     1
 90
       50
176
     1
 90
       50
176
     1
 90
       50
176
     1
290
     0
176
     1
 90
       50
176
     1
 62
   256
176
     0
 40
1.0
176
     0
 90
        2
176
     1
  1
strokes_ogs.tif
176
     1
290
     0
176
     1
 40
1.0
176
     1
 40
1.0
176
     1
  0
VISUALSTYLE
  5
3E
102
{ACAD_REACTORS
330
2A
102
}
330
2A
100
AcDbVisualStyle
  2
Shades of Gray
 70
    23
177
     3
291
     0
 70
    58
 90
        2
176
     1
 90
        2
176
     1
 90
        3
176
     1
 90
        0
176
     1
 40
0.6
176
     1
 40
30.0
176
     1
 62
     7
420
 16777215
176
     1
 90
        2
176
     1
 90
        2
176
     1
 62
     7
176
     1
 62
     7
176
     1
 90
        1
176
     1
 90
        1
176
     1
 40
40.0
176
     1
 90
        8
176
     1
 62
     7
176
     1
 40
1.0
176
     1
 90
        1
176
     1
 90
        6
176
     1
 90
        2
176
     1
 62
     7
176
     1
 90
        3
176
     1
 90
        0
176
     1
 90
        0
176
     1
290
     0
176
     1
 90
        1
176
     1
 40
0.0
176
     1
 90
        0
176
     1
290
     0
176
     1
290
     1
176
     1
290
     1
176
     1
290
     0
176
     1
290
     0
176
     1
290
     0
176
     1
290
     0
176
     1
290
     0
176
     1
290
     0
176
     1
 90
       50
176
     1
 40
0.0
176
     1
 40
1.0
176
     1
 90
        0
176
     1
 62
    18
420
        0
176
     1
 90
       50
176
     1
 90
        3
176
     1
 62
     5
420
      255
176
     1
290
     0
176
     1
 90
       50
176
     1
 90
       50
176
     1
 90
       50
176
     1
290
     0
176
     1
 90
       50
176
     1
 62
   256
176
     0
 40
1.0
176
     0
 90
        2
176
     1
  1
strokes_ogs.tif
176
     1
290
     0
176
     1
 40
1.0
176
     1
 40
1.0
176
     1
  0
VISUALSTYLE
  5
3F
102
{ACAD_REACTORS
330
2A
102
}
330
2A
100
AcDbVisualStyle
  2
Sketchy
 70
    24
177
     3
291
     0
 70
    58
 90
        1
176
     1
 90
        2
176
     1
 90
        2
176
     1
 90
        0
176
     1
 40
0.6
176
     1
 40
30.0
176
     1
 62
     7
420
 16777215
176
     1
 90
        2
176
     1
 90
        2
176
     1
 62
     7
176
     1
 62
     7
176
     1
 90
        1
176
     1
 90
        1
176
     1
 40
40.0
176
     1
 90
       11
176
     1
 62
     7
176
     1
 40
1.0
176
     1
 90
        1
176
     1
 90
        6
176
     1
 90
        2
176
     1
 62
     7
176
     1
 90
        6
176
     1
 90
        0
176
     1
 90
        0
176
     1
290
     0
176
     1
 90
        1
176
     1
 40
0.0
176
     1
 90
        0
176
     1
290
     0
176
     1
290
     1
176
     1
290
     1
176
     1
290
     0
176
     1
290
     0
176
     1
290
     0
176
     1
290
     0
176
     1
290
     0
176
     1
290
     0
176
     1
 90
       50
176
     1
 40
0.0
176
     1
 40
1.0
176
     1
 90
        0
176
     1
 62
    18
420
        0
176
     1
 90
       50
176
     1
 90
        3
176
     1
 62
     5
420
      255
176
     1
290
     0
176
     1
 90
       50
176
     1
 90
       50
176
     1
 90
       50
176
     1
290
     0
176
     1
 90
       50
176
     1
 62
   256
176
     0
 40
1.0
176
     0
 90
        2
176
     1
  1
strokes_ogs.tif
176
     1
290
     0
176
     1
 40
1.0
176
     1
 40
1.0
176
     1
  0
VISUALSTYLE
  5
37
102
{ACAD_REACTORS
330
2A
102
}
330
2A
100
AcDbVisualStyle
  2
Thicken
 70
    13
177
     3
291
     1
 70
    58
 90
        2
176
     1
 90
        2
176
     1
 90
        0
176
     1
 90
        0
176
     1
 40
0.6
176
     1
 40
30.0
176
     1
 62
     7
420
 16777215
176
     1
 90
        1
176
     1
 90
        4
176
     1
 62
     7
176
     1
 62
   257
176
     1
 90
        1
176
     1
 90
        1
176
     1
 40
1.0
176
     1
 90
       12
176
     1
 62
     7
176
     1
 40
1.0
176
     1
 90
        1
176
     1
 90
        6
176
     1
 90
        2
176
     1
 62
     7
176
     1
 90
        5
176
     1
 90
        0
176
     1
 90
        0
176
     1
290
     0
176
     1
 90
        1
176
     1
 40
0.0
176
     1
 90
        0
176
     1
290
     0
176
     1
290
     1
176
     1
290
     1
176
     1
290
     0
176
     1
290
     0
176
     1
290
     0
176
     1
290
     0
176
     1
290
     0
176
     1
290
     0
176
     1
 90
       50
176
     1
 40
0.0
176
     1
 40
1.0
176
     1
 90
        0
176
     1
 62
    18
420
        0
176
     1
 90
       50
176
     1
 90
        3
176
     1
 62
     5
420
      255
176
     1
290
     0
176
     1
 90
       50
176
     1
 90
       50
176
     1
 90
       50
176
     1
290
     0
176
     1
 90
       50
176
     1
 62
   256
176
     0
 40
1.0
176
     0
 90
        2
176
     1
  1
strokes_ogs.tif
176
     1
290
     0
176
     1
 40
1.0
176
     1
 40
1.0
176
     1
  0
VISUALSTYLE
  5
30
102
{ACAD_REACTORS
330
2A
102
}
330
2A
100
AcDbVisualStyle
  2
Wireframe
 70
     5
177
     3
291
     0
 70
    58
 90
        0
176
     1
 90
        2
176
     1
 90
        0
176
     1
 90
        0
176
     1
 40
0.6
176
     1
 40
30.0
176
     1
 62
     7
420
 16777215
176
     1
 90
        1
176
     1
 90
        4
176
     1
 62
     7
176
     1
 62
   257
176
     1
 90
        1
176
     1
 90
        1
176
     1
 40
1.0
176
     1
 90
        0
176
     1
 62
   257
176
     1
 40
1.0
176
     1
 90
        1
176
     1
 90
        6
176
     1
 90
        2
176
     1
 62
     7
176
     1
 90
        3
176
     1
 90
        0
176
     1
 90
        0
176
     1
290
     0
176
     1
 90
        1
176
     1
 40
0.0
176
     1
 90
        0
176
     1
290
     0
176
     1
290
     1
176
     1
290
     1
176
     1
290
     0
176
     1
290
     0
176
     1
290
     0
176
     1
290
     0
176
     1
290
     0
176
     1
290
     0
176
     1
 90
       50
176
     1
 40
0.0
176
     1
 40
1.0
176
     1
 90
        0
176
     1
 62
    18
420
        0
176
     1
 90
       50
176
     1
 90
        3
176
     1
 62
     5
420
      255
176
     1
290
     0
176
     1
 90
       50
176
     1
 90
       50
176
     1
 90
       50
176
     1
290
     0
176
     1
 90
       50
176
     1
 62
   256
176
     0
 40
1.0
176
     0
 90
        2
176
     1
  1
strokes_ogs.tif
176
     1
290
     0
176
     1
 40
1.0
176
     1
 40
1.0
176
     1
  0
VISUALSTYLE
  5
40
102
{ACAD_REACTORS
330
2A
102
}
330
2A
100
AcDbVisualStyle
  2
X-Ray
 70
    25
177
     3
291
     0
 70
    58
 90
        2
176
     1
 90
        2
176
     1
 90
        1
176
     1
 90
        1
176
     1
 40
0.5
176
     1
 40
30.0
176
     1
 62
     7
420
 16777215
176
     1
 90
        1
176
     1
 90
        0
176
     1
 62
     7
176
     1
 62
   257
176
     1
 90
        1
176
     1
 90
        1
176
     1
 40
1.0
176
     1
 90
        8
176
     1
 62
     7
176
     1
 40
1.0
176
     1
 90
        1
176
     1
 90
        6
176
     1
 90
        2
176
     1
 62
     7
176
     1
 90
        3
176
     1
 90
        0
176
     1
 90
        0
176
     1
290
     0
176
     1
 90
       13
176
     1
 40
0.0
176
     1
 90
        0
176
     1
290
     0
176
     1
290
     1
176
     1
290
     1
176
     1
290
     0
176
     1
290
     0
176
     1
290
     0
176
     1
290
     0
176
     1
290
     0
176
     1
290
     0
176
     1
 90
       50
176
     1
 40
0.0
176
     1
 40
1.0
176
     1
 90
        0
176
     1
 62
    18
420
        0
176
     1
 90
       50
176
     1
 90
        3
176
     1
 62
     5
420
      255
176
     1
290
     0
176
     1
 90
       50
176
     1
 90
       50
176
     1
 90
       50
176
     1
290
     0
176
     1
 90
       50
176
     1
 62
   256
176
     0
 40
1.0
176
     0
 90
        2
176
     1
  1
strokes_ogs.tif
176
     1
290
     0
176
     1
 40
1.0
176
     1
 40
1.0
176
     1
  0
DICTIONARYVAR
  5
1C9
102
{ACAD_REACTORS
330
1C8
102
}
330
1C8
100
DictionaryVariables
280
     0
  1
1:1
  0
DICTIONARYVAR
  5
1CE
102
{ACAD_REACTORS
330
1C8
102
}
330
1C8
100
DictionaryVariables
280
     0
  1
Standard
  0
DICTIONARYVAR
  5
1CD
102
{ACAD_REACTORS
330
1C8
102
}
330
1C8
100
DictionaryVariables
280
     0
  1
Standard
  0
DICTIONARY
  5
1CA
330
6A
100
AcDbDictionary
280
     1
281
     1
  3
ACAD_ROUNDTRIP_2008_TABLESTYLE_CELLSTYLEMAP
360
1CB
  0
CELLSTYLEMAP
  5
1CB
102
{ACAD_REACTORS
330
1CA
102
}
330
1CA
100
AcDbCellStyleMap
 90
        3
300
CELLSTYLE
  1
TABLEFORMAT_BEGIN
 90
        5
170
     1
 91
        0
 92
    32768
 62
   257
 93
        1
300
CONTENTFORMAT
  1
CONTENTFORMAT_BEGIN
 90
        0
 91
        0
 92
        4
 93
        0
300

 40
0.0
140
1.0
 94
        5
 62
     0
340
11
144
6.0
309
CONTENTFORMAT_END
171
     1
301
MARGIN
  1
CELLMARGIN_BEGIN
 40
1.5
 40
1.5
 40
1.5
 40
1.5
 40
1.5
 40
1.5
309
CELLMARGIN_END
 94
        6
 95
        1
302
GRIDFORMAT
  1
GRIDFORMAT_BEGIN
 90
        0
 91
        1
 62
     0
 92
       -2
340
14
 93
        0
 40
0.045
309
GRIDFORMAT_END
 95
        2
302
GRIDFORMAT
  1
GRIDFORMAT_BEGIN
 90
        0
 91
        1
 62
     0
 92
       -2
340
14
 93
        0
 40
0.045
309
GRIDFORMAT_END
 95
        4
302
GRIDFORMAT
  1
GRIDFORMAT_BEGIN
 90
        0
 91
        1
 62
     0
 92
       -2
340
14
 93
        0
 40
0.045
309
GRIDFORMAT_END
 95
        8
302
GRIDFORMAT
  1
GRIDFORMAT_BEGIN
 90
        0
 91
        1
 62
     0
 92
       -2
340
14
 93
        0
 40
0.045
309
GRIDFORMAT_END
 95
       16
302
GRIDFORMAT
  1
GRIDFORMAT_BEGIN
 90
        0
 91
        1
 62
     0
 92
       -2
340
14
 93
        0
 40
0.045
309
GRIDFORMAT_END
 95
       32
302
GRIDFORMAT
  1
GRIDFORMAT_BEGIN
 90
        0
 91
        1
 62
     0
 92
       -2
340
14
 93
        0
 40
0.045
309
GRIDFORMAT_END
309
TABLEFORMAT_END
  1
CELLSTYLE_BEGIN
 90
        1
 91
        1
300
_TITLE
309
CELLSTYLE_END
300
CELLSTYLE
  1
TABLEFORMAT_BEGIN
 90
        5
170
     1
 91
        0
 92
        0
 62
   257
 93
        1
300
CONTENTFORMAT
  1
CONTENTFORMAT_BEGIN
 90
        0
 91
        0
 92
        4
 93
        0
300

 40
0.0
140
1.0
 94
        5
 62
     0
340
11
144
4.5
309
CONTENTFORMAT_END
171
     1
301
MARGIN
  1
CELLMARGIN_BEGIN
 40
1.5
 40
1.5
 40
1.5
 40
1.5
 40
1.5
 40
1.5
309
CELLMARGIN_END
 94
        6
 95
        1
302
GRIDFORMAT
  1
GRIDFORMAT_BEGIN
 90
        0
 91
        1
 62
     0
 92
       -2
340
14
 93
        0
 40
0.045
309
GRIDFORMAT_END
 95
        2
302
GRIDFORMAT
  1
GRIDFORMAT_BEGIN
 90
        0
 91
        1
 62
     0
 92
       -2
340
14
 93
        0
 40
0.045
309
GRIDFORMAT_END
 95
        4
302
GRIDFORMAT
  1
GRIDFORMAT_BEGIN
 90
        0
 91
        1
 62
     0
 92
       -2
340
14
 93
        0
 40
0.045
309
GRIDFORMAT_END
 95
        8
302
GRIDFORMAT
  1
GRIDFORMAT_BEGIN
 90
        0
 91
        1
 62
     0
 92
       -2
340
14
 93
        0
 40
0.045
309
GRIDFORMAT_END
 95
       16
302
GRIDFORMAT
  1
GRIDFORMAT_BEGIN
 90
        0
 91
        1
 62
     0
 92
       -2
340
14
 93
        0
 40
0.045
309
GRIDFORMAT_END
 95
       32
302
GRIDFORMAT
  1
GRIDFORMAT_BEGIN
 90
        0
 91
        1
 62
     0
 92
       -2
340
14
 93
        0
 40
0.045
309
GRIDFORMAT_END
309
TABLEFORMAT_END
  1
CELLSTYLE_BEGIN
 90
        2
 91
        1
300
_HEADER
309
CELLSTYLE_END
300
CELLSTYLE
  1
TABLEFORMAT_BEGIN
 90
        5
170
     1
 91
        0
 92
        0
 62
   257
 93
        1
300
CONTENTFORMAT
  1
CONTENTFORMAT_BEGIN
 90
        0
 91
        0
 92
        4
 93
        0
300

 40
0.0
140
1.0
 94
        2
 62
     0
340
11
144
4.5
309
CONTENTFORMAT_END
171
     1
301
MARGIN
  1
CELLMARGIN_BEGIN
 40
1.5
 40
1.5
 40
1.5
 40
1.5
 40
1.5
 40
1.5
309
CELLMARGIN_END
 94
        6
 95
        1
302
GRIDFORMAT
  1
GRIDFORMAT_BEGIN
 90
        0
 91
        1
 62
     0
 92
       -2
340
14
 93
        0
 40
0.045
309
GRIDFORMAT_END
 95
        2
302
GRIDFORMAT
  1
GRIDFORMAT_BEGIN
 90
        0
 91
        1
 62
     0
 92
       -2
340
14
 93
        0
 40
0.045
309
GRIDFORMAT_END
 95
        4
302
GRIDFORMAT
  1
GRIDFORMAT_BEGIN
 90
        0
 91
        1
 62
     0
 92
       -2
340
14
 93
        0
 40
0.045
309
GRIDFORMAT_END
 95
        8
302
GRIDFORMAT
  1
GRIDFORMAT_BEGIN
 90
        0
 91
        1
 62
     0
 92
       -2
340
14
 93
        0
 40
0.045
309
GRIDFORMAT_END
 95
       16
302
GRIDFORMAT
  1
GRIDFORMAT_BEGIN
 90
        0
 91
        1
 62
     0
 92
       -2
340
14
 93
        0
 40
0.045
309
GRIDFORMAT_END
 95
       32
302
GRIDFORMAT
  1
GRIDFORMAT_BEGIN
 90
        0
 91
        1
 62
     0
 92
       -2
340
14
 93
        0
 40
0.045
309
GRIDFORMAT_END
309
TABLEFORMAT_END
  1
CELLSTYLE_BEGIN
 90
        3
 91
        2
300
_DATA
309
CELLSTYLE_END
  0
ENDSEC
  0
EOF