0
SECTION
  2
HEADER
  9
$ACADVER
  1
AC1027
  9
$ACADMAINTVER
 70
     8
  9
$DWGCODEPAGE
  3
ANSI_1252
  9
$REQUIREDVERSIONS
160
                 0
  9
$COMMENTS
  1
File was created by Cadenas
  9
$CUSTOMPROPERTYTAG
  1
NN
  9
$CUSTOMPROPERTY
  1
Eccentric Collar Intermediate Duty Higher Back Two-Bolt Pillow Block Inch Bore
  9
$CUSTOMPROPERTYTAG
  1
NT
  9
$CUSTOMPROPERTY
  1
Eccentric Collar Pillow Block Bearings -(Intermediate Duty) -Higher Backing Height
  9
$CUSTOMPROPERTYTAG
  1
NB
  9
$CUSTOMPROPERTY
  1
053008
  9
$CUSTOMPROPERTYTAG
  1
NBSYN
  9
$CUSTOMPROPERTY
  1
$PN.
  9
$CUSTOMPROPERTYTAG
  1
LINA
  9
$CUSTOMPROPERTY
  1
053008
  9
$CUSTOMPROPERTYTAG
  1
SERIES
  9
$CUSTOMPROPERTY
  1
206
  9
$CUSTOMPROPERTYTAG
  1
SS
  9
$CUSTOMPROPERTY
  1
1-3/16
  9
$CUSTOMPROPERTYTAG
  1
PN
  9
$CUSTOMPROPERTY
  1
053008
  9
$CUSTOMPROPERTYTAG
  1
DESCRIPTION
  9
$CUSTOMPROPERTY
  1
P2B-SXVU-103-NL
  9
$CUSTOMPROPERTYTAG
  1
WEIGHT
  9
$CUSTOMPROPERTY
  1
2.80
  9
$CUSTOMPROPERTYTAG
  1
LF
  9
$CUSTOMPROPERTY
  1
NO-LUBE
  9
$CUSTOMPROPERTYTAG
  1
A
  9
$CUSTOMPROPERTY
  1
1.41
  9
$CUSTOMPROPERTYTAG
  1
B
  9
$CUSTOMPROPERTY
  1
6.25
  9
$CUSTOMPROPERTYTAG
  1
C
  9
$CUSTOMPROPERTY
  1
1.75
  9
$CUSTOMPROPERTYTAG
  1
DMIN
  9
$CUSTOMPROPERTY
  1
4.25
  9
$CUSTOMPROPERTYTAG
  1
DMAX
  9
$CUSTOMPROPERTY
  1
5.00
  9
$CUSTOMPROPERTYTAG
  1
F
  9
$CUSTOMPROPERTY
  1
1/2
  9
$CUSTOMPROPERTYTAG
  1
G
  9
$CUSTOMPROPERTY
  1
0.94
  9
$CUSTOMPROPERTYTAG
  1
H
  9
$CUSTOMPROPERTY
  1
0.75
  9
$CUSTOMPROPERTYTAG
  1
J
  9
$CUSTOMPROPERTY
  1
3.31
  9
$CUSTOMPROPERTYTAG
  1
L
  9
$CUSTOMPROPERTY
  1
1.75
  9
$CUSTOMPROPERTYTAG
  1
M
  9
$CUSTOMPROPERTY
  1
1.69
  9
$CUSTOMPROPERTYTAG
  1
R
  9
$CUSTOMPROPERTY
  1
0.35
  9
$CUSTOMPROPERTYTAG
  1
S
  9
$CUSTOMPROPERTY
  1
1.05
  9
$CUSTOMPROPERTYTAG
  1
U
  9
$CUSTOMPROPERTY
  1
2.88
  9
$CUSTOMPROPERTYTAG
  1
V
  9
$CUSTOMPROPERTY
  1
5.76
  9
$CUSTOMPROPERTYTAG
  1
W
  9
$CUSTOMPROPERTY
  1
0.56
  9
$CUSTOMPROPERTYTAG
  1
X
  9
$CUSTOMPROPERTY
  1
0.12
  9
$CUSTOMPROPERTYTAG
  1
COMPANY
  9
$CUSTOMPROPERTY
  1
baldor
  9
$INSBASE
 10
0.0
 20
0.0
 30
0.0
  9
$EXTMIN
 10
1.000000000000000E+20
 20
1.000000000000000E+20
 30
1.000000000000000E+20
  9
$EXTMAX
 10
-1.000000000000000E+20
 20
-1.000000000000000E+20
 30
-1.000000000000000E+20
  9
$LIMMIN
 10
0.0
 20
0.0
  9
$LIMMAX
 10
12.0
 20
9.0
  9
$ORTHOMODE
 70
     0
  9
$REGENMODE
 70
     1
  9
$FILLMODE
 70
     1
  9
$QTEXTMODE
 70
     0
  9
$MIRRTEXT
 70
     1
  9
$LTSCALE
 40
1.0
  9
$ATTMODE
 70
     1
  9
$TEXTSIZE
 40
0.2
  9
$TRACEWID
 40
0.05
  9
$TEXTSTYLE
  7
Standard
  9
$CLAYER
  8
0
  9
$CELTYPE
  6
ByLayer
  9
$CECOLOR
 62
   256
  9
$CELTSCALE
 40
1.0
  9
$DISPSILH
 70
     0
  9
$DIMSCALE
 40
1.0
  9
$DIMASZ
 40
0.18
  9
$DIMEXO
 40
0.0625
  9
$DIMDLI
 40
0.38
  9
$DIMRND
 40
0.0
  9
$DIMDLE
 40
0.0
  9
$DIMEXE
 40
0.18
  9
$DIMTP
 40
0.0
  9
$DIMTM
 40
0.0
  9
$DIMTXT
 40
0.18
  9
$DIMCEN
 40
0.09
  9
$DIMTSZ
 40
0.0
  9
$DIMTOL
 70
     0
  9
$DIMLIM
 70
     0
  9
$DIMTIH
 70
     1
  9
$DIMTOH
 70
     1
  9
$DIMSE1
 70
     0
  9
$DIMSE2
 70
     0
  9
$DIMTAD
 70
     0
  9
$DIMZIN
 70
     0
  9
$DIMBLK
  1

  9
$DIMASO
 70
     1
  9
$DIMSHO
 70
     1
  9
$DIMPOST
  1

  9
$DIMAPOST
  1

  9
$DIMALT
 70
     0
  9
$DIMALTD
 70
     2
  9
$DIMALTF
 40
25.4
  9
$DIMLFAC
 40
1.0
  9
$DIMTOFL
 70
     0
  9
$DIMTVP
 40
0.0
  9
$DIMTIX
 70
     0
  9
$DIMSOXD
 70
     0
  9
$DIMSAH
 70
     0
  9
$DIMBLK1
  1

  9
$DIMBLK2
  1

  9
$DIMSTYLE
  2
Standard
  9
$DIMCLRD
 70
     0
  9
$DIMCLRE
 70
     0
  9
$DIMCLRT
 70
     0
  9
$DIMTFAC
 40
1.0
  9
$DIMGAP
 40
0.09
  9
$DIMJUST
 70
     0
  9
$DIMSD1
 70
     0
  9
$DIMSD2
 70
     0
  9
$DIMTOLJ
 70
     1
  9
$DIMTZIN
 70
     0
  9
$DIMALTZ
 70
     0
  9
$DIMALTTZ
 70
     0
  9
$DIMUPT
 70
     0
  9
$DIMDEC
 70
     4
  9
$DIMTDEC
 70
     4
  9
$DIMALTU
 70
     2
  9
$DIMALTTD
 70
     2
  9
$DIMTXSTY
  7
Standard
  9
$DIMAUNIT
 70
     0
  9
$DIMADEC
 70
     0
  9
$DIMALTRND
 40
0.0
  9
$DIMAZIN
 70
     0
  9
$DIMDSEP
 70
    46
  9
$DIMATFIT
 70
     3
  9
$DIMFRAC
 70
     0
  9
$DIMLDRBLK
  1

  9
$DIMLUNIT
 70
     2
  9
$DIMLWD
 70
    -2
  9
$DIMLWE
 70
    -2
  9
$DIMTMOVE
 70
     0
  9
$DIMFXL
 40
1.0
  9
$DIMFXLON
 70
     0
  9
$DIMJOGANG
 40
0.7853981633974483
  9
$DIMTFILL
 70
     0
  9
$DIMTFILLCLR
 70
     0
  9
$DIMARCSYM
 70
     0
  9
$DIMLTYPE
  6

  9
$DIMLTEX1
  6

  9
$DIMLTEX2
  6

  9
$DIMTXTDIRECTION
 70
     0
  9
$LUNITS
 70
     2
  9
$LUPREC
 70
     4
  9
$SKETCHINC
 40
0.1
  9
$FILLETRAD
 40
0.5
  9
$AUNITS
 70
     0
  9
$AUPREC
 70
     0
  9
$MENU
  1
.
  9
$ELEVATION
 40
0.0
  9
$PELEVATION
 40
0.0
  9
$THICKNESS
 40
0.0
  9
$LIMCHECK
 70
     0
  9
$CHAMFERA
 40
0.0
  9
$CHAMFERB
 40
0.0
  9
$CHAMFERC
 40
0.0
  9
$CHAMFERD
 40
0.0
  9
$SKPOLY
 70
     0
  9
$TDCREATE
 40
2458169.003631586
  9
$TDUCREATE
 40
2458168.961964919
  9
$TDUPDATE
 40
2458169.003631586
  9
$TDUUPDATE
 40
2458168.961964919
  9
$TDINDWG
 40
0.0000000116
  9
$TDUSRTIMER
 40
0.0000000116
  9
$USRTIMER
 70
     1
  9
$ANGBASE
 50
0.0
  9
$ANGDIR
 70
     0
  9
$PDMODE
 70
     0
  9
$PDSIZE
 40
0.0
  9
$PLINEWID
 40
0.0
  9
$SPLFRAME
 70
     0
  9
$SPLINETYPE
 70
     6
  9
$SPLINESEGS
 70
     8
  9
$HANDSEED
  5
1D8
  9
$SURFTAB1
 70
     6
  9
$SURFTAB2
 70
     6
  9
$SURFTYPE
 70
     6
  9
$SURFU
 70
     6
  9
$SURFV
 70
     6
  9
$UCSBASE
  2

  9
$UCSNAME
  2

  9
$UCSORG
 10
0.0
 20
0.0
 30
0.0
  9
$UCSXDIR
 10
1.0
 20
0.0
 30
0.0
  9
$UCSYDIR
 10
0.0
 20
1.0
 30
0.0
  9
$UCSORTHOREF
  2

  9
$UCSORTHOVIEW
 70
     0
  9
$UCSORGTOP
 10
0.0
 20
0.0
 30
0.0
  9
$UCSORGBOTTOM
 10
0.0
 20
0.0
 30
0.0
  9
$UCSORGLEFT
 10
0.0
 20
0.0
 30
0.0
  9
$UCSORGRIGHT
 10
0.0
 20
0.0
 30
0.0
  9
$UCSORGFRONT
 10
0.0
 20
0.0
 30
0.0
  9
$UCSORGBACK
 10
0.0
 20
0.0
 30
0.0
  9
$PUCSBASE
  2

  9
$PUCSNAME
  2

  9
$PUCSORG
 10
0.0
 20
0.0
 30
0.0
  9
$PUCSXDIR
 10
1.0
 20
0.0
 30
0.0
  9
$PUCSYDIR
 10
0.0
 20
1.0
 30
0.0
  9
$PUCSORTHOREF
  2

  9
$PUCSORTHOVIEW
 70
     0
  9
$PUCSORGTOP
 10
0.0
 20
0.0
 30
0.0
  9
$PUCSORGBOTTOM
 10
0.0
 20
0.0
 30
0.0
  9
$PUCSORGLEFT
 10
0.0
 20
0.0
 30
0.0
  9
$PUCSORGRIGHT
 10
0.0
 20
0.0
 30
0.0
  9
$PUCSORGFRONT
 10
0.0
 20
0.0
 30
0.0
  9
$PUCSORGBACK
 10
0.0
 20
0.0
 30
0.0
  9
$USERI1
 70
     0
  9
$USERI2
 70
     0
  9
$USERI3
 70
     0
  9
$USERI4
 70
     0
  9
$USERI5
 70
     0
  9
$USERR1
 40
0.0
  9
$USERR2
 40
0.0
  9
$USERR3
 40
0.0
  9
$USERR4
 40
0.0
  9
$USERR5
 40
0.0
  9
$WORLDVIEW
 70
     1
  9
$SHADEDGE
 70
     3
  9
$SHADEDIF
 70
    70
  9
$TILEMODE
 70
     1
  9
$MAXACTVP
 70
    64
  9
$PINSBASE
 10
0.0
 20
0.0
 30
0.0
  9
$PLIMCHECK
 70
     0
  9
$PEXTMIN
 10
1.000000000000000E+20
 20
1.000000000000000E+20
 30
1.000000000000000E+20
  9
$PEXTMAX
 10
-1.000000000000000E+20
 20
-1.000000000000000E+20
 30
-1.000000000000000E+20
  9
$PLIMMIN
 10
0.0
 20
0.0
  9
$PLIMMAX
 10
12.0
 20
9.0
  9
$UNITMODE
 70
     0
  9
$VISRETAIN
 70
     1
  9
$PLINEGEN
 70
     0
  9
$PSLTSCALE
 70
     1
  9
$TREEDEPTH
 70
  3020
  9
$CMLSTYLE
  2
Standard
  9
$CMLJUST
 70
     0
  9
$CMLSCALE
 40
1.0
  9
$PROXYGRAPHICS
 70
     1
  9
$MEASUREMENT
 70
     0
  9
$CELWEIGHT
370
    -1
  9
$ENDCAPS
280
     0
  9
$JOINSTYLE
280
     0
  9
$LWDISPLAY
290
     0
  9
$INSUNITS
 70
     1
  9
$HYPERLINKBASE
  1

  9
$STYLESHEET
  1

  9
$XEDIT
290
     1
  9
$CEPSNTYPE
380
     0
  9
$PSTYLEMODE
290
     1
  9
$FINGERPRINTGUID
  2
{E819A268-5CF2-4584-8CC5-35A9A1B5956A}
  9
$VERSIONGUID
  2
{FAEB1C32-E019-11D5-929B-00C0DF256EC4}
  9
$EXTNAMES
290
     1
  9
$PSVPSCALE
 40
0.0
  9
$OLESTARTUP
290
     0
  9
$SORTENTS
280
   127
  9
$INDEXCTL
280
     0
  9
$HIDETEXT
280
     1
  9
$XCLIPFRAME
280
     2
  9
$HALOGAP
280
     0
  9
$OBSCOLOR
 70
   257
  9
$OBSLTYPE
280
     0
  9
$INTERSECTIONDISPLAY
280
     0
  9
$INTERSECTIONCOLOR
 70
   257
  9
$DIMASSOC
280
     2
  9
$PROJECTNAME
  1

  9
$CAMERADISPLAY
290
     0
  9
$LENSLENGTH
 40
50.0
  9
$CAMERAHEIGHT
 40
0.0
  9
$STEPSPERSEC
 40
2.0
  9
$STEPSIZE
 40
6.0
  9
$3DDWFPREC
 40
2.0
  9
$PSOLWIDTH
 40
0.25
  9
$PSOLHEIGHT
 40
4.0
  9
$LOFTANG1
 40
1.570796326794897
  9
$LOFTANG2
 40
1.570796326794897
  9
$LOFTMAG1
 40
0.0
  9
$LOFTMAG2
 40
0.0
  9
$LOFTPARAM
 70
     7
  9
$LOFTNORMALS
280
     1
  9
$LATITUDE
 40
37.795
  9
$LONGITUDE
 40
-122.394
  9
$NORTHDIRECTION
 40
0.0
  9
$TIMEZONE
 70
 -8000
  9
$LIGHTGLYPHDISPLAY
280
     1
  9
$TILEMODELIGHTSYNCH
280
     1
  9
$CMATERIAL
347
44
  9
$SOLIDHIST
280
     0
  9
$SHOWHIST
280
     1
  9
$DWFFRAME
280
     2
  9
$DGNFRAME
280
     2
  9
$REALWORLDSCALE
290
     1
  9
$INTERFERECOLOR
 62
   256
  9
$CSHADOW
280
     0
  9
$SHADOWPLANELOCATION
 40
0.0
  0
ENDSEC
  0
SECTION
  2
CLASSES
  0
CLASS
  1
ACDBDICTIONARYWDFLT
  2
AcDbDictionaryWithDefault
  3
ObjectDBX Classes
 90
        0
 91
        4
280
     0
281
     0
  0
CLASS
  1
VISUALSTYLE
  2
AcDbVisualStyle
  3
ObjectDBX Classes
 90
     4095
 91
        4
280
     0
281
     0
  0
CLASS
  1
MATERIAL
  2
AcDbMaterial
  3
ObjectDBX Classes
 90
     1153
 91
        4
280
     0
281
     0
  0
CLASS
  1
SCALE
  2
AcDbScale
  3
ObjectDBX Classes
 90
     1153
 91
        4
280
     0
281
     0
  0
CLASS
  1
TABLESTYLE
  2
AcDbTableStyle
  3
ObjectDBX Classes
 90
     4095
 91
        4
280
     0
281
     0
  0
CLASS
  1
MLEADERSTYLE
  2
AcDbMLeaderStyle
  3
ACDB_MLEADERSTYLE_CLASS
 90
     4095
 91
        4
280
     0
281
     0
  0
CLASS
  1
SUN
  2
AcDbSun
  3
SCENEOE
 90
     1153
 91
        4
280
     0
281
     0
  0
CLASS
  1
DICTIONARYVAR
  2
AcDbDictionaryVar
  3
ObjectDBX Classes
 90
        0
 91
        4
280
     0
281
     0
  0
CLASS
  1
CELLSTYLEMAP
  2
AcDbCellStyleMap
  3
ObjectDBX Classes
 90
     1152
 91
        4
280
     0
281
     0
  0
ENDSEC
  0
SECTION
  2
TABLES
  0
TABLE
  2
VPORT
  5
8
330
0
100
AcDbSymbolTable
 70
     1
  0
VPORT
  5
29
330
8
100
AcDbSymbolTableRecord
100
AcDbViewportTableRecord
  2
*Active
 70
     0
 10
0.0
 20
0.0
 11
1.0
 21
1.0
 12
0.0
 22
-0.0789999999999997
 13
0.0
 23
0.0
 14
0.5
 24
0.5
 15
0.5
 25
0.5
 16
0.0
 26
0.0
 36
1.0
 17
0.0
 27
0.0
 37
0.0
 40
2.12466
 41
3.000480076812289
 42
50.0
 43
0.0
 44
0.0
 50
0.0
 51
0.0
 71
     0
 72
   100
 73
     1
 74
     3
 75
     0
 76
     0
 77
     0
 78
     0
281
     0
 65
     1
110
0.0
120
0.0
130
0.0
111
1.0
121
0.0
131
0.0
112
0.0
122
1.0
132
0.0
 79
     0
146
0.0
348
2F
 60
     3
 61
     5
292
     1
282
     1
141
0.0
142
0.0
 63
   250
361
6D
  0
ENDTAB
  0
TABLE
  2
LTYPE
  5
5
330
0
100
AcDbSymbolTable
 70
     3
  0
LTYPE
  5
14
330
5
100
AcDbSymbolTableRecord
100
AcDbLinetypeTableRecord
  2
ByBlock
 70
     0
  3

 72
    65
 73
     0
 40
0.0
  0
LTYPE
  5
15
330
5
100
AcDbSymbolTableRecord
100
AcDbLinetypeTableRecord
  2
ByLayer
 70
     0
  3

 72
    65
 73
     0
 40
0.0
  0
LTYPE
  5
16
330
5
100
AcDbSymbolTableRecord
100
AcDbLinetypeTableRecord
  2
Continuous
 70
     0
  3
Solid line
 72
    65
 73
     0
 40
0.0
  0
LTYPE
  5
9B
330
5
100
AcDbSymbolTableRecord
100
AcDbLinetypeTableRecord
  2
Dashed
 70
     0
  3

 72
    65
 73
     2
 40
2.0
 49
1.0
 74
     0
 49
-1.0
 74
     0
  0
LTYPE
  5
10C
330
5
100
AcDbSymbolTableRecord
100
AcDbLinetypeTableRecord
  2
Center
 70
     0
  3

 72
    65
 73
     4
 40
1.5
 49
0.45
 74
     0
 49
-0.5
 74
     0
 49
0.05
 74
     0
 49
-0.5
 74
     0
  0
ENDTAB
  0
TABLE
  2
LAYER
  5
2
330
0
100
AcDbSymbolTable
 70
     7
  0
LAYER
  5
10
330
2
100
AcDbSymbolTableRecord
100
AcDbLayerTableRecord
  2
0
 70
     0
 62
     7
  6
Continuous
370
    -3
390
F
347
46
348
0
  0
LAYER
  5
72
330
2
100
AcDbSymbolTableRecord
100
AcDbLayerTableRecord
  2
AM_6
 70
     0
 62
    -2
  6
Continuous
370
    35
390
F
347
46
348
0
  0
LAYER
  5
9C
330
2
100
AcDbSymbolTableRecord
100
AcDbLayerTableRecord
  2
AM_9
 70
     0
 62
     6
  6
Dashed
370
    25
390
F
347
46
348
0
  0
LAYER
  5
AD
330
2
100
AcDbSymbolTableRecord
100
AcDbLayerTableRecord
  2
AM_4
 70
     0
 62
     7
  6
Continuous
370
    50
390
F
347
46
348
0
  0
LAYER
  5
10D
330
2
100
AcDbSymbolTableRecord
100
AcDbLayerTableRecord
  2
AM_7
 70
     0
 62
     7
  6
Center
370
    25
390
F
347
46
348
0
  0
LAYER
  5
11C
330
2
100
AcDbSymbolTableRecord
100
AcDbLayerTableRecord
  2
AM_5
 70
     0
 62
     3
  6
Continuous
370
    25
390
F
347
46
348
0
  0
LAYER
  5
1CA
330
2
100
AcDbSymbolTableRecord
100
AcDbLayerTableRecord
  2
ConnectionPoints
 70
     0
 62
     7
  6
Continuous
370
    50
390
F
347
46
348
0
  0
ENDTAB
  0
TABLE
  2
STYLE
  5
3
330
0
100
AcDbSymbolTable
 70
     1
  0
STYLE
  5
11
330
3
100
AcDbSymbolTableRecord
100
AcDbTextStyleTableRecord
  2
Standard
 70
     0
 40
0.0
 41
1.0
 50
0.0
 71
     0
 42
0.2
  3
txt
  4

  0
ENDTAB
  0
TABLE
  2
VIEW
  5
6
330
0
100
AcDbSymbolTable
 70
     0
  0
ENDTAB
  0
TABLE
  2
UCS
  5
7
330
0
100
AcDbSymbolTable
 70
     0
  0
ENDTAB
  0
TABLE
  2
APPID
  5
9
330
0
100
AcDbSymbolTable
 70
     1
  0
APPID
  5
12
330
9
100
AcDbSymbolTableRecord
100
AcDbRegAppTableRecord
  2
ACAD
 70
     0
  0
ENDTAB
  0
TABLE
  2
DIMSTYLE
  5
A
330
0
100
AcDbSymbolTable
 70
     1
100
AcDbDimStyleTable
  0
DIMSTYLE
105
27
330
A
100
AcDbSymbolTableRecord
100
AcDbDimStyleTableRecord
  2
Standard
 70
     0
178
     0
340
11
  0
ENDTAB
  0
TABLE
  2
BLOCK_RECORD
  5
1
330
0
100
AcDbSymbolTable
 70
     5
  0
BLOCK_RECORD
  5
1F
330
1
100
AcDbSymbolTableRecord
100
AcDbBlockTableRecord
  2
*Model_Space
340
22
 70
     0
280
     1
281
     0
  0
BLOCK_RECORD
  5
1B
330
1
100
AcDbSymbolTableRecord
100
AcDbBlockTableRecord
  2
*Paper_Space
340
1E
 70
     0
280
     1
281
     0
  0
BLOCK_RECORD
  5
23
330
1
100
AcDbSymbolTableRecord
100
AcDbBlockTableRecord
  2
*Paper_Space0
340
26
 70
     0
280
     1
281
     0
  0
BLOCK_RECORD
  5
6E
330
1
100
AcDbSymbolTableRecord
100
AcDbBlockTableRecord
  2
1_053008_4
340
0
102
{BLKREFS
331
6F
102
}
 70
     0
280
     1
281
     0
  0
BLOCK_RECORD
  5
90
330
1
100
AcDbSymbolTableRecord
100
AcDbBlockTableRecord
  2
2_430026_0_in_053008_4
340
0
102
{BLKREFS
331
91
102
}
 70
     0
280
     1
281
     0
  0
BLOCK_RECORD
  5
BF
330
1
100
AcDbSymbolTableRecord
100
AcDbBlockTableRecord
  2
3_131441_0_in_053008_4
340
0
102
{BLKREFS
331
C0
102
}
 70
     0
280
     1
281
     0
  0
BLOCK_RECORD
  5
11E
330
1
100
AcDbSymbolTableRecord
100
AcDbBlockTableRecord
  2
4_053008H_0_in_053008_4
340
0
102
{BLKREFS
331
11F
102
}
 70
     0
280
     1
281
     0
  0
ENDTAB
  0
ENDSEC
  0
SECTION
  2
BLOCKS
  0
BLOCK
  5
20
330
1F
100
AcDbEntity
  8
0
100
AcDbBlockBegin
  2
*Model_Space
 70
     0
 10
0.0
 20
0.0
 30
0.0
  3
*Model_Space
  1

  0
ENDBLK
  5
21
330
1F
100
AcDbEntity
  8
0
100
AcDbBlockEnd
  0
BLOCK
  5
1C
330
1B
100
AcDbEntity
 67
     1
  8
0
100
AcDbBlockBegin
  2
*Paper_Space
 70
     0
 10
0.0
 20
0.0
 30
0.0
  3
*Paper_Space
  1

  0
ENDBLK
  5
1D
330
1B
100
AcDbEntity
 67
     1
  8
0
100
AcDbBlockEnd
  0
BLOCK
  5
24
330
23
100
AcDbEntity
  8
0
100
AcDbBlockBegin
  2
*Paper_Space0
 70
     0
 10
0.0
 20
0.0
 30
0.0
  3
*Paper_Space0
  1

  0
ENDBLK
  5
25
330
23
100
AcDbEntity
  8
0
100
AcDbBlockEnd
  0
BLOCK
  5
70
330
6E
100
AcDbEntity
  8
0
100
AcDbBlockBegin
  2
1_053008_4
 70
     2
 10
0.0
 20
0.0
 30
0.0
  3
1_053008_4
  1

  0
ATTDEF
  5
73
330
6E
100
AcDbEntity
  8
AM_6
100
AcDbText
 10
8.125
 20
0.9625
 30
0.0
 40
0.5
  1
Eccentric Collar Intermediate Duty Higher Back Two-Bolt Pillow Block Inch Bore
100
AcDbAttributeDefinition
  3

  2
NN
 70
     8
280
     0
  0
ATTDEF
  5
74
330
6E
100
AcDbEntity
  8
AM_6
100
AcDbText
 10
8.125
 20
0.4625
 30
0.0
 40
0.5
  1
Eccentric Collar Pillow Block Bearings -(Intermediate Duty) -Higher Backing Height
100
AcDbAttributeDefinition
  3

  2
NT
 70
     8
280
     0
  0
ATTDEF
  5
75
330
6E
100
AcDbEntity
  8
AM_6
100
AcDbText
 10
8.125
 20
-0.0375
 30
0.0
 40
0.5
  1
053008
100
AcDbAttributeDefinition
  3

  2
NB
 70
     8
280
     0
  0
ATTDEF
  5
76
330
6E
100
AcDbEntity
  8
AM_6
100
AcDbText
 10
8.125
 20
-0.5375
 30
0.0
 40
0.5
  1
$PN.
100
AcDbAttributeDefinition
  3

  2
NBSYN
 70
     8
280
     0
  0
ATTDEF
  5
77
330
6E
100
AcDbEntity
  8
AM_6
100
AcDbText
 10
8.125
 20
-1.0375
 30
0.0
 40
0.5
  1
053008
100
AcDbAttributeDefinition
  3

  2
LINA
 70
     8
280
     0
  0
ATTDEF
  5
78
330
6E
100
AcDbEntity
  8
AM_6
100
AcDbText
 10
8.125
 20
-1.5375
 30
0.0
 40
0.5
  1
206
100
AcDbAttributeDefinition
  3

  2
SERIES
 70
     8
280
     0
  0
ATTDEF
  5
79
330
6E
100
AcDbEntity
  8
AM_6
100
AcDbText
 10
8.125
 20
-2.0375
 30
0.0
 40
0.5
  1
1-3/16
100
AcDbAttributeDefinition
  3

  2
SS
 70
     8
280
     0
  0
ATTDEF
  5
7A
330
6E
100
AcDbEntity
  8
AM_6
100
AcDbText
 10
8.125
 20
-2.5375
 30
0.0
 40
0.5
  1
053008
100
AcDbAttributeDefinition
  3

  2
PN
 70
     8
280
     0
  0
ATTDEF
  5
7B
330
6E
100
AcDbEntity
  8
AM_6
100
AcDbText
 10
8.125
 20
-3.0375
 30
0.0
 40
0.5
  1
P2B-SXVU-103-NL
100
AcDbAttributeDefinition
  3

  2
DESCRIPTION
 70
     8
280
     0
  0
ATTDEF
  5
7C
330
6E
100
AcDbEntity
  8
AM_6
100
AcDbText
 10
8.125
 20
-3.5375
 30
0.0
 40
0.5
  1
2.80
100
AcDbAttributeDefinition
  3

  2
WEIGHT
 70
     8
280
     0
  0
ATTDEF
  5
7D
330
6E
100
AcDbEntity
  8
AM_6
100
AcDbText
 10
8.125
 20
-4.0375
 30
0.0
 40
0.5
  1
NO-LUBE
100
AcDbAttributeDefinition
  3

  2
LF
 70
     8
280
     0
  0
ATTDEF
  5
7E
330
6E
100
AcDbEntity
  8
AM_6
100
AcDbText
 10
8.125
 20
-4.5375
 30
0.0
 40
0.5
  1
1.41
100
AcDbAttributeDefinition
  3

  2
A
 70
     8
280
     0
  0
ATTDEF
  5
7F
330
6E
100
AcDbEntity
  8
AM_6
100
AcDbText
 10
8.125
 20
-5.0375
 30
0.0
 40
0.5
  1
6.25
100
AcDbAttributeDefinition
  3

  2
B
 70
     8
280
     0
  0
ATTDEF
  5
80
330
6E
100
AcDbEntity
  8
AM_6
100
AcDbText
 10
8.125
 20
-5.5375
 30
0.0
 40
0.5
  1
1.75
100
AcDbAttributeDefinition
  3

  2
C
 70
     8
280
     0
  0
ATTDEF
  5
81
330
6E
100
AcDbEntity
  8
AM_6
100
AcDbText
 10
8.125
 20
-6.0375
 30
0.0
 40
0.5
  1
4.25
100
AcDbAttributeDefinition
  3

  2
DMIN
 70
     8
280
     0
  0
ATTDEF
  5
82
330
6E
100
AcDbEntity
  8
AM_6
100
AcDbText
 10
8.125
 20
-6.5375
 30
0.0
 40
0.5
  1
5.00
100
AcDbAttributeDefinition
  3

  2
DMAX
 70
     8
280
     0
  0
ATTDEF
  5
83
330
6E
100
AcDbEntity
  8
AM_6
100
AcDbText
 10
8.125
 20
-7.0375
 30
0.0
 40
0.5
  1
1/2
100
AcDbAttributeDefinition
  3

  2
F
 70
     8
280
     0
  0
ATTDEF
  5
84
330
6E
100
AcDbEntity
  8
AM_6
100
AcDbText
 10
8.125
 20
-7.5375
 30
0.0
 40
0.5
  1
0.94
100
AcDbAttributeDefinition
  3

  2
G
 70
     8
280
     0
  0
ATTDEF
  5
85
330
6E
100
AcDbEntity
  8
AM_6
100
AcDbText
 10
8.125
 20
-8.0375
 30
0.0
 40
0.5
  1
0.75
100
AcDbAttributeDefinition
  3

  2
H
 70
     8
280
     0
  0
ATTDEF
  5
86
330
6E
100
AcDbEntity
  8
AM_6
100
AcDbText
 10
8.125
 20
-8.5375
 30
0.0
 40
0.5
  1
3.31
100
AcDbAttributeDefinition
  3

  2
J
 70
     8
280
     0
  0
ATTDEF
  5
87
330
6E
100
AcDbEntity
  8
AM_6
100
AcDbText
 10
8.125
 20
-9.0375
 30
0.0
 40
0.5
  1
1.75
100
AcDbAttributeDefinition
  3

  2
L
 70
     8
280
     0
  0
ATTDEF
  5
88
330
6E
100
AcDbEntity
  8
AM_6
100
AcDbText
 10
8.125
 20
-9.5375
 30
0.0
 40
0.5
  1
1.69
100
AcDbAttributeDefinition
  3

  2
M
 70
     8
280
     0
  0
ATTDEF
  5
89
330
6E
100
AcDbEntity
  8
AM_6
100
AcDbText
 10
8.125
 20
-10.0375
 30
0.0
 40
0.5
  1
0.35
100
AcDbAttributeDefinition
  3

  2
R
 70
     8
280
     0
  0
ATTDEF
  5
8A
330
6E
100
AcDbEntity
  8
AM_6
100
AcDbText
 10
8.125
 20
-10.5375
 30
0.0
 40
0.5
  1
1.05
100
AcDbAttributeDefinition
  3

  2
S
 70
     8
280
     0
  0
ATTDEF
  5
8B
330
6E
100
AcDbEntity
  8
AM_6
100
AcDbText
 10
8.125
 20
-11.0375
 30
0.0
 40
0.5
  1
2.88
100
AcDbAttributeDefinition
  3

  2
U
 70
     8
280
     0
  0
ATTDEF
  5
8C
330
6E
100
AcDbEntity
  8
AM_6
100
AcDbText
 10
8.125
 20
-11.5375
 30
0.0
 40
0.5
  1
5.76
100
AcDbAttributeDefinition
  3

  2
V
 70
     8
280
     0
  0
ATTDEF
  5
8D
330
6E
100
AcDbEntity
  8
AM_6
100
AcDbText
 10
8.125
 20
-12.0375
 30
0.0
 40
0.5
  1
0.56
100
AcDbAttributeDefinition
  3

  2
W
 70
     8
280
     0
  0
ATTDEF
  5
8E
330
6E
100
AcDbEntity
  8
AM_6
100
AcDbText
 10
8.125
 20
-12.5375
 30
0.0
 40
0.5
  1
0.12
100
AcDbAttributeDefinition
  3

  2
X
 70
     8
280
     0
  0
ATTDEF
  5
8F
330
6E
100
AcDbEntity
  8
AM_6
100
AcDbText
 10
8.125
 20
-13.0375
 30
0.0
 40
0.5
  1
baldor
100
AcDbAttributeDefinition
  3

  2
COMPANY
 70
     8
280
     0
  0
INSERT
  5
91
330
6E
100
AcDbEntity
  8
0
100
AcDbBlockReference
  2
2_430026_0_in_053008_4
 10
0.0
 20
0.0
 30
0.0
  0
INSERT
  5
C0
330
6E
100
AcDbEntity
  8
0
100
AcDbBlockReference
  2
3_131441_0_in_053008_4
 10
0.0
 20
0.0
 30
0.0
  0
INSERT
  5
11F
330
6E
100
AcDbEntity
  8
0
100
AcDbBlockReference
  2
4_053008H_0_in_053008_4
 10
0.0
 20
0.0
 30
0.0
  0
ENDBLK
  5
71
330
6E
100
AcDbEntity
  8
0
100
AcDbBlockEnd
  0
BLOCK
  5
92
330
90
100
AcDbEntity
  8
0
100
AcDbBlockBegin
  2
2_430026_0_in_053008_4
 70
     2
 10
0.0
 20
0.0
 30
0.0
  3
2_430026_0_in_053008_4
  1

  0
ATTDEF
  5
94
330
90
100
AcDbEntity
  8
AM_6
100
AcDbText
 10
6.30956568928384
 20
0.199363998253438
 30
0.0
 40
0.5
  1
430026 Plug
100
AcDbAttributeDefinition
  3

  2
NN
 70
     8
280
     0
  0
ATTDEF
  5
95
330
90
100
AcDbEntity
  8
AM_6
100
AcDbText
 10
6.30956568928384
 20
-0.300636001746562
 30
0.0
 40
0.5
  1
Plug
100
AcDbAttributeDefinition
  3

  2
NT
 70
     8
280
     0
  0
ATTDEF
  5
96
330
90
100
AcDbEntity
  8
AM_6
100
AcDbText
 10
6.30956568928384
 20
-0.800636001746562
 30
0.0
 40
0.5
  1
430026
100
AcDbAttributeDefinition
  3

  2
NB
 70
     8
280
     0
  0
ATTDEF
  5
97
330
90
100
AcDbEntity
  8
AM_6
100
AcDbText
 10
6.30956568928384
 20
-1.300636001746562
 30
0.0
 40
0.5
  1
$PN.
100
AcDbAttributeDefinition
  3

  2
NBSYN
 70
     8
280
     0
  0
ATTDEF
  5
98
330
90
100
AcDbEntity
  8
AM_6
100
AcDbText
 10
6.30956568928384
 20
-1.800636001746562
 30
0.0
 40
0.5
  1
430026
100
AcDbAttributeDefinition
  3

  2
LINA
 70
     8
280
     0
  0
ATTDEF
  5
99
330
90
100
AcDbEntity
  8
AM_6
100
AcDbText
 10
6.30956568928384
 20
-2.300636001746562
 30
0.0
 40
0.5
  1
430026
100
AcDbAttributeDefinition
  3

  2
PN
 70
     8
280
     0
  0
ATTDEF
  5
9A
330
90
100
AcDbEntity
  8
AM_6
100
AcDbText
 10
6.30956568928384
 20
-2.800636001746562
 30
0.0
 40
0.5
  1
baldor
100
AcDbAttributeDefinition
  3

  2
COMPANY
 70
     8
280
     0
  0
ELLIPSE
  5
9D
330
90
100
AcDbEntity
  8
AM_9
100
AcDbEllipse
 10
0.9613116690231112
 20
0.0000000000000001
 30
0.0
 11
-3.127431692422572E-17
 21
-0.1702494517657397
 31
0.0
210
0.0
220
0.0
230
1.0
 40
0.7071067811865475
 41
0.0
 42
6.283185307179586
  0
LINE
  5
9E
330
90
100
AcDbEntity
  8
AM_9
100
AcDbLine
 10
1.017347636033614
 20
0.0000000000000001
 30
0.0
 11
1.055620913264602
 21
-0.0937499999999999
 31
0.0
  0
LINE
  5
9F
330
90
100
AcDbEntity
  8
AM_9
100
AcDbLine
 10
1.055620913264602
 20
0.0937500000000001
 30
0.0
 11
1.017347636033614
 21
0.0000000000000001
 31
0.0
  0
LINE
  5
A0
330
90
100
AcDbEntity
  8
AM_9
100
AcDbLine
 10
1.132167467726576
 20
-0.0937499999999999
 30
0.0
 11
1.136169154224002
 21
-0.08394790997072
 31
0.0
  0
LINE
  5
A1
330
90
100
AcDbEntity
  8
AM_9
100
AcDbLine
 10
1.13606011475135
 20
0.0842150010405406
 30
0.0
 11
1.132167467726576
 21
0.0937500000000001
 31
0.0
  0
ELLIPSE
  5
A2
330
90
100
AcDbEntity
  8
AM_9
100
AcDbEllipse
 10
1.093894190495588
 20
-0.0000000000000019
 30
0.0
 11
5.740531871003341E-18
 21
0.09375000000000201
 31
0.0
210
0.0
220
0.0
230
1.0
 40
0.7071067811865476
 41
5.685649168706097
 42
10.0230797125394
  0
LINE
  5
A3
330
90
100
AcDbEntity
  8
AM_9
100
AcDbLine
 10
1.031426564601995
 20
-0.0661318839386912
 30
0.0
 11
1.069766144795618
 21
-0.0873197418766239
 31
0.0
  0
LINE
  5
A4
330
90
100
AcDbEntity
  8
AM_9
100
AcDbLine
 10
1.069766144795618
 20
0.0873197418766241
 30
0.0
 11
1.031426564601995
 21
0.0661318839386913
 31
0.0
  0
LINE
  5
A5
330
90
100
AcDbEntity
  8
AM_9
100
AcDbLine
 10
1.055620913264602
 20
0.0937500000000001
 30
0.0
 11
1.143481176225561
 21
0.0937500000000001
 31
0.0
  0
LINE
  5
A6
330
90
100
AcDbEntity
  8
AM_9
100
AcDbLine
 10
1.055620913264602
 20
-0.0937499999999999
 30
0.0
 11
1.143481176225561
 21
-0.0937499999999999
 31
0.0
  0
LINE
  5
A7
330
90
100
AcDbEntity
  8
AM_9
100
AcDbLine
 10
1.017347636033614
 20
0.0000000000000001
 30
0.0
 11
1.105207898994574
 21
0.0000000000000001
 31
0.0
  0
LINE
  5
A8
330
90
100
AcDbEntity
  8
AM_9
100
AcDbLine
 10
0.9712332794953604
 20
-0.1907804974829229
 30
0.0
 11
1.141125227421533
 21
-0.1982850718818534
 31
0.0
  0
LINE
  5
A9
330
90
100
AcDbEntity
  8
AM_9
100
AcDbLine
 10
1.141125227421533
 20
0.1982850718818535
 30
0.0
 11
0.9712332794953603
 21
0.190780497482923
 31
0.0
  0
ELLIPSE
  5
AA
330
90
100
AcDbEntity
  8
AM_9
100
AcDbEllipse
 10
1.168147289371838
 20
0.0000000000000001
 30
0.0
 11
1.220859406417983E-17
 21
0.199381471828121
 31
0.0
210
0.0
220
0.0
230
1.0
 40
0.7071067811865475
 41
4.463828942208124
 42
4.960949018561256
  0
ELLIPSE
  5
AB
330
90
100
AcDbEntity
  8
AM_9
100
AcDbEllipse
 10
1.049700016671435
 20
-0.0000000000000008
 30
0.0
 11
4.347610051068733E-18
 21
0.07100186035836142
 31
0.0
210
0.0
220
0.0
230
1.0
 40
0.7071067811865613
 41
0.0
 42
6.283185307179586
  0
ELLIPSE
  5
AC
330
90
100
AcDbEntity
  8
AM_9
100
AcDbEllipse
 10
0.9754469177951808
 20
0.0
 30
0.0
 11
1.168763340082626E-17
 21
0.1908735385412945
 31
0.0
210
0.0
220
0.0
230
1.0
 40
0.7071067811865486
 41
0.0
 42
6.283185307179586
  0
LINE
  5
AE
330
90
100
AcDbEntity
  8
AM_4
100
AcDbLine
 10
1.136169154224002
 20
-0.08394790997072
 30
0.0
 11
1.170440744957563
 21
0.0000000000000001
 31
0.0
  0
LINE
  5
AF
330
90
100
AcDbEntity
  8
AM_4
100
AcDbLine
 10
1.170440744957563
 20
0.0000000000000001
 30
0.0
 11
1.258301007918522
 21
0.0000000000000001
 31
0.0
  0
LINE
  5
B0
330
90
100
AcDbEntity
  8
AM_4
100
AcDbLine
 10
1.170440744957563
 20
0.0000000000000001
 30
0.0
 11
1.13606011475135
 21
0.0842150010405406
 31
0.0
  0
ELLIPSE
  5
B1
330
90
100
AcDbEntity
  8
AM_4
100
AcDbEllipse
 10
1.093894190495587
 20
-0.0000000000000003
 30
0.0
 11
5.740531871003240E-18
 21
0.09375000000000036
 31
0.0
210
0.0
220
0.0
230
1.0
 40
0.7071067811865623
 41
3.73989440535982
 42
5.685649168706075
  0
LWPOLYLINE
  5
B2
330
90
100
AcDbEntity
  8
AM_4
100
AcDbPolyline
 90
        8
 70
     0
 43
0.0
 10
1.143481176225561
 20
-0.0937499999999999
 10
1.128905365680811
 20
-0.0742104790331714
 10
1.122318571180131
 20
-0.0636087428050548
 10
1.116666887781443
 20
-0.0527625339528987
 10
1.110777049948135
 20
-0.037736434300393
 10
1.10706307047114
 20
-0.022510364473931
 10
1.105630127361055
 20
-0.0110532316647593
 10
1.105207898994574
 20
0.0000000000000001
  0
LWPOLYLINE
  5
B3
330
90
100
AcDbEntity
  8
AM_4
100
AcDbPolyline
 90
        8
 70
     0
 43
0.0
 10
1.105207898994574
 20
0.0000000000000001
 10
1.106586040512205
 20
0.0195395209668286
 10
1.10865552739368
 20
0.0301412571949453
 10
1.111859736438805
 20
0.0409874660471013
 10
1.118238657596448
 20
0.056013565699607
 10
1.126956712073726
 20
0.071239635526069
 10
1.134878478729564
 20
0.0826967683352407
 10
1.143481176225561
 20
0.0937500000000001
  0
LINE
  5
B4
330
90
100
AcDbEntity
  8
AM_4
100
AcDbLine
 10
1.143481176225561
 20
0.0937500000000001
 30
0.0
 11
1.220027730687535
 21
0.0937500000000001
 31
0.0
  0
LWPOLYLINE
  5
B5
330
90
100
AcDbEntity
  8
AM_4
100
AcDbPolyline
 90
        8
 70
     0
 43
0.0
 10
1.220027730687535
 20
0.0937500000000001
 10
1.221405872205167
 20
0.0742104790331715
 10
1.223475359086641
 20
0.0636087428050549
 10
1.226679568131767
 20
0.0527625339528988
 10
1.233058489289409
 20
0.0377364343003931
 10
1.241776543766687
 20
0.0225103644739312
 10
1.249698310422525
 20
0.0110532316647595
 10
1.258301007918522
 20
0.0000000000000001
  0
LWPOLYLINE
  5
B6
330
90
100
AcDbEntity
  8
AM_4
100
AcDbPolyline
 90
        8
 70
     0
 43
0.0
 10
1.258301007918522
 20
0.0000000000000001
 10
1.243725197373773
 20
-0.0195395209668285
 10
1.237138402873093
 20
-0.0301412571949451
 10
1.231486719474404
 20
-0.0409874660471012
 10
1.225596881641097
 20
-0.0560135656996069
 10
1.221882902164102
 20
-0.0712396355260689
 10
1.220449959054017
 20
-0.0826967683352405
 10
1.220027730687535
 20
-0.0937499999999999
  0
LINE
  5
B7
330
90
100
AcDbEntity
  8
AM_4
100
AcDbLine
 10
1.220027730687535
 20
-0.0937499999999999
 30
0.0
 11
1.143481176225561
 21
-0.0937499999999999
 31
0.0
  0
LINE
  5
B8
330
90
100
AcDbEntity
  8
AM_4
100
AcDbLine
 10
1.141125227421533
 20
-0.1982850718818534
 30
0.0
 11
1.163745833767305
 21
-0.1992842835887233
 31
0.0
  0
LINE
  5
B9
330
90
100
AcDbEntity
  8
AM_4
100
AcDbLine
 10
1.163745833767305
 20
0.1992842835887235
 30
0.0
 11
1.141125227421533
 21
0.1982850718818535
 31
0.0
  0
ELLIPSE
  5
BA
330
90
100
AcDbEntity
  8
AM_4
100
AcDbEllipse
 10
1.168147289371838
 20
-0.0000000000000002
 30
0.0
 11
1.220859406417986E-17
 21
0.1993814718281215
 31
0.0
210
0.0
220
0.0
230
1.0
 40
0.7071067811865466
 41
4.960949018561255
 42
10.74701424938771
  0
ELLIPSE
  5
BB
330
90
100
AcDbEntity
  8
AM_4
100
AcDbEllipse
 10
1.182282538143907
 20
0.0000000000000001
 30
0.0
 11
-2.002297516605922E-17
 21
-0.109
 31
0.0
210
0.0
220
0.0
230
1.0
 40
0.7071067811865483
 41
0.0
 42
6.283185307179586
  0
LINE
  5
BC
330
90
100
AcDbEntity
  8
AM_4
100
AcDbLine
 10
1.305653981394143
 20
0.0442828986057767
 30
0.0
 11
1.304798513520697
 21
0.0490495380771809
 31
0.0
  0
LINE
  5
BD
330
90
100
AcDbEntity
  8
AM_4
100
AcDbLine
 10
1.304798513520697
 20
-0.0490495380771807
 30
0.0
 11
1.305653981394143
 21
-0.0442828986057766
 31
0.0
  0
ELLIPSE
  5
BE
330
90
100
AcDbEntity
  8
AM_4
100
AcDbEllipse
 10
1.182282538143907
 20
0.0
 30
0.0
 11
1.102216155863618E-17
 21
0.1800055586036764
 31
0.0
210
0.0
220
0.0
230
1.0
 40
0.707106781186548
 41
0.0
 42
6.283185307179586
  0
ENDBLK
  5
93
330
90
100
AcDbEntity
  8
0
100
AcDbBlockEnd
  0
BLOCK
  5
C1
330
BF
100
AcDbEntity
  8
0
100
AcDbBlockBegin
  2
3_131441_0_in_053008_4
 70
     2
 10
0.0
 20
0.0
 30
0.0
  3
3_131441_0_in_053008_4
  1

  0
ATTDEF
  5
C3
330
BF
100
AcDbEntity
  8
AM_6
100
AcDbText
 10
6.30456625
 20
0.36
 30
0.0
 40
0.5
  1
Eccentric Collar Intermediate Duty Insert Inch Bore
100
AcDbAttributeDefinition
  3

  2
NN
 70
     8
280
     0
  0
ATTDEF
  5
C4
330
BF
100
AcDbEntity
  8
AM_6
100
AcDbText
 10
6.30456625
 20
-0.14
 30
0.0
 40
0.5
  1
Eccentric Collar Bearing Inserts -(Intermediate Duty)
100
AcDbAttributeDefinition
  3

  2
NT
 70
     8
280
     0
  0
ATTDEF
  5
C5
330
BF
100
AcDbEntity
  8
AM_6
100
AcDbText
 10
6.30456625
 20
-0.64
 30
0.0
 40
0.5
  1
131441
100
AcDbAttributeDefinition
  3

  2
NB
 70
     8
280
     0
  0
ATTDEF
  5
C6
330
BF
100
AcDbEntity
  8
AM_6
100
AcDbText
 10
6.30456625
 20
-1.14
 30
0.0
 40
0.5
  1
$PN.
100
AcDbAttributeDefinition
  3

  2
NBSYN
 70
     8
280
     0
  0
ATTDEF
  5
C7
330
BF
100
AcDbEntity
  8
AM_6
100
AcDbText
 10
6.30456625
 20
-1.64
 30
0.0
 40
0.5
  1
131441
100
AcDbAttributeDefinition
  3

  2
LINA
 70
     8
280
     0
  0
ATTDEF
  5
C8
330
BF
100
AcDbEntity
  8
AM_6
100
AcDbText
 10
6.30456625
 20
-2.14
 30
0.0
 40
0.5
  1
206
100
AcDbAttributeDefinition
  3

  2
SERIES
 70
     8
280
     0
  0
ATTDEF
  5
C9
330
BF
100
AcDbEntity
  8
AM_6
100
AcDbText
 10
6.30456625
 20
-2.64
 30
0.0
 40
0.5
  1
1-3/16
100
AcDbAttributeDefinition
  3

  2
SS
 70
     8
280
     0
  0
ATTDEF
  5
CA
330
BF
100
AcDbEntity
  8
AM_6
100
AcDbText
 10
6.30456625
 20
-3.14
 30
0.0
 40
0.5
  1
131441
100
AcDbAttributeDefinition
  3

  2
PN
 70
     8
280
     0
  0
ATTDEF
  5
CB
330
BF
100
AcDbEntity
  8
AM_6
100
AcDbText
 10
6.30456625
 20
-3.64
 30
0.0
 40
0.5
  1
INS-SXV-103
100
AcDbAttributeDefinition
  3

  2
DESCRIPTION
 70
     8
280
     0
  0
ATTDEF
  5
CC
330
BF
100
AcDbEntity
  8
AM_6
100
AcDbText
 10
6.30456625
 20
-4.140000000000001
 30
0.0
 40
0.5
  1
0.7
100
AcDbAttributeDefinition
  3

  2
WEIGHT
 70
     8
280
     0
  0
ATTDEF
  5
CD
330
BF
100
AcDbEntity
  8
AM_6
100
AcDbText
 10
6.30456625
 20
-4.640000000000001
 30
0.0
 40
0.5
  1
1.41
100
AcDbAttributeDefinition
  3

  2
A
 70
     8
280
     0
  0
ATTDEF
  5
CE
330
BF
100
AcDbEntity
  8
AM_6
100
AcDbText
 10
6.30456625
 20
-5.140000000000001
 30
0.0
 40
0.5
  1
0.69
100
AcDbAttributeDefinition
  3

  2
C
 70
     8
280
     0
  0
ATTDEF
  5
CF
330
BF
100
AcDbEntity
  8
AM_6
100
AcDbText
 10
6.30456625
 20
-5.640000000000001
 30
0.0
 40
0.5
  1
2.4409
100
AcDbAttributeDefinition
  3

  2
D
 70
     8
280
     0
  0
ATTDEF
  5
D0
330
BF
100
AcDbEntity
  8
AM_6
100
AcDbText
 10
6.30456625
 20
-6.140000000000001
 30
0.0
 40
0.5
  1
0.16
100
AcDbAttributeDefinition
  3

  2
J
 70
     8
280
     0
  0
ATTDEF
  5
D1
330
BF
100
AcDbEntity
  8
AM_6
100
AcDbText
 10
6.30456625
 20
-6.640000000000001
 30
0.0
 40
0.5
  1
1.75
100
AcDbAttributeDefinition
  3

  2
L
 70
     8
280
     0
  0
ATTDEF
  5
D2
330
BF
100
AcDbEntity
  8
AM_6
100
AcDbText
 10
6.30456625
 20
-7.140000000000001
 30
0.0
 40
0.5
  1
5/16 - 24
100
AcDbAttributeDefinition
  3

  2
N
 70
     8
280
     0
  0
ATTDEF
  5
D3
330
BF
100
AcDbEntity
  8
AM_6
100
AcDbText
 10
6.30456625
 20
-7.640000000000001
 30
0.0
 40
0.5
  1
0.35
100
AcDbAttributeDefinition
  3

  2
W
 70
     8
280
     0
  0
ATTDEF
  5
D4
330
BF
100
AcDbEntity
  8
AM_6
100
AcDbText
 10
6.30456625
 20
-8.14
 30
0.0
 40
0.5
  1
1.05
100
AcDbAttributeDefinition
  3

  2
Y
 70
     8
280
     0
  0
ATTDEF
  5
D5
330
BF
100
AcDbEntity
  8
AM_6
100
AcDbText
 10
6.30456625
 20
-8.64
 30
0.0
 40
0.5
  1
1.57
100
AcDbAttributeDefinition
  3

  2
Z
 70
     8
280
     0
  0
ATTDEF
  5
D6
330
BF
100
AcDbEntity
  8
AM_6
100
AcDbText
 10
6.30456625
 20
-9.14
 30
0.0
 40
0.5
  1
baldor
100
AcDbAttributeDefinition
  3

  2
COMPANY
 70
     8
280
     0
  0
LINE
  5
D7
330
BF
100
AcDbEntity
  8
AM_9
100
AcDbLine
 10
1.2017
 20
0.248125
 30
0.0
 11
1.197009656770254
 21
0.248125
 31
0.0
  0
ARC
  5
D8
330
BF
100
AcDbEntity
  8
AM_9
100
AcDbCircle
 10
1.201699999999999
 20
0.17
 30
0.0
 40
0.0781249999999999
100
AcDbArc
 50
281.7351435010423
 51
90.0
  0
LINE
  5
D9
330
BF
100
AcDbEntity
  8
AM_9
100
AcDbLine
 10
1.2017
 20
0.248125
 30
0.0
 11
1.2017
 21
0.2128493652343085
 31
0.0
  0
LINE
  5
DA
330
BF
100
AcDbEntity
  8
AM_9
100
AcDbLine
 10
0.59375
 20
-0.569375
 30
0.0
 11
0.59375
 21
0.3432062139468195
 31
0.0
  0
LINE
  5
DB
330
BF
100
AcDbEntity
  8
AM_9
100
AcDbLine
 10
-0.59375
 20
0.3432062139468195
 30
0.0
 11
-0.59375
 21
-0.569375
 31
0.0
  0
LINE
  5
DC
330
BF
100
AcDbEntity
  8
AM_9
100
AcDbLine
 10
0.59375
 20
-1.033206213946819
 30
0.0
 11
0.59375
 21
-0.593125
 31
0.0
  0
LINE
  5
DD
330
BF
100
AcDbEntity
  8
AM_9
100
AcDbLine
 10
-0.59375
 20
-0.593125
 30
0.0
 11
-0.59375
 21
-1.033206213946819
 31
0.0
  0
LINE
  5
DE
330
BF
100
AcDbEntity
  8
AM_9
100
AcDbLine
 10
-0.59375
 20
-0.569375
 30
0.0
 11
0.59375
 21
-0.569375
 31
0.0
  0
LINE
  5
DF
330
BF
100
AcDbEntity
  8
AM_9
100
AcDbLine
 10
-0.59375
 20
-0.569375
 30
0.0
 11
-0.6056250000000002
 21
-0.5812499999999999
 31
0.0
  0
LINE
  5
E0
330
BF
100
AcDbEntity
  8
AM_9
100
AcDbLine
 10
0.6056250000000002
 20
-0.5812499999999999
 30
0.0
 11
0.59375
 21
-0.569375
 31
0.0
  0
LINE
  5
E1
330
BF
100
AcDbEntity
  8
AM_9
100
AcDbLine
 10
-0.6056250000000002
 20
-0.5812499999999999
 30
0.0
 11
0.6056250000000002
 21
-0.5812499999999999
 31
0.0
  0
LINE
  5
E2
330
BF
100
AcDbEntity
  8
AM_9
100
AcDbLine
 10
-0.59375
 20
-0.593125
 30
0.0
 11
0.59375
 21
-0.593125
 31
0.0
  0
LINE
  5
E3
330
BF
100
AcDbEntity
  8
AM_9
100
AcDbLine
 10
0.59375
 20
-0.593125
 30
0.0
 11
0.6056250000000002
 21
-0.5812499999999999
 31
0.0
  0
LINE
  5
E4
330
BF
100
AcDbEntity
  8
AM_9
100
AcDbLine
 10
-0.6056250000000002
 20
-0.5812499999999999
 30
0.0
 11
-0.59375
 21
-0.593125
 31
0.0
  0
LINE
  5
E5
330
BF
100
AcDbEntity
  8
AM_9
100
AcDbLine
 10
-0.59375
 20
0.3432062139468195
 30
0.0
 11
0.59375
 21
0.3432062139468195
 31
0.0
  0
LINE
  5
E6
330
BF
100
AcDbEntity
  8
AM_9
100
AcDbLine
 10
0.59375
 20
0.3432062139468195
 30
0.0
 11
0.6105437860531805
 21
0.36
 31
0.0
  0
LINE
  5
E7
330
BF
100
AcDbEntity
  8
AM_9
100
AcDbLine
 10
-0.6105437860531805
 20
0.36
 30
0.0
 11
-0.59375
 21
0.3432062139468195
 31
0.0
  0
LINE
  5
E8
330
BF
100
AcDbEntity
  8
AM_9
100
AcDbLine
 10
-0.59375
 20
-1.033206213946819
 30
0.0
 11
0.59375
 21
-1.033206213946819
 31
0.0
  0
LINE
  5
E9
330
BF
100
AcDbEntity
  8
AM_9
100
AcDbLine
 10
-0.59375
 20
-1.033206213946819
 30
0.0
 11
-0.6105437860531805
 21
-1.05
 31
0.0
  0
LINE
  5
EA
330
BF
100
AcDbEntity
  8
AM_9
100
AcDbLine
 10
0.6105437860531805
 20
-1.05
 30
0.0
 11
0.59375
 21
-1.033206213946819
 31
0.0
  0
LINE
  5
EB
330
BF
100
AcDbEntity
  8
AM_9
100
AcDbLine
 10
0.7476190476190476
 20
-0.4874999999999999
 30
0.0
 11
0.7476190476190476
 21
-0.4562500000000001
 31
0.0
  0
LINE
  5
EC
330
BF
100
AcDbEntity
  8
AM_9
100
AcDbLine
 10
-0.7476190476190476
 20
-0.4562500000000001
 30
0.0
 11
-0.7476190476190476
 21
-0.4874999999999999
 31
0.0
  0
LINE
  5
ED
330
BF
100
AcDbEntity
  8
AM_9
100
AcDbLine
 10
-0.7849999999999999
 20
0.36
 30
0.0
 11
0.7849999999999999
 21
0.36
 31
0.0
  0
LINE
  5
EE
330
BF
100
AcDbEntity
  8
AM_9
100
AcDbLine
 10
0.7849999999999999
 20
0.355
 30
0.0
 11
0.7849999999999999
 21
0.36
 31
0.0
  0
LINE
  5
EF
330
BF
100
AcDbEntity
  8
AM_9
100
AcDbLine
 10
-0.7849999999999999
 20
0.36
 30
0.0
 11
-0.7849999999999999
 21
0.355
 31
0.0
  0
LINE
  5
F0
330
BF
100
AcDbEntity
  8
AM_9
100
AcDbLine
 10
-0.7849999999999999
 20
-0.4562500000000001
 30
0.0
 11
0.7849999999999999
 21
-0.4562500000000001
 31
0.0
  0
LINE
  5
F1
330
BF
100
AcDbEntity
  8
AM_9
100
AcDbLine
 10
0.7849999999999999
 20
-0.4562500000000001
 30
0.0
 11
0.7849999999999999
 21
-0.3349999999999999
 31
0.0
  0
LINE
  5
F2
330
BF
100
AcDbEntity
  8
AM_9
100
AcDbLine
 10
-0.7849999999999999
 20
-0.3349999999999999
 30
0.0
 11
-0.7849999999999999
 21
-0.4562500000000001
 31
0.0
  0
LINE
  5
F3
330
BF
100
AcDbEntity
  8
AM_9
100
AcDbLine
 10
0.875
 20
-0.5689538164287691
 30
0.0
 11
0.875
 21
-0.5350000000000001
 31
0.0
  0
LINE
  5
F4
330
BF
100
AcDbEntity
  8
AM_9
100
AcDbLine
 10
-0.875
 20
-0.5350000000000001
 30
0.0
 11
-0.875
 21
-0.5689538164287691
 31
0.0
  0
LINE
  5
F5
330
BF
100
AcDbEntity
  8
AM_9
100
AcDbLine
 10
0.62295901792189
 20
-0.5350000000000001
 30
0.0
 11
0.875
 21
-0.5350000000000001
 31
0.0
  0
LINE
  5
F6
330
BF
100
AcDbEntity
  8
AM_9
100
AcDbLine
 10
-0.875
 20
-0.5350000000000001
 30
0.0
 11
-0.62295901792189
 21
-0.5350000000000001
 31
0.0
  0
LINE
  5
F7
330
BF
100
AcDbEntity
  8
AM_9
100
AcDbLine
 10
-0.8275
 20
-0.4874999999999999
 30
0.0
 11
0.827499999997708
 21
-0.4874999999999999
 31
0.0
  0
ARC
  5
F8
330
BF
100
AcDbEntity
  8
AM_9
100
AcDbCircle
 10
0.8274999999999999
 20
-0.535
 30
0.0
 40
0.0475000000000001
100
AcDbArc
 50
0.0000008537736463
 51
90.0
  0
ARC
  5
F9
330
BF
100
AcDbEntity
  8
AM_9
100
AcDbCircle
 10
-0.8274999999999999
 20
-0.535
 30
0.0
 40
0.0475000000000001
100
AcDbArc
 50
90.0
 51
179.9999991462263
  0
LINE
  5
FA
330
BF
100
AcDbEntity
  8
AM_9
100
AcDbLine
 10
1.162333333333333
 20
-0.182
 30
0.0
 11
1.162333333333333
 21
-0.118
 31
0.0
  0
LINE
  5
FB
330
BF
100
AcDbEntity
  8
AM_9
100
AcDbLine
 10
-1.162333333333333
 20
-0.118
 30
0.0
 11
-1.162333333333333
 21
-0.182
 31
0.0
  0
LINE
  5
FC
330
BF
100
AcDbEntity
  8
AM_9
100
AcDbLine
 10
-1.152774621294205
 20
-0.335
 30
0.0
 11
1.152774621293857
 21
-0.335
 31
0.0
  0
ARC
  5
FD
330
BF
100
AcDbEntity
  8
AM_9
100
AcDbCircle
 10
1.152774621294205
 20
-0.3112499999999992
 30
0.0
 40
0.0237500000000007
100
AcDbArc
 50
270.0
 51
344.428150905397
  0
ARC
  5
FE
330
BF
100
AcDbEntity
  8
AM_9
100
AcDbCircle
 10
-1.152774621294205
 20
-0.3112499999999992
 30
0.0
 40
0.0237500000000008
100
AcDbArc
 50
195.571849094603
 51
270.0
  0
LINE
  5
FF
330
BF
100
AcDbEntity
  8
AM_9
100
AcDbLine
 10
-1.152774621294206
 20
0.355
 30
0.0
 11
1.152774621293858
 21
0.355
 31
0.0
  0
ARC
  5
100
330
BF
100
AcDbEntity
  8
AM_9
100
AcDbCircle
 10
1.152774621294206
 20
0.3312499999999998
 30
0.0
 40
0.0237500000000002
100
AcDbArc
 50
15.57184413386241
 51
90.0
  0
ARC
  5
101
330
BF
100
AcDbEntity
  8
AM_9
100
AcDbCircle
 10
-1.152774621294206
 20
0.3312499999999999
 30
0.0
 40
0.0237500000000001
100
AcDbArc
 50
90.0
 51
164.4281558661377
  0
LINE
  5
102
330
BF
100
AcDbEntity
  8
AM_9
100
AcDbLine
 10
-1.175652867517769
 20
-0.3176256058327064
 30
0.0
 11
1.175652867517763
 21
-0.3176256058327064
 31
0.0
  0
LINE
  5
103
330
BF
100
AcDbEntity
  8
AM_9
100
AcDbLine
 10
-1.205252754612077
 20
-0.182
 30
0.0
 11
1.205252754612072
 21
-0.182
 31
0.0
  0
ARC
  5
104
330
BF
100
AcDbEntity
  8
AM_9
100
AcDbCircle
 10
0.0000000001924738
 20
0.0099999999579926
 30
0.0
 40
1.220449999803309
100
AcDbArc
 50
344.4281509048719
 51
350.9486832425494
  0
ARC
  5
105
330
BF
100
AcDbEntity
  8
AM_9
100
AcDbCircle
 10
0.0000000000031886
 20
0.0100000000006953
 30
0.0
 40
1.220450000003253
100
AcDbArc
 50
189.0513167579853
 51
195.5718490945934
  0
LINE
  5
106
330
BF
100
AcDbEntity
  8
AM_9
100
AcDbLine
 10
-1.213719161297209
 20
-0.1179999999999997
 30
0.0
 11
1.213719161297204
 21
-0.1179999999999997
 31
0.0
  0
LINE
  5
107
330
BF
100
AcDbEntity
  8
AM_9
100
AcDbLine
 10
-1.175652868069777
 20
0.3376256038518795
 30
0.0
 11
1.175652868069772
 21
0.3376256038518795
 31
0.0
  0
LINE
  5
108
330
BF
100
AcDbEntity
  8
AM_9
100
AcDbLine
 10
1.196994021236688
 20
0.2481249999956272
 30
0.0
 11
1.217589678349653
 21
0.0935079497794422
 31
0.0
  0
ARC
  5
109
330
BF
100
AcDbEntity
  8
AM_9
100
AcDbCircle
 10
-0.0000000000006175
 20
0.0099999999999836
 30
0.0
 40
1.220450000000608
100
AcDbArc
 50
353.9797846834526
 51
3.923466307369036
  0
ARC
  5
10A
330
BF
100
AcDbEntity
  8
AM_9
100
AcDbCircle
 10
-0.0000000000033786
 20
0.0099999999992567
 30
0.0
 40
1.220450000003449
100
AcDbArc
 50
11.24587071910207
 51
15.57184899805701
  0
ARC
  5
10B
330
BF
100
AcDbEntity
  8
AM_9
100
AcDbCircle
 10
0.0000000000002676
 20
0.0099999999999777
 30
0.0
 40
1.220450000000259
100
AcDbArc
 50
164.4281510019364
 51
186.0202153165489
  0
LINE
  5
10E
330
BF
100
AcDbEntity
  8
AM_7
100
AcDbLine
 10
0.7602587499999999
 20
0.17
 30
0.0
 11
1.30456625
 21
0.17
 31
0.0
  0
ARC
  5
10F
330
BF
100
AcDbEntity
  8
AM_4
100
AcDbCircle
 10
0.0
 20
-0.815625
 30
0.0
 40
0.13935
100
AcDbArc
 50
210.8679120398981
 51
329.132087960102
  0
LWPOLYLINE
  5
110
330
BF
100
AcDbEntity
  8
AM_4
100
AcDbPolyline
 90
        8
 70
     0
 43
0.0
 10
-0.1196114034662647
 20
-0.8871199974531815
 10
-0.1298314143998839
 20
-0.8662056562845624
 10
-0.1364580339227481
 20
-0.8438672994449485
 10
-0.1392429548040496
 20
-0.8207062877266508
 10
-0.1381531485863606
 20
-0.797400564873638
 10
-0.1332076147938108
 20
-0.7747549347382867
 10
-0.1246111254288674
 20
-0.7532512080730129
 10
-0.1196114034662648
 20
-0.7441300025468185
  0
LWPOLYLINE
  5
111
330
BF
100
AcDbEntity
  8
AM_4
100
AcDbPolyline
 90
        8
 70
     0
 43
0.0
 10
0.1196114034662647
 20
-0.7441300025468185
 10
0.1298314143998839
 20
-0.7650443437154376
 10
0.1364580339227481
 20
-0.7873827005550514
 10
0.1392429548040496
 20
-0.8105437122733492
 10
0.1381531485863606
 20
-0.833849435126362
 10
0.1332076147938108
 20
-0.8564950652617133
 10
0.1246111254288674
 20
-0.877998791926987
 10
0.1196114034662648
 20
-0.8871199974531815
  0
LWPOLYLINE
  5
112
330
BF
100
AcDbEntity
  8
AM_4
100
AcDbPolyline
 90
       15
 70
     0
 43
0.0
 10
0.1196114034662647
 20
-0.8871199974531815
 10
0.1103512699409538
 20
-0.9027148026208958
 10
0.0990752927004444
 20
-0.9172622062100632
 10
0.0811193364616709
 20
-0.9343550693564093
 10
0.0596532036351503
 20
-0.9483650788189996
 10
0.0383835646768857
 20
-0.9572369276456418
 10
0.0150767632130475
 20
-0.9622861084332445
 10
-0.0062686939971925
 20
-0.9630332311554479
 10
-0.0280732809231466
 20
-0.9600350384556235
 10
-0.0479263561701208
 20
-0.9537996832981425
 10
-0.0670047896979931
 20
-0.9442088351630122
 10
-0.0845046350403332
 20
-0.93157192189826
 10
-0.1001955667032146
 20
-0.9159766364433254
 10
-0.1106831644786779
 20
-0.902224042691245
 10
-0.1196114034662647
 20
-0.8871199974531815
  0
LINE
  5
113
330
BF
100
AcDbEntity
  8
AM_4
100
AcDbLine
 10
0.875
 20
-1.0025
 30
0.0
 11
0.875
 21
-0.5689538164287691
 31
0.0
  0
LINE
  5
114
330
BF
100
AcDbEntity
  8
AM_4
100
AcDbLine
 10
-0.875
 20
-0.5689538164287691
 30
0.0
 11
-0.875
 21
-1.0025
 31
0.0
  0
ARC
  5
115
330
BF
100
AcDbEntity
  8
AM_4
100
AcDbCircle
 10
0.0
 20
-0.8156249999999998
 30
0.0
 40
0.1393499999999999
100
AcDbArc
 50
30.867912039898
 51
149.132087960102
  0
LWPOLYLINE
  5
116
330
BF
100
AcDbEntity
  8
AM_4
100
AcDbPolyline
 90
       15
 70
     0
 43
0.0
 10
-0.1196114034662647
 20
-0.7441300025468185
 10
-0.1103512699409539
 20
-0.7285351973791043
 10
-0.0990752927004443
 20
-0.713987793789937
 10
-0.081119336461671
 20
-0.6968949306435906
 10
-0.0596532036351504
 20
-0.6828849211810005
 10
-0.0383835646768858
 20
-0.6740130723543581
 10
-0.0150767632130476
 20
-0.6689638915667555
 10
0.0062686939971924
 20
-0.6682167688445521
 10
0.0280732809231466
 20
-0.6712149615443763
 10
0.0479263561701207
 20
-0.6774503167018575
 10
0.067004789697993
 20
-0.6870411648369877
 10
0.0845046350403331
 20
-0.69967807810174
 10
0.1001955667032146
 20
-0.7152733635566746
 10
0.1106831644786779
 20
-0.729025957308755
 10
0.1196114034662647
 20
-0.7441300025468185
  0
LINE
  5
117
330
BF
100
AcDbEntity
  8
AM_4
100
AcDbLine
 10
-0.8275
 20
-1.05
 30
0.0
 11
0.827499999997708
 21
-1.05
 31
0.0
  0
LINE
  5
118
330
BF
100
AcDbEntity
  8
AM_4
100
AcDbLine
 10
-0.875
 20
-1.0025
 30
0.0
 11
0.875
 21
-1.0025
 31
0.0
  0
ARC
  5
119
330
BF
100
AcDbEntity
  8
AM_4
100
AcDbCircle
 10
0.8274999999999998
 20
-1.0025
 30
0.0
 40
0.0475000000000003
100
AcDbArc
 50
270.0
 51
0.0
  0
ARC
  5
11A
330
BF
100
AcDbEntity
  8
AM_4
100
AcDbCircle
 10
-0.8274999999999998
 20
-1.0025
 30
0.0
 40
0.0475000000000002
100
AcDbArc
 50
180.0
 51
270.0
  0
LINE
  5
11B
330
BF
100
AcDbEntity
  8
AM_4
100
AcDbLine
 10
-0.62295901792189
 20
-0.5350000000000001
 30
0.0
 11
0.62295901792189
 21
-0.5350000000000001
 31
0.0
  0
ARC
  5
11D
330
BF
100
AcDbEntity
  8
AM_5
100
AcDbCircle
 10
0.0
 20
-0.815625
 30
0.0
 40
0.1562499999999999
100
AcDbArc
 50
75.00000000000001
 51
15.0
  0
ENDBLK
  5
C2
330
BF
100
AcDbEntity
  8
0
100
AcDbBlockEnd
  0
BLOCK
  5
120
330
11E
100
AcDbEntity
  8
0
100
AcDbBlockBegin
  2
4_053008H_0_in_053008_4
 70
     2
 10
0.0
 20
0.0
 30
0.0
  3
4_053008H_0_in_053008_4
  1

  0
ATTDEF
  5
122
330
11E
100
AcDbEntity
  8
AM_6
100
AcDbText
 10
8.125
 20
0.9625
 30
0.0
 40
0.5
  1
P2B-SXVU and P2B-SXVU-NL -I-Housing
100
AcDbAttributeDefinition
  3

  2
NN
 70
     8
280
     0
  0
ATTDEF
  5
123
330
11E
100
AcDbEntity
  8
AM_6
100
AcDbText
 10
8.125
 20
0.4625
 30
0.0
 40
0.5
  1
Eccentric Collar Pillow Block Bearings -Higher Backing Height -(Intermediate Duty)
100
AcDbAttributeDefinition
  3

  2
NT
 70
     8
280
     0
  0
ATTDEF
  5
124
330
11E
100
AcDbEntity
  8
AM_6
100
AcDbText
 10
8.125
 20
-0.0375
 30
0.0
 40
0.5
  1
053008H
100
AcDbAttributeDefinition
  3

  2
NB
 70
     8
280
     0
  0
ATTDEF
  5
125
330
11E
100
AcDbEntity
  8
AM_6
100
AcDbText
 10
8.125
 20
-0.5375
 30
0.0
 40
0.5
  1
$PN.H
100
AcDbAttributeDefinition
  3

  2
NBSYN
 70
     8
280
     0
  0
ATTDEF
  5
126
330
11E
100
AcDbEntity
  8
AM_6
100
AcDbText
 10
8.125
 20
-1.0375
 30
0.0
 40
0.5
  1
053008
100
AcDbAttributeDefinition
  3

  2
LINA
 70
     8
280
     0
  0
ATTDEF
  5
127
330
11E
100
AcDbEntity
  8
AM_6
100
AcDbText
 10
8.125
 20
-1.5375
 30
0.0
 40
0.5
  1
206
100
AcDbAttributeDefinition
  3

  2
SERIES
 70
     8
280
     0
  0
ATTDEF
  5
128
330
11E
100
AcDbEntity
  8
AM_6
100
AcDbText
 10
8.125
 20
-2.0375
 30
0.0
 40
0.5
  1
1-3/16
100
AcDbAttributeDefinition
  3

  2
SS
 70
     8
280
     0
  0
ATTDEF
  5
129
330
11E
100
AcDbEntity
  8
AM_6
100
AcDbText
 10
8.125
 20
-2.5375
 30
0.0
 40
0.5
  1
053008
100
AcDbAttributeDefinition
  3

  2
PN
 70
     8
280
     0
  0
ATTDEF
  5
12A
330
11E
100
AcDbEntity
  8
AM_6
100
AcDbText
 10
8.125
 20
-3.0375
 30
0.0
 40
0.5
  1
P2B-SXVU-103-NL
100
AcDbAttributeDefinition
  3

  2
DESCRIPTION
 70
     8
280
     0
  0
ATTDEF
  5
12B
330
11E
100
AcDbEntity
  8
AM_6
100
AcDbText
 10
8.125
 20
-3.5375
 30
0.0
 40
0.5
  1
2.80
100
AcDbAttributeDefinition
  3

  2
WEIGHT
 70
     8
280
     0
  0
ATTDEF
  5
12C
330
11E
100
AcDbEntity
  8
AM_6
100
AcDbText
 10
8.125
 20
-4.0375
 30
0.0
 40
0.5
  1
NO-LUBE
100
AcDbAttributeDefinition
  3

  2
LF
 70
     8
280
     0
  0
ATTDEF
  5
12D
330
11E
100
AcDbEntity
  8
AM_6
100
AcDbText
 10
8.125
 20
-4.5375
 30
0.0
 40
0.5
  1
1.41
100
AcDbAttributeDefinition
  3

  2
A
 70
     8
280
     0
  0
ATTDEF
  5
12E
330
11E
100
AcDbEntity
  8
AM_6
100
AcDbText
 10
8.125
 20
-5.0375
 30
0.0
 40
0.5
  1
6.25
100
AcDbAttributeDefinition
  3

  2
B
 70
     8
280
     0
  0
ATTDEF
  5
12F
330
11E
100
AcDbEntity
  8
AM_6
100
AcDbText
 10
8.125
 20
-5.5375
 30
0.0
 40
0.5
  1
1.75
100
AcDbAttributeDefinition
  3

  2
C
 70
     8
280
     0
  0
ATTDEF
  5
130
330
11E
100
AcDbEntity
  8
AM_6
100
AcDbText
 10
8.125
 20
-6.0375
 30
0.0
 40
0.5
  1
4.25
100
AcDbAttributeDefinition
  3

  2
DMIN
 70
     8
280
     0
  0
ATTDEF
  5
131
330
11E
100
AcDbEntity
  8
AM_6
100
AcDbText
 10
8.125
 20
-6.5375
 30
0.0
 40
0.5
  1
5.00
100
AcDbAttributeDefinition
  3

  2
DMAX
 70
     8
280
     0
  0
ATTDEF
  5
132
330
11E
100
AcDbEntity
  8
AM_6
100
AcDbText
 10
8.125
 20
-7.0375
 30
0.0
 40
0.5
  1
1/2
100
AcDbAttributeDefinition
  3

  2
F
 70
     8
280
     0
  0
ATTDEF
  5
133
330
11E
100
AcDbEntity
  8
AM_6
100
AcDbText
 10
8.125
 20
-7.5375
 30
0.0
 40
0.5
  1
0.94
100
AcDbAttributeDefinition
  3

  2
G
 70
     8
280
     0
  0
ATTDEF
  5
134
330
11E
100
AcDbEntity
  8
AM_6
100
AcDbText
 10
8.125
 20
-8.0375
 30
0.0
 40
0.5
  1
0.75
100
AcDbAttributeDefinition
  3

  2
H
 70
     8
280
     0
  0
ATTDEF
  5
135
330
11E
100
AcDbEntity
  8
AM_6
100
AcDbText
 10
8.125
 20
-8.5375
 30
0.0
 40
0.5
  1
3.31
100
AcDbAttributeDefinition
  3

  2
J
 70
     8
280
     0
  0
ATTDEF
  5
136
330
11E
100
AcDbEntity
  8
AM_6
100
AcDbText
 10
8.125
 20
-9.0375
 30
0.0
 40
0.5
  1
1.75
100
AcDbAttributeDefinition
  3

  2
L
 70
     8
280
     0
  0
ATTDEF
  5
137
330
11E
100
AcDbEntity
  8
AM_6
100
AcDbText
 10
8.125
 20
-9.5375
 30
0.0
 40
0.5
  1
1.69
100
AcDbAttributeDefinition
  3

  2
M
 70
     8
280
     0
  0
ATTDEF
  5
138
330
11E
100
AcDbEntity
  8
AM_6
100
AcDbText
 10
8.125
 20
-10.0375
 30
0.0
 40
0.5
  1
0.35
100
AcDbAttributeDefinition
  3

  2
R
 70
     8
280
     0
  0
ATTDEF
  5
139
330
11E
100
AcDbEntity
  8
AM_6
100
AcDbText
 10
8.125
 20
-10.5375
 30
0.0
 40
0.5
  1
1.05
100
AcDbAttributeDefinition
  3

  2
S
 70
     8
280
     0
  0
ATTDEF
  5
13A
330
11E
100
AcDbEntity
  8
AM_6
100
AcDbText
 10
8.125
 20
-11.0375
 30
0.0
 40
0.5
  1
2.88
100
AcDbAttributeDefinition
  3

  2
U
 70
     8
280
     0
  0
ATTDEF
  5
13B
330
11E
100
AcDbEntity
  8
AM_6
100
AcDbText
 10
8.125
 20
-11.5375
 30
0.0
 40
0.5
  1
5.76
100
AcDbAttributeDefinition
  3

  2
V
 70
     8
280
     0
  0
ATTDEF
  5
13C
330
11E
100
AcDbEntity
  8
AM_6
100
AcDbText
 10
8.125
 20
-12.0375
 30
0.0
 40
0.5
  1
0.56
100
AcDbAttributeDefinition
  3

  2
W
 70
     8
280
     0
  0
ATTDEF
  5
13D
330
11E
100
AcDbEntity
  8
AM_6
100
AcDbText
 10
8.125
 20
-12.5375
 30
0.0
 40
0.5
  1
0.12
100
AcDbAttributeDefinition
  3

  2
X
 70
     8
280
     0
  0
ATTDEF
  5
13E
330
11E
100
AcDbEntity
  8
AM_6
100
AcDbText
 10
8.125
 20
-13.0375
 30
0.0
 40
0.5
  1
2250
100
AcDbAttributeDefinition
  3

  2
CAPS
 70
     8
280
     0
  0
ATTDEF
  5
13F
330
11E
100
AcDbEntity
  8
AM_6
100
AcDbText
 10
8.125
 20
-13.5375
 30
0.0
 40
0.5
  1
4368
100
AcDbAttributeDefinition
  3

  2
CAPD
 70
     8
280
     0
  0
ATTDEF
  5
140
330
11E
100
AcDbEntity
  8
AM_6
100
AcDbText
 10
8.125
 20
-14.0375
 30
0.0
 40
0.5
  1
baldor
100
AcDbAttributeDefinition
  3

  2
COMPANY
 70
     8
280
     0
  0
LINE
  5
141
330
11E
100
AcDbEntity
  8
AM_9
100
AcDbLine
 10
-1.279825
 20
-0.175
 30
0.0
 11
-1.279825
 21
0.7833333333333338
 31
0.0
  0
LINE
  5
142
330
11E
100
AcDbEntity
  8
AM_9
100
AcDbLine
 10
-1.204825
 20
0.4374999999999998
 30
0.0
 11
-1.204825
 21
0.7004177135744482
 31
0.0
  0
LINE
  5
143
330
11E
100
AcDbEntity
  8
AM_9
100
AcDbLine
 10
-1.279825
 20
-0.783333333333333
 30
0.0
 11
-1.279825
 21
-0.4375000000000001
 31
0.0
  0
LINE
  5
144
330
11E
100
AcDbEntity
  8
AM_9
100
AcDbLine
 10
-1.204825
 20
-0.7004177135744482
 30
0.0
 11
-1.204825
 21
-0.4375000000000001
 31
0.0
  0
LINE
  5
145
330
11E
100
AcDbEntity
  8
AM_9
100
AcDbLine
 10
1.279825
 20
-0.7833333333333339
 30
0.0
 11
1.279825
 21
-0.4375000000000001
 31
0.0
  0
LINE
  5
146
330
11E
100
AcDbEntity
  8
AM_9
100
AcDbLine
 10
1.204825
 20
-0.7004177135744486
 30
0.0
 11
1.204825
 21
-0.4375000000000001
 31
0.0
  0
LINE
  5
147
330
11E
100
AcDbEntity
  8
AM_9
100
AcDbLine
 10
1.279825
 20
-0.175
 30
0.0
 11
1.279825
 21
0.7833333333333308
 31
0.0
  0
LINE
  5
148
330
11E
100
AcDbEntity
  8
AM_9
100
AcDbLine
 10
1.204825
 20
0.4374999999999998
 30
0.0
 11
1.204825
 21
0.700417713574448
 31
0.0
  0
LINE
  5
149
330
11E
100
AcDbEntity
  8
AM_9
100
AcDbLine
 10
-2.6325
 20
-0.4375000000000001
 30
0.0
 11
-2.6325
 21
-0.2494994989974929
 31
0.0
  0
LINE
  5
14A
330
11E
100
AcDbEntity
  8
AM_9
100
AcDbLine
 10
-2.7825
 20
-0.4375000000000001
 30
0.0
 11
-2.7825
 21
0.4374999999999999
 31
0.0
  0
LINE
  5
14B
330
11E
100
AcDbEntity
  8
AM_9
100
AcDbLine
 10
-2.6325
 20
0.2494994989974933
 30
0.0
 11
-2.6325
 21
0.4374999999999999
 31
0.0
  0
LINE
  5
14C
330
11E
100
AcDbEntity
  8
AM_9
100
AcDbLine
 10
-1.753239373190544
 20
-0.4375000000000001
 30
0.0
 11
-1.753239373190544
 21
0.4374999999999999
 31
0.0
  0
LINE
  5
14D
330
11E
100
AcDbEntity
  8
AM_9
100
AcDbLine
 10
2.632499999999999
 20
-0.4375000000000001
 30
0.0
 11
2.632499999999999
 21
-0.2494994989974934
 31
0.0
  0
LINE
  5
14E
330
11E
100
AcDbEntity
  8
AM_9
100
AcDbLine
 10
2.7825
 20
-0.4375000000000001
 30
0.0
 11
2.7825
 21
0.4374999999999999
 31
0.0
  0
LINE
  5
14F
330
11E
100
AcDbEntity
  8
AM_9
100
AcDbLine
 10
1.753239373190547
 20
-0.4375000000000001
 30
0.0
 11
1.753239373190547
 21
0.4374999999999999
 31
0.0
  0
LINE
  5
150
330
11E
100
AcDbEntity
  8
AM_9
100
AcDbLine
 10
2.632499999999999
 20
0.2494994989974933
 30
0.0
 11
2.632499999999999
 21
0.4374999999999999
 31
0.0
  0
LINE
  5
151
330
11E
100
AcDbEntity
  8
AM_9
100
AcDbLine
 10
-1.559125089363656
 20
-0.4375000000000001
 30
0.0
 11
-1.559125089363656
 21
0.4374999999999999
 31
0.0
  0
LINE
  5
152
330
11E
100
AcDbEntity
  8
AM_9
100
AcDbLine
 10
1.559125089363656
 20
-0.4375000000000001
 30
0.0
 11
1.559125089363656
 21
0.4374999999999999
 31
0.0
  0
LINE
  5
153
330
11E
100
AcDbEntity
  8
AM_9
100
AcDbLine
 10
0.8509595149324669
 20
-0.4375000000000001
 30
0.0
 11
0.8509595149324669
 21
0.4374999999999999
 31
0.0
  0
LINE
  5
154
330
11E
100
AcDbEntity
  8
AM_9
100
AcDbLine
 10
-0.8509595149324679
 20
-0.4375000000000001
 30
0.0
 11
-0.8509595149324679
 21
0.4374999999999999
 31
0.0
  0
LINE
  5
155
330
11E
100
AcDbEntity
  8
AM_9
100
AcDbLine
 10
1.148054154479309
 20
-0.4375000000000001
 30
0.0
 11
1.148054154479309
 21
0.4374999999999999
 31
0.0
  0
LINE
  5
156
330
11E
100
AcDbEntity
  8
AM_9
100
AcDbLine
 10
2.7825
 20
0.4374999999999999
 30
0.0
 11
-2.7825
 21
0.4374999999999999
 31
0.0
  0
LINE
  5
157
330
11E
100
AcDbEntity
  8
AM_9
100
AcDbLine
 10
2.7825
 20
-0.4375000000000001
 30
0.0
 11
-2.7825
 21
-0.4375000000000001
 31
0.0
  0
LINE
  5
158
330
11E
100
AcDbEntity
  8
AM_9
100
AcDbLine
 10
-1.148054154479308
 20
-0.4375000000000001
 30
0.0
 11
-1.148054154479308
 21
0.4374999999999999
 31
0.0
  0
LINE
  5
159
330
11E
100
AcDbEntity
  8
AM_9
100
AcDbLine
 10
1.133760542674246
 20
-0.175
 30
0.0
 11
1.133760542674246
 21
0.6128845214843756
 31
0.0
  0
LINE
  5
15A
330
11E
100
AcDbEntity
  8
AM_9
100
AcDbLine
 10
1.279825
 20
-0.175
 30
0.0
 11
1.066282861158333
 21
-0.175
 31
0.0
  0
LINE
  5
15B
330
11E
100
AcDbEntity
  8
AM_9
100
AcDbLine
 10
-1.066282861158333
 20
-0.175
 30
0.0
 11
-1.279825
 21
-0.175
 31
0.0
  0
LINE
  5
15C
330
11E
100
AcDbEntity
  8
AM_9
100
AcDbLine
 10
-1.133760542674246
 20
-0.175
 30
0.0
 11
-1.133760542674246
 21
0.6128845214843752
 31
0.0
  0
LINE
  5
15D
330
11E
100
AcDbEntity
  8
AM_9
100
AcDbLine
 10
0.875
 20
-0.7000000000000001
 30
0.0
 11
-0.875
 21
-0.7
 31
0.0
  0
LINE
  5
15E
330
11E
100
AcDbEntity
  8
AM_9
100
AcDbLine
 10
1.219372954685914
 20
-0.7032028703181689
 30
0.0
 11
1.220449999996195
 21
-0.703518280188481
 31
0.0
  0
LINE
  5
15F
330
11E
100
AcDbEntity
  8
AM_9
100
AcDbLine
 10
-1.066282861158333
 20
-0.175
 30
0.0
 11
-1.066282861158333
 21
0.6128845214843748
 31
0.0
  0
LINE
  5
160
330
11E
100
AcDbEntity
  8
AM_9
100
AcDbLine
 10
1.066282861158333
 20
0.6128845214843748
 30
0.0
 11
1.066282861158333
 21
-0.175
 31
0.0
  0
LINE
  5
161
330
11E
100
AcDbEntity
  8
AM_9
100
AcDbLine
 10
1.22045
 20
-0.703483715310495
 30
0.0
 11
1.22045
 21
-0.175
 31
0.0
  0
LINE
  5
162
330
11E
100
AcDbEntity
  8
AM_9
100
AcDbLine
 10
-1.22045
 20
-0.175
 30
0.0
 11
-1.22045
 21
-0.7034402962453252
 31
0.0
  0
LINE
  5
163
330
11E
100
AcDbEntity
  8
AM_9
100
AcDbLine
 10
-1.220449999983994
 20
-0.7035182801848182
 30
0.0
 11
-1.21918551062542
 21
-0.7031495825429119
 31
0.0
  0
LINE
  5
164
330
11E
100
AcDbEntity
  8
AM_9
100
AcDbLine
 10
0.9205514212232454
 20
-0.1806863231297346
 30
0.0
 11
1.141253863941405
 21
-0.1904353307879656
 31
0.0
  0
LINE
  5
165
330
11E
100
AcDbEntity
  8
AM_9
100
AcDbLine
 10
1.141227063498681
 20
0.1904341469418871
 30
0.0
 11
0.9205514212232454
 21
0.1806863231297348
 31
0.0
  0
LWPOLYLINE
  5
166
330
11E
100
AcDbEntity
  8
AM_9
100
AcDbPolyline
 90
        3
 70
     0
 43
0.0
 10
1.119628913627253
 20
-0.1870469450891613
 10
1.123001708523185
 20
-0.1878747430233252
 10
1.141314841232032
 20
-0.1904380230395502
  0
LWPOLYLINE
  5
167
330
11E
100
AcDbEntity
  8
AM_9
100
AcDbPolyline
 90
       18
 70
     0
 43
0.0
 10
1.117886747036464
 20
0.1865629693812899
 10
1.10747751323665
 20
0.182985495539104
 10
1.085631159328725
 20
0.1716317357641364
 10
1.065107474123944
 20
0.1554243012104713
 10
1.046610685518994
 20
0.1349108670148718
 10
1.030682241831007
 20
0.1104167984245176
 10
1.017981215212632
 20
0.0828130532570136
 10
1.009001348723633
 20
0.052770386579602
 10
1.004049522902342
 20
0.0212248767446052
 10
1.003372045428009
 20
-0.0107896830712065
 10
1.006897311145281
 20
-0.0424988441511813
 10
1.01453134613563
 20
-0.0729154949615298
 10
1.025935065249226
 20
-0.1012892559177961
 10
1.040814260662619
 20
-0.1268901388439372
 10
1.058562836595484
 20
-0.1489296455112163
 10
1.078683118499574
 20
-0.1667869215884948
 10
1.100423926413918
 20
-0.1799280558093816
 10
1.119628913627253
 20
-0.1870469450891613
  0
LWPOLYLINE
  5
168
330
11E
100
AcDbEntity
  8
AM_9
100
AcDbPolyline
 90
        3
 70
     0
 43
0.0
 10
1.141298332020947
 20
0.1904372950560812
 10
1.130009139626967
 20
0.1892770677420614
 10
1.117886747036464
 20
0.1865629693812899
  0
LWPOLYLINE
  5
169
330
11E
100
AcDbEntity
  8
AM_9
100
AcDbPolyline
 90
       16
 70
     0
 43
0.0
 10
1.141314841232032
 20
-0.1904380230395502
 10
1.145802409133381
 20
-0.1905301068617685
 10
1.167986849620196
 20
-0.1877766212389618
 10
1.189123488939987
 20
-0.1798094985617594
 10
1.208640862138577
 20
-0.1667950371142259
 10
1.22611425121238
 20
-0.1491721749023494
 10
1.24122641692915
 20
-0.1272119692140451
 10
1.253576730456977
 20
-0.10169083017049
 10
1.262926439546433
 20
-0.0731368730923411
 10
1.269076806149202
 20
-0.0425039855917351
 10
1.27187114526363
 20
-0.0107369232700045
 10
1.271324084847324
 20
0.021335135738372
 10
1.267427377887726
 20
0.0526619650964673
 10
1.260296212565316
 20
0.08250959705906
 10
1.253711060687698
 20
0.101347986841146
 10
1.245765126612345
 20
0.1188956522981066
  0
LWPOLYLINE
  5
16A
330
11E
100
AcDbEntity
  8
AM_9
100
AcDbPolyline
 90
        7
 70
     0
 43
0.0
 10
1.245765126612345
 20
0.1188956522981066
 10
1.231509181192243
 20
0.1421820030415065
 10
1.214672637305432
 20
0.1614697465538603
 10
1.195577185965254
 20
0.1761529496300858
 10
1.174706129261916
 20
0.1858658262633538
 10
1.152677012567017
 20
0.1902383976129866
 10
1.141298332020947
 20
0.1904372950560812
  0
ELLIPSE
  5
16B
330
11E
100
AcDbEntity
  8
AM_9
100
AcDbEllipse
 10
0.924542116401417
 20
0.0000000000000042
 30
0.0
 11
1.106924205118235E-17
 21
0.1807744413963142
 31
0.0
210
0.0
220
0.0
230
1.0
 40
0.7071067811865476
 41
0.0
 42
6.283185307179586
  0
LINE
  5
16C
330
11E
100
AcDbEntity
  8
AM_7
100
AcDbLine
 10
-2.943
 20
-0.56
 30
0.0
 11
-2.817
 21
-0.56
 31
0.0
  0
LINE
  5
16D
330
11E
100
AcDbEntity
  8
AM_7
100
AcDbLine
 10
-2.88
 20
-0.623
 30
0.0
 11
-2.88
 21
-0.4970000000000001
 31
0.0
  0
LINE
  5
16E
330
11E
100
AcDbEntity
  8
AM_7
100
AcDbLine
 10
2.817
 20
-0.56
 30
0.0
 11
2.943
 21
-0.56
 31
0.0
  0
LINE
  5
16F
330
11E
100
AcDbEntity
  8
AM_7
100
AcDbLine
 10
2.88
 20
-0.623
 30
0.0
 11
2.88
 21
-0.4970000000000001
 31
0.0
  0
LINE
  5
170
330
11E
100
AcDbEntity
  8
AM_7
100
AcDbLine
 10
0.0
 20
0.9625
 30
0.0
 11
0.0
 21
-1.1205
 31
0.0
  0
LINE
  5
171
330
11E
100
AcDbEntity
  8
AM_7
100
AcDbLine
 10
-2.796625
 20
0.0000000000000003
 30
0.0
 11
-1.828375
 21
0.0000000000000003
 31
0.0
  0
LINE
  5
172
330
11E
100
AcDbEntity
  8
AM_7
100
AcDbLine
 10
-2.125
 20
-0.2966249999999999
 30
0.0
 11
-2.125
 21
0.2966250000000005
 31
0.0
  0
LINE
  5
173
330
11E
100
AcDbEntity
  8
AM_7
100
AcDbLine
 10
1.828375
 20
-0.0000000000000001
 30
0.0
 11
2.796625
 21
-0.0000000000000001
 31
0.0
  0
LINE
  5
174
330
11E
100
AcDbEntity
  8
AM_7
100
AcDbLine
 10
2.125
 20
-0.2966249999999998
 30
0.0
 11
2.125
 21
0.2966249999999997
 31
0.0
  0
LINE
  5
175
330
11E
100
AcDbEntity
  8
AM_7
100
AcDbLine
 10
-2.5
 20
-0.2966249999999995
 30
0.0
 11
-2.5
 21
0.296625
 31
0.0
  0
LINE
  5
176
330
11E
100
AcDbEntity
  8
AM_7
100
AcDbLine
 10
2.5
 20
-0.2966249999999998
 30
0.0
 11
2.5
 21
0.2966249999999997
 31
0.0
  0
LINE
  5
177
330
11E
100
AcDbEntity
  8
AM_4
100
AcDbLine
 10
-2.95
 20
0.875
 30
0.0
 11
-3.125
 21
0.7000000000000003
 31
0.0
  0
LINE
  5
178
330
11E
100
AcDbEntity
  8
AM_4
100
AcDbLine
 10
-3.125
 20
-0.7000000000000002
 30
0.0
 11
-2.95
 21
-0.8749999999999998
 31
0.0
  0
LINE
  5
179
330
11E
100
AcDbEntity
  8
AM_4
100
AcDbLine
 10
-3.125
 20
-0.6999999999999997
 30
0.0
 11
-3.125
 21
0.7
 31
0.0
  0
LINE
  5
17A
330
11E
100
AcDbEntity
  8
AM_4
100
AcDbLine
 10
-1.363158333333333
 20
0.875
 30
0.0
 11
-2.95
 21
0.875
 31
0.0
  0
LINE
  5
17B
330
11E
100
AcDbEntity
  8
AM_4
100
AcDbLine
 10
-1.363158333333333
 20
-0.8749999999999996
 30
0.0
 11
-2.95
 21
-0.8749999999999998
 31
0.0
  0
CIRCLE
  5
17C
330
11E
100
AcDbEntity
  8
AM_4
100
AcDbCircle
 10
-2.88
 20
-0.56
 30
0.0
 40
0.06
  0
LINE
  5
17D
330
11E
100
AcDbEntity
  8
AM_4
100
AcDbLine
 10
-2.125
 20
0.2825000000000003
 30
0.0
 11
-2.5
 21
0.2825000000000003
 31
0.0
  0
ARC
  5
17E
330
11E
100
AcDbEntity
  8
AM_4
100
AcDbCircle
 10
-2.125
 20
0.0000000000000002
 30
0.0
 40
0.2825
100
AcDbArc
 50
270.0
 51
90.0
  0
LINE
  5
17F
330
11E
100
AcDbEntity
  8
AM_4
100
AcDbLine
 10
-2.5
 20
-0.2824999999999998
 30
0.0
 11
-2.125
 21
-0.2824999999999998
 31
0.0
  0
ARC
  5
180
330
11E
100
AcDbEntity
  8
AM_4
100
AcDbCircle
 10
-2.5
 20
0.0000000000000002
 30
0.0
 40
0.2825000000000001
100
AcDbArc
 50
90.0
 51
270.0
  0
LINE
  5
181
330
11E
100
AcDbEntity
  8
AM_4
100
AcDbLine
 10
-2.975
 20
-0.85
 30
0.0
 11
-2.975
 21
0.85
 31
0.0
  0
LINE
  5
182
330
11E
100
AcDbEntity
  8
AM_4
100
AcDbLine
 10
2.95
 20
-0.875
 30
0.0
 11
3.125
 21
-0.7000000000000002
 31
0.0
  0
LINE
  5
183
330
11E
100
AcDbEntity
  8
AM_4
100
AcDbLine
 10
3.125
 20
0.7000000000000002
 30
0.0
 11
2.95
 21
0.875
 31
0.0
  0
LINE
  5
184
330
11E
100
AcDbEntity
  8
AM_4
100
AcDbLine
 10
2.95
 20
0.875
 30
0.0
 11
1.363158333333333
 21
0.8749999999999998
 31
0.0
  0
CIRCLE
  5
185
330
11E
100
AcDbEntity
  8
AM_4
100
AcDbCircle
 10
2.88
 20
-0.56
 30
0.0
 40
0.06
  0
LINE
  5
186
330
11E
100
AcDbEntity
  8
AM_4
100
AcDbLine
 10
2.5
 20
0.2825
 30
0.0
 11
2.125
 21
0.2824999999999999
 31
0.0
  0
ARC
  5
187
330
11E
100
AcDbEntity
  8
AM_4
100
AcDbCircle
 10
2.5
 20
0.0
 30
0.0
 40
0.2825000000000001
100
AcDbArc
 50
270.0
 51
90.0
  0
LINE
  5
188
330
11E
100
AcDbEntity
  8
AM_4
100
AcDbLine
 10
2.125
 20
-0.2825
 30
0.0
 11
2.5
 21
-0.2825
 31
0.0
  0
ARC
  5
189
330
11E
100
AcDbEntity
  8
AM_4
100
AcDbCircle
 10
2.125
 20
-0.0000000000000001
 30
0.0
 40
0.2824999999999999
100
AcDbArc
 50
90.0
 51
270.0
  0
LINE
  5
18A
330
11E
100
AcDbEntity
  8
AM_4
100
AcDbLine
 10
2.95
 20
-0.875
 30
0.0
 11
1.363158333333333
 21
-0.8750000000000002
 31
0.0
  0
LINE
  5
18B
330
11E
100
AcDbEntity
  8
AM_4
100
AcDbLine
 10
3.125
 20
-0.7000000000000002
 30
0.0
 11
3.125
 21
0.6999999999999996
 31
0.0
  0
LINE
  5
18C
330
11E
100
AcDbEntity
  8
AM_4
100
AcDbLine
 10
2.975
 20
-0.8500000000000002
 30
0.0
 11
2.975
 21
0.8500000000000001
 31
0.0
  0
LWPOLYLINE
  5
18D
330
11E
100
AcDbEntity
  8
AM_4
100
AcDbPolyline
 90
        4
 70
     0
 43
0.0
 10
2.125
 20
-0.6
 10
2.108111352688817
 20
-0.5997622642280844
 10
2.094129705134048
 20
-0.599205327825854
 10
2.087158046051629
 20
-0.5988054663422583
  0
LINE
  5
18E
330
11E
100
AcDbEntity
  8
AM_4
100
AcDbLine
 10
2.226298397544576
 20
-0.875
 30
0.0
 11
2.226298397544576
 21
-0.6000000000000002
 31
0.0
  0
LINE
  5
18F
330
11E
100
AcDbEntity
  8
AM_4
100
AcDbLine
 10
2.226298397544576
 20
-0.6000000000000002
 30
0.0
 11
2.125
 21
-0.6000000000000002
 31
0.0
  0
LWPOLYLINE
  5
190
330
11E
100
AcDbEntity
  8
AM_4
100
AcDbPolyline
 90
        4
 70
     0
 43
0.0
 10
2.087158046051629
 20
0.5988054663422583
 10
2.098329021301117
 20
0.5994069226287295
 10
2.113493764365924
 20
0.599889661972544
 10
2.125
 20
0.6
  0
LINE
  5
191
330
11E
100
AcDbEntity
  8
AM_4
100
AcDbLine
 10
2.125
 20
0.6
 30
0.0
 11
2.226298397544576
 21
0.6
 31
0.0
  0
LINE
  5
192
330
11E
100
AcDbEntity
  8
AM_4
100
AcDbLine
 10
2.226298397544576
 20
0.6
 30
0.0
 11
2.226298397544576
 21
0.875
 31
0.0
  0
LWPOLYLINE
  5
193
330
11E
100
AcDbEntity
  8
AM_4
100
AcDbPolyline
 90
        4
 70
     0
 43
0.0
 10
-2.087158046051629
 20
-0.5988054663422583
 10
-2.098329021301117
 20
-0.5994069226287294
 10
-2.113493764365924
 20
-0.599889661972544
 10
-2.125
 20
-0.6
  0
LINE
  5
194
330
11E
100
AcDbEntity
  8
AM_4
100
AcDbLine
 10
-2.125
 20
-0.6
 30
0.0
 11
-2.226298397544577
 21
-0.6
 31
0.0
  0
LINE
  5
195
330
11E
100
AcDbEntity
  8
AM_4
100
AcDbLine
 10
-2.226298397544577
 20
-0.875
 30
0.0
 11
-2.226298397544577
 21
-0.6
 31
0.0
  0
LWPOLYLINE
  5
196
330
11E
100
AcDbEntity
  8
AM_4
100
AcDbPolyline
 90
        4
 70
     0
 43
0.0
 10
-2.125
 20
0.6000000000000002
 10
-2.108111352688817
 20
0.5997622642280847
 10
-2.094129705134048
 20
0.5992053278258542
 10
-2.087158046051629
 20
0.5988054663422585
  0
LINE
  5
197
330
11E
100
AcDbEntity
  8
AM_4
100
AcDbLine
 10
-2.226298397544577
 20
0.6000000000000002
 30
0.0
 11
-2.226298397544577
 21
0.875
 31
0.0
  0
LINE
  5
198
330
11E
100
AcDbEntity
  8
AM_4
100
AcDbLine
 10
-2.226298397544577
 20
0.6000000000000002
 30
0.0
 11
-2.125
 21
0.6000000000000002
 31
0.0
  0
LINE
  5
199
330
11E
100
AcDbEntity
  8
AM_4
100
AcDbLine
 10
1.133760542674246
 20
0.6128845214843753
 30
0.0
 11
1.133760542674246
 21
0.7
 31
0.0
  0
LWPOLYLINE
  5
19A
330
11E
100
AcDbEntity
  8
AM_4
100
AcDbPolyline
 90
        7
 70
     0
 43
0.0
 10
1.196491666666666
 20
0.6999999999999997
 10
1.210646803841575
 20
0.701211006673624
 10
1.223531388199088
 20
0.7045088580487265
 10
1.235169198859787
 20
0.7095194257826924
 10
1.245460335285437
 20
0.7159054908782353
 10
1.258993657816931
 20
0.7282157721872088
 10
1.269156384335897
 20
0.7425377054977975
  0
LWPOLYLINE
  5
19B
330
11E
100
AcDbEntity
  8
AM_4
100
AcDbPolyline
 90
        3
 70
     0
 43
0.0
 10
1.279825
 20
0.7143554687500002
 10
1.274954879485268
 20
0.7334181808895058
 10
1.269156384335897
 20
0.7425377054977976
  0
LINE
  5
19C
330
11E
100
AcDbEntity
  8
AM_4
100
AcDbLine
 10
1.196491666666666
 20
0.6999999999999997
 30
0.0
 11
-1.196491666666667
 21
0.7
 31
0.0
  0
LWPOLYLINE
  5
19D
330
11E
100
AcDbEntity
  8
AM_4
100
AcDbPolyline
 90
        7
 70
     0
 43
0.0
 10
-1.269156384335897
 20
0.7425377054977976
 10
-1.259034485025101
 20
0.7282621038552446
 10
-1.245460335285437
 20
0.7159054908782359
 10
-1.235300184807665
 20
0.7095860198050515
 10
-1.223800363553375
 20
0.7046016401037685
 10
-1.210844901568869
 20
0.7012453982132035
 10
-1.196491666666667
 20
0.7
  0
LINE
  5
19E
330
11E
100
AcDbEntity
  8
AM_4
100
AcDbLine
 10
-1.133760542674246
 20
0.6128845214843753
 30
0.0
 11
-1.133760542674246
 21
0.7
 31
0.0
  0
LWPOLYLINE
  5
19F
330
11E
100
AcDbEntity
  8
AM_4
100
AcDbPolyline
 90
        7
 70
     0
 43
0.0
 10
-1.279825
 20
0.7143554687500002
 10
-1.274954879485268
 20
0.6952927566104946
 10
-1.260381582498849
 20
0.6763751232207509
 10
-1.236216020630407
 20
0.6577465431936445
 10
-1.202642108397326
 20
0.6395487912714256
 10
-1.159915363544181
 20
0.6219203633343257
 10
-1.133760542674246
 20
0.6128845214843753
  0
LINE
  5
1A0
330
11E
100
AcDbEntity
  8
AM_4
100
AcDbLine
 10
2.087158046051629
 20
-0.858941591393201
 30
0.0
 11
2.087158046051629
 21
-0.5988054663422585
 31
0.0
  0
LWPOLYLINE
  5
1A1
330
11E
100
AcDbEntity
  8
AM_4
100
AcDbPolyline
 90
       36
 70
     0
 43
0.0
 10
2.087158046051629
 20
0.5988054663422584
 10
2.035112710930784
 20
0.5932286871551201
 10
1.983751472355184
 20
0.5831370794574564
 10
1.933465220363155
 20
0.5686074464773261
 10
1.884636663696023
 20
0.54975036749494
 10
1.837637417153515
 20
0.5267093562675697
 10
1.792825173380741
 20
0.4996597688031985
 10
1.750540980611184
 20
0.4688074687954176
 10
1.711106647083713
 20
0.4343872608764144
 10
1.674822291887575
 20
0.3966611036119425
 10
1.641964060874904
 20
0.3559161158384608
 10
1.612782025024049
 20
0.3124623915154219
 10
1.587498277248431
 20
0.2666306397230002
 10
1.566305242135367
 20
0.2187696677663044
 10
1.54936421147877
 20
0.16924372654117
 10
1.536804116751213
 20
0.1184297383649012
 10
1.528720547857563
 20
0.0667144283698444
 10
1.525175025638094
 20
0.0144913812916197
 10
1.526194533657741
 20
-0.0378419539483694
 10
1.53177131284488
 20
-0.0898872890692149
 10
1.541862920542543
 20
-0.1412485276448146
 10
1.556392553522673
 20
-0.1915347796368444
 10
1.57524963250506
 20
-0.2403633363039758
 10
1.59829064373243
 20
-0.2873625828464834
 10
1.625340231196801
 20
-0.3321748266192577
 10
1.656192531204582
 20
-0.3744590193888152
 10
1.690612739123585
 20
-0.4138933529162861
 10
1.728338896388057
 20
-0.4501777081124246
 10
1.769083884161538
 20
-0.4830359391250955
 10
1.812537608484577
 20
-0.5122179749759499
 10
1.858369360276999
 20
-0.5375017227515678
 10
1.906230332233695
 20
-0.5586947578646326
 10
1.955756273458829
 20
-0.5756357885212293
 10
2.006570261635098
 20
-0.5881958832487872
 10
2.058285571630154
 20
-0.596279452142437
 10
2.087158046051629
 20
-0.5988054663422584
  0
LINE
  5
1A2
330
11E
100
AcDbEntity
  8
AM_4
100
AcDbLine
 10
2.087158046051629
 20
0.598805466342258
 30
0.0
 11
2.087158046051629
 21
0.8589415913932008
 31
0.0
  0
LINE
  5
1A3
330
11E
100
AcDbEntity
  8
AM_4
100
AcDbLine
 10
-2.087158046051629
 20
-0.858941591393201
 30
0.0
 11
-2.087158046051629
 21
-0.5988054663422583
 31
0.0
  0
LINE
  5
1A4
330
11E
100
AcDbEntity
  8
AM_4
100
AcDbLine
 10
-2.087158046051629
 20
0.5988054663422584
 30
0.0
 11
-2.087158046051629
 21
0.8589415913932008
 31
0.0
  0
LWPOLYLINE
  5
1A5
330
11E
100
AcDbEntity
  8
AM_4
100
AcDbPolyline
 90
       36
 70
     0
 43
0.0
 10
-2.087158046051629
 20
-0.5988054663422582
 10
-2.035112710930784
 20
-0.5932286871551199
 10
-1.983751472355184
 20
-0.5831370794574563
 10
-1.933465220363154
 20
-0.5686074464773258
 10
-1.884636663696023
 20
-0.5497503674949397
 10
-1.837637417153515
 20
-0.5267093562675693
 10
-1.792825173380741
 20
-0.4996597688031981
 10
-1.750540980611184
 20
-0.4688074687954173
 10
-1.711106647083713
 20
-0.4343872608764142
 10
-1.674822291887575
 20
-0.3966611036119422
 10
-1.641964060874904
 20
-0.3559161158384605
 10
-1.612782025024049
 20
-0.3124623915154216
 10
-1.587498277248431
 20
-0.2666306397229998
 10
-1.566305242135367
 20
-0.218769667766304
 10
-1.54936421147877
 20
-0.1692437265411697
 10
-1.536804116751213
 20
-0.1184297383649009
 10
-1.528720547857563
 20
-0.066714428369844
 10
-1.525175025638094
 20
-0.0144913812916194
 10
-1.526194533657742
 20
0.0378419539483697
 10
-1.53177131284488
 20
0.0898872890692152
 10
-1.541862920542543
 20
0.1412485276448149
 10
-1.556392553522673
 20
0.1915347796368447
 10
-1.57524963250506
 20
0.2403633363039761
 10
-1.59829064373243
 20
0.2873625828464837
 10
-1.625340231196801
 20
0.3321748266192579
 10
-1.656192531204582
 20
0.3744590193888155
 10
-1.690612739123585
 20
0.4138933529162864
 10
-1.728338896388057
 20
0.4501777081124249
 10
-1.769083884161538
 20
0.4830359391250957
 10
-1.812537608484577
 20
0.5122179749759501
 10
-1.858369360276999
 20
0.537501722751568
 10
-1.906230332233695
 20
0.5586947578646329
 10
-1.955756273458829
 20
0.5756357885212295
 10
-2.006570261635098
 20
0.5881958832487874
 10
-2.058285571630154
 20
0.5962794521424372
 10
-2.087158046051629
 20
0.5988054663422584
  0
LINE
  5
1A6
330
11E
100
AcDbEntity
  8
AM_4
100
AcDbLine
 10
-0.875
 20
-0.7
 30
0.0
 11
-1.196491666666666
 21
-0.6999999999999996
 31
0.0
  0
LINE
  5
1A7
330
11E
100
AcDbEntity
  8
AM_4
100
AcDbLine
 10
1.196491666666667
 20
-0.7000000000000001
 30
0.0
 11
0.875
 21
-0.7000000000000001
 31
0.0
  0
LWPOLYLINE
  5
1A8
330
11E
100
AcDbEntity
  8
AM_4
100
AcDbPolyline
 90
        5
 70
     0
 43
0.0
 10
1.196491666666667
 20
-0.7000000000000001
 10
1.204009594511253
 20
-0.7003398082523487
 10
1.210130078247778
 20
-0.7011236126551276
 10
1.218144131976687
 20
-0.702862126119548
 10
1.219256730016757
 20
-0.7031697734378872
  0
LINE
  5
1A9
330
11E
100
AcDbEntity
  8
AM_4
100
AcDbLine
 10
1.066282861158333
 20
0.6128845214843748
 30
0.0
 11
1.066282861158333
 21
0.7000000000000001
 31
0.0
  0
LINE
  5
1AA
330
11E
100
AcDbEntity
  8
AM_4
100
AcDbLine
 10
-1.066282861158333
 20
0.7000000000000001
 30
0.0
 11
-1.066282861158333
 21
0.6128845214843748
 31
0.0
  0
LWPOLYLINE
  5
1AB
330
11E
100
AcDbEntity
  8
AM_4
100
AcDbPolyline
 90
        4
 70
     0
 43
0.0
 10
-1.21918551062542
 20
-0.7031495825429119
 10
-1.217378388909378
 20
-0.702659984088358
 10
-1.209414074941306
 20
-0.7010080285429592
 10
-1.196491666666666
 20
-0.6999999999999996
  0
LINE
  5
1AC
330
11E
100
AcDbEntity
  8
AM_4
100
AcDbLine
 10
1.279825
 20
-0.7833333333333338
 30
0.0
 11
1.279825
 21
-0.7916666666666666
 31
0.0
  0
LWPOLYLINE
  5
1AD
330
11E
100
AcDbEntity
  8
AM_4
100
AcDbPolyline
 90
       19
 70
     0
 43
0.0
 10
1.279825
 20
-0.7916666666666666
 10
1.280142108492354
 20
-0.7989296452289714
 10
1.281091020582316
 20
-0.8061373481389108
 10
1.282664514475911
 20
-0.81323492042521
 10
1.284850614934508
 20
-0.820168345277139
 10
1.287632684413613
 20
-0.8268848551450583
 10
1.29098954968463
 20
-0.8333333333333334
 10
1.294895662975917
 20
-0.8394647030292538
 10
1.299321296406752
 20
-0.8452323008072117
 10
1.304232768234454
 20
-0.8505922317655457
 10
1.309592699192788
 20
-0.8555037035932482
 10
1.315360296970746
 20
-0.8599293370240827
 10
1.321491666666667
 20
-0.86383545031537
 10
1.327940144854941
 20
-0.8671923155863877
 10
1.334656654722861
 20
-0.8699743850654925
 10
1.34159007957479
 20
-0.8721604855240892
 10
1.348687651861089
 20
-0.8737339794176842
 10
1.355895354771028
 20
-0.8746828915076457
 10
1.363158333333333
 20
-0.8750000000000002
  0
LWPOLYLINE
  5
1AE
330
11E
100
AcDbEntity
  8
AM_4
100
AcDbPolyline
 90
       15
 70
     0
 43
0.0
 10
2.226298397544576
 20
-0.8749999999999998
 10
2.213225036132428
 20
-0.8749024519774493
 10
2.200251170894537
 20
-0.8746105503091506
 10
2.187475540779198
 20
-0.8741265165430545
 10
2.174995376045726
 20
-0.8734540344683885
 10
2.162905658283471
 20
-0.8725982220797968
 10
2.151298397544577
 20
-0.87156559262631
 10
2.140261932091919
 20
-0.8703640050415877
 10
2.129880256091595
 20
-0.8690026041326885
 10
2.120232380366594
 20
-0.8674917509825651
 10
2.11139173107673
 20
-0.8658429440959683
 10
2.103425590901228
 20
-0.8640687318888817
 10
2.096394586976911
 20
-0.8621826171874998
 10
2.090352229489079
 20
-0.8601989544635675
 10
2.087158046051629
 20
-0.858941591393201
  0
LINE
  5
1AF
330
11E
100
AcDbEntity
  8
AM_4
100
AcDbLine
 10
1.502715796123828
 20
-0.6109308129534278
 30
0.0
 11
2.087158046051629
 21
-0.858941591393201
 31
0.0
  0
LINE
  5
1B0
330
11E
100
AcDbEntity
  8
AM_4
100
AcDbLine
 10
-2.087158046051629
 20
-0.858941591393201
 30
0.0
 11
-1.502715796123828
 21
-0.6109308129534278
 31
0.0
  0
LWPOLYLINE
  5
1B1
330
11E
100
AcDbEntity
  8
AM_4
100
AcDbPolyline
 90
       15
 70
     0
 43
0.0
 10
-2.087158046051629
 20
-0.858941591393201
 10
-2.092571321307811
 20
-0.8609776154236184
 10
-2.09900234036077
 20
-0.8629252622225083
 10
-2.106402159272359
 20
-0.8647697090217102
 10
-2.114714460952528
 20
-0.8664969184673744
 10
-2.123875983766386
 20
-0.8680937454527021
 10
-2.133817002993439
 20
-0.8695480371601442
 10
-2.14446186147482
 20
-0.8708487255516818
 10
-2.155729545409943
 20
-0.8719859116032782
 10
-2.167534300920449
 20
-0.8729509406424292
 10
-2.179786286688996
 20
-0.873736468215446
 10
-2.192392257705934
 20
-0.8743365159831838
 10
-2.205256274920131
 20
-0.8747465172198113
 10
-2.218280435393081
 20
-0.8749633515683521
 10
-2.226298397544577
 20
-0.875
  0
LWPOLYLINE
  5
1B2
330
11E
100
AcDbEntity
  8
AM_4
100
AcDbPolyline
 90
       19
 70
     0
 43
0.0
 10
-1.363158333333333
 20
-0.8749999999999996
 10
-1.355895354771028
 20
-0.874682891507645
 10
-1.348687651861089
 20
-0.8737339794176836
 10
-1.34159007957479
 20
-0.8721604855240886
 10
-1.334656654722861
 20
-0.869974385065492
 10
-1.327940144854941
 20
-0.8671923155863871
 10
-1.321491666666667
 20
-0.8638354503153695
 10
-1.315360296970746
 20
-0.8599293370240824
 10
-1.309592699192788
 20
-0.8555037035932479
 10
-1.304232768234454
 20
-0.8505922317655453
 10
-1.299321296406752
 20
-0.8452323008072113
 10
-1.294895662975917
 20
-0.8394647030292536
 10
-1.29098954968463
 20
-0.8333333333333331
 10
-1.287632684413612
 20
-0.826884855145058
 10
-1.284850614934507
 20
-0.8201683452771389
 10
-1.282664514475911
 20
-0.8132349204252098
 10
-1.281091020582316
 20
-0.8061373481389107
 10
-1.280142108492354
 20
-0.7989296452289714
 10
-1.279825
 20
-0.7916666666666665
  0
LINE
  5
1B3
330
11E
100
AcDbEntity
  8
AM_4
100
AcDbLine
 10
-1.279825
 20
-0.7916666666666664
 30
0.0
 11
-1.279825
 21
-0.7833333333333327
 31
0.0
  0
LWPOLYLINE
  5
1B4
330
11E
100
AcDbEntity
  8
AM_4
100
AcDbPolyline
 90
       16
 70
     0
 43
0.0
 10
-1.218638891215752
 20
-0.7029968852588953
 10
-1.225556397141549
 20
-0.70523284750343
 10
-1.232252702918668
 20
-0.708063201603493
 10
-1.238676845616806
 20
-0.7114664068553683
 10
-1.244779933631025
 20
-0.7154165628121776
 10
-1.250515518776393
 20
-0.7198836064019201
 10
-1.255839949786712
 20
-0.7248335407256034
 10
-1.260712704527014
 20
-0.7302286937941719
 10
-1.265096698391476
 20
-0.7360280052350915
 10
-1.268958566539662
 20
-0.7421873387865768
 10
-1.272268917823104
 20
-0.7486598182011938
 10
-1.27500255846969
 20
-0.7553961840024072
 10
-1.277138683823482
 20
-0.7623451683789408
 10
-1.278661036680711
 20
-0.7694538853637779
 10
-1.27955803101691
 20
-0.7766682333283031
 10
-1.279825
 20
-0.7833333333333324
  0
LWPOLYLINE
  5
1B5
330
11E
100
AcDbEntity
  8
AM_4
100
AcDbPolyline
 90
       36
 70
     0
 43
0.0
 10
1.218638891215747
 20
-0.7029968852588807
 10
1.208208888263432
 20
-0.6848887496037922
 10
1.188583686134959
 20
-0.6670048734738978
 10
1.159912644468547
 20
-0.6494813639651257
 10
1.122413967203326
 20
-0.6324515855658219
 10
1.076373041915605
 20
-0.6160451451724664
 10
1.022140267847093
 20
-0.6003869057029325
 10
0.9601283891550965
 20
-0.5855960358142865
 10
0.8908093536802576
 20
-0.5717851029573527
 10
0.8147107211385182
 20
-0.5590592166704415
 10
0.732411648073131
 20
-0.5475152286322964
 10
0.6445384801236631
 20
-0.5372409955623383
 10
0.5517599851574789
 20
-0.5283147105779814
 10
0.4547822635424585
 20
-0.5208043080977945
 10
0.3543433742968413
 20
-0.5147669468195571
 10
0.2512077180144459
 20
-0.5102485747080548
 10
0.1461602193145932
 20
-0.507283579303324
 10
0.0400003530918031
 20
-0.5058945260107078
 10
-0.0664639399708892
 20
-0.5060919863644963
 10
-0.1724224023183788
 20
-0.5078744575721673
 10
-0.2770686260727325
 20
-0.511228373951545
 10
-0.3796061902840622
 20
-0.516128210173832
 10
-0.4792547221748455
 20
-0.5225366755267751
 10
-0.5752558362479652
 20
-0.530404997719501
 10
-0.666878906058267
 20
-0.5396732940691001
 10
-0.7534266247209725
 20
-0.5502710272440018
 10
-0.8342403118381171
 20
-0.5621175420956588
 10
-0.908704926454101
 20
-0.5751226794929287
 10
-0.9762537478887328
 20
-0.5891874624875016
 10
-1.036372688823801
 20
-0.6042048495882407
 10
-1.088604207817982
 20
-0.6200605494115633
 10
-1.132550791473476
 20
-0.6366338905078802
 10
-1.167877979752991
 20
-0.6537987397441917
 10
-1.194316911422581
 20
-0.6714244622533901
 10
-1.211666370247978
 20
-0.6893769156444782
 10
-1.218638891215752
 20
-0.7029968852588951
  0
LWPOLYLINE
  5
1B6
330
11E
100
AcDbEntity
  8
AM_4
100
AcDbPolyline
 90
       16
 70
     0
 43
0.0
 10
1.279825
 20
-0.7833333333333338
 10
1.279507891507645
 20
-0.7760703547710288
 10
1.278558979417684
 20
-0.7688626518610895
 10
1.276985485524089
 20
-0.7617650795747903
 10
1.274799385065492
 20
-0.7548316547228613
 10
1.272017315586387
 20
-0.748115144854942
 10
1.26866045031537
 20
-0.7416666666666669
 10
1.264754337024082
 20
-0.7355352969707465
 10
1.260328703593248
 20
-0.7297676991927886
 10
1.255417231765545
 20
-0.7244077682344546
 10
1.250057300807212
 20
-0.7194962964067521
 10
1.244289703029254
 20
-0.7150706629759175
 10
1.238158333333333
 20
-0.7111645496846303
 10
1.231709855145058
 20
-0.7078076844136126
 10
1.224993345277139
 20
-0.7050256149345078
 10
1.218638891215697
 20
-0.7029968852588806
  0
LINE
  5
1B7
330
11E
100
AcDbEntity
  8
AM_4
100
AcDbLine
 10
-1.133760542674246
 20
0.6128845214843752
 30
0.0
 11
-1.066282861158333
 21
0.6128845214843748
 31
0.0
  0
LWPOLYLINE
  5
1B8
330
11E
100
AcDbEntity
  8
AM_4
100
AcDbPolyline
 90
        3
 70
     0
 43
0.0
 10
-1.269156384335897
 20
0.7425377054977979
 10
-1.278699396134251
 20
0.7235266581249559
 10
-1.279825
 20
0.7143554687500002
  0
LWPOLYLINE
  5
1B9
330
11E
100
AcDbEntity
  8
AM_4
100
AcDbPolyline
 90
        7
 70
     0
 43
0.0
 10
-1.279825
 20
0.7833333333333338
 10
-1.279507891507645
 20
0.7760703547710288
 10
-1.278558979417684
 20
0.7688626518610895
 10
-1.276985485524089
 20
0.7617650795747903
 10
-1.274799385065492
 20
0.7548316547228613
 10
-1.272017315586388
 20
0.748115144854942
 10
-1.269156384335897
 20
0.7425377054977976
  0
LINE
  5
1BA
330
11E
100
AcDbEntity
  8
AM_4
100
AcDbLine
 10
-1.279825
 20
0.7833333333333338
 30
0.0
 11
-1.279825
 21
0.7916666666666644
 31
0.0
  0
LWPOLYLINE
  5
1BB
330
11E
100
AcDbEntity
  8
AM_4
100
AcDbPolyline
 90
       19
 70
     0
 43
0.0
 10
-1.279825
 20
0.7916666666666623
 10
-1.280142108492354
 20
0.7989296452289671
 10
-1.281091020582315
 20
0.8061373481389066
 10
-1.28266451447591
 20
0.8132349204252058
 10
-1.284850614934506
 20
0.8201683452771349
 10
-1.287632684413611
 20
0.8268848551450543
 10
-1.290989549684628
 20
0.8333333333333296
 10
-1.294895662975915
 20
0.8394647030292502
 10
-1.299321296406749
 20
0.8452323008072082
 10
-1.304232768234451
 20
0.8505922317655426
 10
-1.309592699192785
 20
0.8555037035932452
 10
-1.315360296970743
 20
0.85992933702408
 10
-1.321491666666663
 20
0.8638354503153676
 10
-1.327940144854938
 20
0.8671923155863857
 10
-1.334656654722857
 20
0.8699743850654907
 10
-1.341590079574786
 20
0.8721604855240878
 10
-1.348687651861085
 20
0.8737339794176832
 10
-1.355895354771024
 20
0.874682891507645
 10
-1.363158333333329
 20
0.875
  0
LWPOLYLINE
  5
1BC
330
11E
100
AcDbEntity
  8
AM_4
100
AcDbPolyline
 90
       15
 70
     0
 43
0.0
 10
-2.226298388328718
 20
0.8749999999999997
 10
-2.213225026951638
 20
0.874902451840181
 10
-2.200251161818688
 20
0.8746105500356589
 10
-2.187475531877362
 20
0.8741265161354206
 10
-2.174995367385651
 20
0.873454033929715
 10
-2.162905649931067
 20
0.872598221414183
 10
-2.151298389563408
 20
0.8715655918388219
 10
-2.14026192454273
 20
0.8703640041382185
 10
-2.129880249031838
 20
0.8690026031203133
 10
-2.120232373849998
 20
0.8674917498688888
 10
-2.11139172515289
 20
0.8658429428894665
 10
-2.103425585615228
 20
0.8640687305987367
 10
-2.096394582368981
 20
0.8621826158235304
 10
-2.090352225594288
 20
0.8601989530361545
 10
-2.087158046051629
 20
0.8589415913932008
  0
LINE
  5
1BD
330
11E
100
AcDbEntity
  8
AM_4
100
AcDbLine
 10
-1.502715796123828
 20
0.610930812953428
 30
0.0
 11
-2.087158046051629
 21
0.8589415913932008
 31
0.0
  0
LINE
  5
1BE
330
11E
100
AcDbEntity
  8
AM_4
100
AcDbLine
 10
2.087158046051629
 20
0.8589415913932008
 30
0.0
 11
1.502715796123828
 21
0.6109308129534279
 31
0.0
  0
LWPOLYLINE
  5
1BF
330
11E
100
AcDbEntity
  8
AM_4
100
AcDbPolyline
 90
       15
 70
     0
 43
0.0
 10
2.087158046051629
 20
0.8589415913932008
 10
2.092571321307811
 20
0.8609776154236182
 10
2.09900234036077
 20
0.8629252622225082
 10
2.106402159272359
 20
0.86476970902171
 10
2.114714460952528
 20
0.8664969184673743
 10
2.123875983766386
 20
0.8680937454527018
 10
2.133817002993439
 20
0.869548037160144
 10
2.14446186147482
 20
0.8708487255516816
 10
2.155729545409943
 20
0.8719859116032781
 10
2.167534300920448
 20
0.872950940642429
 10
2.179786286688995
 20
0.8737364682154458
 10
2.192392257705933
 20
0.8743365159831837
 10
2.205256274920131
 20
0.8747465172198111
 10
2.218280435393081
 20
0.8749633515683519
 10
2.226298397544576
 20
0.8749999999999997
  0
LWPOLYLINE
  5
1C0
330
11E
100
AcDbEntity
  8
AM_4
100
AcDbPolyline
 90
       19
 70
     0
 43
0.0
 10
1.363158333333333
 20
0.8749999999999998
 10
1.355895354771028
 20
0.8746828915076453
 10
1.348687651861089
 20
0.8737339794176837
 10
1.341590079574789
 20
0.8721604855240889
 10
1.334656654722861
 20
0.8699743850654923
 10
1.327940144854941
 20
0.8671923155863874
 10
1.321491666666666
 20
0.8638354503153698
 10
1.315360296970746
 20
0.8599293370240825
 10
1.309592699192788
 20
0.855503703593248
 10
1.304232768234454
 20
0.8505922317655455
 10
1.299321296406752
 20
0.8452323008072115
 10
1.294895662975917
 20
0.8394647030292538
 10
1.29098954968463
 20
0.8333333333333333
 10
1.287632684413612
 20
0.8268848551450583
 10
1.284850614934507
 20
0.820168345277139
 10
1.282664514475911
 20
0.8132349204252101
 10
1.281091020582316
 20
0.8061373481389108
 10
1.280142108492354
 20
0.7989296452289716
 10
1.279825
 20
0.7916666666666666
  0
LINE
  5
1C1
330
11E
100
AcDbEntity
  8
AM_4
100
AcDbLine
 10
1.279825
 20
0.7916666666666665
 30
0.0
 11
1.279825
 21
0.783333333333329
 31
0.0
  0
LWPOLYLINE
  5
1C2
330
11E
100
AcDbEntity
  8
AM_4
100
AcDbPolyline
 90
        7
 70
     0
 43
0.0
 10
1.269156384335897
 20
0.7425377054977975
 10
1.27243544639195
 20
0.7490260926182591
 10
1.275136530428187
 20
0.7557755785558408
 10
1.277239079564131
 20
0.7627347956471064
 10
1.278727092131304
 20
0.7698507800479015
 10
1.279589243455584
 20
0.7770693748201869
 10
1.279825
 20
0.783333333333325
  0
LWPOLYLINE
  5
1C3
330
11E
100
AcDbEntity
  8
AM_4
100
AcDbPolyline
 90
        7
 70
     0
 43
0.0
 10
1.133760542674246
 20
0.6128845214843753
 10
1.181194963774126
 20
0.6301577632182502
 10
1.219639777974665
 20
0.6480718003311863
 10
1.248802397026185
 20
0.6664902961839628
 10
1.268460875788831
 20
0.6852730749017484
 10
1.278465601369107
 20
0.7042771881971486
 10
1.279825
 20
0.7143554687500002
  0
LINE
  5
1C4
330
11E
100
AcDbEntity
  8
AM_4
100
AcDbLine
 10
1.066282861158333
 20
0.6128845214843748
 30
0.0
 11
1.133760542674246
 21
0.6128845214843756
 31
0.0
  0
LWPOLYLINE
  5
1C5
330
11E
100
AcDbEntity
  8
AM_4
100
AcDbPolyline
 90
       26
 70
     0
 43
0.0
 10
-1.066282861158333
 20
0.6128845214843747
 10
-1.010476610695606
 20
0.5973886001673023
 10
-0.946980023083026
 20
0.5827828673466705
 10
-0.8762763456926129
 20
0.5691784814684269
 10
-0.7989036762013549
 20
0.5566789801236577
 10
-0.715450867342976
 20
0.5453794920650018
 10
-0.6265530453830722
 20
0.5353660132194032
 10
-0.5328867764247305
 20
0.5267147522071804
 10
-0.4351649173319638
 20
0.5194915503484111
 10
-0.3341311904585395
 20
0.5137513805707287
 10
-0.2305545234717967
 20
0.5095379290321507
 10
-0.1252231973488062
 20
0.5068832626430374
 10
-0.0189388470821574
 20
0.5058075850175412
 10
0.0874896392463752
 20
0.5063190827119041
 10
0.1932522765925543
 20
0.5084138629198214
 10
0.2975441474249491
 20
0.5120759830990477
 10
0.3995715276333716
 20
0.5172775723037706
 10
0.4985579272486193
 20
0.5239790432993368
 10
0.593749999999998
 20
0.532129393845011
 10
0.6844232767353244
 20
0.5416665948518247
 10
0.7698876790686214
 20
0.5525180624613963
 10
0.8494927712933157
 20
0.564601210452922
 10
0.9226327105907083
 20
0.5778240787741818
 10
0.9887508578596436
 20
0.5920860334130651
 10
1.047344014076175
 20
0.6072785322831659
 10
1.066282861158333
 20
0.6128845214843748
  0
LINE
  5
1C6
330
11E
100
AcDbEntity
  8
AM_4
100
AcDbLine
 10
-1.502715796123828
 20
-0.6109308129534278
 30
0.0
 11
-1.502715796123828
 21
0.610930812953428
 31
0.0
  0
LWPOLYLINE
  5
1C7
330
11E
100
AcDbEntity
  8
AM_4
100
AcDbPolyline
 90
       29
 70
     0
 43
0.0
 10
-1.502715796123828
 20
-0.6109308129534279
 10
-1.444252423357068
 20
-0.58894175342492
 10
-1.374797417585104
 20
-0.5679071679969078
 10
-1.294879373339941
 20
-0.5479871425655282
 10
-1.205106515194117
 20
-0.5293332805523545
 10
-1.106162068804458
 20
-0.5120875491108164
 10
-0.9987990611522782
 20
-0.4963811986704418
 10
-0.8838345895533672
 20
-0.4823337640418354
 10
-0.7621436030540389
 20
-0.4700521546845938
 10
-0.6346522435405796
 20
-0.4596298410617642
 10
-0.5023307972402744
 20
-0.4511461432731813
 10
-0.3661863102573424
 20
-0.444665627381613
 10
-0.2272549243440125
 20
-0.4402376140260367
 10
-0.0865939912361497
 20
-0.4378958030617959
 10
0.0547259744319017
 20
-0.4376580170843524
 10
0.1956294423900796
 20
-0.4395260657885738
 10
0.3350440521673819
 20
-0.4434857321958622
 10
0.4719087744025606
 20
-0.4495068808539465
 10
0.6051819859182271
 20
-0.4575436871858694
 10
0.733849397102182
 20
-0.4675349862426887
 10
0.856931771263808
 20
-0.4794047382056708
 10
0.9734923772165662
 20
-0.493062607095225
 10
1.082644118367938
 20
-0.5084046482822553
 10
1.183556284060137
 20
-0.5253140995695506
 10
1.275460871779815
 20
-0.5436622698226087
 10
1.357658432120918
 20
-0.5633095183868756
 10
1.429523392017006
 20
-0.5841063178374444
 10
1.490508815730021
 20
-0.6058943919730453
 10
1.502715796123828
 20
-0.6109308129534278
  0
LINE
  5
1C8
330
11E
100
AcDbEntity
  8
AM_4
100
AcDbLine
 10
1.502715796123828
 20
-0.6109308129534278
 30
0.0
 11
1.502715796123828
 21
0.6109308129534279
 31
0.0
  0
LWPOLYLINE
  5
1C9
330
11E
100
AcDbEntity
  8
AM_4
100
AcDbPolyline
 90
       29
 70
     0
 43
0.0
 10
1.502715796123828
 20
0.6109308129534277
 10
1.444252423357067
 20
0.5889417534249197
 10
1.374797417585104
 20
0.5679071679969075
 10
1.29487937333994
 20
0.5479871425655279
 10
1.205106515194117
 20
0.5293332805523542
 10
1.106162068804458
 20
0.5120875491108162
 10
0.9987990611522779
 20
0.4963811986704416
 10
0.8838345895533668
 20
0.4823337640418352
 10
0.7621436030540385
 20
0.4700521546845937
 10
0.634652243540579
 20
0.4596298410617641
 10
0.5023307972402739
 20
0.4511461432731812
 10
0.3661863102573418
 20
0.444665627381613
 10
0.2272549243440119
 20
0.4402376140260366
 10
0.0865939912361491
 20
0.4378958030617957
 10
-0.0547259744319024
 20
0.4376580170843523
 10
-0.1956294423900802
 20
0.4395260657885737
 10
-0.3350440521673826
 20
0.4434857321958622
 10
-0.4719087744025612
 20
0.4495068808539464
 10
-0.6051819859182277
 20
0.4575436871858694
 10
-0.7338493971021824
 20
0.4675349862426887
 10
-0.8569317712638086
 20
0.4794047382056706
 10
-0.9734923772165666
 20
0.493062607095225
 10
-1.082644118367938
 20
0.5084046482822553
 10
-1.183556284060137
 20
0.5253140995695506
 10
-1.275460871779816
 20
0.5436622698226088
 10
-1.357658432120919
 20
0.5633095183868757
 10
-1.429523392017007
 20
0.5841063178374445
 10
-1.490508815730021
 20
0.6058943919730454
 10
-1.502715796123828
 20
0.6109308129534277
  0
ENDBLK
  5
121
330
11E
100
AcDbEntity
  8
0
100
AcDbBlockEnd
  0
ENDSEC
  0
SECTION
  2
ENTITIES
  0
INSERT
  5
6F
330
1F
100
AcDbEntity
  8
0
100
AcDbBlockReference
  2
1_053008_4
 10
0.0
 20
0.0
 30
0.0
  0
POINT
  5
1CB
330
1F
100
AcDbEntity
  8
ConnectionPoints
100
AcDbPoint
 10
0.0
 20
-1.05
 30
0.0000000000000001
  0
POINT
  5
1CC
330
1F
100
AcDbEntity
  8
ConnectionPoints
100
AcDbPoint
 10
1.145512985522207
 20
0.0000000000000001
 30
1.145512985522207
  0
POINT
  5
1CD
330
1F
100
AcDbEntity
  8
ConnectionPoints
100
AcDbPoint
 10
1.145512985522207
 20
0.0000000000000001
 30
1.145512985522207
  0
POINT
  5
1CE
330
1F
100
AcDbEntity
  8
ConnectionPoints
100
AcDbPoint
 10
0.0
 20
-1.05
 30
0.0000000000000001
  0
ENDSEC
  0
SECTION
  2
OBJECTS
  0
DICTIONARY
  5
C
330
0
100
AcDbDictionary
281
     1
  3
ACAD_DETAILVIEWSTYLE
350
1D6
  3
ACAD_GROUP
350
D
  3
ACAD_LAYOUT
350
1A
  3
ACAD_MATERIAL
350
43
  3
ACAD_MLEADERSTYLE
350
6B
  3
ACAD_MLINESTYLE
350
17
  3
ACAD_PLOTSETTINGS
350
19
  3
ACAD_PLOTSTYLENAME
350
E
  3
ACAD_SCALELIST
350
47
  3
ACAD_SECTIONVIEWSTYLE
350
1D7
  3
ACAD_TABLESTYLE
350
69
  3
ACAD_VISUALSTYLE
350
2A
  3
ACDB_RECOMPOSE_DATA
350
1D3
  3
AcDbVariableDictionary
350
1CF
  0
SUN
  5
6D
330
29
100
AcDbSun
 90
        1
290
     0
 63
     7
421
 16777215
 40
1.0
291
     1
 91
  2455826
 92
 54000000
292
     0
 70
     2
 71
   256
280
     1
  0
DICTIONARY
  5
1D6
102
{ACAD_REACTORS
330
C
102
}
330
C
100
AcDbDictionary
281
     1
  0
DICTIONARY
  5
D
102
{ACAD_REACTORS
330
C
102
}
330
C
100
AcDbDictionary
281
     1
  0
DICTIONARY
  5
1A
102
{ACAD_REACTORS
330
C
102
}
330
C
100
AcDbDictionary
281
     1
  3
Layout1
350
1E
  3
Layout2
350
26
  3
Model
350
22
  0
DICTIONARY
  5
43
102
{ACAD_REACTORS
330
C
102
}
330
C
100
AcDbDictionary
281
     1
  3
ByBlock
350
45
  3
ByLayer
350
44
  3
Global
350
46
  0
DICTIONARY
  5
6B
102
{ACAD_REACTORS
330
C
102
}
330
C
100
AcDbDictionary
281
     1
  3
Standard
350
6C
  0
DICTIONARY
  5
17
102
{ACAD_REACTORS
330
C
102
}
330
C
100
AcDbDictionary
281
     1
  3
Standard
350
18
  0
DICTIONARY
  5
19
102
{ACAD_REACTORS
330
C
102
}
330
C
100
AcDbDictionary
281
     1
  0
ACDBDICTIONARYWDFLT
  5
E
102
{ACAD_REACTORS
330
C
102
}
330
C
100
AcDbDictionary
281
     1
  3
Normal
350
F
100
AcDbDictionaryWithDefault
340
F
  0
DICTIONARY
  5
47
102
{ACAD_REACTORS
330
C
102
}
330
C
100
AcDbDictionary
281
     1
  3
A0
350
48
  3
A1
350
49
  3
A2
350
4A
  3
A3
350
4B
  3
A4
350
4C
  3
A5
350
4D
  3
A6
350
4E
  3
A7
350
4F
  3
A8
350
50
  3
A9
350
51
  3
B0
350
52
  3
B1
350
53
  3
B2
350
54
  3
B3
350
55
  3
B4
350
56
  3
B5
350
57
  3
B6
350
58
  3
B7
350
59
  3
B8
350
5A
  3
B9
350
5B
  3
C0
350
5C
  3
C1
350
5D
  3
C2
350
5E
  3
C3
350
5F
  3
C4
350
60
  3
C5
350
61
  3
C6
350
62
  3
C7
350
63
  3
C8
350
64
  3
C9
350
65
  3
D0
350
66
  3
D1
350
67
  3
D2
350
68
  0
DICTIONARY
  5
1D7
102
{ACAD_REACTORS
330
C
102
}
330
C
100
AcDbDictionary
281
     1
  0
DICTIONARY
  5
69
102
{ACAD_REACTORS
330
C
102
}
330
C
100
AcDbDictionary
281
     1
  3
Standard
350
6A
  0
DICTIONARY
  5
2A
102
{ACAD_REACTORS
330
C
102
}
330
C
100
AcDbDictionary
281
     1
  3
2dWireframe
350
2F
  3
Basic
350
32
  3
Brighten
350
36
  3
ColorChange
350
3A
  3
Conceptual
350
34
  3
Dim
350
35
  3
EdgeColorOff
350
3D
  3
Facepattern
350
39
  3
Flat
350
2B
  3
FlatWithEdges
350
2C
  3
Gouraud
350
2D
  3
GouraudWithEdges
350
2E
  3
Hidden
350
31
  3
JitterOff
350
3B
  3
Linepattern
350
38
  3
OverhangOff
350
3C
  3
Realistic
350
33
  3
Shaded
350
42
  3
Shaded with edges
350
41
  3
Shades of Gray
350
3E
  3
Sketchy
350
3F
  3
Thicken
350
37
  3
Wireframe
350
30
  3
X-Ray
350
40
  0
XRECORD
  5
1D3
102
{ACAD_REACTORS
330
C
102
}
330
C
100
AcDbXrecord
280
     1
 90
        1
330
6A
  0
DICTIONARY
  5
1CF
102
{ACAD_REACTORS
330
C
102
}
330
C
100
AcDbDictionary
281
     1
  3
CANNOSCALE
350
1D0
  3
CMLEADERSTYLE
350
1D5
  3
CTABLESTYLE
350
1D4
  0
LAYOUT
  5
1E
102
{ACAD_REACTORS
330
1A
102
}
330
1A
100
AcDbPlotSettings
  1

  2
none_device
  4

  6

 40
0.0
 41
0.0
 42
0.0
 43
0.0
 44
0.0
 45
0.0
 46
0.0
 47
0.0
 48
0.0
 49
0.0
140
0.0
141
0.0
142
1.0
143
1.0
 70
   688
 72
     0
 73
     0
 74
     5
  7

 75
    16
 76
     0
 77
     2
 78
   300
147
1.0
148
0.0
149
0.0
100
AcDbLayout
  1
Layout1
 70
     1
 71
     1
 10
0.0
 20
0.0
 11
12.0
 21
9.0
 12
0.0
 22
0.0
 32
0.0
 14
1.000000000000000E+20
 24
1.000000000000000E+20
 34
1.000000000000000E+20
 15
-1.000000000000000E+20
 25
-1.000000000000000E+20
 35
-1.000000000000000E+20
146
0.0
 13
0.0
 23
0.0
 33
0.0
 16
1.0
 26
0.0
 36
0.0
 17
0.0
 27
1.0
 37
0.0
 76
     0
330
1B
  0
LAYOUT
  5
26
102
{ACAD_REACTORS
330
1A
102
}
330
1A
100
AcDbPlotSettings
  1

  2
none_device
  4

  6

 40
0.0
 41
0.0
 42
0.0
 43
0.0
 44
0.0
 45
0.0
 46
0.0
 47
0.0
 48
0.0
 49
0.0
140
0.0
141
0.0
142
1.0
143
1.0
 70
   688
 72
     0
 73
     0
 74
     5
  7

 75
    16
 76
     0
 77
     2
 78
   300
147
1.0
148
0.0
149
0.0
100
AcDbLayout
  1
Layout2
 70
     1
 71
     2
 10
0.0
 20
0.0
 11
0.0
 21
0.0
 12
0.0
 22
0.0
 32
0.0
 14
0.0
 24
0.0
 34
0.0
 15
0.0
 25
0.0
 35
0.0
146
0.0
 13
0.0
 23
0.0
 33
0.0
 16
1.0
 26
0.0
 36
0.0
 17
0.0
 27
1.0
 37
0.0
 76
     0
330
23
  0
LAYOUT
  5
22
102
{ACAD_REACTORS
330
1A
102
}
330
1A
100
AcDbPlotSettings
  1

  2
none_device
  4
Letter_(8.50_x_11.00_Inches)
  6

 40
6.35
 41
6.35
 42
6.35000508
 43
6.35000508
 44
215.9
 45
279.4
 46
0.0
 47
0.0
 48
0.0
 49
0.0
140
0.0
141
0.0
142
1.0
143
1.0
 70
  1712
 72
     0
 73
     0
 74
     0
  7

 75
     0
 76
     0
 77
     2
 78
   300
147
1.0
148
0.0
149
0.0
100
AcDbLayout
  1
Model
 70
     1
 71
     0
 10
0.0
 20
0.0
 11
12.0
 21
9.0
 12
0.0
 22
0.0
 32
0.0
 14
1.000000000000000E+20
 24
1.000000000000000E+20
 34
1.000000000000000E+20
 15
-1.000000000000000E+20
 25
-1.000000000000000E+20
 35
-1.000000000000000E+20
146
0.0
 13
0.0
 23
0.0
 33
0.0
 16
1.0
 26
0.0
 36
0.0
 17
0.0
 27
1.0
 37
0.0
 76
     0
330
1F
331
29
  0
MATERIAL
  5
45
102
{ACAD_REACTORS
330
43
102
}
330
43
100
AcDbMaterial
  1
ByBlock
 72
     1
 94
      127
  0
MATERIAL
  5
44
102
{ACAD_REACTORS
330
43
102
}
330
43
100
AcDbMaterial
  1
ByLayer
 72
     1
 94
      127
  0
MATERIAL
  5
46
102
{ACAD_REACTORS
330
43
102
}
330
43
100
AcDbMaterial
  1
Global
 72
     1
 94
      127
  0
MLEADERSTYLE
  5
6C
102
{ACAD_REACTORS
330
6B
102
}
330
6B
100
AcDbMLeaderStyle
179
     2
170
     2
171
     1
172
     0
 90
        2
 40
0.0
 41
0.0
173
     1
 91
-1056964608
340
14
 92
       -2
290
     1
 42
0.09
291
     1
 43
0.36
  3
Standard
341
0
 44
0.18
300

342
11
174
     1
178
     6
175
     1
176
     0
 93
-1056964608
 45
0.18
292
     0
297
     0
 46
0.18
343
0
 94
-1056964608
 47
1.0
 49
1.0
140
1.0
293
     1
141
0.0
294
     1
177
     0
142
1.0
295
     0
296
     0
143
0.125
271
     0
272
     9
273
     9
298
     0
  0
MLINESTYLE
  5
18
102
{ACAD_REACTORS
330
17
102
}
330
17
100
AcDbMlineStyle
  2
Standard
 70
     0
  3

 62
   256
 51
90.0
 52
90.0
 71
     2
 49
0.5
 62
   256
  6
BYLAYER
 49
-0.5
 62
   256
  6
BYLAYER
  0
ACDBPLACEHOLDER
  5
F
102
{ACAD_REACTORS
330
E
102
}
330
E
  0
SCALE
  5
48
102
{ACAD_REACTORS
330
47
102
}
330
47
100
AcDbScale
 70
     0
300
1:1
140
1.0
141
1.0
290
     1
  0
SCALE
  5
49
102
{ACAD_REACTORS
330
47
102
}
330
47
100
AcDbScale
 70
     0
300
1:2
140
1.0
141
2.0
290
     0
  0
SCALE
  5
4A
102
{ACAD_REACTORS
330
47
102
}
330
47
100
AcDbScale
 70
     0
300
1:4
140
1.0
141
4.0
290
     0
  0
SCALE
  5
4B
102
{ACAD_REACTORS
330
47
102
}
330
47
100
AcDbScale
 70
     0
300
1:5
140
1.0
141
5.0
290
     0
  0
SCALE
  5
4C
102
{ACAD_REACTORS
330
47
102
}
330
47
100
AcDbScale
 70
     0
300
1:8
140
1.0
141
8.0
290
     0
  0
SCALE
  5
4D
102
{ACAD_REACTORS
330
47
102
}
330
47
100
AcDbScale
 70
     0
300
1:10
140
1.0
141
10.0
290
     0
  0
SCALE
  5
4E
102
{ACAD_REACTORS
330
47
102
}
330
47
100
AcDbScale
 70
     0
300
1:16
140
1.0
141
16.0
290
     0
  0
SCALE
  5
4F
102
{ACAD_REACTORS
330
47
102
}
330
47
100
AcDbScale
 70
     0
300
1:20
140
1.0
141
20.0
290
     0
  0
SCALE
  5
50
102
{ACAD_REACTORS
330
47
102
}
330
47
100
AcDbScale
 70
     0
300
1:30
140
1.0
141
30.0
290
     0
  0
SCALE
  5
51
102
{ACAD_REACTORS
330
47
102
}
330
47
100
AcDbScale
 70
     0
300
1:40
140
1.0
141
40.0
290
     0
  0
SCALE
  5
52
102
{ACAD_REACTORS
330
47
102
}
330
47
100
AcDbScale
 70
     0
300
1:50
140
1.0
141
50.0
290
     0
  0
SCALE
  5
53
102
{ACAD_REACTORS
330
47
102
}
330
47
100
AcDbScale
 70
     0
300
1:100
140
1.0
141
100.0
290
     0
  0
SCALE
  5
54
102
{ACAD_REACTORS
330
47
102
}
330
47
100
AcDbScale
 70
     0
300
2:1
140
2.0
141
1.0
290
     0
  0
SCALE
  5
55
102
{ACAD_REACTORS
330
47
102
}
330
47
100
AcDbScale
 70
     0
300
4:1
140
4.0
141
1.0
290
     0
  0
SCALE
  5
56
102
{ACAD_REACTORS
330
47
102
}
330
47
100
AcDbScale
 70
     0
300
8:1
140
8.0
141
1.0
290
     0
  0
SCALE
  5
57
102
{ACAD_REACTORS
330
47
102
}
330
47
100
AcDbScale
 70
     0
300
10:1
140
10.0
141
1.0
290
     0
  0
SCALE
  5
58
102
{ACAD_REACTORS
330
47
102
}
330
47
100
AcDbScale
 70
     0
300
100:1
140
100.0
141
1.0
290
     0
  0
SCALE
  5
59
102
{ACAD_REACTORS
330
47
102
}
330
47
100
AcDbScale
 70
     0
300
1/128" = 1'-0"
140
0.0078125
141
12.0
290
     0
  0
SCALE
  5
5A
102
{ACAD_REACTORS
330
47
102
}
330
47
100
AcDbScale
 70
     0
300
1/64" = 1'-0"
140
0.015625
141
12.0
290
     0
  0
SCALE
  5
5B
102
{ACAD_REACTORS
330
47
102
}
330
47
100
AcDbScale
 70
     0
300
1/32" = 1'-0"
140
0.03125
141
12.0
290
     0
  0
SCALE
  5
5C
102
{ACAD_REACTORS
330
47
102
}
330
47
100
AcDbScale
 70
     0
300
1/16" = 1'-0"
140
0.0625
141
12.0
290
     0
  0
SCALE
  5
5D
102
{ACAD_REACTORS
330
47
102
}
330
47
100
AcDbScale
 70
     0
300
3/32" = 1'-0"
140
0.09375
141
12.0
290
     0
  0
SCALE
  5
5E
102
{ACAD_REACTORS
330
47
102
}
330
47
100
AcDbScale
 70
     0
300
1/8" = 1'-0"
140
0.125
141
12.0
290
     0
  0
SCALE
  5
5F
102
{ACAD_REACTORS
330
47
102
}
330
47
100
AcDbScale
 70
     0
300
3/16" = 1'-0"
140
0.1875
141
12.0
290
     0
  0
SCALE
  5
60
102
{ACAD_REACTORS
330
47
102
}
330
47
100
AcDbScale
 70
     0
300
1/4" = 1'-0"
140
0.25
141
12.0
290
     0
  0
SCALE
  5
61
102
{ACAD_REACTORS
330
47
102
}
330
47
100
AcDbScale
 70
     0
300
3/8" = 1'-0"
140
0.375
141
12.0
290
     0
  0
SCALE
  5
62
102
{ACAD_REACTORS
330
47
102
}
330
47
100
AcDbScale
 70
     0
300
1/2" = 1'-0"
140
0.5
141
12.0
290
     0
  0
SCALE
  5
63
102
{ACAD_REACTORS
330
47
102
}
330
47
100
AcDbScale
 70
     0
300
3/4" = 1'-0"
140
0.75
141
12.0
290
     0
  0
SCALE
  5
64
102
{ACAD_REACTORS
330
47
102
}
330
47
100
AcDbScale
 70
     0
300
1" = 1'-0"
140
1.0
141
12.0
290
     0
  0
SCALE
  5
65
102
{ACAD_REACTORS
330
47
102
}
330
47
100
AcDbScale
 70
     0
300
1-1/2" = 1'-0"
140
1.5
141
12.0
290
     0
  0
SCALE
  5
66
102
{ACAD_REACTORS
330
47
102
}
330
47
100
AcDbScale
 70
     0
300
3" = 1'-0"
140
3.0
141
12.0
290
     0
  0
SCALE
  5
67
102
{ACAD_REACTORS
330
47
102
}
330
47
100
AcDbScale
 70
     0
300
6" = 1'-0"
140
6.0
141
12.0
290
     0
  0
SCALE
  5
68
102
{ACAD_REACTORS
330
47
102
}
330
47
100
AcDbScale
 70
     0
300
1'-0" = 1'-0"
140
12.0
141
12.0
290
     0
  0
TABLESTYLE
  5
6A
102
{ACAD_REACTORS
330
69
102
}
102
{ACAD_XDICTIONARY
360
1D1
102
}
330
69
100
AcDbTableStyle
  3
Standard
 70
     0
 71
     0
 40
0.06
 41
0.06
280
     0
281
     0
  7
Standard
140
0.18
170
     2
 62
     0
 63
   257
283
     0
 90
        4
 91
        0
  1

274
    -2
284
     1
 64
     0
275
    -2
285
     1
 65
     0
276
    -2
286
     1
 66
     0
277
    -2
287
     1
 67
     0
278
    -2
288
     1
 68
     0
279
    -2
289
     1
 69
     0
  7
Standard
140
0.25
170
     5
 62
     0
 63
   257
283
     0
 90
        4
 91
        0
  1

274
    -2
284
     1
 64
     0
275
    -2
285
     1
 65
     0
276
    -2
286
     1
 66
     0
277
    -2
287
     1
 67
     0
278
    -2
288
     1
 68
     0
279
    -2
289
     1
 69
     0
  7
Standard
140
0.18
170
     5
 62
     0
 63
   257
283
     0
 90
        4
 91
        0
  1

274
    -2
284
     1
 64
     0
275
    -2
285
     1
 65
     0
276
    -2
286
     1
 66
     0
277
    -2
287
     1
 67
     0
278
    -2
288
     1
 68
     0
279
    -2
289
     1
 69
     0
  0
VISUALSTYLE
  5
2F
102
{ACAD_REACTORS
330
2A
102
}
330
2A
100
AcDbVisualStyle
  2
2dWireframe
 70
     4
177
     3
291
     0
 70
    58
 90
        0
176
     1
 90
        2
176
     1
 90
        0
176
     1
 90
        0
176
     1
 40
0.6
176
     1
 40
30.0
176
     1
 62
     7
420
 16777215
176
     1
 90
        1
176
     1
 90
        4
176
     1
 62
     7
176
     1
 62
   257
176
     1
 90
        1
176
     1
 90
        1
176
     1
 40
1.0
176
     1
 90
        0
176
     1
 62
   257
176
     1
 40
1.0
176
     1
 90
        1
176
     1
 90
        6
176
     1
 90
        2
176
     1
 62
     7
176
     1
 90
        5
176
     1
 90
        0
176
     1
 90
        0
176
     1
290
     0
176
     1
 90
        1
176
     1
 40
0.0
176
     1
 90
        0
176
     1
290
     1
176
     1
290
     1
176
     1
290
     0
176
     1
290
     0
176
     1
290
     0
176
     1
290
     0
176
     1
290
     0
176
     1
290
     0
176
     1
290
     0
176
     1
 90
       50
176
     1
 40
0.0
176
     1
 40
1.0
176
     1
 90
        0
176
     1
 62
    18
420
        0
176
     1
 90
       50
176
     1
 90
        3
176
     1
 62
     5
420
      255
176
     1
290
     0
176
     1
 90
       50
176
     1
 90
       50
176
     1
 90
       50
176
     1
290
     0
176
     1
 90
       50
176
     1
 62
   256
176
     0
 40
1.0
176
     0
 90
        2
176
     1
  1
strokes_ogs.tif
176
     1
290
     0
176
     1
 40
1.0
176
     1
 40
1.0
176
     1
  0
VISUALSTYLE
  5
32
102
{ACAD_REACTORS
330
2A
102
}
330
2A
100
AcDbVisualStyle
  2
Basic
 70
     7
177
     3
291
     1
 70
    58
 90
        1
176
     1
 90
        0
176
     1
 90
        1
176
     1
 90
        0
176
     1
 40
0.6
176
     1
 40
30.0
176
     1
 62
     7
420
 16777215
176
     1
 90
        0
176
     1
 90
        4
176
     1
 62
     7
176
     1
 62
   257
176
     1
 90
        1
176
     1
 90
        1
176
     1
 40
1.0
176
     1
 90
        8
176
     1
 62
     7
176
     1
 40
1.0
176
     1
 90
        1
176
     1
 90
        6
176
     1
 90
        2
176
     1
 62
     7
176
     1
 90
        5
176
     1
 90
        0
176
     1
 90
        0
176
     1
290
     0
176
     1
 90
        1
176
     1
 40
0.0
176
     1
 90
        0
176
     1
290
     0
176
     1
290
     1
176
     1
290
     1
176
     1
290
     0
176
     1
290
     0
176
     1
290
     0
176
     1
290
     0
176
     1
290
     0
176
     1
290
     0
176
     1
 90
       50
176
     1
 40
0.0
176
     1
 40
1.0
176
     1
 90
        0
176
     1
 62
    18
420
        0
176
     1
 90
       50
176
     1
 90
        3
176
     1
 62
     5
420
      255
176
     1
290
     0
176
     1
 90
       50
176
     1
 90
       50
176
     1
 90
       50
176
     1
290
     0
176
     1
 90
       50
176
     1
 62
   256
176
     0
 40
1.0
176
     0
 90
        2
176
     1
  1
strokes_ogs.tif
176
     1
290
     0
176
     1
 40
1.0
176
     1
 40
1.0
176
     1
  0
VISUALSTYLE
  5
36
102
{ACAD_REACTORS
330
2A
102
}
330
2A
100
AcDbVisualStyle
  2
Brighten
 70
    12
177
     3
291
     1
 70
    58
 90
        2
176
     1
 90
        2
176
     1
 90
        0
176
     1
 90
        0
176
     1
 40
0.6
176
     1
 40
30.0
176
     1
 62
     7
420
 16777215
176
     1
 90
        1
176
     1
 90
        4
176
     1
 62
     7
176
     1
 62
   257
176
     1
 90
        1
176
     1
 90
        1
176
     1
 40
1.0
176
     1
 90
        8
176
     1
 62
     7
176
     1
 40
1.0
176
     1
 90
        1
176
     1
 90
        6
176
     1
 90
        2
176
     1
 62
     7
176
     1
 90
        5
176
     1
 90
        0
176
     1
 90
        0
176
     1
290
     0
176
     1
 90
        1
176
     1
 40
50.0
176
     1
 90
        0
176
     1
290
     0
176
     1
290
     1
176
     1
290
     1
176
     1
290
     0
176
     1
290
     0
176
     1
290
     0
176
     1
290
     0
176
     1
290
     0
176
     1
290
     0
176
     1
 90
       50
176
     1
 40
0.0
176
     1
 40
1.0
176
     1
 90
        0
176
     1
 62
    18
420
        0
176
     1
 90
       50
176
     1
 90
        3
176
     1
 62
     5
420
      255
176
     1
290
     0
176
     1
 90
       50
176
     1
 90
       50
176
     1
 90
       50
176
     1
290
     0
176
     1
 90
       50
176
     1
 62
   256
176
     0
 40
1.0
176
     0
 90
        2
176
     1
  1
strokes_ogs.tif
176
     1
290
     0
176
     1
 40
1.0
176
     1
 40
1.0
176
     1
  0
VISUALSTYLE
  5
3A
102
{ACAD_REACTORS
330
2A
102
}
330
2A
100
AcDbVisualStyle
  2
ColorChange
 70
    16
177
     3
291
     1
 70
    58
 90
        2
176
     1
 90
        2
176
     1
 90
        3
176
     1
 90
        0
176
     1
 40
0.6
176
     1
 40
30.0
176
     1
 62
     8
420
  8421504
176
     1
 90
        1
176
     1
 90
        4
176
     1
 62
     7
176
     1
 62
   257
176
     1
 90
        1
176
     1
 90
        1
176
     1
 40
1.0
176
     1
 90
        8
176
     1
 62
     8
420
  8421504
176
     1
 40
1.0
176
     1
 90
        1
176
     1
 90
        6
176
     1
 90
        2
176
     1
 62
     7
176
     1
 90
        5
176
     1
 90
        0
176
     1
 90
        0
176
     1
290
     0
176
     1
 90
        1
176
     1
 40
0.0
176
     1
 90
        0
176
     1
290
     0
176
     1
290
     1
176
     1
290
     1
176
     1
290
     0
176
     1
290
     0
176
     1
290
     0
176
     1
290
     0
176
     1
290
     0
176
     1
290
     0
176
     1
 90
       50
176
     1
 40
0.0
176
     1
 40
1.0
176
     1
 90
        0
176
     1
 62
    18
420
        0
176
     1
 90
       50
176
     1
 90
        3
176
     1
 62
     5
420
      255
176
     1
290
     0
176
     1
 90
       50
176
     1
 90
       50
176
     1
 90
       50
176
     1
290
     0
176
     1
 90
       50
176
     1
 62
   256
176
     0
 40
1.0
176
     0
 90
        2
176
     1
  1
strokes_ogs.tif
176
     1
290
     0
176
     1
 40
1.0
176
     1
 40
1.0
176
     1
  0
VISUALSTYLE
  5
34
102
{ACAD_REACTORS
330
2A
102
}
330
2A
100
AcDbVisualStyle
  2
Conceptual
 70
     9
177
     3
291
     0
 70
    58
 90
        3
176
     1
 90
        2
176
     1
 90
        0
176
     1
 90
        0
176
     1
 40
0.6
176
     1
 40
30.0
176
     1
 62
     7
420
 16777215
176
     1
 90
        2
176
     1
 90
        2
176
     1
 62
     7
176
     1
 62
   257
176
     1
 90
        1
176
     1
 90
        1
176
     1
 40
179.0
176
     1
 90
        8
176
     1
 62
     7
176
     1
 40
1.0
176
     1
 90
        1
176
     1
 90
        6
176
     1
 90
        2
176
     1
 62
     7
176
     1
 90
        3
176
     1
 90
        0
176
     1
 90
        0
176
     1
290
     0
176
     1
 90
        1
176
     1
 40
0.0
176
     1
 90
        0
176
     1
290
     0
176
     1
290
     1
176
     1
290
     1
176
     1
290
     0
176
     1
290
     0
176
     1
290
     0
176
     1
290
     0
176
     1
290
     0
176
     1
290
     0
176
     1
 90
       50
176
     1
 40
0.0
176
     1
 40
1.0
176
     1
 90
        0
176
     1
 62
    18
420
        0
176
     1
 90
       50
176
     1
 90
        3
176
     1
 62
     5
420
      255
176
     1
290
     0
176
     1
 90
       50
176
     1
 90
       50
176
     1
 90
       50
176
     1
290
     0
176
     1
 90
       50
176
     1
 62
   256
176
     0
 40
1.0
176
     0
 90
        2
176
     1
  1
strokes_ogs.tif
176
     1
290
     0
176
     1
 40
1.0
176
     1
 40
1.0
176
     1
  0
VISUALSTYLE
  5
35
102
{ACAD_REACTORS
330
2A
102
}
330
2A
100
AcDbVisualStyle
  2
Dim
 70
    11
177
     3
291
     1
 70
    58
 90
        2
176
     1
 90
        2
176
     1
 90
        0
176
     1
 90
        0
176
     1
 40
0.6
176
     1
 40
30.0
176
     1
 62
     7
420
 16777215
176
     1
 90
        1
176
     1
 90
        4
176
     1
 62
     7
176
     1
 62
   257
176
     1
 90
        1
176
     1
 90
        1
176
     1
 40
1.0
176
     1
 90
        8
176
     1
 62
     7
176
     1
 40
1.0
176
     1
 90
        1
176
     1
 90
        6
176
     1
 90
        2
176
     1
 62
     7
176
     1
 90
        5
176
     1
 90
        0
176
     1
 90
        0
176
     1
290
     0
176
     1
 90
        1
176
     1
 40
-50.0
176
     1
 90
        0
176
     1
290
     0
176
     1
290
     1
176
     1
290
     1
176
     1
290
     0
176
     1
290
     0
176
     1
290
     0
176
     1
290
     0
176
     1
290
     0
176
     1
290
     0
176
     1
 90
       50
176
     1
 40
0.0
176
     1
 40
1.0
176
     1
 90
        0
176
     1
 62
    18
420
        0
176
     1
 90
       50
176
     1
 90
        3
176
     1
 62
     5
420
      255
176
     1
290
     0
176
     1
 90
       50
176
     1
 90
       50
176
     1
 90
       50
176
     1
290
     0
176
     1
 90
       50
176
     1
 62
   256
176
     0
 40
1.0
176
     0
 90
        2
176
     1
  1
strokes_ogs.tif
176
     1
290
     0
176
     1
 40
1.0
176
     1
 40
1.0
176
     1
  0
VISUALSTYLE
  5
3D
102
{ACAD_REACTORS
330
2A
102
}
330
2A
100
AcDbVisualStyle
  2
EdgeColorOff
 70
    22
177
     3
291
     1
 70
    58
 90
        2
176
     0
 90
        2
176
     0
 90
        0
176
     0
 90
        0
176
     0
 40
0.6
176
     0
 40
30.0
176
     0
 62
     7
420
 16777215
176
     0
 90
        1
176
     0
 90
        4
176
     0
 62
     7
176
     0
 62
   257
176
     0
 90
        1
176
     0
 90
        1
176
     0
 40
1.0
176
     0
 90
        8
176
     2
 62
     7
176
     0
 40
1.0
176
     0
 90
        1
176
     0
 90
        6
176
     0
 90
        2
176
     0
 62
     7
176
     0
 90
        5
176
     0
 90
        0
176
     0
 90
        0
176
     0
290
     0
176
     0
 90
        1
176
     0
 40
0.0
176
     0
 90
        0
176
     0
290
     0
176
     0
290
     1
176
     0
290
     1
176
     0
290
     0
176
     0
290
     0
176
     0
290
     0
176
     0
290
     0
176
     0
290
     0
176
     0
290
     0
176
     0
 90
       50
176
     0
 40
0.0
176
     0
 40
1.0
176
     0
 90
        0
176
     0
 62
    18
420
        0
176
     0
 90
       50
176
     0
 90
        3
176
     0
 62
     5
420
      255
176
     0
290
     0
176
     0
 90
       50
176
     0
 90
       50
176
     0
 90
       50
176
     0
290
     0
176
     0
 90
       50
176
     0
 62
   256
176
     0
 40
1.0
176
     0
 90
        2
176
     0
  1
strokes_ogs.tif
176
     0
290
     0
176
     0
 40
1.0
176
     0
 40
1.0
176
     0
  0
VISUALSTYLE
  5
39
102
{ACAD_REACTORS
330
2A
102
}
330
2A
100
AcDbVisualStyle
  2
Facepattern
 70
    15
177
     3
291
     1
 70
    58
 90
        2
176
     1
 90
        2
176
     1
 90
        0
176
     1
 90
        0
176
     1
 40
0.6
176
     1
 40
30.0
176
     1
 62
     7
420
 16777215
176
     1
 90
        1
176
     1
 90
        4
176
     1
 62
     7
176
     1
 62
   257
176
     1
 90
        1
176
     1
 90
        1
176
     1
 40
1.0
176
     1
 90
        8
176
     1
 62
     7
176
     1
 40
1.0
176
     1
 90
        1
176
     1
 90
        6
176
     1
 90
        2
176
     1
 62
     7
176
     1
 90
        5
176
     1
 90
        0
176
     1
 90
        0
176
     1
290
     0
176
     1
 90
        1
176
     1
 40
0.0
176
     1
 90
        0
176
     1
290
     0
176
     1
290
     1
176
     1
290
     1
176
     1
290
     0
176
     1
290
     0
176
     1
290
     0
176
     1
290
     0
176
     1
290
     0
176
     1
290
     0
176
     1
 90
       50
176
     1
 40
0.0
176
     1
 40
1.0
176
     1
 90
        0
176
     1
 62
    18
420
        0
176
     1
 90
       50
176
     1
 90
        3
176
     1
 62
     5
420
      255
176
     1
290
     0
176
     1
 90
       50
176
     1
 90
       50
176
     1
 90
       50
176
     1
290
     0
176
     1
 90
       50
176
     1
 62
   256
176
     0
 40
1.0
176
     0
 90
        2
176
     1
  1
strokes_ogs.tif
176
     1
290
     0
176
     1
 40
1.0
176
     1
 40
1.0
176
     1
  0
VISUALSTYLE
  5
2B
102
{ACAD_REACTORS
330
2A
102
}
330
2A
100
AcDbVisualStyle
  2
Flat
 70
     0
177
     3
291
     1
 70
    58
 90
        2
176
     1
 90
        1
176
     1
 90
        1
176
     1
 90
        2
176
     1
 40
0.6
176
     1
 40
30.0
176
     1
 62
     7
420
 16777215
176
     1
 90
        0
176
     1
 90
        0
176
     1
 62
     7
176
     1
 62
   257
176
     1
 90
        1
176
     1
 90
        1
176
     1
 40
1.0
176
     1
 90
        8
176
     1
 62
     7
176
     1
 40
1.0
176
     1
 90
        1
176
     1
 90
        6
176
     1
 90
        2
176
     1
 62
     7
176
     1
 90
        5
176
     1
 90
        0
176
     1
 90
        0
176
     1
290
     0
176
     1
 90
       13
176
     1
 40
0.0
176
     1
 90
        0
176
     1
290
     0
176
     1
290
     1
176
     1
290
     1
176
     1
290
     0
176
     1
290
     0
176
     1
290
     0
176
     1
290
     0
176
     1
290
     0
176
     1
290
     0
176
     1
 90
       50
176
     1
 40
0.0
176
     1
 40
1.0
176
     1
 90
        0
176
     1
 62
    18
420
        0
176
     1
 90
       50
176
     1
 90
        3
176
     1
 62
     5
420
      255
176
     1
290
     0
176
     1
 90
       50
176
     1
 90
       50
176
     1
 90
       50
176
     1
290
     0
176
     1
 90
       50
176
     1
 62
   256
176
     0
 40
1.0
176
     0
 90
        2
176
     1
  1
strokes_ogs.tif
176
     1
290
     0
176
     1
 40
1.0
176
     1
 40
1.0
176
     1
  0
VISUALSTYLE
  5
2C
102
{ACAD_REACTORS
330
2A
102
}
330
2A
100
AcDbVisualStyle
  2
FlatWithEdges
 70
     1
177
     3
291
     1
 70
    58
 90
        2
176
     1
 90
        1
176
     1
 90
        1
176
     1
 90
        2
176
     1
 40
0.6
176
     1
 40
30.0
176
     1
 62
     7
420
 16777215
176
     1
 90
        1
176
     1
 90
        0
176
     1
 62
     7
176
     1
 62
   257
176
     1
 90
        1
176
     1
 90
        1
176
     1
 40
1.0
176
     1
 90
        0
176
     1
 62
   257
176
     1
 40
1.0
176
     1
 90
        1
176
     1
 90
        6
176
     1
 90
        2
176
     1
 62
     7
176
     1
 90
        5
176
     1
 90
        0
176
     1
 90
        0
176
     1
290
     0
176
     1
 90
       13
176
     1
 40
0.0
176
     1
 90
        0
176
     1
290
     0
176
     1
290
     1
176
     1
290
     1
176
     1
290
     0
176
     1
290
     0
176
     1
290
     0
176
     1
290
     0
176
     1
290
     0
176
     1
290
     0
176
     1
 90
       50
176
     1
 40
0.0
176
     1
 40
1.0
176
     1
 90
        0
176
     1
 62
    18
420
        0
176
     1
 90
       50
176
     1
 90
        3
176
     1
 62
     5
420
      255
176
     1
290
     0
176
     1
 90
       50
176
     1
 90
       50
176
     1
 90
       50
176
     1
290
     0
176
     1
 90
       50
176
     1
 62
   256
176
     0
 40
1.0
176
     0
 90
        2
176
     1
  1
strokes_ogs.tif
176
     1
290
     0
176
     1
 40
1.0
176
     1
 40
1.0
176
     1
  0
VISUALSTYLE
  5
2D
102
{ACAD_REACTORS
330
2A
102
}
330
2A
100
AcDbVisualStyle
  2
Gouraud
 70
     2
177
     3
291
     1
 70
    58
 90
        2
176
     1
 90
        2
176
     1
 90
        1
176
     1
 90
        2
176
     1
 40
0.6
176
     1
 40
30.0
176
     1
 62
     7
420
 16777215
176
     1
 90
        0
176
     1
 90
        0
176
     1
 62
     7
176
     1
 62
   257
176
     1
 90
        1
176
     1
 90
        1
176
     1
 40
1.0
176
     1
 90
        0
176
     1
 62
     7
176
     1
 40
1.0
176
     1
 90
        1
176
     1
 90
        6
176
     1
 90
        2
176
     1
 62
     7
176
     1
 90
        5
176
     1
 90
        0
176
     1
 90
        0
176
     1
290
     0
176
     1
 90
       13
176
     1
 40
0.0
176
     1
 90
        0
176
     1
290
     0
176
     1
290
     1
176
     1
290
     1
176
     1
290
     0
176
     1
290
     0
176
     1
290
     0
176
     1
290
     0
176
     1
290
     0
176
     1
290
     0
176
     1
 90
       50
176
     1
 40
0.0
176
     1
 40
1.0
176
     1
 90
        0
176
     1
 62
    18
420
        0
176
     1
 90
       50
176
     1
 90
        3
176
     1
 62
     5
420
      255
176
     1
290
     0
176
     1
 90
       50
176
     1
 90
       50
176
     1
 90
       50
176
     1
290
     0
176
     1
 90
       50
176
     1
 62
   256
176
     0
 40
1.0
176
     0
 90
        2
176
     1
  1
strokes_ogs.tif
176
     1
290
     0
176
     1
 40
1.0
176
     1
 40
1.0
176
     1
  0
VISUALSTYLE
  5
2E
102
{ACAD_REACTORS
330
2A
102
}
330
2A
100
AcDbVisualStyle
  2
GouraudWithEdges
 70
     3
177
     3
291
     1
 70
    58
 90
        2
176
     1
 90
        2
176
     1
 90
        1
176
     1
 90
        2
176
     1
 40
0.6
176
     1
 40
30.0
176
     1
 62
     7
420
 16777215
176
     1
 90
        1
176
     1
 90
        0
176
     1
 62
     7
176
     1
 62
   257
176
     1
 90
        1
176
     1
 90
        1
176
     1
 40
1.0
176
     1
 90
        0
176
     1
 62
   257
176
     1
 40
1.0
176
     1
 90
        1
176
     1
 90
        6
176
     1
 90
        2
176
     1
 62
     7
176
     1
 90
        5
176
     1
 90
        0
176
     1
 90
        0
176
     1
290
     0
176
     1
 90
       13
176
     1
 40
0.0
176
     1
 90
        0
176
     1
290
     0
176
     1
290
     1
176
     1
290
     1
176
     1
290
     0
176
     1
290
     0
176
     1
290
     0
176
     1
290
     0
176
     1
290
     0
176
     1
290
     0
176
     1
 90
       50
176
     1
 40
0.0
176
     1
 40
1.0
176
     1
 90
        0
176
     1
 62
    18
420
        0
176
     1
 90
       50
176
     1
 90
        3
176
     1
 62
     5
420
      255
176
     1
290
     0
176
     1
 90
       50
176
     1
 90
       50
176
     1
 90
       50
176
     1
290
     0
176
     1
 90
       50
176
     1
 62
   256
176
     0
 40
1.0
176
     0
 90
        2
176
     1
  1
strokes_ogs.tif
176
     1
290
     0
176
     1
 40
1.0
176
     1
 40
1.0
176
     1
  0
VISUALSTYLE
  5
31
102
{ACAD_REACTORS
330
2A
102
}
330
2A
100
AcDbVisualStyle
  2
Hidden
 70
     6
177
     3
291
     0
 70
    58
 90
        1
176
     1
 90
        2
176
     1
 90
        2
176
     1
 90
        0
176
     1
 40
0.6
176
     1
 40
30.0
176
     1
 62
     7
420
 16777215
176
     1
 90
        2
176
     1
 90
        2
176
     1
 62
     7
176
     1
 62
   257
176
     1
 90
        2
176
     1
 90
        1
176
     1
 40
40.0
176
     1
 90
        0
176
     1
 62
   257
176
     1
 40
1.0
176
     1
 90
        1
176
     1
 90
        6
176
     1
 90
        2
176
     1
 62
     7
176
     1
 90
        3
176
     1
 90
        0
176
     1
 90
        0
176
     1
290
     0
176
     1
 90
        1
176
     1
 40
0.0
176
     1
 90
        0
176
     1
290
     0
176
     1
290
     1
176
     1
290
     1
176
     1
290
     0
176
     1
290
     0
176
     1
290
     0
176
     1
290
     0
176
     1
290
     0
176
     1
290
     0
176
     1
 90
       50
176
     1
 40
0.0
176
     1
 40
1.0
176
     1
 90
        0
176
     1
 62
    18
420
        0
176
     1
 90
       50
176
     1
 90
        3
176
     1
 62
     5
420
      255
176
     1
290
     0
176
     1
 90
       50
176
     1
 90
       50
176
     1
 90
       50
176
     1
290
     0
176
     1
 90
       50
176
     1
 62
   256
176
     0
 40
1.0
176
     0
 90
        2
176
     1
  1
strokes_ogs.tif
176
     1
290
     0
176
     1
 40
1.0
176
     1
 40
1.0
176
     1
  0
VISUALSTYLE
  5
3B
102
{ACAD_REACTORS
330
2A
102
}
330
2A
100
AcDbVisualStyle
  2
JitterOff
 70
    20
177
     3
291
     1
 70
    58
 90
        2
176
     0
 90
        2
176
     0
 90
        0
176
     0
 90
        0
176
     0
 40
0.6
176
     0
 40
30.0
176
     0
 62
     7
420
 16777215
176
     0
 90
        1
176
     0
 90
        4
176
     0
 62
     7
176
     0
 62
   257
176
     0
 90
        1
176
     0
 90
        1
176
     0
 40
1.0
176
     0
 90
       10
176
     2
 62
     7
176
     0
 40
1.0
176
     0
 90
        1
176
     0
 90
        6
176
     0
 90
        2
176
     0
 62
     7
176
     0
 90
        5
176
     0
 90
        0
176
     0
 90
        0
176
     0
290
     0
176
     0
 90
        1
176
     0
 40
0.0
176
     0
 90
        0
176
     0
290
     0
176
     0
290
     1
176
     0
290
     1
176
     0
290
     0
176
     0
290
     0
176
     0
290
     0
176
     0
290
     0
176
     0
290
     0
176
     0
290
     0
176
     0
 90
       50
176
     0
 40
0.0
176
     0
 40
1.0
176
     0
 90
        0
176
     0
 62
    18
420
        0
176
     0
 90
       50
176
     0
 90
        3
176
     0
 62
     5
420
      255
176
     0
290
     0
176
     0
 90
       50
176
     0
 90
       50
176
     0
 90
       50
176
     0
290
     0
176
     0
 90
       50
176
     0
 62
   256
176
     0
 40
1.0
176
     0
 90
        2
176
     0
  1
strokes_ogs.tif
176
     0
290
     0
176
     0
 40
1.0
176
     0
 40
1.0
176
     0
  0
VISUALSTYLE
  5
38
102
{ACAD_REACTORS
330
2A
102
}
330
2A
100
AcDbVisualStyle
  2
Linepattern
 70
    14
177
     3
291
     1
 70
    58
 90
        2
176
     1
 90
        2
176
     1
 90
        0
176
     1
 90
        0
176
     1
 40
0.6
176
     1
 40
30.0
176
     1
 62
     7
420
 16777215
176
     1
 90
        1
176
     1
 90
        4
176
     1
 62
     7
176
     1
 62
   257
176
     1
 90
        7
176
     1
 90
        7
176
     1
 40
1.0
176
     1
 90
        8
176
     1
 62
     7
176
     1
 40
1.0
176
     1
 90
        1
176
     1
 90
        6
176
     1
 90
        2
176
     1
 62
     7
176
     1
 90
        5
176
     1
 90
        0
176
     1
 90
        0
176
     1
290
     0
176
     1
 90
        1
176
     1
 40
0.0
176
     1
 90
        0
176
     1
290
     0
176
     1
290
     1
176
     1
290
     1
176
     1
290
     0
176
     1
290
     0
176
     1
290
     0
176
     1
290
     0
176
     1
290
     0
176
     1
290
     0
176
     1
 90
       50
176
     1
 40
0.0
176
     1
 40
1.0
176
     1
 90
        0
176
     1
 62
    18
420
        0
176
     1
 90
       50
176
     1
 90
        3
176
     1
 62
     5
420
      255
176
     1
290
     0
176
     1
 90
       50
176
     1
 90
       50
176
     1
 90
       50
176
     1
290
     0
176
     1
 90
       50
176
     1
 62
   256
176
     0
 40
1.0
176
     0
 90
        2
176
     1
  1
strokes_ogs.tif
176
     1
290
     0
176
     1
 40
1.0
176
     1
 40
1.0
176
     1
  0
VISUALSTYLE
  5
3C
102
{ACAD_REACTORS
330
2A
102
}
330
2A
100
AcDbVisualStyle
  2
OverhangOff
 70
    21
177
     3
291
     1
 70
    58
 90
        2
176
     0
 90
        2
176
     0
 90
        0
176
     0
 90
        0
176
     0
 40
0.6
176
     0
 40
30.0
176
     0
 62
     7
420
 16777215
176
     0
 90
        1
176
     0
 90
        4
176
     0
 62
     7
176
     0
 62
   257
176
     0
 90
        1
176
     0
 90
        1
176
     0
 40
1.0
176
     0
 90
        9
176
     2
 62
     7
176
     0
 40
1.0
176
     0
 90
        1
176
     0
 90
        6
176
     0
 90
        2
176
     0
 62
     7
176
     0
 90
        5
176
     0
 90
        0
176
     0
 90
        0
176
     0
290
     0
176
     0
 90
        1
176
     0
 40
0.0
176
     0
 90
        0
176
     0
290
     0
176
     0
290
     1
176
     0
290
     1
176
     0
290
     0
176
     0
290
     0
176
     0
290
     0
176
     0
290
     0
176
     0
290
     0
176
     0
290
     0
176
     0
 90
       50
176
     0
 40
0.0
176
     0
 40
1.0
176
     0
 90
        0
176
     0
 62
    18
420
        0
176
     0
 90
       50
176
     0
 90
        3
176
     0
 62
     5
420
      255
176
     0
290
     0
176
     0
 90
       50
176
     0
 90
       50
176
     0
 90
       50
176
     0
290
     0
176
     0
 90
       50
176
     0
 62
   256
176
     0
 40
1.0
176
     0
 90
        2
176
     0
  1
strokes_ogs.tif
176
     0
290
     0
176
     0
 40
1.0
176
     0
 40
1.0
176
     0
  0
VISUALSTYLE
  5
33
102
{ACAD_REACTORS
330
2A
102
}
330
2A
100
AcDbVisualStyle
  2
Realistic
 70
     8
177
     3
291
     0
 70
    58
 90
        2
176
     1
 90
        3
176
     1
 90
        0
176
     1
 90
        2
176
     1
 40
0.6
176
     1
 40
30.0
176
     1
 62
     7
420
 16777215
176
     1
 90
        0
176
     1
 90
        0
176
     1
 62
     7
176
     1
 62
   257
176
     1
 90
        1
176
     1
 90
        1
176
     1
 40
1.0
176
     1
 90
        8
176
     1
 62
   257
176
     1
 40
1.0
176
     1
 90
        1
176
     1
 90
        6
176
     1
 90
        2
176
     1
 62
     7
176
     1
 90
        3
176
     1
 90
        0
176
     1
 90
        0
176
     1
290
     0
176
     1
 90
       13
176
     1
 40
0.0
176
     1
 90
        0
176
     1
290
     0
176
     1
290
     1
176
     1
290
     1
176
     1
290
     0
176
     1
290
     0
176
     1
290
     0
176
     1
290
     0
176
     1
290
     0
176
     1
290
     0
176
     1
 90
       50
176
     1
 40
0.0
176
     1
 40
1.0
176
     1
 90
        0
176
     1
 62
    18
420
        0
176
     1
 90
       50
176
     1
 90
        3
176
     1
 62
     5
420
      255
176
     1
290
     0
176
     1
 90
       50
176
     1
 90
       50
176
     1
 90
       50
176
     1
290
     0
176
     1
 90
       50
176
     1
 62
   256
176
     0
 40
1.0
176
     0
 90
        2
176
     1
  1
strokes_ogs.tif
176
     1
290
     0
176
     1
 40
1.0
176
     1
 40
1.0
176
     1
  0
VISUALSTYLE
  5
42
102
{ACAD_REACTORS
330
2A
102
}
330
2A
100
AcDbVisualStyle
  2
Shaded
 70
    27
177
     3
291
     0
 70
    58
 90
        2
176
     1
 90
        2
176
     1
 90
        1
176
     1
 90
        2
176
     1
 40
0.6
176
     1
 40
30.0
176
     1
 62
     7
420
 16777215
176
     1
 90
        0
176
     1
 90
        4
176
     1
 62
     7
176
     1
 62
   257
176
     1
 90
        1
176
     1
 90
        1
176
     1
 40
1.0
176
     1
 90
        8
176
     1
 62
   257
176
     1
 40
1.0
176
     1
 90
        1
176
     1
 90
        6
176
     1
 90
        2
176
     1
 62
     8
420
  7895160
176
     1
 90
        3
176
     1
 90
        0
176
     1
 90
        0
176
     1
290
     0
176
     1
 90
        5
176
     1
 40
0.0
176
     1
 90
        0
176
     1
290
     0
176
     1
290
     1
176
     1
290
     1
176
     1
290
     0
176
     1
290
     0
176
     1
290
     0
176
     1
290
     0
176
     1
290
     0
176
     1
290
     0
176
     1
 90
       50
176
     1
 40
0.0
176
     1
 40
1.0
176
     1
 90
        0
176
     1
 62
    18
420
        0
176
     1
 90
       50
176
     1
 90
        3
176
     1
 62
     5
420
      255
176
     1
290
     0
176
     1
 90
       50
176
     1
 90
       50
176
     1
 90
       50
176
     1
290
     0
176
     1
 90
       50
176
     1
 62
   256
176
     0
 40
1.0
176
     0
 90
        2
176
     1
  1
strokes_ogs.tif
176
     1
290
     0
176
     1
 40
1.0
176
     1
 40
1.0
176
     1
  0
VISUALSTYLE
  5
41
102
{ACAD_REACTORS
330
2A
102
}
330
2A
100
AcDbVisualStyle
  2
Shaded with edges
 70
    26
177
     3
291
     0
 70
    58
 90
        2
176
     1
 90
        2
176
     1
 90
        1
176
     1
 90
        2
176
     1
 40
0.6
176
     1
 40
30.0
176
     1
 62
     7
420
 16777215
176
     1
 90
        1
176
     1
 90
       10
176
     1
 62
     7
176
     1
 62
   257
176
     1
 90
        2
176
     1
 90
        1
176
     1
 40
1.0
176
     1
 90
        8
176
     1
 62
   257
176
     1
 40
1.0
176
     1
 90
        1
176
     1
 90
        6
176
     1
 90
        2
176
     1
 62
     7
176
     1
 90
        3
176
     1
 90
        0
176
     1
 90
        0
176
     1
290
     0
176
     1
 90
        5
176
     1
 40
0.0
176
     1
 90
        0
176
     1
290
     0
176
     1
290
     1
176
     1
290
     1
176
     1
290
     0
176
     1
290
     0
176
     1
290
     0
176
     1
290
     0
176
     1
290
     0
176
     1
290
     0
176
     1
 90
       50
176
     1
 40
0.0
176
     1
 40
1.0
176
     1
 90
        0
176
     1
 62
    18
420
        0
176
     1
 90
       50
176
     1
 90
        3
176
     1
 62
     5
420
      255
176
     1
290
     0
176
     1
 90
       50
176
     1
 90
       50
176
     1
 90
       50
176
     1
290
     0
176
     1
 90
       50
176
     1
 62
   256
176
     0
 40
1.0
176
     0
 90
        2
176
     1
  1
strokes_ogs.tif
176
     1
290
     0
176
     1
 40
1.0
176
     1
 40
1.0
176
     1
  0
VISUALSTYLE
  5
3E
102
{ACAD_REACTORS
330
2A
102
}
330
2A
100
AcDbVisualStyle
  2
Shades of Gray
 70
    23
177
     3
291
     0
 70
    58
 90
        2
176
     1
 90
        2
176
     1
 90
        3
176
     1
 90
        0
176
     1
 40
0.6
176
     1
 40
30.0
176
     1
 62
     7
420
 16777215
176
     1
 90
        2
176
     1
 90
        2
176
     1
 62
     7
176
     1
 62
     7
176
     1
 90
        1
176
     1
 90
        1
176
     1
 40
40.0
176
     1
 90
        8
176
     1
 62
     7
176
     1
 40
1.0
176
     1
 90
        1
176
     1
 90
        6
176
     1
 90
        2
176
     1
 62
     7
176
     1
 90
        3
176
     1
 90
        0
176
     1
 90
        0
176
     1
290
     0
176
     1
 90
        1
176
     1
 40
0.0
176
     1
 90
        0
176
     1
290
     0
176
     1
290
     1
176
     1
290
     1
176
     1
290
     0
176
     1
290
     0
176
     1
290
     0
176
     1
290
     0
176
     1
290
     0
176
     1
290
     0
176
     1
 90
       50
176
     1
 40
0.0
176
     1
 40
1.0
176
     1
 90
        0
176
     1
 62
    18
420
        0
176
     1
 90
       50
176
     1
 90
        3
176
     1
 62
     5
420
      255
176
     1
290
     0
176
     1
 90
       50
176
     1
 90
       50
176
     1
 90
       50
176
     1
290
     0
176
     1
 90
       50
176
     1
 62
   256
176
     0
 40
1.0
176
     0
 90
        2
176
     1
  1
strokes_ogs.tif
176
     1
290
     0
176
     1
 40
1.0
176
     1
 40
1.0
176
     1
  0
VISUALSTYLE
  5
3F
102
{ACAD_REACTORS
330
2A
102
}
330
2A
100
AcDbVisualStyle
  2
Sketchy
 70
    24
177
     3
291
     0
 70
    58
 90
        1
176
     1
 90
        2
176
     1
 90
        2
176
     1
 90
        0
176
     1
 40
0.6
176
     1
 40
30.0
176
     1
 62
     7
420
 16777215
176
     1
 90
        2
176
     1
 90
        2
176
     1
 62
     7
176
     1
 62
     7
176
     1
 90
        1
176
     1
 90
        1
176
     1
 40
40.0
176
     1
 90
       11
176
     1
 62
     7
176
     1
 40
1.0
176
     1
 90
        1
176
     1
 90
        6
176
     1
 90
        2
176
     1
 62
     7
176
     1
 90
        6
176
     1
 90
        0
176
     1
 90
        0
176
     1
290
     0
176
     1
 90
        1
176
     1
 40
0.0
176
     1
 90
        0
176
     1
290
     0
176
     1
290
     1
176
     1
290
     1
176
     1
290
     0
176
     1
290
     0
176
     1
290
     0
176
     1
290
     0
176
     1
290
     0
176
     1
290
     0
176
     1
 90
       50
176
     1
 40
0.0
176
     1
 40
1.0
176
     1
 90
        0
176
     1
 62
    18
420
        0
176
     1
 90
       50
176
     1
 90
        3
176
     1
 62
     5
420
      255
176
     1
290
     0
176
     1
 90
       50
176
     1
 90
       50
176
     1
 90
       50
176
     1
290
     0
176
     1
 90
       50
176
     1
 62
   256
176
     0
 40
1.0
176
     0
 90
        2
176
     1
  1
strokes_ogs.tif
176
     1
290
     0
176
     1
 40
1.0
176
     1
 40
1.0
176
     1
  0
VISUALSTYLE
  5
37
102
{ACAD_REACTORS
330
2A
102
}
330
2A
100
AcDbVisualStyle
  2
Thicken
 70
    13
177
     3
291
     1
 70
    58
 90
        2
176
     1
 90
        2
176
     1
 90
        0
176
     1
 90
        0
176
     1
 40
0.6
176
     1
 40
30.0
176
     1
 62
     7
420
 16777215
176
     1
 90
        1
176
     1
 90
        4
176
     1
 62
     7
176
     1
 62
   257
176
     1
 90
        1
176
     1
 90
        1
176
     1
 40
1.0
176
     1
 90
       12
176
     1
 62
     7
176
     1
 40
1.0
176
     1
 90
        1
176
     1
 90
        6
176
     1
 90
        2
176
     1
 62
     7
176
     1
 90
        5
176
     1
 90
        0
176
     1
 90
        0
176
     1
290
     0
176
     1
 90
        1
176
     1
 40
0.0
176
     1
 90
        0
176
     1
290
     0
176
     1
290
     1
176
     1
290
     1
176
     1
290
     0
176
     1
290
     0
176
     1
290
     0
176
     1
290
     0
176
     1
290
     0
176
     1
290
     0
176
     1
 90
       50
176
     1
 40
0.0
176
     1
 40
1.0
176
     1
 90
        0
176
     1
 62
    18
420
        0
176
     1
 90
       50
176
     1
 90
        3
176
     1
 62
     5
420
      255
176
     1
290
     0
176
     1
 90
       50
176
     1
 90
       50
176
     1
 90
       50
176
     1
290
     0
176
     1
 90
       50
176
     1
 62
   256
176
     0
 40
1.0
176
     0
 90
        2
176
     1
  1
strokes_ogs.tif
176
     1
290
     0
176
     1
 40
1.0
176
     1
 40
1.0
176
     1
  0
VISUALSTYLE
  5
30
102
{ACAD_REACTORS
330
2A
102
}
330
2A
100
AcDbVisualStyle
  2
Wireframe
 70
     5
177
     3
291
     0
 70
    58
 90
        0
176
     1
 90
        2
176
     1
 90
        0
176
     1
 90
        0
176
     1
 40
0.6
176
     1
 40
30.0
176
     1
 62
     7
420
 16777215
176
     1
 90
        1
176
     1
 90
        4
176
     1
 62
     7
176
     1
 62
   257
176
     1
 90
        1
176
     1
 90
        1
176
     1
 40
1.0
176
     1
 90
        0
176
     1
 62
   257
176
     1
 40
1.0
176
     1
 90
        1
176
     1
 90
        6
176
     1
 90
        2
176
     1
 62
     7
176
     1
 90
        3
176
     1
 90
        0
176
     1
 90
        0
176
     1
290
     0
176
     1
 90
        1
176
     1
 40
0.0
176
     1
 90
        0
176
     1
290
     0
176
     1
290
     1
176
     1
290
     1
176
     1
290
     0
176
     1
290
     0
176
     1
290
     0
176
     1
290
     0
176
     1
290
     0
176
     1
290
     0
176
     1
 90
       50
176
     1
 40
0.0
176
     1
 40
1.0
176
     1
 90
        0
176
     1
 62
    18
420
        0
176
     1
 90
       50
176
     1
 90
        3
176
     1
 62
     5
420
      255
176
     1
290
     0
176
     1
 90
       50
176
     1
 90
       50
176
     1
 90
       50
176
     1
290
     0
176
     1
 90
       50
176
     1
 62
   256
176
     0
 40
1.0
176
     0
 90
        2
176
     1
  1
strokes_ogs.tif
176
     1
290
     0
176
     1
 40
1.0
176
     1
 40
1.0
176
     1
  0
VISUALSTYLE
  5
40
102
{ACAD_REACTORS
330
2A
102
}
330
2A
100
AcDbVisualStyle
  2
X-Ray
 70
    25
177
     3
291
     0
 70
    58
 90
        2
176
     1
 90
        2
176
     1
 90
        1
176
     1
 90
        1
176
     1
 40
0.5
176
     1
 40
30.0
176
     1
 62
     7
420
 16777215
176
     1
 90
        1
176
     1
 90
        0
176
     1
 62
     7
176
     1
 62
   257
176
     1
 90
        1
176
     1
 90
        1
176
     1
 40
1.0
176
     1
 90
        8
176
     1
 62
     7
176
     1
 40
1.0
176
     1
 90
        1
176
     1
 90
        6
176
     1
 90
        2
176
     1
 62
     7
176
     1
 90
        3
176
     1
 90
        0
176
     1
 90
        0
176
     1
290
     0
176
     1
 90
       13
176
     1
 40
0.0
176
     1
 90
        0
176
     1
290
     0
176
     1
290
     1
176
     1
290
     1
176
     1
290
     0
176
     1
290
     0
176
     1
290
     0
176
     1
290
     0
176
     1
290
     0
176
     1
290
     0
176
     1
 90
       50
176
     1
 40
0.0
176
     1
 40
1.0
176
     1
 90
        0
176
     1
 62
    18
420
        0
176
     1
 90
       50
176
     1
 90
        3
176
     1
 62
     5
420
      255
176
     1
290
     0
176
     1
 90
       50
176
     1
 90
       50
176
     1
 90
       50
176
     1
290
     0
176
     1
 90
       50
176
     1
 62
   256
176
     0
 40
1.0
176
     0
 90
        2
176
     1
  1
strokes_ogs.tif
176
     1
290
     0
176
     1
 40
1.0
176
     1
 40
1.0
176
     1
  0
DICTIONARYVAR
  5
1D0
102
{ACAD_REACTORS
330
1CF
102
}
330
1CF
100
DictionaryVariables
280
     0
  1
1:1
  0
DICTIONARYVAR
  5
1D5
102
{ACAD_REACTORS
330
1CF
102
}
330
1CF
100
DictionaryVariables
280
     0
  1
Standard
  0
DICTIONARYVAR
  5
1D4
102
{ACAD_REACTORS
330
1CF
102
}
330
1CF
100
DictionaryVariables
280
     0
  1
Standard
  0
DICTIONARY
  5
1D1
330
6A
100
AcDbDictionary
280
     1
281
     1
  3
ACAD_ROUNDTRIP_2008_TABLESTYLE_CELLSTYLEMAP
360
1D2
  0
CELLSTYLEMAP
  5
1D2
102
{ACAD_REACTORS
330
1D1
102
}
330
1D1
100
AcDbCellStyleMap
 90
        3
300
CELLSTYLE
  1
TABLEFORMAT_BEGIN
 90
        5
170
     1
 91
        0
 92
    32768
 62
   257
 93
        1
300
CONTENTFORMAT
  1
CONTENTFORMAT_BEGIN
 90
        0
 91
        0
 92
        4
 93
        0
300

 40
0.0
140
1.0
 94
        5
 62
     0
340
11
144
0.25
309
CONTENTFORMAT_END
171
     1
301
MARGIN
  1
CELLMARGIN_BEGIN
 40
0.06
 40
0.06
 40
0.06
 40
0.06
 40
0.06
 40
0.06
309
CELLMARGIN_END
 94
        6
 95
        1
302
GRIDFORMAT
  1
GRIDFORMAT_BEGIN
 90
        0
 91
        1
 62
     0
 92
       -2
340
14
 93
        0
 40
0.045
309
GRIDFORMAT_END
 95
        2
302
GRIDFORMAT
  1
GRIDFORMAT_BEGIN
 90
        0
 91
        1
 62
     0
 92
       -2
340
14
 93
        0
 40
0.045
309
GRIDFORMAT_END
 95
        4
302
GRIDFORMAT
  1
GRIDFORMAT_BEGIN
 90
        0
 91
        1
 62
     0
 92
       -2
340
14
 93
        0
 40
0.045
309
GRIDFORMAT_END
 95
        8
302
GRIDFORMAT
  1
GRIDFORMAT_BEGIN
 90
        0
 91
        1
 62
     0
 92
       -2
340
14
 93
        0
 40
0.045
309
GRIDFORMAT_END
 95
       16
302
GRIDFORMAT
  1
GRIDFORMAT_BEGIN
 90
        0
 91
        1
 62
     0
 92
       -2
340
14
 93
        0
 40
0.045
309
GRIDFORMAT_END
 95
       32
302
GRIDFORMAT
  1
GRIDFORMAT_BEGIN
 90
        0
 91
        1
 62
     0
 92
       -2
340
14
 93
        0
 40
0.045
309
GRIDFORMAT_END
309
TABLEFORMAT_END
  1
CELLSTYLE_BEGIN
 90
        1
 91
        1
300
_TITLE
309
CELLSTYLE_END
300
CELLSTYLE
  1
TABLEFORMAT_BEGIN
 90
        5
170
     1
 91
        0
 92
        0
 62
   257
 93
        1
300
CONTENTFORMAT
  1
CONTENTFORMAT_BEGIN
 90
        0
 91
        0
 92
        4
 93
        0
300

 40
0.0
140
1.0
 94
        5
 62
     0
340
11
144
0.18
309
CONTENTFORMAT_END
171
     1
301
MARGIN
  1
CELLMARGIN_BEGIN
 40
0.06
 40
0.06
 40
0.06
 40
0.06
 40
0.06
 40
0.06
309
CELLMARGIN_END
 94
        6
 95
        1
302
GRIDFORMAT
  1
GRIDFORMAT_BEGIN
 90
        0
 91
        1
 62
     0
 92
       -2
340
14
 93
        0
 40
0.045
309
GRIDFORMAT_END
 95
        2
302
GRIDFORMAT
  1
GRIDFORMAT_BEGIN
 90
        0
 91
        1
 62
     0
 92
       -2
340
14
 93
        0
 40
0.045
309
GRIDFORMAT_END
 95
        4
302
GRIDFORMAT
  1
GRIDFORMAT_BEGIN
 90
        0
 91
        1
 62
     0
 92
       -2
340
14
 93
        0
 40
0.045
309
GRIDFORMAT_END
 95
        8
302
GRIDFORMAT
  1
GRIDFORMAT_BEGIN
 90
        0
 91
        1
 62
     0
 92
       -2
340
14
 93
        0
 40
0.045
309
GRIDFORMAT_END
 95
       16
302
GRIDFORMAT
  1
GRIDFORMAT_BEGIN
 90
        0
 91
        1
 62
     0
 92
       -2
340
14
 93
        0
 40
0.045
309
GRIDFORMAT_END
 95
       32
302
GRIDFORMAT
  1
GRIDFORMAT_BEGIN
 90
        0
 91
        1
 62
     0
 92
       -2
340
14
 93
        0
 40
0.045
309
GRIDFORMAT_END
309
TABLEFORMAT_END
  1
CELLSTYLE_BEGIN
 90
        2
 91
        1
300
_HEADER
309
CELLSTYLE_END
300
CELLSTYLE
  1
TABLEFORMAT_BEGIN
 90
        5
170
     1
 91
        0
 92
        0
 62
   257
 93
        1
300
CONTENTFORMAT
  1
CONTENTFORMAT_BEGIN
 90
        0
 91
        0
 92
        4
 93
        0
300

 40
0.0
140
1.0
 94
        2
 62
     0
340
11
144
0.18
309
CONTENTFORMAT_END
171
     1
301
MARGIN
  1
CELLMARGIN_BEGIN
 40
0.06
 40
0.06
 40
0.06
 40
0.06
 40
0.06
 40
0.06
309
CELLMARGIN_END
 94
        6
 95
        1
302
GRIDFORMAT
  1
GRIDFORMAT_BEGIN
 90
        0
 91
        1
 62
     0
 92
       -2
340
14
 93
        0
 40
0.045
309
GRIDFORMAT_END
 95
        2
302
GRIDFORMAT
  1
GRIDFORMAT_BEGIN
 90
        0
 91
        1
 62
     0
 92
       -2
340
14
 93
        0
 40
0.045
309
GRIDFORMAT_END
 95
        4
302
GRIDFORMAT
  1
GRIDFORMAT_BEGIN
 90
        0
 91
        1
 62
     0
 92
       -2
340
14
 93
        0
 40
0.045
309
GRIDFORMAT_END
 95
        8
302
GRIDFORMAT
  1
GRIDFORMAT_BEGIN
 90
        0
 91
        1
 62
     0
 92
       -2
340
14
 93
        0
 40
0.045
309
GRIDFORMAT_END
 95
       16
302
GRIDFORMAT
  1
GRIDFORMAT_BEGIN
 90
        0
 91
        1
 62
     0
 92
       -2
340
14
 93
        0
 40
0.045
309
GRIDFORMAT_END
 95
       32
302
GRIDFORMAT
  1
GRIDFORMAT_BEGIN
 90
        0
 91
        1
 62
     0
 92
       -2
340
14
 93
        0
 40
0.045
309
GRIDFORMAT_END
309
TABLEFORMAT_END
  1
CELLSTYLE_BEGIN
 90
        3
 91
        2
300
_DATA
309
CELLSTYLE_END
  0
ENDSEC
  0
EOF