0
SECTION
  2
HEADER
  9
$ACADVER
  1
AC1027
  9
$ACADMAINTVER
 70
     8
  9
$DWGCODEPAGE
  3
ANSI_1252
  9
$REQUIREDVERSIONS
160
                 0
  9
$COMMENTS
  1
File was created by Cadenas
  9
$CUSTOMPROPERTYTAG
  1
NN
  9
$CUSTOMPROPERTY
  1
Set Screw Two-Bolt Pillow Block Metric Bore
  9
$CUSTOMPROPERTYTAG
  1
NT
  9
$CUSTOMPROPERTY
  1
SC Pillow Block Bearings -(Normal Duty)
  9
$CUSTOMPROPERTYTAG
  1
NB
  9
$CUSTOMPROPERTY
  1
052794
  9
$CUSTOMPROPERTYTAG
  1
NBSYN
  9
$CUSTOMPROPERTY
  1
$PN.
  9
$CUSTOMPROPERTYTAG
  1
LINA
  9
$CUSTOMPROPERTY
  1
052794
  9
$CUSTOMPROPERTYTAG
  1
SERIES
  9
$CUSTOMPROPERTY
  1
218
  9
$CUSTOMPROPERTYTAG
  1
SS
  9
$CUSTOMPROPERTY
  1
90
  9
$CUSTOMPROPERTYTAG
  1
PN
  9
$CUSTOMPROPERTY
  1
052794
  9
$CUSTOMPROPERTYTAG
  1
DESCRIPTION
  9
$CUSTOMPROPERTY
  1
P2B-SC-90M
  9
$CUSTOMPROPERTYTAG
  1
WEIGHT
  9
$CUSTOMPROPERTY
  1
13.6
  9
$CUSTOMPROPERTYTAG
  1
LF
  9
$CUSTOMPROPERTY
  1
RE-LUBE
  9
$CUSTOMPROPERTYTAG
  1
A
  9
$CUSTOMPROPERTY
  1
65.0
  9
$CUSTOMPROPERTYTAG
  1
B
  9
$CUSTOMPROPERTY
  1
355.6
  9
$CUSTOMPROPERTYTAG
  1
C
  9
$CUSTOMPROPERTY
  1
85.9
  9
$CUSTOMPROPERTYTAG
  1
DMIN
  9
$CUSTOMPROPERTY
  1
262.1
  9
$CUSTOMPROPERTYTAG
  1
DMAX
  9
$CUSTOMPROPERTY
  1
295.1
  9
$CUSTOMPROPERTYTAG
  1
F
  9
$CUSTOMPROPERTY
  1
M22
  9
$CUSTOMPROPERTYTAG
  1
G
  9
$CUSTOMPROPERTY
  1
40.4
  9
$CUSTOMPROPERTYTAG
  1
H
  9
$CUSTOMPROPERTY
  1
33.3
  9
$CUSTOMPROPERTYTAG
  1
J
  9
$CUSTOMPROPERTY
  1
203.2
  9
$CUSTOMPROPERTYTAG
  1
L
  9
$CUSTOMPROPERTY
  1
110.5
  9
$CUSTOMPROPERTYTAG
  1
M
  9
$CUSTOMPROPERTY
  1
101.6
  9
$CUSTOMPROPERTYTAG
  1
R
  9
$CUSTOMPROPERTY
  1
24.4
  9
$CUSTOMPROPERTYTAG
  1
S
  9
$CUSTOMPROPERTY
  1
40.6
  9
$CUSTOMPROPERTYTAG
  1
U
  9
$CUSTOMPROPERTY
  1
167.6
  9
$CUSTOMPROPERTYTAG
  1
V
  9
$CUSTOMPROPERTY
  1
335.3
  9
$CUSTOMPROPERTYTAG
  1
W
  9
$CUSTOMPROPERTY
  1
30.2
  9
$CUSTOMPROPERTYTAG
  1
X
  9
$CUSTOMPROPERTY
  1
3.0
  9
$CUSTOMPROPERTYTAG
  1
COMPANY
  9
$CUSTOMPROPERTY
  1
baldor
  9
$INSBASE
 10
0.0
 20
0.0
 30
0.0
  9
$EXTMIN
 10
1.000000000000000E+20
 20
1.000000000000000E+20
 30
1.000000000000000E+20
  9
$EXTMAX
 10
-1.000000000000000E+20
 20
-1.000000000000000E+20
 30
-1.000000000000000E+20
  9
$LIMMIN
 10
0.0
 20
0.0
  9
$LIMMAX
 10
420.0
 20
297.0
  9
$ORTHOMODE
 70
     0
  9
$REGENMODE
 70
     1
  9
$FILLMODE
 70
     1
  9
$QTEXTMODE
 70
     0
  9
$MIRRTEXT
 70
     1
  9
$LTSCALE
 40
1.0
  9
$ATTMODE
 70
     1
  9
$TEXTSIZE
 40
2.5
  9
$TRACEWID
 40
1.0
  9
$TEXTSTYLE
  7
Standard
  9
$CLAYER
  8
0
  9
$CELTYPE
  6
ByLayer
  9
$CECOLOR
 62
   256
  9
$CELTSCALE
 40
1.0
  9
$DISPSILH
 70
     0
  9
$DIMSCALE
 40
1.0
  9
$DIMASZ
 40
2.5
  9
$DIMEXO
 40
0.625
  9
$DIMDLI
 40
3.75
  9
$DIMRND
 40
0.0
  9
$DIMDLE
 40
0.0
  9
$DIMEXE
 40
1.25
  9
$DIMTP
 40
0.0
  9
$DIMTM
 40
0.0
  9
$DIMTXT
 40
2.5
  9
$DIMCEN
 40
2.5
  9
$DIMTSZ
 40
0.0
  9
$DIMTOL
 70
     0
  9
$DIMLIM
 70
     0
  9
$DIMTIH
 70
     0
  9
$DIMTOH
 70
     0
  9
$DIMSE1
 70
     0
  9
$DIMSE2
 70
     0
  9
$DIMTAD
 70
     1
  9
$DIMZIN
 70
     8
  9
$DIMBLK
  1

  9
$DIMASO
 70
     1
  9
$DIMSHO
 70
     1
  9
$DIMPOST
  1

  9
$DIMAPOST
  1

  9
$DIMALT
 70
     0
  9
$DIMALTD
 70
     3
  9
$DIMALTF
 40
0.03937007874016
  9
$DIMLFAC
 40
1.0
  9
$DIMTOFL
 70
     1
  9
$DIMTVP
 40
0.0
  9
$DIMTIX
 70
     0
  9
$DIMSOXD
 70
     0
  9
$DIMSAH
 70
     0
  9
$DIMBLK1
  1

  9
$DIMBLK2
  1

  9
$DIMSTYLE
  2
ISO-25
  9
$DIMCLRD
 70
     0
  9
$DIMCLRE
 70
     0
  9
$DIMCLRT
 70
     0
  9
$DIMTFAC
 40
1.0
  9
$DIMGAP
 40
0.625
  9
$DIMJUST
 70
     0
  9
$DIMSD1
 70
     0
  9
$DIMSD2
 70
     0
  9
$DIMTOLJ
 70
     0
  9
$DIMTZIN
 70
     8
  9
$DIMALTZ
 70
     0
  9
$DIMALTTZ
 70
     0
  9
$DIMUPT
 70
     0
  9
$DIMDEC
 70
     2
  9
$DIMTDEC
 70
     2
  9
$DIMALTU
 70
     2
  9
$DIMALTTD
 70
     3
  9
$DIMTXSTY
  7
Standard
  9
$DIMAUNIT
 70
     0
  9
$DIMADEC
 70
     0
  9
$DIMALTRND
 40
0.0
  9
$DIMAZIN
 70
     0
  9
$DIMDSEP
 70
    44
  9
$DIMATFIT
 70
     3
  9
$DIMFRAC
 70
     0
  9
$DIMLDRBLK
  1

  9
$DIMLUNIT
 70
     2
  9
$DIMLWD
 70
    -2
  9
$DIMLWE
 70
    -2
  9
$DIMTMOVE
 70
     0
  9
$DIMFXL
 40
1.0
  9
$DIMFXLON
 70
     0
  9
$DIMJOGANG
 40
0.7853981633974483
  9
$DIMTFILL
 70
     0
  9
$DIMTFILLCLR
 70
     0
  9
$DIMARCSYM
 70
     0
  9
$DIMLTYPE
  6

  9
$DIMLTEX1
  6

  9
$DIMLTEX2
  6

  9
$DIMTXTDIRECTION
 70
     0
  9
$LUNITS
 70
     2
  9
$LUPREC
 70
     4
  9
$SKETCHINC
 40
1.0
  9
$FILLETRAD
 40
10.0
  9
$AUNITS
 70
     0
  9
$AUPREC
 70
     0
  9
$MENU
  1
.
  9
$ELEVATION
 40
0.0
  9
$PELEVATION
 40
0.0
  9
$THICKNESS
 40
0.0
  9
$LIMCHECK
 70
     0
  9
$CHAMFERA
 40
0.0
  9
$CHAMFERB
 40
0.0
  9
$CHAMFERC
 40
0.0
  9
$CHAMFERD
 40
0.0
  9
$SKPOLY
 70
     0
  9
$TDCREATE
 40
2458168.98650632
  9
$TDUCREATE
 40
2458168.944839653
  9
$TDUPDATE
 40
2458168.986506504
  9
$TDUUPDATE
 40
2458168.944839838
  9
$TDINDWG
 40
0.0000000116
  9
$TDUSRTIMER
 40
0.0000000116
  9
$USRTIMER
 70
     1
  9
$ANGBASE
 50
0.0
  9
$ANGDIR
 70
     0
  9
$PDMODE
 70
     0
  9
$PDSIZE
 40
0.0
  9
$PLINEWID
 40
0.0
  9
$SPLFRAME
 70
     0
  9
$SPLINETYPE
 70
     6
  9
$SPLINESEGS
 70
     8
  9
$HANDSEED
  5
1B7
  9
$SURFTAB1
 70
     6
  9
$SURFTAB2
 70
     6
  9
$SURFTYPE
 70
     6
  9
$SURFU
 70
     6
  9
$SURFV
 70
     6
  9
$UCSBASE
  2

  9
$UCSNAME
  2

  9
$UCSORG
 10
0.0
 20
0.0
 30
0.0
  9
$UCSXDIR
 10
1.0
 20
0.0
 30
0.0
  9
$UCSYDIR
 10
0.0
 20
1.0
 30
0.0
  9
$UCSORTHOREF
  2

  9
$UCSORTHOVIEW
 70
     0
  9
$UCSORGTOP
 10
0.0
 20
0.0
 30
0.0
  9
$UCSORGBOTTOM
 10
0.0
 20
0.0
 30
0.0
  9
$UCSORGLEFT
 10
0.0
 20
0.0
 30
0.0
  9
$UCSORGRIGHT
 10
0.0
 20
0.0
 30
0.0
  9
$UCSORGFRONT
 10
0.0
 20
0.0
 30
0.0
  9
$UCSORGBACK
 10
0.0
 20
0.0
 30
0.0
  9
$PUCSBASE
  2

  9
$PUCSNAME
  2

  9
$PUCSORG
 10
0.0
 20
0.0
 30
0.0
  9
$PUCSXDIR
 10
1.0
 20
0.0
 30
0.0
  9
$PUCSYDIR
 10
0.0
 20
1.0
 30
0.0
  9
$PUCSORTHOREF
  2

  9
$PUCSORTHOVIEW
 70
     0
  9
$PUCSORGTOP
 10
0.0
 20
0.0
 30
0.0
  9
$PUCSORGBOTTOM
 10
0.0
 20
0.0
 30
0.0
  9
$PUCSORGLEFT
 10
0.0
 20
0.0
 30
0.0
  9
$PUCSORGRIGHT
 10
0.0
 20
0.0
 30
0.0
  9
$PUCSORGFRONT
 10
0.0
 20
0.0
 30
0.0
  9
$PUCSORGBACK
 10
0.0
 20
0.0
 30
0.0
  9
$USERI1
 70
     0
  9
$USERI2
 70
     0
  9
$USERI3
 70
     0
  9
$USERI4
 70
     0
  9
$USERI5
 70
     0
  9
$USERR1
 40
0.0
  9
$USERR2
 40
0.0
  9
$USERR3
 40
0.0
  9
$USERR4
 40
0.0
  9
$USERR5
 40
0.0
  9
$WORLDVIEW
 70
     1
  9
$SHADEDGE
 70
     3
  9
$SHADEDIF
 70
    70
  9
$TILEMODE
 70
     1
  9
$MAXACTVP
 70
    64
  9
$PINSBASE
 10
0.0
 20
0.0
 30
0.0
  9
$PLIMCHECK
 70
     0
  9
$PEXTMIN
 10
1.000000000000000E+20
 20
1.000000000000000E+20
 30
1.000000000000000E+20
  9
$PEXTMAX
 10
-1.000000000000000E+20
 20
-1.000000000000000E+20
 30
-1.000000000000000E+20
  9
$PLIMMIN
 10
0.0
 20
0.0
  9
$PLIMMAX
 10
420.0
 20
297.0
  9
$UNITMODE
 70
     0
  9
$VISRETAIN
 70
     1
  9
$PLINEGEN
 70
     0
  9
$PSLTSCALE
 70
     1
  9
$TREEDEPTH
 70
  3020
  9
$CMLSTYLE
  2
Standard
  9
$CMLJUST
 70
     0
  9
$CMLSCALE
 40
20.0
  9
$PROXYGRAPHICS
 70
     1
  9
$MEASUREMENT
 70
     1
  9
$CELWEIGHT
370
    -1
  9
$ENDCAPS
280
     0
  9
$JOINSTYLE
280
     0
  9
$LWDISPLAY
290
     0
  9
$INSUNITS
 70
     4
  9
$HYPERLINKBASE
  1

  9
$STYLESHEET
  1

  9
$XEDIT
290
     1
  9
$CEPSNTYPE
380
     0
  9
$PSTYLEMODE
290
     1
  9
$FINGERPRINTGUID
  2
{C9255119-DDF2-420F-BD03-AE85D99A275F}
  9
$VERSIONGUID
  2
{FAEB1C32-E019-11D5-929B-00C0DF256EC4}
  9
$EXTNAMES
290
     1
  9
$PSVPSCALE
 40
0.0
  9
$OLESTARTUP
290
     0
  9
$SORTENTS
280
   127
  9
$INDEXCTL
280
     0
  9
$HIDETEXT
280
     1
  9
$XCLIPFRAME
280
     2
  9
$HALOGAP
280
     0
  9
$OBSCOLOR
 70
   257
  9
$OBSLTYPE
280
     0
  9
$INTERSECTIONDISPLAY
280
     0
  9
$INTERSECTIONCOLOR
 70
   257
  9
$DIMASSOC
280
     2
  9
$PROJECTNAME
  1

  9
$CAMERADISPLAY
290
     0
  9
$LENSLENGTH
 40
50.0
  9
$CAMERAHEIGHT
 40
0.0
  9
$STEPSPERSEC
 40
2.0
  9
$STEPSIZE
 40
6.0
  9
$3DDWFPREC
 40
2.0
  9
$PSOLWIDTH
 40
5.0
  9
$PSOLHEIGHT
 40
80.0
  9
$LOFTANG1
 40
1.570796326794897
  9
$LOFTANG2
 40
1.570796326794897
  9
$LOFTMAG1
 40
0.0
  9
$LOFTMAG2
 40
0.0
  9
$LOFTPARAM
 70
     7
  9
$LOFTNORMALS
280
     1
  9
$LATITUDE
 40
37.795
  9
$LONGITUDE
 40
-122.394
  9
$NORTHDIRECTION
 40
0.0
  9
$TIMEZONE
 70
 -8000
  9
$LIGHTGLYPHDISPLAY
280
     1
  9
$TILEMODELIGHTSYNCH
280
     1
  9
$CMATERIAL
347
44
  9
$SOLIDHIST
280
     0
  9
$SHOWHIST
280
     1
  9
$DWFFRAME
280
     2
  9
$DGNFRAME
280
     2
  9
$REALWORLDSCALE
290
     1
  9
$INTERFERECOLOR
 62
   256
  9
$CSHADOW
280
     0
  9
$SHADOWPLANELOCATION
 40
0.0
  0
ENDSEC
  0
SECTION
  2
CLASSES
  0
CLASS
  1
ACDBDICTIONARYWDFLT
  2
AcDbDictionaryWithDefault
  3
ObjectDBX Classes
 90
        0
 91
        4
280
     0
281
     0
  0
CLASS
  1
VISUALSTYLE
  2
AcDbVisualStyle
  3
ObjectDBX Classes
 90
     4095
 91
        4
280
     0
281
     0
  0
CLASS
  1
MATERIAL
  2
AcDbMaterial
  3
ObjectDBX Classes
 90
     1153
 91
        4
280
     0
281
     0
  0
CLASS
  1
SCALE
  2
AcDbScale
  3
ObjectDBX Classes
 90
     1153
 91
        4
280
     0
281
     0
  0
CLASS
  1
TABLESTYLE
  2
AcDbTableStyle
  3
ObjectDBX Classes
 90
     4095
 91
        4
280
     0
281
     0
  0
CLASS
  1
MLEADERSTYLE
  2
AcDbMLeaderStyle
  3
ACDB_MLEADERSTYLE_CLASS
 90
     4095
 91
        4
280
     0
281
     0
  0
CLASS
  1
SUN
  2
AcDbSun
  3
SCENEOE
 90
     1153
 91
        4
280
     0
281
     0
  0
CLASS
  1
DICTIONARYVAR
  2
AcDbDictionaryVar
  3
ObjectDBX Classes
 90
        0
 91
        4
280
     0
281
     0
  0
CLASS
  1
CELLSTYLEMAP
  2
AcDbCellStyleMap
  3
ObjectDBX Classes
 90
     1152
 91
        4
280
     0
281
     0
  0
ENDSEC
  0
SECTION
  2
TABLES
  0
TABLE
  2
VPORT
  5
8
330
0
100
AcDbSymbolTable
 70
     1
  0
VPORT
  5
29
330
8
100
AcDbSymbolTableRecord
100
AcDbViewportTableRecord
  2
*Active
 70
     0
 10
0.0
 20
0.0
 11
1.0
 21
1.0
 12
0.0
 22
0.0
 13
0.0
 23
0.0
 14
10.0
 24
10.0
 15
10.0
 25
10.0
 16
0.0
 26
0.0
 36
1.0
 17
0.0
 27
0.0
 37
0.0
 40
207.264
 41
0.4650098425196852
 42
50.0
 43
0.0
 44
0.0
 50
0.0
 51
0.0
 71
     0
 72
   100
 73
     1
 74
     3
 75
     0
 76
     0
 77
     0
 78
     0
281
     0
 65
     1
110
0.0
120
0.0
130
0.0
111
1.0
121
0.0
131
0.0
112
0.0
122
1.0
132
0.0
 79
     0
146
0.0
348
2F
 60
     3
 61
     5
292
     1
282
     1
141
0.0
142
0.0
 63
   250
361
6D
  0
ENDTAB
  0
TABLE
  2
LTYPE
  5
5
330
0
100
AcDbSymbolTable
 70
     3
  0
LTYPE
  5
14
330
5
100
AcDbSymbolTableRecord
100
AcDbLinetypeTableRecord
  2
ByBlock
 70
     0
  3

 72
    65
 73
     0
 40
0.0
  0
LTYPE
  5
15
330
5
100
AcDbSymbolTableRecord
100
AcDbLinetypeTableRecord
  2
ByLayer
 70
     0
  3

 72
    65
 73
     0
 40
0.0
  0
LTYPE
  5
16
330
5
100
AcDbSymbolTableRecord
100
AcDbLinetypeTableRecord
  2
Continuous
 70
     0
  3
Solid line
 72
    65
 73
     0
 40
0.0
  0
LTYPE
  5
9C
330
5
100
AcDbSymbolTableRecord
100
AcDbLinetypeTableRecord
  2
Dashed
 70
     0
  3

 72
    65
 73
     2
 40
2.0
 49
1.0
 74
     0
 49
-1.0
 74
     0
  0
LTYPE
  5
139
330
5
100
AcDbSymbolTableRecord
100
AcDbLinetypeTableRecord
  2
Center
 70
     0
  3

 72
    65
 73
     4
 40
1.5
 49
0.45
 74
     0
 49
-0.5
 74
     0
 49
0.05
 74
     0
 49
-0.5
 74
     0
  0
ENDTAB
  0
TABLE
  2
LAYER
  5
2
330
0
100
AcDbSymbolTable
 70
     7
  0
LAYER
  5
10
330
2
100
AcDbSymbolTableRecord
100
AcDbLayerTableRecord
  2
0
 70
     0
 62
     7
  6
Continuous
370
    -3
390
F
347
46
348
0
  0
LAYER
  5
72
330
2
100
AcDbSymbolTableRecord
100
AcDbLayerTableRecord
  2
AM_6
 70
     0
 62
    -2
  6
Continuous
370
    35
390
F
347
46
348
0
  0
LAYER
  5
9D
330
2
100
AcDbSymbolTableRecord
100
AcDbLayerTableRecord
  2
AM_9
 70
     0
 62
     6
  6
Dashed
370
    25
390
F
347
46
348
0
  0
LAYER
  5
C3
330
2
100
AcDbSymbolTableRecord
100
AcDbLayerTableRecord
  2
AM_4
 70
     0
 62
     7
  6
Continuous
370
    50
390
F
347
46
348
0
  0
LAYER
  5
136
330
2
100
AcDbSymbolTableRecord
100
AcDbLayerTableRecord
  2
AM_5
 70
     0
 62
     3
  6
Continuous
370
    25
390
F
347
46
348
0
  0
LAYER
  5
13A
330
2
100
AcDbSymbolTableRecord
100
AcDbLayerTableRecord
  2
AM_7
 70
     0
 62
     7
  6
Center
370
    25
390
F
347
46
348
0
  0
LAYER
  5
1AA
330
2
100
AcDbSymbolTableRecord
100
AcDbLayerTableRecord
  2
ConnectionPoints
 70
     0
 62
     7
  6
Continuous
370
    50
390
F
347
46
348
0
  0
ENDTAB
  0
TABLE
  2
STYLE
  5
3
330
0
100
AcDbSymbolTable
 70
     1
  0
STYLE
  5
11
330
3
100
AcDbSymbolTableRecord
100
AcDbTextStyleTableRecord
  2
Standard
 70
     0
 40
0.0
 41
1.0
 50
0.0
 71
     0
 42
2.5
  3
txt
  4

  0
ENDTAB
  0
TABLE
  2
VIEW
  5
6
330
0
100
AcDbSymbolTable
 70
     0
  0
ENDTAB
  0
TABLE
  2
UCS
  5
7
330
0
100
AcDbSymbolTable
 70
     0
  0
ENDTAB
  0
TABLE
  2
APPID
  5
9
330
0
100
AcDbSymbolTable
 70
     1
  0
APPID
  5
12
330
9
100
AcDbSymbolTableRecord
100
AcDbRegAppTableRecord
  2
ACAD
 70
     0
  0
ENDTAB
  0
TABLE
  2
DIMSTYLE
  5
A
330
0
100
AcDbSymbolTable
 70
     1
100
AcDbDimStyleTable
  0
DIMSTYLE
105
27
330
A
100
AcDbSymbolTableRecord
100
AcDbDimStyleTableRecord
  2
ISO-25
 70
     0
 41
2.5
 42
0.625
 43
3.75
 44
1.25
 73
     0
 74
     0
 77
     1
 78
     8
140
2.5
141
2.5
143
0.03937007874016
147
0.625
171
     3
172
     1
178
     0
271
     2
272
     2
274
     3
278
    44
283
     0
284
     8
340
11
  0
ENDTAB
  0
TABLE
  2
BLOCK_RECORD
  5
1
330
0
100
AcDbSymbolTable
 70
     5
  0
BLOCK_RECORD
  5
1F
330
1
100
AcDbSymbolTableRecord
100
AcDbBlockTableRecord
  2
*Model_Space
340
22
 70
     0
280
     1
281
     0
  0
BLOCK_RECORD
  5
1B
330
1
100
AcDbSymbolTableRecord
100
AcDbBlockTableRecord
  2
*Paper_Space
340
1E
 70
     0
280
     1
281
     0
  0
BLOCK_RECORD
  5
23
330
1
100
AcDbSymbolTableRecord
100
AcDbBlockTableRecord
  2
*Paper_Space0
340
26
 70
     0
280
     1
281
     0
  0
BLOCK_RECORD
  5
6E
330
1
100
AcDbSymbolTableRecord
100
AcDbBlockTableRecord
  2
1_052794_2
340
0
102
{BLKREFS
331
6F
102
}
 70
     0
280
     1
281
     0
  0
BLOCK_RECORD
  5
90
330
1
100
AcDbSymbolTableRecord
100
AcDbBlockTableRecord
  2
2_405015E_Metric_0_in_052794_2
340
0
102
{BLKREFS
331
91
102
}
 70
     0
280
     1
281
     0
  0
BLOCK_RECORD
  5
E7
330
1
100
AcDbSymbolTableRecord
100
AcDbBlockTableRecord
  2
3_INS_SC_90M_0_in_052794_2
340
0
102
{BLKREFS
331
E8
102
}
 70
     0
280
     1
281
     0
  0
BLOCK_RECORD
  5
146
330
1
100
AcDbSymbolTableRecord
100
AcDbBlockTableRecord
  2
4_052794H_0_in_052794_2
340
0
102
{BLKREFS
331
147
102
}
 70
     0
280
     1
281
     0
  0
ENDTAB
  0
ENDSEC
  0
SECTION
  2
BLOCKS
  0
BLOCK
  5
20
330
1F
100
AcDbEntity
  8
0
100
AcDbBlockBegin
  2
*Model_Space
 70
     0
 10
0.0
 20
0.0
 30
0.0
  3
*Model_Space
  1

  0
ENDBLK
  5
21
330
1F
100
AcDbEntity
  8
0
100
AcDbBlockEnd
  0
BLOCK
  5
1C
330
1B
100
AcDbEntity
 67
     1
  8
0
100
AcDbBlockBegin
  2
*Paper_Space
 70
     0
 10
0.0
 20
0.0
 30
0.0
  3
*Paper_Space
  1

  0
ENDBLK
  5
1D
330
1B
100
AcDbEntity
 67
     1
  8
0
100
AcDbBlockEnd
  0
BLOCK
  5
24
330
23
100
AcDbEntity
  8
0
100
AcDbBlockBegin
  2
*Paper_Space0
 70
     0
 10
0.0
 20
0.0
 30
0.0
  3
*Paper_Space0
  1

  0
ENDBLK
  5
25
330
23
100
AcDbEntity
  8
0
100
AcDbBlockEnd
  0
BLOCK
  5
70
330
6E
100
AcDbEntity
  8
0
100
AcDbBlockBegin
  2
1_052794_2
 70
     2
 10
0.0
 20
0.0
 30
0.0
  3
1_052794_2
  1

  0
ATTDEF
  5
73
330
6E
100
AcDbEntity
  8
AM_6
100
AcDbText
 10
52.245
 20
101.6
 30
0.0
 40
0.5
  1
Set Screw Two-Bolt Pillow Block Metric Bore
100
AcDbAttributeDefinition
  3

  2
NN
 70
     8
280
     0
  0
ATTDEF
  5
74
330
6E
100
AcDbEntity
  8
AM_6
100
AcDbText
 10
52.245
 20
101.1
 30
0.0
 40
0.5
  1
SC Pillow Block Bearings -(Normal Duty)
100
AcDbAttributeDefinition
  3

  2
NT
 70
     8
280
     0
  0
ATTDEF
  5
75
330
6E
100
AcDbEntity
  8
AM_6
100
AcDbText
 10
52.245
 20
100.6
 30
0.0
 40
0.5
  1
052794
100
AcDbAttributeDefinition
  3

  2
NB
 70
     8
280
     0
  0
ATTDEF
  5
76
330
6E
100
AcDbEntity
  8
AM_6
100
AcDbText
 10
52.245
 20
100.1
 30
0.0
 40
0.5
  1
$PN.
100
AcDbAttributeDefinition
  3

  2
NBSYN
 70
     8
280
     0
  0
ATTDEF
  5
77
330
6E
100
AcDbEntity
  8
AM_6
100
AcDbText
 10
52.245
 20
99.60000000000001
 30
0.0
 40
0.5
  1
052794
100
AcDbAttributeDefinition
  3

  2
LINA
 70
     8
280
     0
  0
ATTDEF
  5
78
330
6E
100
AcDbEntity
  8
AM_6
100
AcDbText
 10
52.245
 20
99.10000000000001
 30
0.0
 40
0.5
  1
218
100
AcDbAttributeDefinition
  3

  2
SERIES
 70
     8
280
     0
  0
ATTDEF
  5
79
330
6E
100
AcDbEntity
  8
AM_6
100
AcDbText
 10
52.245
 20
98.60000000000001
 30
0.0
 40
0.5
  1
90
100
AcDbAttributeDefinition
  3

  2
SS
 70
     8
280
     0
  0
ATTDEF
  5
7A
330
6E
100
AcDbEntity
  8
AM_6
100
AcDbText
 10
52.245
 20
98.10000000000001
 30
0.0
 40
0.5
  1
052794
100
AcDbAttributeDefinition
  3

  2
PN
 70
     8
280
     0
  0
ATTDEF
  5
7B
330
6E
100
AcDbEntity
  8
AM_6
100
AcDbText
 10
52.245
 20
97.60000000000001
 30
0.0
 40
0.5
  1
P2B-SC-90M
100
AcDbAttributeDefinition
  3

  2
DESCRIPTION
 70
     8
280
     0
  0
ATTDEF
  5
7C
330
6E
100
AcDbEntity
  8
AM_6
100
AcDbText
 10
52.245
 20
97.10000000000001
 30
0.0
 40
0.5
  1
13.6
100
AcDbAttributeDefinition
  3

  2
WEIGHT
 70
     8
280
     0
  0
ATTDEF
  5
7D
330
6E
100
AcDbEntity
  8
AM_6
100
AcDbText
 10
52.245
 20
96.60000000000001
 30
0.0
 40
0.5
  1
RE-LUBE
100
AcDbAttributeDefinition
  3

  2
LF
 70
     8
280
     0
  0
ATTDEF
  5
7E
330
6E
100
AcDbEntity
  8
AM_6
100
AcDbText
 10
52.245
 20
96.10000000000001
 30
0.0
 40
0.5
  1
65.0
100
AcDbAttributeDefinition
  3

  2
A
 70
     8
280
     0
  0
ATTDEF
  5
7F
330
6E
100
AcDbEntity
  8
AM_6
100
AcDbText
 10
52.245
 20
95.60000000000001
 30
0.0
 40
0.5
  1
355.6
100
AcDbAttributeDefinition
  3

  2
B
 70
     8
280
     0
  0
ATTDEF
  5
80
330
6E
100
AcDbEntity
  8
AM_6
100
AcDbText
 10
52.245
 20
95.10000000000001
 30
0.0
 40
0.5
  1
85.9
100
AcDbAttributeDefinition
  3

  2
C
 70
     8
280
     0
  0
ATTDEF
  5
81
330
6E
100
AcDbEntity
  8
AM_6
100
AcDbText
 10
52.245
 20
94.60000000000001
 30
0.0
 40
0.5
  1
262.1
100
AcDbAttributeDefinition
  3

  2
DMIN
 70
     8
280
     0
  0
ATTDEF
  5
82
330
6E
100
AcDbEntity
  8
AM_6
100
AcDbText
 10
52.245
 20
94.10000000000001
 30
0.0
 40
0.5
  1
295.1
100
AcDbAttributeDefinition
  3

  2
DMAX
 70
     8
280
     0
  0
ATTDEF
  5
83
330
6E
100
AcDbEntity
  8
AM_6
100
AcDbText
 10
52.245
 20
93.60000000000001
 30
0.0
 40
0.5
  1
M22
100
AcDbAttributeDefinition
  3

  2
F
 70
     8
280
     0
  0
ATTDEF
  5
84
330
6E
100
AcDbEntity
  8
AM_6
100
AcDbText
 10
52.245
 20
93.10000000000001
 30
0.0
 40
0.5
  1
40.4
100
AcDbAttributeDefinition
  3

  2
G
 70
     8
280
     0
  0
ATTDEF
  5
85
330
6E
100
AcDbEntity
  8
AM_6
100
AcDbText
 10
52.245
 20
92.60000000000001
 30
0.0
 40
0.5
  1
33.3
100
AcDbAttributeDefinition
  3

  2
H
 70
     8
280
     0
  0
ATTDEF
  5
86
330
6E
100
AcDbEntity
  8
AM_6
100
AcDbText
 10
52.245
 20
92.10000000000001
 30
0.0
 40
0.5
  1
203.2
100
AcDbAttributeDefinition
  3

  2
J
 70
     8
280
     0
  0
ATTDEF
  5
87
330
6E
100
AcDbEntity
  8
AM_6
100
AcDbText
 10
52.245
 20
91.60000000000001
 30
0.0
 40
0.5
  1
110.5
100
AcDbAttributeDefinition
  3

  2
L
 70
     8
280
     0
  0
ATTDEF
  5
88
330
6E
100
AcDbEntity
  8
AM_6
100
AcDbText
 10
52.245
 20
91.10000000000001
 30
0.0
 40
0.5
  1
101.6
100
AcDbAttributeDefinition
  3

  2
M
 70
     8
280
     0
  0
ATTDEF
  5
89
330
6E
100
AcDbEntity
  8
AM_6
100
AcDbText
 10
52.245
 20
90.60000000000001
 30
0.0
 40
0.5
  1
24.4
100
AcDbAttributeDefinition
  3

  2
R
 70
     8
280
     0
  0
ATTDEF
  5
8A
330
6E
100
AcDbEntity
  8
AM_6
100
AcDbText
 10
52.245
 20
90.10000000000001
 30
0.0
 40
0.5
  1
40.6
100
AcDbAttributeDefinition
  3

  2
S
 70
     8
280
     0
  0
ATTDEF
  5
8B
330
6E
100
AcDbEntity
  8
AM_6
100
AcDbText
 10
52.245
 20
89.60000000000001
 30
0.0
 40
0.5
  1
167.6
100
AcDbAttributeDefinition
  3

  2
U
 70
     8
280
     0
  0
ATTDEF
  5
8C
330
6E
100
AcDbEntity
  8
AM_6
100
AcDbText
 10
52.245
 20
89.10000000000001
 30
0.0
 40
0.5
  1
335.3
100
AcDbAttributeDefinition
  3

  2
V
 70
     8
280
     0
  0
ATTDEF
  5
8D
330
6E
100
AcDbEntity
  8
AM_6
100
AcDbText
 10
52.245
 20
88.60000000000001
 30
0.0
 40
0.5
  1
30.2
100
AcDbAttributeDefinition
  3

  2
W
 70
     8
280
     0
  0
ATTDEF
  5
8E
330
6E
100
AcDbEntity
  8
AM_6
100
AcDbText
 10
52.245
 20
88.10000000000001
 30
0.0
 40
0.5
  1
3.0
100
AcDbAttributeDefinition
  3

  2
X
 70
     8
280
     0
  0
ATTDEF
  5
8F
330
6E
100
AcDbEntity
  8
AM_6
100
AcDbText
 10
52.245
 20
87.60000000000001
 30
0.0
 40
0.5
  1
baldor
100
AcDbAttributeDefinition
  3

  2
COMPANY
 70
     8
280
     0
  0
INSERT
  5
91
330
6E
100
AcDbEntity
  8
0
100
AcDbBlockReference
  2
2_405015E_Metric_0_in_052794_2
 10
0.0
 20
0.0
 30
0.0
  0
INSERT
  5
E8
330
6E
100
AcDbEntity
  8
0
100
AcDbBlockReference
  2
3_INS_SC_90M_0_in_052794_2
 10
0.0
 20
0.0
 30
0.0
  0
INSERT
  5
147
330
6E
100
AcDbEntity
  8
0
100
AcDbBlockReference
  2
4_052794H_0_in_052794_2
 10
0.0
 20
0.0
 30
0.0
  0
ENDBLK
  5
71
330
6E
100
AcDbEntity
  8
0
100
AcDbBlockEnd
  0
BLOCK
  5
92
330
90
100
AcDbEntity
  8
0
100
AcDbBlockBegin
  2
2_405015E_Metric_0_in_052794_2
 70
     2
 10
0.0
 20
0.0
 30
0.0
  3
2_405015E_Metric_0_in_052794_2
  1

  0
ATTDEF
  5
94
330
90
100
AcDbEntity
  8
AM_6
100
AcDbText
 10
10.00000000000002
 20
80.25092572149188
 30
0.0
 40
0.5
  1
405015E -Metric
100
AcDbAttributeDefinition
  3

  2
NN
 70
     8
280
     0
  0
ATTDEF
  5
95
330
90
100
AcDbEntity
  8
AM_6
100
AcDbText
 10
10.00000000000002
 20
79.75092572149188
 30
0.0
 40
0.5
  1
Grease Fitting
100
AcDbAttributeDefinition
  3

  2
NT
 70
     8
280
     0
  0
ATTDEF
  5
96
330
90
100
AcDbEntity
  8
AM_6
100
AcDbText
 10
10.00000000000002
 20
79.25092572149188
 30
0.0
 40
0.5
  1
405015E-Metric
100
AcDbAttributeDefinition
  3

  2
NB
 70
     8
280
     0
  0
ATTDEF
  5
97
330
90
100
AcDbEntity
  8
AM_6
100
AcDbText
 10
10.00000000000002
 20
78.75092572149188
 30
0.0
 40
0.5
  1
$MN.-Metric
100
AcDbAttributeDefinition
  3

  2
NBSYN
 70
     8
280
     0
  0
ATTDEF
  5
98
330
90
100
AcDbEntity
  8
AM_6
100
AcDbText
 10
10.00000000000002
 20
78.25092572149188
 30
0.0
 40
0.5
  1
405015E
100
AcDbAttributeDefinition
  3

  2
LINA
 70
     8
280
     0
  0
ATTDEF
  5
99
330
90
100
AcDbEntity
  8
AM_6
100
AcDbText
 10
10.00000000000002
 20
77.75092572149188
 30
0.0
 40
0.5
  1
405015E
100
AcDbAttributeDefinition
  3

  2
MN
 70
     8
280
     0
  0
ATTDEF
  5
9A
330
90
100
AcDbEntity
  8
AM_6
100
AcDbText
 10
10.00000000000002
 20
77.25092572149188
 30
0.0
 40
0.5
  1
1/8 x 27PTF
100
AcDbAttributeDefinition
  3

  2
T
 70
     8
280
     0
  0
ATTDEF
  5
9B
330
90
100
AcDbEntity
  8
AM_6
100
AcDbText
 10
10.00000000000002
 20
76.75092572149188
 30
0.0
 40
0.5
  1
baldor
100
AcDbAttributeDefinition
  3

  2
COMPANY
 70
     8
280
     0
  0
ELLIPSE
  5
9E
330
90
100
AcDbEntity
  8
AM_9
100
AcDbEllipse
 10
0.0000000000000044
 20
71.84204896855317
 30
0.0
 11
5.000000000000051
 21
0.0
 31
0.0
210
0.0
220
0.0
230
1.0
 40
0.7071067811865489
 41
1.047197551196603
 42
2.09439510239319
  0
LWPOLYLINE
  5
9F
330
90
100
AcDbEntity
  8
AM_9
100
AcDbPolyline
 90
        3
 70
     0
 43
0.0
 10
0.0000000000000042
 20
76.0710864156961
 10
1.244379663409137
 20
75.45554061926497
 10
2.500000000000004
 20
74.90391114703219
  0
LWPOLYLINE
  5
A0
330
90
100
AcDbEntity
  8
AM_9
100
AcDbPolyline
 90
        3
 70
     0
 43
0.0
 10
-2.499999999999995
 20
74.90391114703219
 10
-1.249999999999996
 20
75.45290438515339
 10
0.0000000000000042
 20
76.0710864156961
  0
ELLIPSE
  5
A1
330
90
100
AcDbEntity
  8
AM_9
100
AcDbEllipse
 10
0.0000000000000041
 20
67.08251322438656
 30
0.0
 11
-4.15799375318352
 21
5.092073740710888E-16
 31
0.0
210
0.0
220
0.0
230
1.0
 40
0.7071067811865492
 41
0.0
 42
6.283185307179586
  0
LWPOLYLINE
  5
A2
330
90
100
AcDbEntity
  8
AM_9
100
AcDbPolyline
 90
        3
 70
     0
 43
0.0
 10
2.500000000000004
 20
77.02523149059184
 10
1.250000000000004
 20
77.49685897863029
 10
0.0000000000000043
 20
77.89929767424724
  0
LWPOLYLINE
  5
A3
330
90
100
AcDbEntity
  8
AM_9
100
AcDbPolyline
 90
        3
 70
     0
 43
0.0
 10
0.0000000000000043
 20
77.89929767424724
 10
-1.244379663409128
 20
77.49881173012882
 10
-2.499999999999993
 20
77.02523149059184
  0
LWPOLYLINE
  5
A4
330
90
100
AcDbEntity
  8
AM_9
100
AcDbPolyline
 90
        3
 70
     0
 43
0.0
 10
-4.999999999999996
 20
74.02984496337677
 10
-3.755620336590862
 20
74.4303309074952
 10
-2.499999999999995
 20
74.90391114703219
  0
LINE
  5
A5
330
90
100
AcDbEntity
  8
AM_9
100
AcDbLine
 10
0.0000000000000043
 20
77.89929767424724
 30
0.0
 11
0.0000000000000042
 21
76.0710864156961
 31
0.0
  0
LWPOLYLINE
  5
A6
330
90
100
AcDbEntity
  8
AM_9
100
AcDbPolyline
 90
        3
 70
     0
 43
0.0
 10
2.500000000000004
 20
74.90391114703219
 10
3.750000000000004
 20
74.43228365899373
 10
5.000000000000004
 20
74.02984496337677
  0
ELLIPSE
  5
A7
330
90
100
AcDbEntity
  8
AM_9
100
AcDbEllipse
 10
0.000000000000032
 20
71.8420489685532
 30
0.0
 11
5.000000000000043
 21
0.0
 31
0.0
210
0.0
220
0.0
230
1.0
 40
0.7071067811865472
 41
2.094395102393198
 42
4.188790204786386
  0
ELLIPSE
  5
A8
330
90
100
AcDbEntity
  8
AM_9
100
AcDbEllipse
 10
-0.0000000000000244
 20
71.8420489685532
 30
0.0
 11
5.000000000000043
 21
0.0
 31
0.0
210
0.0
220
0.0
230
1.0
 40
0.7071067811865472
 41
0.0
 42
1.047197551196595
  0
LINE
  5
A9
330
90
100
AcDbEntity
  8
AM_9
100
AcDbLine
 10
-2.499999999999993
 20
77.02523149059184
 30
0.0
 11
-3.092045369235191
 21
76.7747160314681
 31
0.0
  0
LINE
  5
AA
330
90
100
AcDbEntity
  8
AM_9
100
AcDbLine
 10
3.096532621838181
 20
76.77275063336228
 30
0.0
 11
2.500000000000004
 21
77.02523149059184
 31
0.0
  0
ELLIPSE
  5
AB
330
90
100
AcDbEntity
  8
AM_9
100
AcDbEllipse
 10
0.0000000000000266
 20
71.84204896855317
 30
0.0
 11
4.999999999999973
 21
0.0
 31
0.0
210
0.0
220
0.0
230
1.0
 40
0.7071067811865428
 41
4.188790204786386
 42
6.283185307179586
  0
ELLIPSE
  5
AC
330
90
100
AcDbEntity
  8
AM_9
100
AcDbEllipse
 10
-0.0000000000000009
 20
67.50680253916401
 30
0.0
 11
4.75802945651179
 21
0.0
 31
0.0
210
0.0
220
0.0
230
1.0
 40
0.707106781186551
 41
4.71238898038469
 42
9.456034611736142
  0
LINE
  5
AD
330
90
100
AcDbEntity
  8
AM_9
100
AcDbLine
 10
4.755705400136184
 20
67.4016586944814
 30
0.0
 11
4.947210343076195
 21
71.73258788031136
 31
0.0
  0
LINE
  5
AE
330
90
100
AcDbEntity
  8
AM_9
100
AcDbLine
 10
-4.947210343076187
 20
71.73258788031136
 30
0.0
 11
-4.755705400136176
 21
67.4016586944814
 31
0.0
  0
ELLIPSE
  5
AF
330
90
100
AcDbEntity
  8
AM_9
100
AcDbEllipse
 10
0.0000000000000084
 20
67.50680253916403
 30
0.0
 11
4.758029456511803
 21
0.0
 31
0.0
210
0.0
220
0.0
230
1.0
 40
0.707106781186549
 41
3.172849304556559
 42
4.71238898038469
  0
ELLIPSE
  5
B0
330
90
100
AcDbEntity
  8
AM_9
100
AcDbEllipse
 10
-0.0000000000018816
 20
73.96336931211353
 30
0.0
 11
4.999999999996684
 21
0.0
 31
0.0
210
0.0
220
0.0
230
1.0
 40
0.7071067811867636
 41
1.047197551196044
 42
2.243387514962481
  0
ELLIPSE
  5
B1
330
90
100
AcDbEntity
  8
AM_9
100
AcDbEllipse
 10
0.0000000000018372
 20
73.96336931211347
 30
0.0
 11
4.999999999996772
 21
0.0
 31
0.0
210
0.0
220
0.0
230
1.0
 40
0.7071067811867653
 41
0.8982051386273122
 42
1.047197551196695
  0
LINE
  5
B2
330
90
100
AcDbEntity
  8
AM_9
100
AcDbLine
 10
-1.989928832732509
 20
76.7430583425228
 30
0.0
 11
-2.406586417453942
 21
76.47923887063592
 31
0.0
  0
LINE
  5
B3
330
90
100
AcDbEntity
  8
AM_9
100
AcDbLine
 10
2.406586417453951
 20
76.47923887063592
 30
0.0
 11
1.989928832732519
 21
76.7430583425228
 31
0.0
  0
ELLIPSE
  5
B4
330
90
100
AcDbEntity
  8
AM_9
100
AcDbEllipse
 10
0.0000000000000047
 20
75.17168278164422
 30
0.0
 11
2.982994982562508
 21
0.0
 31
0.0
210
0.0
220
0.0
230
1.0
 40
0.7071067811865474
 41
0.840499345540624
 42
2.75465041540141
  0
ELLIPSE
  5
B5
330
90
100
AcDbEntity
  8
AM_9
100
AcDbEllipse
 10
-0.0000000000005405
 20
74.57884373120987
 30
0.0
 11
3.607583894600308
 21
0.0
 31
0.0
210
0.0
220
0.0
230
1.0
 40
0.7071067811865481
 41
0.8033056257477806
 42
2.478209338400909
  0
LINE
  5
B6
330
90
100
AcDbEntity
  8
AM_9
100
AcDbLine
 10
-2.477229919855577
 20
76.46259153448588
 30
0.0
 11
-2.748977116714929
 21
75.9910298836209
 31
0.0
  0
LINE
  5
B7
330
90
100
AcDbEntity
  8
AM_9
100
AcDbLine
 10
2.748977116714939
 20
75.99102988362088
 30
0.0
 11
2.477229919855586
 21
76.46259153448588
 31
0.0
  0
ELLIPSE
  5
B8
330
90
100
AcDbEntity
  8
AM_9
100
AcDbEllipse
 10
0.0000000000000051
 20
75.74881393460889
 30
0.0
 11
2.674999999999994
 21
0.0
 31
0.0
210
0.0
220
0.0
230
1.0
 40
0.7071067811865581
 41
0.3869422381883831
 42
3.141592653589793
  0
ELLIPSE
  5
B9
330
90
100
AcDbEntity
  8
AM_9
100
AcDbEllipse
 10
-0.0000000000000506
 20
75.17168278164405
 30
0.0
 11
2.982994982562573
 21
0.0
 31
0.0
210
0.0
220
0.0
230
1.0
 40
0.7071067811865798
 41
0.3869422381884364
 42
0.840499345540642
  0
ELLIPSE
  5
BA
330
90
100
AcDbEntity
  8
AM_9
100
AcDbEllipse
 10
0.0000000000005289
 20
74.57884373120986
 30
0.0
 11
3.607583894600337
 21
0.0
 31
0.0
210
0.0
220
0.0
230
1.0
 40
0.7071067811865465
 41
0.663383315188887
 42
0.8033056257479998
  0
ELLIPSE
  5
BB
330
90
100
AcDbEntity
  8
AM_9
100
AcDbEllipse
 10
0.0000000000000033
 20
73.96336931211277
 30
0.0
 11
4.750000000000059
 21
0.0
 31
0.0
210
0.0
220
0.0
230
1.0
 40
0.7071067811865535
 41
0.873648289948652
 42
2.267944363641137
  0
LINE
  5
BC
330
90
100
AcDbEntity
  8
AM_9
100
AcDbLine
 10
2.675000000000004
 20
75.86548655350467
 30
0.0
 11
2.675000000000005
 21
76.24378868143947
 31
0.0
  0
LINE
  5
BD
330
90
100
AcDbEntity
  8
AM_9
100
AcDbLine
 10
-2.674999999999995
 20
76.24378868143947
 30
0.0
 11
-2.674999999999995
 21
75.86548655350467
 31
0.0
  0
ELLIPSE
  5
BE
330
90
100
AcDbEntity
  8
AM_9
100
AcDbEllipse
 10
0.0000000000000047
 20
76.24378868143948
 30
0.0
 11
2.674999999999994
 21
0.0
 31
0.0
210
0.0
220
0.0
230
1.0
 40
0.7071067811865475
 41
0.0
 42
3.536383773289564
  0
ELLIPSE
  5
BF
330
90
100
AcDbEntity
  8
AM_9
100
AcDbEllipse
 10
-0.0000000000000577
 20
75.7488139346087
 30
0.0
 11
2.67500000000006
 21
0.0
 31
0.0
210
0.0
220
0.0
230
1.0
 40
0.707106781186567
 41
0.0
 42
0.3869422381884594
  0
ELLIPSE
  5
C0
330
90
100
AcDbEntity
  8
AM_9
100
AcDbEllipse
 10
0.0000000000001146
 20
76.24378868143927
 30
0.0
 11
2.674999999999888
 21
0.0
 31
0.0
210
0.0
220
0.0
230
1.0
 40
0.7071067811865435
 41
5.888394187479904
 42
6.283185307179586
  0
ELLIPSE
  5
C1
330
90
100
AcDbEntity
  8
AM_9
100
AcDbEllipse
 10
0.0000000000000047
 20
77.16302749698198
 30
0.0
 11
3.174999999999987
 21
0.0
 31
0.0
210
0.0
220
0.0
230
1.0
 40
0.7071067811865498
 41
0.4159140521025453
 42
2.725678601487248
  0
ELLIPSE
  5
C2
330
90
100
AcDbEntity
  8
AM_9
100
AcDbEllipse
 10
0.0000000000000044
 20
71.84204896855323
 30
0.0
 11
4.949631665534984
 21
0.0
 31
0.0
210
0.0
220
0.0
230
1.0
 40
0.7071067811865489
 41
0.0
 42
6.283185307179586
  0
LWPOLYLINE
  5
C4
330
90
100
AcDbEntity
  8
AM_4
100
AcDbPolyline
 90
        3
 70
     0
 43
0.0
 10
-3.092045369235191
 20
76.7747160314681
 10
-3.749999999999995
 20
76.47623825247064
 10
-4.999999999999996
 20
75.85805622192791
  0
LWPOLYLINE
  5
C5
330
90
100
AcDbEntity
  8
AM_4
100
AcDbPolyline
 90
        3
 70
     0
 43
0.0
 10
5.000000000000004
 20
75.85805622192791
 10
3.755620336590872
 20
76.47360201835905
 10
3.096532621838181
 20
76.77275063336228
  0
ELLIPSE
  5
C6
330
90
100
AcDbEntity
  8
AM_4
100
AcDbEllipse
 10
0.0000000000000009
 20
73.96336931211282
 30
0.0
 11
5.000000000000011
 21
0.0
 31
0.0
210
0.0
220
0.0
230
1.0
 40
0.7071067811865489
 41
2.243387514962501
 42
3.141592653589793
  0
ELLIPSE
  5
C7
330
90
100
AcDbEntity
  8
AM_4
100
AcDbEllipse
 10
0.0000000000000657
 20
73.96336931211289
 30
0.0
 11
5.000000000000075
 21
0.0
 31
0.0
210
0.0
220
0.0
230
1.0
 40
0.7071067811865483
 41
3.141592653589793
 42
4.188790204786386
  0
ELLIPSE
  5
C8
330
90
100
AcDbEntity
  8
AM_4
100
AcDbEllipse
 10
0.0
 20
73.96336931211282
 30
0.0
 11
4.99999999999999
 21
7.450580596923815E-8
 31
0.0
210
0.0
220
0.0
230
1.0
 40
0.7071067811865431
 41
4.188790191615499
 42
7.181390431180367
  0
ELLIPSE
  5
C9
330
90
100
AcDbEntity
  8
AM_4
100
AcDbEllipse
 10
0.0000000000000024
 20
74.57884373120943
 30
0.0
 11
3.607583894601101
 21
5.375718913377974E-8
 31
0.0
210
0.0
220
0.0
230
1.0
 40
0.7071067811865464
 41
2.478209321322884
 42
6.946568605290532
  0
ELLIPSE
  5
CA
330
90
100
AcDbEntity
  8
AM_4
100
AcDbEllipse
 10
0.0000000000000071
 20
75.17168278164421
 30
0.0
 11
2.9829949825625
 21
0.0
 31
0.0
210
0.0
220
0.0
230
1.0
 40
0.7071067811865445
 41
4.71238898038469
 42
6.670127545367979
  0
LINE
  5
CB
330
90
100
AcDbEntity
  8
AM_4
100
AcDbLine
 10
-2.748977116714929
 20
75.9910298836209
 30
0.0
 11
-2.762453989376792
 21
75.96764352897078
 31
0.0
  0
LINE
  5
CC
330
90
100
AcDbEntity
  8
AM_4
100
AcDbLine
 10
2.762453989376801
 20
75.96764352897078
 30
0.0
 11
2.748977116714939
 21
75.99102988362088
 31
0.0
  0
ELLIPSE
  5
CD
330
90
100
AcDbEntity
  8
AM_4
100
AcDbEllipse
 10
0.0000000000000029
 20
75.1716827816442
 30
0.0
 11
2.982994982562501
 21
4.445008907560261E-8
 31
0.0
210
0.0
220
0.0
230
1.0
 40
0.7071067811865442
 41
2.75465039582839
 42
4.712388969847978
  0
ELLIPSE
  5
CE
330
90
100
AcDbEntity
  8
AM_4
100
AcDbEllipse
 10
-0.0000000000000115
 20
73.96336931211287
 30
0.0
 11
4.74999999999998
 21
0.0
 31
0.0
210
0.0
220
0.0
230
1.0
 40
0.7071067811865471
 41
2.26794436364115
 42
4.71238898038469
  0
ELLIPSE
  5
CF
330
90
100
AcDbEntity
  8
AM_4
100
AcDbEllipse
 10
0.0000000000000222
 20
73.96336931211285
 30
0.0
 11
4.749999999999978
 21
7.078051567077605E-8
 31
0.0
210
0.0
220
0.0
230
1.0
 40
0.7071067811865475
 41
4.712388969847974
 42
7.156833582248212
  0
LINE
  5
D0
330
90
100
AcDbEntity
  8
AM_4
100
AcDbLine
 10
5.000000000000004
 20
75.85805622192791
 30
0.0
 11
5.000000000000004
 21
69.94736205873815
 31
0.0
  0
LWPOLYLINE
  5
D1
330
90
100
AcDbEntity
  8
AM_4
100
AcDbPolyline
 90
        3
 70
     0
 43
0.0
 10
2.500000000000004
 20
70.90150713363388
 10
3.750000000000004
 20
71.37313462167236
 10
5.000000000000004
 20
71.77557331728929
  0
LWPOLYLINE
  5
D2
330
90
100
AcDbEntity
  8
AM_4
100
AcDbPolyline
 90
        3
 70
     0
 43
0.0
 10
0.0000000000000049
 20
69.73433186496997
 10
1.244379663409139
 20
70.34987766140111
 10
2.500000000000004
 20
70.90150713363388
  0
LWPOLYLINE
  5
D3
330
90
100
AcDbEntity
  8
AM_4
100
AcDbPolyline
 90
        3
 70
     0
 43
0.0
 10
2.500000000000004
 20
68.78018679007424
 10
1.250000000000004
 20
68.30855930203577
 10
0.0000000000000047
 20
67.90612060641885
  0
LWPOLYLINE
  5
D4
330
90
100
AcDbEntity
  8
AM_4
100
AcDbPolyline
 90
        3
 70
     0
 43
0.0
 10
5.000000000000004
 20
69.94736205873815
 10
3.755620336590871
 20
69.33181626230702
 10
2.500000000000004
 20
68.78018679007424
  0
LINE
  5
D5
330
90
100
AcDbEntity
  8
AM_4
100
AcDbLine
 10
0.0000000000000049
 20
69.73433186496997
 30
0.0
 11
0.0000000000000047
 21
67.90612060641885
 31
0.0
  0
LWPOLYLINE
  5
D6
330
90
100
AcDbEntity
  8
AM_4
100
AcDbPolyline
 90
        3
 70
     0
 43
0.0
 10
-2.499999999999993
 20
70.90150713363388
 10
-1.249999999999994
 20
70.3525138955127
 10
0.0000000000000049
 20
69.73433186496997
  0
LWPOLYLINE
  5
D7
330
90
100
AcDbEntity
  8
AM_4
100
AcDbPolyline
 90
        3
 70
     0
 43
0.0
 10
-4.999999999999996
 20
71.77557331728929
 10
-3.755620336590861
 20
71.37508737317087
 10
-2.499999999999993
 20
70.90150713363388
  0
LINE
  5
D8
330
90
100
AcDbEntity
  8
AM_4
100
AcDbLine
 10
-4.999999999999996
 20
75.85805622192791
 30
0.0
 11
-4.999999999999996
 21
69.94736205873815
 31
0.0
  0
LWPOLYLINE
  5
D9
330
90
100
AcDbEntity
  8
AM_4
100
AcDbPolyline
 90
        3
 70
     0
 43
0.0
 10
-2.499999999999995
 20
68.78018679007424
 10
-3.749999999999995
 20
69.32918002819544
 10
-4.999999999999996
 20
69.94736205873815
  0
LWPOLYLINE
  5
DA
330
90
100
AcDbEntity
  8
AM_4
100
AcDbPolyline
 90
        3
 70
     0
 43
0.0
 10
0.0000000000000047
 20
67.90612060641885
 10
-1.244379663409128
 20
68.30660655053725
 10
-2.499999999999995
 20
68.78018679007424
  0
ELLIPSE
  5
DB
330
90
100
AcDbEntity
  8
AM_4
100
AcDbEllipse
 10
0.0000000000000071
 20
75.74881393460886
 30
0.0
 11
2.674999999999989
 21
3.986060619354233E-8
 31
0.0
210
0.0
220
0.0
230
1.0
 40
0.7071067811865432
 41
3.141592638688632
 42
6.283187037607677
  0
LINE
  5
DC
330
90
100
AcDbEntity
  8
AM_4
100
AcDbLine
 10
2.675000000000005
 20
75.74881393460889
 30
0.0
 11
2.675000000000004
 21
75.86548655350467
 31
0.0
  0
LINE
  5
DD
330
90
100
AcDbEntity
  8
AM_4
100
AcDbLine
 10
-2.674999999999995
 20
75.86548655350467
 30
0.0
 11
-2.674999999999995
 21
75.74881393460889
 31
0.0
  0
ELLIPSE
  5
DE
330
90
100
AcDbEntity
  8
AM_4
100
AcDbEllipse
 10
0.0000000000000233
 20
76.24378868143947
 30
0.0
 11
2.674999999999979
 21
0.0
 31
0.0
210
0.0
220
0.0
230
1.0
 40
0.7071067811865512
 41
4.71238898038469
 42
5.888394187479824
  0
LINE
  5
DF
330
90
100
AcDbEntity
  8
AM_4
100
AcDbLine
 10
2.469230769230774
 20
75.51628458925715
 30
0.0
 11
2.930769230769235
 21
76.29954133149457
 31
0.0
  0
LINE
  5
E0
330
90
100
AcDbEntity
  8
AM_4
100
AcDbLine
 10
-2.930769230769226
 20
76.29954133149457
 30
0.0
 11
-2.469230769230764
 21
75.51628458925715
 31
0.0
  0
ELLIPSE
  5
E1
330
90
100
AcDbEntity
  8
AM_4
100
AcDbEllipse
 10
-0.0000000000000018
 20
77.1630274969819
 30
0.0
 11
3.175000000000006
 21
4.731118679046641E-8
 31
0.0
210
0.0
220
0.0
230
1.0
 40
0.7071067811865499
 41
4.712388969847978
 42
6.699099339928723
  0
ELLIPSE
  5
E2
330
90
100
AcDbEntity
  8
AM_4
100
AcDbEllipse
 10
-0.0000000000000279
 20
77.1630274969819
 30
0.0
 11
3.174999999999928
 21
4.731118679046525E-8
 31
0.0
210
0.0
220
0.0
230
1.0
 40
0.7071067811865359
 41
2.725678582133765
 42
4.712388969847987
  0
ELLIPSE
  5
E3
330
90
100
AcDbEntity
  8
AM_4
100
AcDbEllipse
 10
-0.000000000000014
 20
76.24378868143948
 30
0.0
 11
2.674999999999979
 21
0.0
 31
0.0
210
0.0
220
0.0
230
1.0
 40
0.7071067811865512
 41
3.536383773289563
 42
4.71238898038469
  0
LINE
  5
E4
330
90
100
AcDbEntity
  8
AM_4
100
AcDbLine
 10
-2.165159119691904
 20
79.2534535566364
 30
0.0
 11
-2.904323000259523
 21
78.07009224388914
 31
0.0
  0
LINE
  5
E5
330
90
100
AcDbEntity
  8
AM_4
100
AcDbLine
 10
2.904323000259532
 20
78.07009224388914
 30
0.0
 11
2.165159119691913
 21
79.2534535566364
 31
0.0
  0
ELLIPSE
  5
E6
330
90
100
AcDbEntity
  8
AM_4
100
AcDbEllipse
 10
0.0000000000000042
 20
78.5772410593551
 30
0.0
 11
2.366947548329664
 21
0.0
 31
0.0
210
0.0
220
0.0
230
1.0
 40
0.7071067811865476
 41
0.0
 42
6.283185307179586
  0
ENDBLK
  5
93
330
90
100
AcDbEntity
  8
0
100
AcDbBlockEnd
  0
BLOCK
  5
E9
330
E7
100
AcDbEntity
  8
0
100
AcDbBlockBegin
  2
3_INS_SC_90M_0_in_052794_2
 70
     2
 10
0.0
 20
0.0
 30
0.0
  3
3_INS_SC_90M_0_in_052794_2
  1

  0
ATTDEF
  5
EB
330
E7
100
AcDbEntity
  8
AM_6
100
AcDbText
 10
29.40000000000001
 20
79.9871727212579
 30
0.0
 40
0.5
  1
Set Screw Insert Metric Bore - Stainless Steel
100
AcDbAttributeDefinition
  3

  2
NN
 70
     8
280
     0
  0
ATTDEF
  5
EC
330
E7
100
AcDbEntity
  8
AM_6
100
AcDbText
 10
29.40000000000001
 20
79.4871727212579
 30
0.0
 40
0.5
  1
SC Bearing Insert -Metric
100
AcDbAttributeDefinition
  3

  2
NT
 70
     8
280
     0
  0
ATTDEF
  5
ED
330
E7
100
AcDbEntity
  8
AM_6
100
AcDbText
 10
29.40000000000001
 20
78.9871727212579
 30
0.0
 40
0.5
  1
INS-SC-90M
100
AcDbAttributeDefinition
  3

  2
NB
 70
     8
280
     0
  0
ATTDEF
  5
EE
330
E7
100
AcDbEntity
  8
AM_6
100
AcDbText
 10
29.40000000000001
 20
78.4871727212579
 30
0.0
 40
0.5
  1
$PN.
100
AcDbAttributeDefinition
  3

  2
NBSYN
 70
     8
280
     0
  0
ATTDEF
  5
EF
330
E7
100
AcDbEntity
  8
AM_6
100
AcDbText
 10
29.40000000000001
 20
77.9871727212579
 30
0.0
 40
0.5
  1
INS-SC-90M
100
AcDbAttributeDefinition
  3

  2
LINA
 70
     8
280
     0
  0
ATTDEF
  5
F0
330
E7
100
AcDbEntity
  8
AM_6
100
AcDbText
 10
29.40000000000001
 20
77.4871727212579
 30
0.0
 40
0.5
  1
218
100
AcDbAttributeDefinition
  3

  2
SERIES
 70
     8
280
     0
  0
ATTDEF
  5
F1
330
E7
100
AcDbEntity
  8
AM_6
100
AcDbText
 10
29.40000000000001
 20
76.9871727212579
 30
0.0
 40
0.5
  1
90
100
AcDbAttributeDefinition
  3

  2
SS
 70
     8
280
     0
  0
ATTDEF
  5
F2
330
E7
100
AcDbEntity
  8
AM_6
100
AcDbText
 10
29.40000000000001
 20
76.4871727212579
 30
0.0
 40
0.5
  1
INS-SC-90M
100
AcDbAttributeDefinition
  3

  2
PN
 70
     8
280
     0
  0
ATTDEF
  5
F3
330
E7
100
AcDbEntity
  8
AM_6
100
AcDbText
 10
29.40000000000001
 20
75.9871727212579
 30
0.0
 40
0.5
  1
INS-SC-90M
100
AcDbAttributeDefinition
  3

  2
DESCRIPTION
 70
     8
280
     0
  0
ATTDEF
  5
F4
330
E7
100
AcDbEntity
  8
AM_6
100
AcDbText
 10
29.40000000000001
 20
75.4871727212579
 30
0.0
 40
0.5
  1
3.30
100
AcDbAttributeDefinition
  3

  2
WEIGHT
 70
     8
280
     0
  0
ATTDEF
  5
F5
330
E7
100
AcDbEntity
  8
AM_6
100
AcDbText
 10
29.40000000000001
 20
74.9871727212579
 30
0.0
 40
0.5
  1
65.0
100
AcDbAttributeDefinition
  3

  2
A
 70
     8
280
     0
  0
ATTDEF
  5
F6
330
E7
100
AcDbEntity
  8
AM_6
100
AcDbText
 10
29.40000000000001
 20
74.4871727212579
 30
0.0
 40
0.5
  1
34.0
100
AcDbAttributeDefinition
  3

  2
C
 70
     8
280
     0
  0
ATTDEF
  5
F7
330
E7
100
AcDbEntity
  8
AM_6
100
AcDbText
 10
29.40000000000001
 20
73.9871727212579
 30
0.0
 40
0.5
  1
160
100
AcDbAttributeDefinition
  3

  2
D
 70
     8
280
     0
  0
ATTDEF
  5
F8
330
E7
100
AcDbEntity
  8
AM_6
100
AcDbText
 10
29.40000000000001
 20
73.4871727212579
 30
0.0
 40
0.5
  1
7.6
100
AcDbAttributeDefinition
  3

  2
J
 70
     8
280
     0
  0
ATTDEF
  5
F9
330
E7
100
AcDbEntity
  8
AM_6
100
AcDbText
 10
29.40000000000001
 20
72.9871727212579
 30
0.0
 40
0.5
  1
110.5
100
AcDbAttributeDefinition
  3

  2
L
 70
     8
280
     0
  0
ATTDEF
  5
FA
330
E7
100
AcDbEntity
  8
AM_6
100
AcDbText
 10
29.40000000000001
 20
72.4871727212579
 30
0.0
 40
0.5
  1
M10x1.5
100
AcDbAttributeDefinition
  3

  2
N
 70
     8
280
     0
  0
ATTDEF
  5
FB
330
E7
100
AcDbEntity
  8
AM_6
100
AcDbText
 10
29.40000000000001
 20
71.9871727212579
 30
0.0
 40
0.5
  1
24.4
100
AcDbAttributeDefinition
  3

  2
W
 70
     8
280
     0
  0
ATTDEF
  5
FC
330
E7
100
AcDbEntity
  8
AM_6
100
AcDbText
 10
29.40000000000001
 20
71.4871727212579
 30
0.0
 40
0.5
  1
40.6
100
AcDbAttributeDefinition
  3

  2
Y
 70
     8
280
     0
  0
ATTDEF
  5
FD
330
E7
100
AcDbEntity
  8
AM_6
100
AcDbText
 10
29.40000000000001
 20
70.9871727212579
 30
0.0
 40
0.5
  1
baldor
100
AcDbAttributeDefinition
  3

  2
COMPANY
 70
     8
280
     0
  0
CIRCLE
  5
FE
330
E7
100
AcDbEntity
  8
AM_9
100
AcDbCircle
 10
7.599999999999995
 20
-0.0000000000000052
 30
0.0
 40
0.3090909090909012
  0
LINE
  5
FF
330
E7
100
AcDbEntity
  8
AM_9
100
AcDbLine
 10
-24.612
 20
44.99880076744427
 30
0.0
 11
-24.612
 21
55.02329052319568
 31
0.0
  0
LINE
  5
100
330
E7
100
AcDbEntity
  8
AM_9
100
AcDbLine
 10
-32.98800000000001
 20
55.02329052319568
 30
0.0
 11
-32.98800000000001
 21
45.0
 31
0.0
  0
LINE
  5
101
330
E7
100
AcDbEntity
  8
AM_9
100
AcDbLine
 10
-32.98800000000001
 20
55.02329052319568
 30
0.0
 11
-24.612
 21
55.02329052319568
 31
0.0
  0
LINE
  5
102
330
E7
100
AcDbEntity
  8
AM_9
100
AcDbLine
 10
-24.612
 20
55.02329052319568
 30
0.0
 11
-24.38529052319569
 21
55.25
 31
0.0
  0
LINE
  5
103
330
E7
100
AcDbEntity
  8
AM_9
100
AcDbLine
 10
-33.21470947680432
 20
55.25
 30
0.0
 11
-32.98800000000001
 21
55.02329052319568
 31
0.0
  0
LWPOLYLINE
  5
104
330
E7
100
AcDbEntity
  8
AM_9
100
AcDbPolyline
 90
       20
 70
     0
 43
0.0
 10
-32.98800000000001
 20
45.0
 10
-32.93052865625531
 20
44.99468771955359
 10
-32.75310459266957
 20
44.97874711372678
 10
-32.47074564468794
 20
44.95481097266449
 10
-32.07542751255506
 20
44.92425938610454
 10
-31.59877107242162
 20
44.89202351772332
 10
-31.02797105863202
 20
44.86005473735071
 10
-30.40955844819894
 20
44.83359604580217
 10
-29.72652985664565
 20
44.81427354733373
 10
-29.03856855583968
 20
44.80532971595942
 10
-28.32376379036819
 20
44.80722549910186
 10
-27.6445080907654
 20
44.81959189408474
 10
-26.97894161257983
 20
44.84168718559096
 10
-26.38172037679534
 20
44.86990898515403
 10
-25.83669701667282
 20
44.90258144662727
 10
-25.38765848159526
 20
44.93444926376898
 10
-25.02392278250814
 20
44.96353428226546
 10
-24.77606471995716
 20
44.98502763295777
 10
-24.63707904850745
 20
44.99767290481115
 10
-24.61200000000105
 20
44.9999999999999
  0
LINE
  5
105
330
E7
100
AcDbEntity
  8
AM_9
100
AcDbLine
 10
-38.39
 20
-45.0
 30
0.0
 11
-12.885
 21
-45.0
 31
0.0
  0
LINE
  5
106
330
E7
100
AcDbEntity
  8
AM_9
100
AcDbLine
 10
-12.88500000000001
 20
45.0
 30
0.0
 11
-24.62492352227009
 21
45.0
 31
0.0
  0
LINE
  5
107
330
E7
100
AcDbEntity
  8
AM_9
100
AcDbLine
 10
-32.988
 20
45.0
 30
0.0
 11
-38.39
 21
45.0
 31
0.0
  0
LINE
  5
108
330
E7
100
AcDbEntity
  8
AM_9
100
AcDbLine
 10
22.19
 20
-45.0
 30
0.0
 11
24.40000000000001
 21
-47.21000000000002
 31
0.0
  0
LINE
  5
109
330
E7
100
AcDbEntity
  8
AM_9
100
AcDbLine
 10
24.40000000000001
 20
47.21000000000002
 30
0.0
 11
22.19
 21
45.0
 31
0.0
  0
LINE
  5
10A
330
E7
100
AcDbEntity
  8
AM_9
100
AcDbLine
 10
-38.39
 20
45.0
 30
0.0
 11
-40.6
 21
47.21000000000002
 31
0.0
  0
LINE
  5
10B
330
E7
100
AcDbEntity
  8
AM_9
100
AcDbLine
 10
-40.6
 20
-47.21000000000002
 30
0.0
 11
-38.39
 21
-45.0
 31
0.0
  0
LWPOLYLINE
  5
10C
330
E7
100
AcDbEntity
  8
AM_9
100
AcDbPolyline
 90
        6
 70
     0
 43
0.0
 10
-32.24723832411574
 20
21.14663648750223
 10
-32.34618445534337
 20
21.01373880124525
 10
-32.66634343706966
 20
20.46442299742586
 10
-32.88421971047685
 20
19.85352879752514
 10
-32.9811981606949
 20
19.23379187087354
 10
-32.98799998200051
 20
19.01817368154751
  0
LWPOLYLINE
  5
10D
330
E7
100
AcDbEntity
  8
AM_9
100
AcDbPolyline
 90
        6
 70
     0
 43
0.0
 10
-28.8
 20
22.73089915141214
 10
-29.49142344162675
 20
22.68106812835555
 10
-30.18284688325351
 20
22.52703302764093
 10
-30.81615393882662
 20
22.28128025766786
 10
-31.40974413940871
 20
21.93594284049725
 10
-31.56806565128681
 20
21.8197233664647
  0
LINE
  5
10E
330
E7
100
AcDbEntity
  8
AM_9
100
AcDbLine
 10
-24.612
 20
19.01776801508629
 30
0.0
 11
-24.612
 21
23.25384739616646
 31
0.0
  0
LINE
  5
10F
330
E7
100
AcDbEntity
  8
AM_9
100
AcDbLine
 10
-32.988
 20
23.25384739616646
 30
0.0
 11
-32.988
 21
19.01728867065114
 31
0.0
  0
ELLIPSE
  5
110
330
E7
100
AcDbEntity
  8
AM_9
100
AcDbEllipse
 10
-28.8
 20
23.25384739616647
 30
0.0
 11
4.188000000000006
 21
0.0
 31
0.0
210
0.0
220
0.0
230
1.0
 40
0.90630778703665
 41
3.94035281490585
 42
7.853981633974483
  0
LWPOLYLINE
  5
111
330
E7
100
AcDbEntity
  8
AM_9
100
AcDbPolyline
 90
       20
 70
     0
 43
0.0
 10
-32.98799998200051
 20
19.01817368154751
 10
-32.96083765798868
 20
18.58516592576393
 10
-32.82544332002985
 20
17.96432438732591
 10
-32.57134216449306
 20
17.3517862743892
 10
-32.21923248025578
 20
16.79861265836385
 10
-31.75939512809041
 20
16.29085297700963
 10
-31.2279947341625
 20
15.87041824378858
 10
-30.6112248452884
 20
15.52845345904874
 10
-29.96070659890673
 20
15.29470556004472
 10
-29.25760771975393
 20
15.16337895571184
 10
-28.56397036162599
 20
15.14596064509562
 10
-27.85710817039648
 20
15.24130581738756
 10
-27.19761444365757
 20
15.44058511696594
 10
-26.56517084892587
 20
15.74879309811255
 10
-26.01086963801822
 20
16.14052542883414
 10
-25.52069113537206
 20
16.62509555853652
 10
-25.13445792763212
 20
17.16270745137237
 10
-24.8427534441922
 20
17.76647803208495
 10
-24.67042524412636
 20
18.38374739739749
 10
-24.61200000151485
 20
19.01792386894796
  0
LWPOLYLINE
  5
112
330
E7
100
AcDbEntity
  8
AM_9
100
AcDbPolyline
 90
        7
 70
     0
 43
0.0
 10
-25.33451013131424
 20
21.12305363212239
 10
-25.53311525762255
 20
21.36049238983637
 10
-26.01144048820404
 20
21.8037921260766
 10
-26.58367406150574
 20
22.17898412563775
 10
-27.20313243151383
 20
22.45617422310833
 10
-27.88687208861904
 20
22.64351274838805
 10
-28.8
 20
22.73089915141214
  0
LWPOLYLINE
  5
113
330
E7
100
AcDbEntity
  8
AM_9
100
AcDbPolyline
 90
        6
 70
     0
 43
0.0
 10
-24.61200000151485
 20
19.01792386894796
 10
-24.61203263407423
 20
19.03280453218104
 10
-24.67211657531256
 20
19.65628078873757
 10
-24.85190281934688
 20
20.27485154424529
 10
-25.13621523555627
 20
20.83720037794443
 10
-25.33451013131424
 20
21.12305363212239
  0
ELLIPSE
  5
114
330
E7
100
AcDbEntity
  8
AM_9
100
AcDbEllipse
 10
-28.80000000000003
 20
23.25384739616656
 30
0.0
 11
4.187999999999896
 21
0.0
 31
0.0
210
0.0
220
0.0
230
1.0
 40
0.9063077870366484
 41
1.570796326794897
 42
2.114716108550932
  0
LWPOLYLINE
  5
115
330
E7
100
AcDbEntity
  8
AM_9
100
AcDbPolyline
 90
       14
 70
     0
 43
0.0
 10
-30.94808555917297
 20
26.66218846431134
 10
-30.93057299633363
 20
26.67003099023788
 10
-30.26288959602062
 20
26.92279567743318
 10
-29.53294225038734
 20
27.08113999896246
 10
-28.78310773537988
 20
27.13307100973477
 10
-28.01936870218562
 20
27.07411852802095
 10
-27.27764302702583
 20
26.90476307591613
 10
-26.57946126496141
 20
26.62682248306276
 10
-25.94559187238429
 20
26.24766917175853
 10
-25.40684930100855
 20
25.78442040653875
 10
-24.96699429221407
 20
25.24324912412955
 10
-24.65252637706955
 20
24.65957067390202
 10
-24.45573399103566
 20
24.0325495728924
 10
-24.39020201471321
 20
23.16793899908455
  0
LWPOLYLINE
  5
116
330
E7
100
AcDbEntity
  8
AM_9
100
AcDbPolyline
 90
       15
 70
     0
 43
0.0
 10
-24.39020201471321
 20
23.16793899908455
 10
-24.47529263441414
 20
22.57493178083084
 10
-24.66235659943041
 20
21.99865111568209
 10
-24.96413446681794
 20
21.42720376960859
 10
-25.36263606379635
 20
20.90583702239873
 10
-25.86103258126276
 20
20.43757156883066
 10
-26.43412735958377
 20
20.04824666982712
 10
-27.09130636135518
 20
19.73918460943074
 10
-27.79350275178332
 20
19.53298416695383
 10
-28.54441027304324
 20
19.43488974060063
 10
-29.30234505520195
 20
19.45374349090078
 10
-30.05619472782882
 20
19.59330029402753
 10
-30.77426314563145
 20
19.84881213201446
 10
-31.4310121662566
 20
20.2125923720179
 10
-31.74297393910094
 20
20.44033135101319
  0
LINE
  5
117
330
E7
100
AcDbEntity
  8
AM_9
100
AcDbLine
 10
-38.39
 20
-55.25
 30
0.0
 11
-17.0
 21
-55.25
 31
0.0
  0
LINE
  5
118
330
E7
100
AcDbEntity
  8
AM_9
100
AcDbLine
 10
-17.0
 20
55.25
 30
0.0
 11
-24.38689592927808
 21
55.25
 31
0.0
  0
LWPOLYLINE
  5
119
330
E7
100
AcDbEntity
  8
AM_9
100
AcDbPolyline
 90
       10
 70
     0
 43
0.0
 10
-24.38529052319574
 20
55.25
 10
-24.38533746571073
 20
55.24999652664903
 10
-24.45004713494504
 20
55.2452432929458
 10
-24.62464153613275
 20
55.23276505854762
 10
-24.91293105201647
 20
55.21326930035161
 10
-25.29608376615471
 20
55.18949898021058
 10
-25.77951561600663
 20
55.16300157670267
 10
-26.34361612701137
 20
55.13702396003823
 10
-26.98731311974456
 20
55.11389883369844
 10
-27.34709789358902
 20
55.10400613020179
  0
LINE
  5
11A
330
E7
100
AcDbEntity
  8
AM_9
100
AcDbLine
 10
-25.74188956696779
 20
55.16492377688194
 30
0.0
 11
-25.70679545876306
 21
55.16673796242718
 31
0.0
  0
LINE
  5
11B
330
E7
100
AcDbEntity
  8
AM_9
100
AcDbLine
 10
-33.21470947680407
 20
55.24999999999999
 30
0.0
 11
-32.84909253577825
 21
55.22405622530195
 31
0.0
  0
LINE
  5
11C
330
E7
100
AcDbEntity
  8
AM_9
100
AcDbLine
 10
-40.6
 20
-53.03999999999998
 30
0.0
 11
-38.39
 21
-55.25
 31
0.0
  0
LINE
  5
11D
330
E7
100
AcDbEntity
  8
AM_9
100
AcDbLine
 10
-40.6
 20
-49.7079161816065
 30
0.0
 11
-40.6
 21
-53.03999999999998
 31
0.0
  0
LINE
  5
11E
330
E7
100
AcDbEntity
  8
AM_9
100
AcDbLine
 10
-38.39
 20
-32.22344586728751
 30
0.0
 11
-38.39
 21
-55.25
 31
0.0
  0
LINE
  5
11F
330
E7
100
AcDbEntity
  8
AM_9
100
AcDbLine
 10
24.40000000000001
 20
53.03999999999998
 30
0.0
 11
22.19
 21
55.25
 31
0.0
  0
LINE
  5
120
330
E7
100
AcDbEntity
  8
AM_9
100
AcDbLine
 10
22.19
 20
-55.25
 30
0.0
 11
24.40000000000001
 21
-53.03999999999998
 31
0.0
  0
LINE
  5
121
330
E7
100
AcDbEntity
  8
AM_9
100
AcDbLine
 10
24.40000000000001
 20
53.03999999999998
 30
0.0
 11
24.40000000000001
 21
-53.03999999999998
 31
0.0
  0
LINE
  5
122
330
E7
100
AcDbEntity
  8
AM_9
100
AcDbLine
 10
17.0
 20
-55.25
 30
0.0
 11
22.19
 21
-55.25
 31
0.0
  0
LINE
  5
123
330
E7
100
AcDbEntity
  8
AM_9
100
AcDbLine
 10
22.19
 20
55.25
 30
0.0
 11
17.0
 21
55.25
 31
0.0
  0
LINE
  5
124
330
E7
100
AcDbEntity
  8
AM_9
100
AcDbLine
 10
22.19
 20
55.25
 30
0.0
 11
22.19
 21
-55.25
 31
0.0
  0
LINE
  5
125
330
E7
100
AcDbEntity
  8
AM_9
100
AcDbLine
 10
-9.106666666666666
 20
-76.6
 30
0.0
 11
-4.573333333333336
 21
-76.6
 31
0.0
  0
LINE
  5
126
330
E7
100
AcDbEntity
  8
AM_9
100
AcDbLine
 10
-4.573333333333336
 20
76.6
 30
0.0
 11
-9.106666666666666
 21
76.6
 31
0.0
  0
LINE
  5
127
330
E7
100
AcDbEntity
  8
AM_9
100
AcDbLine
 10
17.0
 20
75.68302897223332
 30
0.0
 11
17.0
 21
-75.68302897223332
 31
0.0
  0
ARC
  5
128
330
E7
100
AcDbEntity
  8
AM_9
100
AcDbCircle
 10
15.63999999999999
 20
-75.6830289722333
 30
0.0
 40
1.360000000000015
100
AcDbArc
 50
291.4124789083386
 51
0.0
  0
ARC
  5
129
330
E7
100
AcDbEntity
  8
AM_9
100
AcDbCircle
 10
15.63999999999999
 20
75.6830289722333
 30
0.0
 40
1.360000000000014
100
AcDbArc
 50
0.0
 51
68.58752109166137
  0
LINE
  5
12A
330
E7
100
AcDbEntity
  8
AM_9
100
AcDbLine
 10
-16.99999999999999
 20
75.68302897223329
 30
0.0
 11
-16.99999999999999
 21
-75.68302897223329
 31
0.0
  0
ARC
  5
12B
330
E7
100
AcDbEntity
  8
AM_9
100
AcDbCircle
 10
-15.64
 20
-75.68302897223329
 30
0.0
 40
1.359999999999989
100
AcDbArc
 50
180.0
 51
248.587532953116
  0
ARC
  5
12C
330
E7
100
AcDbEntity
  8
AM_9
100
AcDbCircle
 10
-15.64
 20
75.68302897223329
 30
0.0
 40
1.359999999999993
100
AcDbArc
 50
111.412467046884
 51
180.0
  0
ARC
  5
12D
330
E7
100
AcDbEntity
  8
AM_9
100
AcDbCircle
 10
0.0000000000005116
 20
-35.79999999999863
 30
0.0
 40
44.20000000000145
100
AcDbArc
 50
248.587532953116
 51
258.1100127478009
  0
ARC
  5
12E
330
E7
100
AcDbEntity
  8
AM_9
100
AcDbCircle
 10
0.0000000000005134
 20
35.79999999999863
 30
0.0
 40
44.20000000000145
100
AcDbArc
 50
101.8899872521991
 51
111.4124670468841
  0
LINE
  5
12F
330
E7
100
AcDbEntity
  8
AM_9
100
AcDbLine
 10
-16.13650793650794
 20
76.9491568761137
 30
0.0
 11
-16.13650793650794
 21
-76.9491568761137
 31
0.0
  0
LINE
  5
130
330
E7
100
AcDbEntity
  8
AM_9
100
AcDbLine
 10
-9.106666666666666
 20
79.0516892412565
 30
0.0
 11
-9.106666666666666
 21
-79.0516892412565
 31
0.0
  0
LWPOLYLINE
  5
131
330
E7
100
AcDbEntity
  8
AM_9
100
AcDbPolyline
 90
       38
 70
     0
 43
0.0
 10
10.04046161160698
 20
-2.367307990582121
 10
10.3991207020352
 20
-1.929421095234522
 10
10.68143105343813
 20
-1.43693516308394
 10
10.87774378297691
 20
-0.9021913198749427
 10
10.98282834373056
 20
-0.3412805251593681
 10
10.99236678737485
 20
0.2224219868464002
 10
10.9093684556021
 20
0.7797951173645905
 10
10.73641507651138
 20
1.311749549940276
 10
10.4798641947423
 20
1.807313536672928
 10
10.14239976668078
 20
2.257006965555465
 10
9.737107549662884
 20
2.64438486631084
 10
9.26495817825951
 20
2.964079271594854
 10
8.74721129932922
 20
3.200610290974405
 10
8.1880785281868
 20
3.348417486401597
 10
7.611959234247504
 20
3.39997896709908
 10
7.031522225315582
 20
3.351781499524368
 10
6.466712264762909
 20
3.205566862375687
 10
5.937230244127716
 20
2.965254273115395
 10
5.454989271783207
 20
2.637978198513931
 10
5.039816527172763
 20
2.236739216472155
 10
4.697342091735927
 20
1.770473684524002
 10
4.441643013669831
 20
1.257922957052923
 10
4.27480423883944
 20
0.7092764975380336
 10
4.203418422386943
 20
0.1444828228425235
 10
4.226592520571254
 20
-0.4244077965049388
 10
4.344452872553783
 20
-0.979335485567481
 10
4.552090455272357
 20
-1.506734020044055
 10
4.84509447486839
 20
-1.992038323428582
 10
5.213441054686953
 20
-2.421639197020536
 10
5.650290165497098
 20
-2.785028678465841
 10
6.140073658490905
 20
-3.070605001847007
 10
6.675161944165383
 20
-3.271459512180722
 10
7.235089078313854
 20
-3.380360930320037
 10
7.811405040019136
 20
-3.393090785327048
 10
8.381273146073983
 20
-3.309019835423116
 10
8.933329961621823
 20
-3.127285587154477
 10
9.447258046663203
 20
-2.854406717522574
 10
10.04046161160687
 20
-2.367307990581945
  0
ARC
  5
132
330
E7
100
AcDbEntity
  8
AM_9
100
AcDbCircle
 10
-0.000000000000086
 20
-35.79999999999917
 30
0.0
 40
44.2000000000008
100
AcDbArc
 50
264.0610291315505
 51
291.4124674118516
  0
ARC
  5
133
330
E7
100
AcDbEntity
  8
AM_9
100
AcDbCircle
 10
0.0000000000053682
 20
35.80000000003933
 30
0.0
 40
44.19999999996141
100
AcDbArc
 50
68.58753258813599
 51
95.93897086846194
  0
LINE
  5
134
330
E7
100
AcDbEntity
  8
AM_9
100
AcDbLine
 10
-4.573333333333318
 20
79.76276404210978
 30
0.0
 11
-4.573333333333318
 21
-79.76276404210978
 31
0.0
  0
LINE
  5
135
330
E7
100
AcDbEntity
  8
AM_9
100
AcDbLine
 10
16.13650819862353
 20
76.94915677332592
 30
0.0
 11
16.13650819862353
 21
-76.94915677332592
 31
0.0
  0
LINE
  5
137
330
E7
100
AcDbEntity
  8
AM_5
100
AcDbLine
 10
-23.8
 20
45.0
 30
0.0
 11
-23.8
 21
55.25
 31
0.0
  0
LINE
  5
138
330
E7
100
AcDbEntity
  8
AM_5
100
AcDbLine
 10
-33.8
 20
45.0
 30
0.0
 11
-33.8
 21
55.25
 31
0.0
  0
LINE
  5
13B
330
E7
100
AcDbEntity
  8
AM_7
100
AcDbLine
 10
7.599999999999995
 20
-0.3245454545454514
 30
0.0
 11
7.599999999999995
 21
0.3245454545454411
 31
0.0
  0
LINE
  5
13C
330
E7
100
AcDbEntity
  8
AM_7
100
AcDbLine
 10
-28.8
 20
56.95658707185567
 30
0.0
 11
-28.8
 21
43.28806300133581
 31
0.0
  0
LWPOLYLINE
  5
13D
330
E7
100
AcDbEntity
  8
AM_4
100
AcDbPolyline
 90
        3
 70
     0
 43
0.0
 10
-31.56806565128681
 20
21.8197233664647
 10
-31.91546206655107
 20
21.51757067710397
 10
-32.24723832411574
 20
21.14663648750223
  0
ELLIPSE
  5
13E
330
E7
100
AcDbEntity
  8
AM_4
100
AcDbEllipse
 10
-28.79999999999997
 20
23.25384739616648
 30
0.0
 11
4.188000000000031
 21
0.0
 31
0.0
210
0.0
220
0.0
230
1.0
 40
0.9063077870366506
 41
3.141592653589793
 42
3.940352814905846
  0
ELLIPSE
  5
13F
330
E7
100
AcDbEntity
  8
AM_4
100
AcDbEllipse
 10
-28.79999999999998
 20
23.25384739616646
 30
0.0
 11
4.188000000000013
 21
0.0
 31
0.0
210
0.0
220
0.0
230
1.0
 40
0.9063077870366502
 41
2.114716108550927
 42
3.141592653589793
  0
LWPOLYLINE
  5
140
330
E7
100
AcDbEntity
  8
AM_4
100
AcDbPolyline
 90
       13
 70
     0
 43
0.0
 10
-31.74297393910094
 20
20.44033135101319
 10
-32.01119027968753
 20
20.67419114338031
 10
-32.4836168782538
 20
21.20697490942883
 10
-32.8491825840487
 20
21.80453511244039
 10
-33.08594654456476
 20
22.42437584923975
 10
-33.20296749714441
 20
23.06866343240648
 10
-33.19619359795387
 20
23.69694788823641
 10
-33.07337847425752
 20
24.31176338777253
 10
-32.83945331160837
 20
24.8910948271295
 10
-32.50318415452512
 20
25.42561927210677
 10
-32.06423036604996
 20
25.91081725789589
 10
-31.54285570237258
 20
26.32530484254091
 10
-30.94808555917297
 20
26.66218846431134
  0
LINE
  5
141
330
E7
100
AcDbEntity
  8
AM_4
100
AcDbLine
 10
-33.19961135249754
 20
55.25
 30
0.0
 11
-38.39
 21
55.25
 31
0.0
  0
LWPOLYLINE
  5
142
330
E7
100
AcDbEntity
  8
AM_4
100
AcDbPolyline
 90
       13
 70
     0
 43
0.0
 10
-27.34709789358902
 20
55.10400613020179
 10
-27.68431766401798
 20
55.09671082796943
 10
-28.43098428419547
 20
55.08737134147306
 10
-29.18450068413376
 20
55.08746965851032
 10
-29.9485182319202
 20
55.09733707974345
 10
-30.66267803268131
 20
55.11544558556611
 10
-31.34323278315783
 20
55.14067632927728
 10
-31.9221547581235
 20
55.16825003733995
 10
-32.42578543228132
 20
55.19679433198004
 10
-32.79643214964899
 20
55.22050241186025
 10
-33.06143441768261
 20
55.238853671112
 10
-33.19229377818662
 20
55.24834558312099
 10
-33.21470947680407
 20
55.24999999999999
  0
LINE
  5
143
330
E7
100
AcDbEntity
  8
AM_4
100
AcDbLine
 10
-38.39
 20
55.25
 30
0.0
 11
-40.6
 21
53.03999999999998
 31
0.0
  0
LINE
  5
144
330
E7
100
AcDbEntity
  8
AM_4
100
AcDbLine
 10
-40.6
 20
53.03999999999998
 30
0.0
 11
-40.6
 21
-49.7079161816065
 31
0.0
  0
LINE
  5
145
330
E7
100
AcDbEntity
  8
AM_4
100
AcDbLine
 10
-38.39
 20
55.25
 30
0.0
 11
-38.39
 21
-32.22344586728751
 31
0.0
  0
ENDBLK
  5
EA
330
E7
100
AcDbEntity
  8
0
100
AcDbBlockEnd
  0
BLOCK
  5
148
330
146
100
AcDbEntity
  8
0
100
AcDbBlockBegin
  2
4_052794H_0_in_052794_2
 70
     2
 10
0.0
 20
0.0
 30
0.0
  3
4_052794H_0_in_052794_2
  1

  0
ATTDEF
  5
14A
330
146
100
AcDbEntity
  8
AM_6
100
AcDbText
 10
52.245
 20
101.6
 30
0.0
 40
0.5
  1
P2B-SC -M-Housing
100
AcDbAttributeDefinition
  3

  2
NN
 70
     8
280
     0
  0
ATTDEF
  5
14B
330
146
100
AcDbEntity
  8
AM_6
100
AcDbText
 10
52.245
 20
101.1
 30
0.0
 40
0.5
  1
SC Pillow Block Bearings -(Normal Duty)
100
AcDbAttributeDefinition
  3

  2
NT
 70
     8
280
     0
  0
ATTDEF
  5
14C
330
146
100
AcDbEntity
  8
AM_6
100
AcDbText
 10
52.245
 20
100.6
 30
0.0
 40
0.5
  1
052794H
100
AcDbAttributeDefinition
  3

  2
NB
 70
     8
280
     0
  0
ATTDEF
  5
14D
330
146
100
AcDbEntity
  8
AM_6
100
AcDbText
 10
52.245
 20
100.1
 30
0.0
 40
0.5
  1
$PN.H
100
AcDbAttributeDefinition
  3

  2
NBSYN
 70
     8
280
     0
  0
ATTDEF
  5
14E
330
146
100
AcDbEntity
  8
AM_6
100
AcDbText
 10
52.245
 20
99.60000000000001
 30
0.0
 40
0.5
  1
052794
100
AcDbAttributeDefinition
  3

  2
LINA
 70
     8
280
     0
  0
ATTDEF
  5
14F
330
146
100
AcDbEntity
  8
AM_6
100
AcDbText
 10
52.245
 20
99.10000000000001
 30
0.0
 40
0.5
  1
218
100
AcDbAttributeDefinition
  3

  2
SERIES
 70
     8
280
     0
  0
ATTDEF
  5
150
330
146
100
AcDbEntity
  8
AM_6
100
AcDbText
 10
52.245
 20
98.60000000000001
 30
0.0
 40
0.5
  1
90
100
AcDbAttributeDefinition
  3

  2
SS
 70
     8
280
     0
  0
ATTDEF
  5
151
330
146
100
AcDbEntity
  8
AM_6
100
AcDbText
 10
52.245
 20
98.10000000000001
 30
0.0
 40
0.5
  1
052794
100
AcDbAttributeDefinition
  3

  2
PN
 70
     8
280
     0
  0
ATTDEF
  5
152
330
146
100
AcDbEntity
  8
AM_6
100
AcDbText
 10
52.245
 20
97.60000000000001
 30
0.0
 40
0.5
  1
P2B-SC-90M
100
AcDbAttributeDefinition
  3

  2
DESCRIPTION
 70
     8
280
     0
  0
ATTDEF
  5
153
330
146
100
AcDbEntity
  8
AM_6
100
AcDbText
 10
52.245
 20
97.10000000000001
 30
0.0
 40
0.5
  1
1
100
AcDbAttributeDefinition
  3

  2
LF1
 70
     8
280
     0
  0
ATTDEF
  5
154
330
146
100
AcDbEntity
  8
AM_6
100
AcDbText
 10
52.245
 20
96.60000000000001
 30
0.0
 40
0.5
  1
65.0
100
AcDbAttributeDefinition
  3

  2
A
 70
     8
280
     0
  0
ATTDEF
  5
155
330
146
100
AcDbEntity
  8
AM_6
100
AcDbText
 10
52.245
 20
96.10000000000001
 30
0.0
 40
0.5
  1
355.6
100
AcDbAttributeDefinition
  3

  2
B
 70
     8
280
     0
  0
ATTDEF
  5
156
330
146
100
AcDbEntity
  8
AM_6
100
AcDbText
 10
52.245
 20
95.60000000000001
 30
0.0
 40
0.5
  1
85.9
100
AcDbAttributeDefinition
  3

  2
C
 70
     8
280
     0
  0
ATTDEF
  5
157
330
146
100
AcDbEntity
  8
AM_6
100
AcDbText
 10
52.245
 20
95.10000000000001
 30
0.0
 40
0.5
  1
262.1
100
AcDbAttributeDefinition
  3

  2
DMIN
 70
     8
280
     0
  0
ATTDEF
  5
158
330
146
100
AcDbEntity
  8
AM_6
100
AcDbText
 10
52.245
 20
94.60000000000001
 30
0.0
 40
0.5
  1
295.1
100
AcDbAttributeDefinition
  3

  2
DMAX
 70
     8
280
     0
  0
ATTDEF
  5
159
330
146
100
AcDbEntity
  8
AM_6
100
AcDbText
 10
52.245
 20
94.10000000000001
 30
0.0
 40
0.5
  1
M22
100
AcDbAttributeDefinition
  3

  2
F
 70
     8
280
     0
  0
ATTDEF
  5
15A
330
146
100
AcDbEntity
  8
AM_6
100
AcDbText
 10
52.245
 20
93.60000000000001
 30
0.0
 40
0.5
  1
40.4
100
AcDbAttributeDefinition
  3

  2
G
 70
     8
280
     0
  0
ATTDEF
  5
15B
330
146
100
AcDbEntity
  8
AM_6
100
AcDbText
 10
52.245
 20
93.10000000000001
 30
0.0
 40
0.5
  1
33.3
100
AcDbAttributeDefinition
  3

  2
H
 70
     8
280
     0
  0
ATTDEF
  5
15C
330
146
100
AcDbEntity
  8
AM_6
100
AcDbText
 10
52.245
 20
92.60000000000001
 30
0.0
 40
0.5
  1
203.2
100
AcDbAttributeDefinition
  3

  2
J
 70
     8
280
     0
  0
ATTDEF
  5
15D
330
146
100
AcDbEntity
  8
AM_6
100
AcDbText
 10
52.245
 20
92.10000000000001
 30
0.0
 40
0.5
  1
110.5
100
AcDbAttributeDefinition
  3

  2
L
 70
     8
280
     0
  0
ATTDEF
  5
15E
330
146
100
AcDbEntity
  8
AM_6
100
AcDbText
 10
52.245
 20
91.60000000000001
 30
0.0
 40
0.5
  1
101.6
100
AcDbAttributeDefinition
  3

  2
M
 70
     8
280
     0
  0
ATTDEF
  5
15F
330
146
100
AcDbEntity
  8
AM_6
100
AcDbText
 10
52.245
 20
91.10000000000001
 30
0.0
 40
0.5
  1
24.4
100
AcDbAttributeDefinition
  3

  2
R
 70
     8
280
     0
  0
ATTDEF
  5
160
330
146
100
AcDbEntity
  8
AM_6
100
AcDbText
 10
52.245
 20
90.60000000000001
 30
0.0
 40
0.5
  1
40.6
100
AcDbAttributeDefinition
  3

  2
S
 70
     8
280
     0
  0
ATTDEF
  5
161
330
146
100
AcDbEntity
  8
AM_6
100
AcDbText
 10
52.245
 20
90.10000000000001
 30
0.0
 40
0.5
  1
167.6
100
AcDbAttributeDefinition
  3

  2
U
 70
     8
280
     0
  0
ATTDEF
  5
162
330
146
100
AcDbEntity
  8
AM_6
100
AcDbText
 10
52.245
 20
89.60000000000001
 30
0.0
 40
0.5
  1
335.3
100
AcDbAttributeDefinition
  3

  2
V
 70
     8
280
     0
  0
ATTDEF
  5
163
330
146
100
AcDbEntity
  8
AM_6
100
AcDbText
 10
52.245
 20
89.10000000000001
 30
0.0
 40
0.5
  1
30.2
100
AcDbAttributeDefinition
  3

  2
W
 70
     8
280
     0
  0
ATTDEF
  5
164
330
146
100
AcDbEntity
  8
AM_6
100
AcDbText
 10
52.245
 20
88.60000000000001
 30
0.0
 40
0.5
  1
3.0
100
AcDbAttributeDefinition
  3

  2
X
 70
     8
280
     0
  0
ATTDEF
  5
165
330
146
100
AcDbEntity
  8
AM_6
100
AcDbText
 10
52.245
 20
88.10000000000001
 30
0.0
 40
0.5
  1
baldor
100
AcDbAttributeDefinition
  3

  2
COMPANY
 70
     8
280
     0
  0
LINE
  5
166
330
146
100
AcDbEntity
  8
AM_9
100
AcDbLine
 10
-21.475
 20
-97.42749999999998
 30
0.0
 11
21.475
 21
-97.42749999999998
 31
0.0
  0
LINE
  5
167
330
146
100
AcDbEntity
  8
AM_9
100
AcDbLine
 10
-21.475
 20
-78.74959576830734
 30
0.0
 11
21.475
 21
-78.74959576830734
 31
0.0
  0
LINE
  5
168
330
146
100
AcDbEntity
  8
AM_9
100
AcDbLine
 10
-21.475
 20
-80.99116860569802
 30
0.0
 11
21.475
 21
-80.99116860569802
 31
0.0
  0
LINE
  5
169
330
146
100
AcDbEntity
  8
AM_9
100
AcDbLine
 10
21.475
 20
-78.18226077602031
 30
0.0
 11
-21.475
 21
-78.18226077602031
 31
0.0
  0
LINE
  5
16A
330
146
100
AcDbEntity
  8
AM_9
100
AcDbLine
 10
-12.885
 20
45.00000000000006
 30
0.0
 11
28.62912007062979
 21
45.00000000000006
 31
0.0
  0
LINE
  5
16B
330
146
100
AcDbEntity
  8
AM_9
100
AcDbLine
 10
-12.885
 20
-45.00000000000001
 30
0.0
 11
34.36000000000001
 21
-45.00000000000001
 31
0.0
  0
ELLIPSE
  5
16C
330
146
100
AcDbEntity
  8
AM_9
100
AcDbEllipse
 10
0.0000000000009508
 20
68.30651506262032
 30
0.0
 11
2.750000000000921
 21
0.0
 31
0.0
210
0.0
220
0.0
230
1.0
 40
0.7071067811865489
 41
2.863450716386992
 42
3.141592653589793
  0
LINE
  5
16D
330
146
100
AcDbEntity
  8
AM_9
100
AcDbLine
 10
2.749999999999975
 20
68.30651506262048
 30
0.0
 11
2.749999999999975
 21
71.84200623795866
 31
0.0
  0
LINE
  5
16E
330
146
100
AcDbEntity
  8
AM_9
100
AcDbLine
 10
-2.749999999999966
 20
71.84188137229944
 30
0.0
 11
-2.749999999999966
 21
68.30651506262048
 31
0.0
  0
LWPOLYLINE
  5
16F
330
146
100
AcDbEntity
  8
AM_9
100
AcDbPolyline
 90
       20
 70
     0
 43
0.0
 10
-2.749999987061742
 20
71.84223759522548
 10
-2.731559680336512
 20
71.61688428145085
 10
-2.63919381223277
 20
71.29424091943065
 10
-2.472491599047455
 20
70.98574603997515
 10
-2.235137986373902
 20
70.70061136170355
 10
-1.934819600904983
 20
70.44691653578809
 10
-1.579103583256733
 20
70.23265146777202
 10
-1.17886509138122
 20
70.06375333842888
 10
-0.7449080290725243
 20
69.94602681622848
 10
-0.2899383588606221
 20
69.8823146362262
 10
0.173179241314378
 20
69.87535495425244
 10
0.6314140081761908
 20
69.92452261447926
 10
1.071533148899027
 20
70.02909101558399
 10
1.481459223957461
 20
70.18510943921082
 10
1.849150713967966
 20
70.38860230574733
 10
2.164733914403827
 20
70.6327833079022
 10
2.418519932661549
 20
70.91095334501127
 10
2.604122971715903
 20
71.21441358408433
 10
2.715259700590611
 20
71.53451257049772
 10
2.749999994919041
 20
71.84216717432032
  0
LWPOLYLINE
  5
170
330
146
100
AcDbEntity
  8
AM_9
100
AcDbPolyline
 90
       11
 70
     0
 43
0.0
 10
2.749999994919041
 20
71.84216717432032
 10
2.749856983720406
 20
71.86187763433115
 10
2.705870413148423
 20
72.1870691503447
 10
2.585658186436502
 20
72.50114241833212
 10
2.391587318216685
 20
72.7951369133876
 10
2.130154910784924
 20
73.06134704307188
 10
1.807768514478909
 20
73.29219254421751
 10
1.434427147108247
 20
73.48194384856619
 10
1.020014502818411
 20
73.62498046779541
 10
0.5768303108294972
 20
73.71817068296426
 10
0.0000000000000043
 20
73.76027138251351
  0
ELLIPSE
  5
171
330
146
100
AcDbEntity
  8
AM_9
100
AcDbEllipse
 10
0.0000000000000042
 20
68.30651506262049
 30
0.0
 11
2.749999999999972
 21
0.0
 31
0.0
210
0.0
220
0.0
230
1.0
 40
0.7071067811865502
 41
3.141592653589793
 42
9.146636023566572
  0
LINE
  5
172
330
146
100
AcDbEntity
  8
AM_9
100
AcDbLine
 10
-34.36
 20
-80.0
 30
0.0
 11
34.36
 21
-80.0
 31
0.0
  0
LINE
  5
173
330
146
100
AcDbEntity
  8
AM_9
100
AcDbLine
 10
24.20519423190112
 20
80.0
 30
0.0
 11
-24.20519423190112
 21
80.0
 31
0.0
  0
LINE
  5
174
330
146
100
AcDbEntity
  8
AM_9
100
AcDbLine
 10
-12.885
 20
-45.00000000000001
 30
0.0
 11
-12.885
 21
45.00000000000006
 31
0.0
  0
LINE
  5
175
330
146
100
AcDbEntity
  8
AM_9
100
AcDbLine
 10
38.45047619047587
 20
-32.70190476189963
 30
0.0
 11
38.45047619047619
 21
-100.7675
 31
0.0
  0
LINE
  5
176
330
146
100
AcDbEntity
  8
AM_9
100
AcDbLine
 10
34.35999999999999
 20
-25.972263681197
 30
0.0
 11
34.36000000000001
 21
-86.61499999999997
 31
0.0
  0
LWPOLYLINE
  5
177
330
146
100
AcDbEntity
  8
AM_9
100
AcDbPolyline
 90
        7
 70
     0
 43
0.0
 10
34.35999999999999
 20
-25.972263681197
 10
34.40499988169235
 20
-24.01842264846078
 10
34.52881409249813
 20
-22.04935056990292
 10
34.71841318263251
 20
-20.06178569801935
 10
34.96247948594596
 20
-18.06532486562517
 10
35.38528328059138
 20
-15.21923867076162
 10
35.87943643345963
 20
-12.36105937344774
  0
LINE
  5
178
330
146
100
AcDbEntity
  8
AM_9
100
AcDbLine
 10
21.475
 20
-100.7675
 30
0.0
 11
38.45047619047619
 21
-100.7675
 31
0.0
  0
LINE
  5
179
330
146
100
AcDbEntity
  8
AM_9
100
AcDbLine
 10
21.475
 20
-97.4375
 30
0.0
 11
34.43131316459984
 21
-97.43749999999999
 31
0.0
  0
LWPOLYLINE
  5
17A
330
146
100
AcDbEntity
  8
AM_9
100
AcDbPolyline
 90
       11
 70
     0
 43
0.0
 10
38.45047619047619
 20
-100.7675
 10
38.44097915617339
 20
-100.7589311385196
 10
37.73619231582096
 20
-100.1235950267085
 10
36.96666975467678
 20
-99.4341107037438
 10
36.2090370851752
 20
-98.76578730794455
 10
35.70626229495109
 20
-98.33380123183211
 10
35.23769918333413
 20
-97.94769889167327
 10
34.97315857463194
 20
-97.74315859083173
 10
34.74132871493011
 20
-97.58012191089425
 10
34.56037567313895
 20
-97.47587442280471
 10
34.43131316459984
 20
-97.43749999999999
  0
LINE
  5
17B
330
146
100
AcDbEntity
  8
AM_9
100
AcDbLine
 10
-38.45047619047622
 20
-32.70190476190496
 30
0.0
 11
-38.45047619047622
 21
-100.7675
 31
0.0
  0
LINE
  5
17C
330
146
100
AcDbEntity
  8
AM_9
100
AcDbLine
 10
-34.36
 20
-0.3399999999999653
 30
0.0
 11
-34.36
 21
-86.61499999999997
 31
0.0
  0
LINE
  5
17D
330
146
100
AcDbEntity
  8
AM_9
100
AcDbLine
 10
-38.45047619047622
 20
-100.7675
 30
0.0
 11
-21.475
 21
-100.7675
 31
0.0
  0
LWPOLYLINE
  5
17E
330
146
100
AcDbEntity
  8
AM_9
100
AcDbPolyline
 90
       11
 70
     0
 43
0.0
 10
-34.43131316459984
 20
-97.43749999999999
 10
-34.5551686670642
 20
-97.47344442429137
 10
-34.74132871493011
 20
-97.58012191089425
 10
-34.96794150579335
 20
-97.73928151448976
 10
-35.23769918333414
 20
-97.94769889167327
 10
-35.69336556904053
 20
-98.32291064257102
 10
-36.20903708517522
 20
-98.76578730794455
 10
-36.94602356192719
 20
-99.41572281417324
 10
-37.73619231582101
 20
-100.1235950267085
 10
-38.44097915617359
 20
-100.7589311385194
 10
-38.45047619047622
 20
-100.7675
  0
LINE
  5
17F
330
146
100
AcDbEntity
  8
AM_9
100
AcDbLine
 10
-34.43131316459984
 20
-97.43749999999999
 30
0.0
 11
-21.475
 21
-97.4375
 31
0.0
  0
LINE
  5
180
330
146
100
AcDbEntity
  8
AM_9
100
AcDbLine
 10
-38.85952380952383
 20
-35.93809523809539
 30
0.0
 11
-38.85952380952382
 21
-101.6
 31
0.0
  0
LINE
  5
181
330
146
100
AcDbEntity
  8
AM_9
100
AcDbLine
 10
38.85952380952384
 20
-35.93809523809549
 30
0.0
 11
38.85952380952384
 21
-101.6
 31
0.0
  0
LWPOLYLINE
  5
182
330
146
100
AcDbEntity
  8
AM_9
100
AcDbPolyline
 90
       11
 70
     0
 43
0.0
 10
0.0000000000000043
 20
73.76027138251351
 10
-0.4615444799770241
 20
73.73324134153539
 10
-0.9100765001082499
 20
73.65358510450328
 10
-1.332587965239431
 20
73.52267883229467
 10
-1.717546461124376
 20
73.34463609680054
 10
-2.053503809938175
 20
73.12348532202897
 10
-2.331585784182307
 20
72.8657189729338
 10
-2.543058353140979
 20
72.57777116867128
 10
-2.682833367073459
 20
72.26792380194917
 10
-2.74589078554214
 20
71.94457800676214
 10
-2.749999987061742
 20
71.84223759522548
  0
LINE
  5
183
330
146
100
AcDbEntity
  8
AM_9
100
AcDbLine
 10
-21.47499999999999
 20
-89.36533001542595
 30
0.0
 11
21.47500000000001
 21
-89.36533001542595
 31
0.0
  0
LINE
  5
184
330
146
100
AcDbEntity
  8
AM_9
100
AcDbLine
 10
21.47500000000001
 20
-101.6
 30
0.0
 11
21.475
 21
-78.18226077602031
 31
0.0
  0
LINE
  5
185
330
146
100
AcDbEntity
  8
AM_9
100
AcDbLine
 10
-21.47499999999999
 20
-101.6
 30
0.0
 11
-21.475
 21
-78.18226077602031
 31
0.0
  0
LINE
  5
186
330
146
100
AcDbEntity
  8
AM_9
100
AcDbLine
 10
-21.47499999999999
 20
-90.5
 30
0.0
 11
21.47500000000001
 21
-90.5
 31
0.0
  0
LINE
  5
187
330
146
100
AcDbEntity
  8
AM_9
100
AcDbLine
 10
-21.47499999999999
 20
-97.16
 30
0.0
 11
21.47500000000001
 21
-97.16
 31
0.0
  0
LWPOLYLINE
  5
188
330
146
100
AcDbEntity
  8
AM_9
100
AcDbPolyline
 90
       14
 70
     0
 43
0.0
 10
11.05189576498082
 20
-90.5
 10
10.34345853995078
 20
-90.60514331902216
 10
9.498753460160476
 20
-90.90443377868601
 10
8.920579870557818
 20
-91.17244553824904
 10
8.313460945497182
 20
-91.49054075610123
 10
7.664525289678345
 20
-91.86104709474775
 10
6.994755861224272
 20
-92.26838379072588
 10
6.048748030729969
 20
-92.87563558126106
 10
5.078140261888112
 20
-93.52727693573748
 10
4.061448129275209
 20
-94.23186148556492
 10
3.030453390453697
 20
-94.96271112562424
 10
1.536723335548407
 20
-96.040171189511
 10
0.0180610207186507
 20
-97.14681669500469
 10
0.0000000000000159
 20
-97.16000000000005
  0
LWPOLYLINE
  5
189
330
146
100
AcDbEntity
  8
AM_9
100
AcDbPolyline
 90
       13
 70
     0
 43
0.0
 10
0.0000000000000167
 20
-97.16
 10
-0.0180610207186183
 20
-97.14681669500469
 10
-1.529194241353004
 20
-96.04560127389992
 10
-3.030453390453658
 20
-94.96271112562424
 10
-4.382961815743955
 20
-94.00660229487713
 10
-5.711448168302139
 20
-93.09882469063228
 10
-6.994755861224241
 20
-92.26838379072588
 10
-7.870957800213206
 20
-91.74007389912558
 10
-8.710976934875745
 20
-91.27837626889676
 10
-9.498753460160447
 20
-90.90443377868601
 10
-10.06391446442879
 20
-90.68890016850253
 10
-10.58550306106828
 20
-90.54951299773059
 10
-11.05189576498079
 20
-90.5
  0
LINE
  5
18A
330
146
100
AcDbEntity
  8
AM_9
100
AcDbLine
 10
-12.49999999999999
 20
-68.3
 30
0.0
 11
-12.49999999999999
 21
-90.5
 31
0.0
  0
LINE
  5
18B
330
146
100
AcDbEntity
  8
AM_9
100
AcDbLine
 10
12.50000000000002
 20
-68.3
 30
0.0
 11
12.50000000000002
 21
-90.5
 31
0.0
  0
LINE
  5
18C
330
146
100
AcDbEntity
  8
AM_9
100
AcDbLine
 10
-31.69999999999999
 20
-69.8875
 30
0.0
 11
-28.69999999999999
 21
-69.8875
 31
0.0
  0
LINE
  5
18D
330
146
100
AcDbEntity
  8
AM_9
100
AcDbLine
 10
-31.69999999999999
 20
-68.3
 30
0.0
 11
-31.69999999999999
 21
-69.8875
 31
0.0
  0
LINE
  5
18E
330
146
100
AcDbEntity
  8
AM_9
100
AcDbLine
 10
-28.69999999999999
 20
-69.8875
 30
0.0
 11
-28.69999999999999
 21
-68.3
 31
0.0
  0
LINE
  5
18F
330
146
100
AcDbEntity
  8
AM_7
100
AcDbLine
 10
47.245
 20
0.0
 30
0.0
 11
-47.245
 21
0.0
 31
0.0
  0
LINE
  5
190
330
146
100
AcDbEntity
  8
AM_7
100
AcDbLine
 10
-30.20000000000001
 20
-70.04625
 30
0.0
 11
-30.20000000000001
 21
-66.55375
 31
0.0
  0
LINE
  5
191
330
146
100
AcDbEntity
  8
AM_4
100
AcDbLine
 10
42.95000000000001
 20
-68.30000000000005
 30
0.0
 11
21.475
 21
101.6
 31
0.0
  0
LINE
  5
192
330
146
100
AcDbEntity
  8
AM_4
100
AcDbLine
 10
21.47500000000001
 20
101.6
 30
0.0
 11
-21.475
 21
101.6
 31
0.0
  0
LINE
  5
193
330
146
100
AcDbEntity
  8
AM_4
100
AcDbLine
 10
-21.475
 20
101.6
 30
0.0
 11
-42.95
 21
-68.29999999999995
 31
0.0
  0
LINE
  5
194
330
146
100
AcDbEntity
  8
AM_4
100
AcDbLine
 10
-30.12770660811782
 20
33.14389510038565
 30
0.0
 11
30.12770660811784
 21
33.14389510038565
 31
0.0
  0
LWPOLYLINE
  5
195
330
146
100
AcDbEntity
  8
AM_4
100
AcDbPolyline
 90
       37
 70
     0
 43
0.0
 10
33.20000000000002
 20
-68.3
 10
33.07366397664597
 20
-59.91522935956633
 10
32.69561740000533
 20
-51.59427188656932
 10
32.06873743279709
 20
-43.40045509170993
 10
31.19779501009218
 20
-35.3961388683589
 10
30.08941852961679
 20
-27.64224089611421
 10
28.75204340564338
 20
-20.19777302047628
 10
27.19584787039455
 20
-13.11939213707127
 10
25.4326755115501
 20
-6.460968998465155
 10
23.47594513539341
 20
-0.2731782252085452
 10
21.34054864159314
 20
5.39688735862387
 10
19.04273768685477
 20
10.50607513025993
 10
16.60000000000004
 20
15.01550108574552
 10
14.03092628979127
 20
18.89084577069361
 10
11.35506875841225
 20
22.10261547205459
 10
8.592792297403744
 20
24.62636668308157
 10
5.765119498542147
 20
26.44289213317601
 10
2.893570659222314
 20
27.53836696681458
 10
0.0000000000000656
 20
27.90445395904753
 10
-2.893570659222183
 20
27.53836696681461
 10
-5.765119498542018
 20
26.44289213317606
 10
-8.59279229740362
 20
24.62636668308167
 10
-11.35506875841213
 20
22.10261547205472
 10
-14.03092628979115
 20
18.89084577069375
 10
-16.59999999999993
 20
15.01550108574572
 10
-19.04273768685466
 20
10.50607513026014
 10
-21.34054864159303
 20
5.396887358624106
 10
-23.47594513539332
 20
-0.2731782252082954
 10
-25.43267551155001
 20
-6.460968998464878
 10
-27.19584787039447
 20
-13.11939213707097
 10
-28.75204340564331
 20
-20.19777302047596
 10
-30.08941852961674
 20
-27.64224089611388
 10
-31.19779501009212
 20
-35.39613886835854
 10
-32.06873743279704
 20
-43.40045509170955
 10
-32.69561740000529
 20
-51.59427188656894
 10
-33.07366397664594
 20
-59.91522935956596
 10
-33.2
 20
-68.29999999999961
  0
LINE
  5
196
330
146
100
AcDbEntity
  8
AM_4
100
AcDbLine
 10
33.2
 20
-75.46762147016307
 30
0.0
 11
42.95000000000001
 21
-75.46762147016307
 31
0.0
  0
LINE
  5
197
330
146
100
AcDbEntity
  8
AM_4
100
AcDbLine
 10
-42.95
 20
-75.46762147016307
 30
0.0
 11
-33.2
 21
-75.46762147016307
 31
0.0
  0
LINE
  5
198
330
146
100
AcDbEntity
  8
AM_4
100
AcDbLine
 10
-42.95
 20
-79.955
 30
0.0
 11
-30.62103829560469
 21
-79.955
 31
0.0
  0
LINE
  5
199
330
146
100
AcDbEntity
  8
AM_4
100
AcDbLine
 10
-42.95
 20
-68.29999999999995
 30
0.0
 11
-42.95000000000002
 21
-101.6
 31
0.0
  0
LINE
  5
19A
330
146
100
AcDbEntity
  8
AM_4
100
AcDbLine
 10
-33.2
 20
-68.3
 30
0.0
 11
-33.2
 21
-79.955
 31
0.0
  0
LINE
  5
19B
330
146
100
AcDbEntity
  8
AM_4
100
AcDbLine
 10
30.62103829560474
 20
-79.955
 30
0.0
 11
42.95000000000001
 21
-79.955
 31
0.0
  0
LWPOLYLINE
  5
19C
330
146
100
AcDbEntity
  8
AM_4
100
AcDbPolyline
 90
       19
 70
     0
 43
0.0
 10
-41.02
 20
-79.95500000000001
 10
-40.4395427533006
 20
-79.98034331070899
 10
-39.86350313673825
 20
-80.05618036493871
 10
-39.29626515961722
 20
-80.18193399691481
 10
-38.74214584545106
 20
-80.35664714556586
 10
-38.20536237680695
 20
-80.57899013833591
 10
-37.69000000000001
 20
-80.84727081079565
 10
-37.19998093390205
 20
-81.15944738503532
 10
-36.73903451948767
 20
-81.51314400882761
 10
-36.31066883729761
 20
-81.9056688372976
 10
-35.91814400882762
 20
-82.33403451948764
 10
-35.56444738503533
 20
-82.79498093390204
 10
-35.25227081079566
 20
-83.285
 10
-34.98399013833593
 20
-83.80036237680694
 10
-34.76164714556587
 20
-84.33714584545105
 10
-34.58693399691482
 20
-84.89126515961722
 10
-34.46118036493871
 20
-85.45850313673823
 10
-34.38534331070898
 20
-86.0345427533006
 10
-34.36000000000001
 20
-86.615
  0
LWPOLYLINE
  5
19D
330
146
100
AcDbEntity
  8
AM_4
100
AcDbPolyline
 90
       15
 70
     0
 43
0.0
 10
-30.62103829560469
 20
-79.95500000000001
 10
-30.13434978676038
 20
-79.98989912066031
 10
-29.6140521782807
 20
-80.08898145858323
 10
-29.0459512444493
 20
-80.25047087992711
 10
-28.45150177705878
 20
-80.46395257850477
 10
-27.66284216386406
 20
-80.79953228767799
 10
-26.84493844679226
 20
-81.19478642229625
 10
-25.98025498789442
 20
-81.65149174967172
 10
-25.09564966538702
 20
-82.15015563618032
 10
-23.85393915379316
 20
-82.88973577611698
 10
-22.59018727326974
 20
-83.67701367307724
 10
-21.27498533086817
 20
-84.52154091263229
 10
-19.9489379615943
 20
-85.3900193813592
 10
-18.12047281377978
 20
-86.60140353369671
 10
-18.09999999999997
 20
-86.61500000000001
  0
LWPOLYLINE
  5
19E
330
146
100
AcDbEntity
  8
AM_4
100
AcDbPolyline
 90
       12
 70
     0
 43
0.0
 10
18.10000000000002
 20
-86.61500000000001
 10
18.12047281378154
 20
-86.60140353369928
 10
19.94893796159436
 20
-85.39001938135924
 10
21.68971194225603
 20
-84.25242695372263
 10
23.41343584178824
 20
-83.16018161003885
 10
25.09564966538705
 20
-82.15015563618033
 10
26.25478918373235
 20
-81.50237414222036
 10
27.37973220512586
 20
-80.93116580393539
 10
28.4515017770588
 20
-80.46395257850479
 10
29.22523988671794
 20
-80.19457200181243
 10
29.95371911542374
 20
-80.01823571440569
 10
30.62103829560473
 20
-79.95500000000001
  0
LINE
  5
19F
330
146
100
AcDbEntity
  8
AM_4
100
AcDbLine
 10
33.20000000000002
 20
-68.3
 30
0.0
 11
33.20000000000002
 21
-79.955
 31
0.0
  0
LINE
  5
1A0
330
146
100
AcDbEntity
  8
AM_4
100
AcDbLine
 10
-33.2
 20
-68.3
 30
0.0
 11
33.20000000000002
 21
-68.3
 31
0.0
  0
LINE
  5
1A1
330
146
100
AcDbEntity
  8
AM_4
100
AcDbLine
 10
18.10000000000002
 20
-86.61500000000001
 30
0.0
 11
34.36000000000001
 21
-86.61499999999997
 31
0.0
  0
LINE
  5
1A2
330
146
100
AcDbEntity
  8
AM_4
100
AcDbLine
 10
18.10000000000002
 20
-68.3
 30
0.0
 11
18.10000000000002
 21
-86.61500000000001
 31
0.0
  0
LINE
  5
1A3
330
146
100
AcDbEntity
  8
AM_4
100
AcDbLine
 10
-18.09999999999997
 20
-68.3
 30
0.0
 11
-18.09999999999997
 21
-86.61500000000001
 31
0.0
  0
LINE
  5
1A4
330
146
100
AcDbEntity
  8
AM_4
100
AcDbLine
 10
-34.36000000000001
 20
-86.61499999999997
 30
0.0
 11
-18.09999999999997
 21
-86.61500000000001
 31
0.0
  0
LINE
  5
1A5
330
146
100
AcDbEntity
  8
AM_4
100
AcDbLine
 10
-34.36000000000001
 20
-86.61499999999997
 30
0.0
 11
-34.36000000000001
 21
-101.6
 31
0.0
  0
LINE
  5
1A6
330
146
100
AcDbEntity
  8
AM_4
100
AcDbLine
 10
-42.95000000000002
 20
-101.6
 30
0.0
 11
42.95000000000001
 21
-101.6
 31
0.0
  0
LINE
  5
1A7
330
146
100
AcDbEntity
  8
AM_4
100
AcDbLine
 10
34.36000000000001
 20
-86.61499999999997
 30
0.0
 11
34.36000000000001
 21
-101.6
 31
0.0
  0
LINE
  5
1A8
330
146
100
AcDbEntity
  8
AM_4
100
AcDbLine
 10
42.95000000000001
 20
-68.30000000000005
 30
0.0
 11
42.95000000000001
 21
-101.6
 31
0.0
  0
LWPOLYLINE
  5
1A9
330
146
100
AcDbEntity
  8
AM_4
100
AcDbPolyline
 90
       19
 70
     0
 43
0.0
 10
34.36000000000003
 20
-86.61500000000001
 10
34.385343310709
 20
-86.03454275330061
 10
34.46118036493872
 20
-85.45850313673824
 10
34.58693399691483
 20
-84.89126515961723
 10
34.76164714556588
 20
-84.33714584545106
 10
34.98399013833593
 20
-83.80036237680696
 10
35.25227081079566
 20
-83.28500000000001
 10
35.56444738503534
 20
-82.79498093390204
 10
35.91814400882762
 20
-82.33403451948766
 10
36.31066883729761
 20
-81.90566883729761
 10
36.73903451948767
 20
-81.51314400882762
 10
37.19998093390205
 20
-81.15944738503534
 10
37.69000000000001
 20
-80.84727081079565
 10
38.20536237680695
 20
-80.57899013833593
 10
38.74214584545106
 20
-80.35664714556587
 10
39.29626515961722
 20
-80.18193399691481
 10
39.86350313673825
 20
-80.05618036493871
 10
40.4395427533006
 20
-79.98034331070899
 10
41.02
 20
-79.95500000000001
  0
ENDBLK
  5
149
330
146
100
AcDbEntity
  8
0
100
AcDbBlockEnd
  0
ENDSEC
  0
SECTION
  2
ENTITIES
  0
INSERT
  5
6F
330
1F
100
AcDbEntity
  8
0
100
AcDbBlockReference
  2
1_052794_2
 10
0.0
 20
0.0
 30
0.0
  0
POINT
  5
1AB
330
1F
100
AcDbEntity
  8
ConnectionPoints
100
AcDbPoint
 10
-40.6
 20
0.0
 30
0.0000000000000025
  0
POINT
  5
1AC
330
1F
100
AcDbEntity
  8
ConnectionPoints
100
AcDbPoint
 10
0.0000000000000044
 20
71.84204896855321
 30
71.84204896855323
  0
POINT
  5
1AD
330
1F
100
AcDbEntity
  8
ConnectionPoints
100
AcDbPoint
 10
-40.6
 20
0.0
 30
0.0000000000000025
  0
ENDSEC
  0
SECTION
  2
OBJECTS
  0
DICTIONARY
  5
C
330
0
100
AcDbDictionary
281
     1
  3
ACAD_DETAILVIEWSTYLE
350
1B5
  3
ACAD_GROUP
350
D
  3
ACAD_LAYOUT
350
1A
  3
ACAD_MATERIAL
350
43
  3
ACAD_MLEADERSTYLE
350
6B
  3
ACAD_MLINESTYLE
350
17
  3
ACAD_PLOTSETTINGS
350
19
  3
ACAD_PLOTSTYLENAME
350
E
  3
ACAD_SCALELIST
350
47
  3
ACAD_SECTIONVIEWSTYLE
350
1B6
  3
ACAD_TABLESTYLE
350
69
  3
ACAD_VISUALSTYLE
350
2A
  3
ACDB_RECOMPOSE_DATA
350
1B2
  3
AcDbVariableDictionary
350
1AE
  0
SUN
  5
6D
330
29
100
AcDbSun
 90
        1
290
     0
 63
     7
421
 16777215
 40
1.0
291
     1
 91
  2455826
 92
 54000000
292
     0
 70
     2
 71
   256
280
     1
  0
DICTIONARY
  5
1B5
102
{ACAD_REACTORS
330
C
102
}
330
C
100
AcDbDictionary
281
     1
  0
DICTIONARY
  5
D
102
{ACAD_REACTORS
330
C
102
}
330
C
100
AcDbDictionary
281
     1
  0
DICTIONARY
  5
1A
102
{ACAD_REACTORS
330
C
102
}
330
C
100
AcDbDictionary
281
     1
  3
Layout1
350
1E
  3
Layout2
350
26
  3
Model
350
22
  0
DICTIONARY
  5
43
102
{ACAD_REACTORS
330
C
102
}
330
C
100
AcDbDictionary
281
     1
  3
ByBlock
350
45
  3
ByLayer
350
44
  3
Global
350
46
  0
DICTIONARY
  5
6B
102
{ACAD_REACTORS
330
C
102
}
330
C
100
AcDbDictionary
281
     1
  3
Standard
350
6C
  0
DICTIONARY
  5
17
102
{ACAD_REACTORS
330
C
102
}
330
C
100
AcDbDictionary
281
     1
  3
Standard
350
18
  0
DICTIONARY
  5
19
102
{ACAD_REACTORS
330
C
102
}
330
C
100
AcDbDictionary
281
     1
  0
ACDBDICTIONARYWDFLT
  5
E
102
{ACAD_REACTORS
330
C
102
}
330
C
100
AcDbDictionary
281
     1
  3
Normal
350
F
100
AcDbDictionaryWithDefault
340
F
  0
DICTIONARY
  5
47
102
{ACAD_REACTORS
330
C
102
}
330
C
100
AcDbDictionary
281
     1
  3
A0
350
48
  3
A1
350
49
  3
A2
350
4A
  3
A3
350
4B
  3
A4
350
4C
  3
A5
350
4D
  3
A6
350
4E
  3
A7
350
4F
  3
A8
350
50
  3
A9
350
51
  3
B0
350
52
  3
B1
350
53
  3
B2
350
54
  3
B3
350
55
  3
B4
350
56
  3
B5
350
57
  3
B6
350
58
  3
B7
350
59
  3
B8
350
5A
  3
B9
350
5B
  3
C0
350
5C
  3
C1
350
5D
  3
C2
350
5E
  3
C3
350
5F
  3
C4
350
60
  3
C5
350
61
  3
C6
350
62
  3
C7
350
63
  3
C8
350
64
  3
C9
350
65
  3
D0
350
66
  3
D1
350
67
  3
D2
350
68
  0
DICTIONARY
  5
1B6
102
{ACAD_REACTORS
330
C
102
}
330
C
100
AcDbDictionary
281
     1
  0
DICTIONARY
  5
69
102
{ACAD_REACTORS
330
C
102
}
330
C
100
AcDbDictionary
281
     1
  3
Standard
350
6A
  0
DICTIONARY
  5
2A
102
{ACAD_REACTORS
330
C
102
}
330
C
100
AcDbDictionary
281
     1
  3
2dWireframe
350
2F
  3
Basic
350
32
  3
Brighten
350
36
  3
ColorChange
350
3A
  3
Conceptual
350
34
  3
Dim
350
35
  3
EdgeColorOff
350
3D
  3
Facepattern
350
39
  3
Flat
350
2B
  3
FlatWithEdges
350
2C
  3
Gouraud
350
2D
  3
GouraudWithEdges
350
2E
  3
Hidden
350
31
  3
JitterOff
350
3B
  3
Linepattern
350
38
  3
OverhangOff
350
3C
  3
Realistic
350
33
  3
Shaded
350
42
  3
Shaded with edges
350
41
  3
Shades of Gray
350
3E
  3
Sketchy
350
3F
  3
Thicken
350
37
  3
Wireframe
350
30
  3
X-Ray
350
40
  0
XRECORD
  5
1B2
102
{ACAD_REACTORS
330
C
102
}
330
C
100
AcDbXrecord
280
     1
 90
        1
330
6A
  0
DICTIONARY
  5
1AE
102
{ACAD_REACTORS
330
C
102
}
330
C
100
AcDbDictionary
281
     1
  3
CANNOSCALE
350
1AF
  3
CMLEADERSTYLE
350
1B4
  3
CTABLESTYLE
350
1B3
  0
LAYOUT
  5
1E
102
{ACAD_REACTORS
330
1A
102
}
330
1A
100
AcDbPlotSettings
  1

  2
none_device
  4

  6

 40
0.0
 41
0.0
 42
0.0
 43
0.0
 44
0.0
 45
0.0
 46
0.0
 47
0.0
 48
0.0
 49
0.0
140
0.0
141
0.0
142
1.0
143
1.0
 70
   688
 72
     1
 73
     0
 74
     5
  7

 75
    16
 76
     0
 77
     2
 78
   300
147
1.0
148
0.0
149
0.0
100
AcDbLayout
  1
Layout1
 70
     1
 71
     1
 10
0.0
 20
0.0
 11
420.0
 21
297.0
 12
0.0
 22
0.0
 32
0.0
 14
1.000000000000000E+20
 24
1.000000000000000E+20
 34
1.000000000000000E+20
 15
-1.000000000000000E+20
 25
-1.000000000000000E+20
 35
-1.000000000000000E+20
146
0.0
 13
0.0
 23
0.0
 33
0.0
 16
1.0
 26
0.0
 36
0.0
 17
0.0
 27
1.0
 37
0.0
 76
     0
330
1B
  0
LAYOUT
  5
26
102
{ACAD_REACTORS
330
1A
102
}
330
1A
100
AcDbPlotSettings
  1

  2
none_device
  4

  6

 40
0.0
 41
0.0
 42
0.0
 43
0.0
 44
0.0
 45
0.0
 46
0.0
 47
0.0
 48
0.0
 49
0.0
140
0.0
141
0.0
142
1.0
143
1.0
 70
   688
 72
     1
 73
     0
 74
     5
  7

 75
    16
 76
     0
 77
     2
 78
   300
147
1.0
148
0.0
149
0.0
100
AcDbLayout
  1
Layout2
 70
     1
 71
     2
 10
0.0
 20
0.0
 11
0.0
 21
0.0
 12
0.0
 22
0.0
 32
0.0
 14
0.0
 24
0.0
 34
0.0
 15
0.0
 25
0.0
 35
0.0
146
0.0
 13
0.0
 23
0.0
 33
0.0
 16
1.0
 26
0.0
 36
0.0
 17
0.0
 27
1.0
 37
0.0
 76
     0
330
23
  0
LAYOUT
  5
22
102
{ACAD_REACTORS
330
1A
102
}
330
1A
100
AcDbPlotSettings
  1

  2
none_device
  4
Letter_(8.50_x_11.00_Inches)
  6

 40
6.35
 41
6.35
 42
6.35000508
 43
6.35000508
 44
215.9
 45
279.4
 46
0.0
 47
0.0
 48
0.0
 49
0.0
140
0.0
141
0.0
142
1.0
143
1.0
 70
  1712
 72
     1
 73
     0
 74
     0
  7

 75
     0
 76
     0
 77
     2
 78
   300
147
1.0
148
0.0
149
0.0
100
AcDbLayout
  1
Model
 70
     1
 71
     0
 10
0.0
 20
0.0
 11
420.0
 21
297.0
 12
0.0
 22
0.0
 32
0.0
 14
1.000000000000000E+20
 24
1.000000000000000E+20
 34
1.000000000000000E+20
 15
-1.000000000000000E+20
 25
-1.000000000000000E+20
 35
-1.000000000000000E+20
146
0.0
 13
0.0
 23
0.0
 33
0.0
 16
1.0
 26
0.0
 36
0.0
 17
0.0
 27
1.0
 37
0.0
 76
     0
330
1F
331
29
  0
MATERIAL
  5
45
102
{ACAD_REACTORS
330
43
102
}
330
43
100
AcDbMaterial
  1
ByBlock
 72
     1
 94
      127
  0
MATERIAL
  5
44
102
{ACAD_REACTORS
330
43
102
}
330
43
100
AcDbMaterial
  1
ByLayer
 72
     1
 94
      127
  0
MATERIAL
  5
46
102
{ACAD_REACTORS
330
43
102
}
330
43
100
AcDbMaterial
  1
Global
 72
     1
 94
      127
  0
MLEADERSTYLE
  5
6C
102
{ACAD_REACTORS
330
6B
102
}
330
6B
100
AcDbMLeaderStyle
179
     2
170
     2
171
     1
172
     0
 90
        2
 40
0.0
 41
0.0
173
     1
 91
-1056964608
340
14
 92
       -2
290
     1
 42
2.0
291
     1
 43
8.0
  3
Standard
341
0
 44
4.0
300

342
11
174
     1
178
     6
175
     1
176
     0
 93
-1056964608
 45
4.0
292
     0
297
     0
 46
4.0
343
0
 94
-1056964608
 47
1.0
 49
1.0
140
1.0
293
     1
141
0.0
294
     1
177
     0
142
1.0
295
     0
296
     0
143
3.75
271
     0
272
     9
273
     9
298
     0
  0
MLINESTYLE
  5
18
102
{ACAD_REACTORS
330
17
102
}
330
17
100
AcDbMlineStyle
  2
Standard
 70
     0
  3

 62
   256
 51
90.0
 52
90.0
 71
     2
 49
0.5
 62
   256
  6
BYLAYER
 49
-0.5
 62
   256
  6
BYLAYER
  0
ACDBPLACEHOLDER
  5
F
102
{ACAD_REACTORS
330
E
102
}
330
E
  0
SCALE
  5
48
102
{ACAD_REACTORS
330
47
102
}
330
47
100
AcDbScale
 70
     0
300
1:1
140
1.0
141
1.0
290
     1
  0
SCALE
  5
49
102
{ACAD_REACTORS
330
47
102
}
330
47
100
AcDbScale
 70
     0
300
1:2
140
1.0
141
2.0
290
     0
  0
SCALE
  5
4A
102
{ACAD_REACTORS
330
47
102
}
330
47
100
AcDbScale
 70
     0
300
1:4
140
1.0
141
4.0
290
     0
  0
SCALE
  5
4B
102
{ACAD_REACTORS
330
47
102
}
330
47
100
AcDbScale
 70
     0
300
1:5
140
1.0
141
5.0
290
     0
  0
SCALE
  5
4C
102
{ACAD_REACTORS
330
47
102
}
330
47
100
AcDbScale
 70
     0
300
1:8
140
1.0
141
8.0
290
     0
  0
SCALE
  5
4D
102
{ACAD_REACTORS
330
47
102
}
330
47
100
AcDbScale
 70
     0
300
1:10
140
1.0
141
10.0
290
     0
  0
SCALE
  5
4E
102
{ACAD_REACTORS
330
47
102
}
330
47
100
AcDbScale
 70
     0
300
1:16
140
1.0
141
16.0
290
     0
  0
SCALE
  5
4F
102
{ACAD_REACTORS
330
47
102
}
330
47
100
AcDbScale
 70
     0
300
1:20
140
1.0
141
20.0
290
     0
  0
SCALE
  5
50
102
{ACAD_REACTORS
330
47
102
}
330
47
100
AcDbScale
 70
     0
300
1:30
140
1.0
141
30.0
290
     0
  0
SCALE
  5
51
102
{ACAD_REACTORS
330
47
102
}
330
47
100
AcDbScale
 70
     0
300
1:40
140
1.0
141
40.0
290
     0
  0
SCALE
  5
52
102
{ACAD_REACTORS
330
47
102
}
330
47
100
AcDbScale
 70
     0
300
1:50
140
1.0
141
50.0
290
     0
  0
SCALE
  5
53
102
{ACAD_REACTORS
330
47
102
}
330
47
100
AcDbScale
 70
     0
300
1:100
140
1.0
141
100.0
290
     0
  0
SCALE
  5
54
102
{ACAD_REACTORS
330
47
102
}
330
47
100
AcDbScale
 70
     0
300
2:1
140
2.0
141
1.0
290
     0
  0
SCALE
  5
55
102
{ACAD_REACTORS
330
47
102
}
330
47
100
AcDbScale
 70
     0
300
4:1
140
4.0
141
1.0
290
     0
  0
SCALE
  5
56
102
{ACAD_REACTORS
330
47
102
}
330
47
100
AcDbScale
 70
     0
300
8:1
140
8.0
141
1.0
290
     0
  0
SCALE
  5
57
102
{ACAD_REACTORS
330
47
102
}
330
47
100
AcDbScale
 70
     0
300
10:1
140
10.0
141
1.0
290
     0
  0
SCALE
  5
58
102
{ACAD_REACTORS
330
47
102
}
330
47
100
AcDbScale
 70
     0
300
100:1
140
100.0
141
1.0
290
     0
  0
SCALE
  5
59
102
{ACAD_REACTORS
330
47
102
}
330
47
100
AcDbScale
 70
     0
300
1/128" = 1'-0"
140
0.0078125
141
12.0
290
     0
  0
SCALE
  5
5A
102
{ACAD_REACTORS
330
47
102
}
330
47
100
AcDbScale
 70
     0
300
1/64" = 1'-0"
140
0.015625
141
12.0
290
     0
  0
SCALE
  5
5B
102
{ACAD_REACTORS
330
47
102
}
330
47
100
AcDbScale
 70
     0
300
1/32" = 1'-0"
140
0.03125
141
12.0
290
     0
  0
SCALE
  5
5C
102
{ACAD_REACTORS
330
47
102
}
330
47
100
AcDbScale
 70
     0
300
1/16" = 1'-0"
140
0.0625
141
12.0
290
     0
  0
SCALE
  5
5D
102
{ACAD_REACTORS
330
47
102
}
330
47
100
AcDbScale
 70
     0
300
3/32" = 1'-0"
140
0.09375
141
12.0
290
     0
  0
SCALE
  5
5E
102
{ACAD_REACTORS
330
47
102
}
330
47
100
AcDbScale
 70
     0
300
1/8" = 1'-0"
140
0.125
141
12.0
290
     0
  0
SCALE
  5
5F
102
{ACAD_REACTORS
330
47
102
}
330
47
100
AcDbScale
 70
     0
300
3/16" = 1'-0"
140
0.1875
141
12.0
290
     0
  0
SCALE
  5
60
102
{ACAD_REACTORS
330
47
102
}
330
47
100
AcDbScale
 70
     0
300
1/4" = 1'-0"
140
0.25
141
12.0
290
     0
  0
SCALE
  5
61
102
{ACAD_REACTORS
330
47
102
}
330
47
100
AcDbScale
 70
     0
300
3/8" = 1'-0"
140
0.375
141
12.0
290
     0
  0
SCALE
  5
62
102
{ACAD_REACTORS
330
47
102
}
330
47
100
AcDbScale
 70
     0
300
1/2" = 1'-0"
140
0.5
141
12.0
290
     0
  0
SCALE
  5
63
102
{ACAD_REACTORS
330
47
102
}
330
47
100
AcDbScale
 70
     0
300
3/4" = 1'-0"
140
0.75
141
12.0
290
     0
  0
SCALE
  5
64
102
{ACAD_REACTORS
330
47
102
}
330
47
100
AcDbScale
 70
     0
300
1" = 1'-0"
140
1.0
141
12.0
290
     0
  0
SCALE
  5
65
102
{ACAD_REACTORS
330
47
102
}
330
47
100
AcDbScale
 70
     0
300
1-1/2" = 1'-0"
140
1.5
141
12.0
290
     0
  0
SCALE
  5
66
102
{ACAD_REACTORS
330
47
102
}
330
47
100
AcDbScale
 70
     0
300
3" = 1'-0"
140
3.0
141
12.0
290
     0
  0
SCALE
  5
67
102
{ACAD_REACTORS
330
47
102
}
330
47
100
AcDbScale
 70
     0
300
6" = 1'-0"
140
6.0
141
12.0
290
     0
  0
SCALE
  5
68
102
{ACAD_REACTORS
330
47
102
}
330
47
100
AcDbScale
 70
     0
300
1'-0" = 1'-0"
140
12.0
141
12.0
290
     0
  0
TABLESTYLE
  5
6A
102
{ACAD_REACTORS
330
69
102
}
102
{ACAD_XDICTIONARY
360
1B0
102
}
330
69
100
AcDbTableStyle
  3
Standard
 70
     0
 71
     0
 40
0.06
 41
0.06
280
     0
281
     0
  7
Standard
140
4.5
170
     2
 62
     0
 63
   257
283
     0
 90
        4
 91
        0
  1

274
    -2
284
     1
 64
     0
275
    -2
285
     1
 65
     0
276
    -2
286
     1
 66
     0
277
    -2
287
     1
 67
     0
278
    -2
288
     1
 68
     0
279
    -2
289
     1
 69
     0
  7
Standard
140
6.0
170
     5
 62
     0
 63
   257
283
     0
 90
        4
 91
        0
  1

274
    -2
284
     1
 64
     0
275
    -2
285
     1
 65
     0
276
    -2
286
     1
 66
     0
277
    -2
287
     1
 67
     0
278
    -2
288
     1
 68
     0
279
    -2
289
     1
 69
     0
  7
Standard
140
4.5
170
     5
 62
     0
 63
   257
283
     0
 90
        4
 91
        0
  1

274
    -2
284
     1
 64
     0
275
    -2
285
     1
 65
     0
276
    -2
286
     1
 66
     0
277
    -2
287
     1
 67
     0
278
    -2
288
     1
 68
     0
279
    -2
289
     1
 69
     0
  0
VISUALSTYLE
  5
2F
102
{ACAD_REACTORS
330
2A
102
}
330
2A
100
AcDbVisualStyle
  2
2dWireframe
 70
     4
177
     3
291
     0
 70
    58
 90
        0
176
     1
 90
        2
176
     1
 90
        0
176
     1
 90
        0
176
     1
 40
0.6
176
     1
 40
30.0
176
     1
 62
     7
420
 16777215
176
     1
 90
        1
176
     1
 90
        4
176
     1
 62
     7
176
     1
 62
   257
176
     1
 90
        1
176
     1
 90
        1
176
     1
 40
1.0
176
     1
 90
        0
176
     1
 62
   257
176
     1
 40
1.0
176
     1
 90
        1
176
     1
 90
        6
176
     1
 90
        2
176
     1
 62
     7
176
     1
 90
        5
176
     1
 90
        0
176
     1
 90
        0
176
     1
290
     0
176
     1
 90
        1
176
     1
 40
0.0
176
     1
 90
        0
176
     1
290
     1
176
     1
290
     1
176
     1
290
     0
176
     1
290
     0
176
     1
290
     0
176
     1
290
     0
176
     1
290
     0
176
     1
290
     0
176
     1
290
     0
176
     1
 90
       50
176
     1
 40
0.0
176
     1
 40
1.0
176
     1
 90
        0
176
     1
 62
    18
420
        0
176
     1
 90
       50
176
     1
 90
        3
176
     1
 62
     5
420
      255
176
     1
290
     0
176
     1
 90
       50
176
     1
 90
       50
176
     1
 90
       50
176
     1
290
     0
176
     1
 90
       50
176
     1
 62
   256
176
     0
 40
1.0
176
     0
 90
        2
176
     1
  1
strokes_ogs.tif
176
     1
290
     0
176
     1
 40
1.0
176
     1
 40
1.0
176
     1
  0
VISUALSTYLE
  5
32
102
{ACAD_REACTORS
330
2A
102
}
330
2A
100
AcDbVisualStyle
  2
Basic
 70
     7
177
     3
291
     1
 70
    58
 90
        1
176
     1
 90
        0
176
     1
 90
        1
176
     1
 90
        0
176
     1
 40
0.6
176
     1
 40
30.0
176
     1
 62
     7
420
 16777215
176
     1
 90
        0
176
     1
 90
        4
176
     1
 62
     7
176
     1
 62
   257
176
     1
 90
        1
176
     1
 90
        1
176
     1
 40
1.0
176
     1
 90
        8
176
     1
 62
     7
176
     1
 40
1.0
176
     1
 90
        1
176
     1
 90
        6
176
     1
 90
        2
176
     1
 62
     7
176
     1
 90
        5
176
     1
 90
        0
176
     1
 90
        0
176
     1
290
     0
176
     1
 90
        1
176
     1
 40
0.0
176
     1
 90
        0
176
     1
290
     0
176
     1
290
     1
176
     1
290
     1
176
     1
290
     0
176
     1
290
     0
176
     1
290
     0
176
     1
290
     0
176
     1
290
     0
176
     1
290
     0
176
     1
 90
       50
176
     1
 40
0.0
176
     1
 40
1.0
176
     1
 90
        0
176
     1
 62
    18
420
        0
176
     1
 90
       50
176
     1
 90
        3
176
     1
 62
     5
420
      255
176
     1
290
     0
176
     1
 90
       50
176
     1
 90
       50
176
     1
 90
       50
176
     1
290
     0
176
     1
 90
       50
176
     1
 62
   256
176
     0
 40
1.0
176
     0
 90
        2
176
     1
  1
strokes_ogs.tif
176
     1
290
     0
176
     1
 40
1.0
176
     1
 40
1.0
176
     1
  0
VISUALSTYLE
  5
36
102
{ACAD_REACTORS
330
2A
102
}
330
2A
100
AcDbVisualStyle
  2
Brighten
 70
    12
177
     3
291
     1
 70
    58
 90
        2
176
     1
 90
        2
176
     1
 90
        0
176
     1
 90
        0
176
     1
 40
0.6
176
     1
 40
30.0
176
     1
 62
     7
420
 16777215
176
     1
 90
        1
176
     1
 90
        4
176
     1
 62
     7
176
     1
 62
   257
176
     1
 90
        1
176
     1
 90
        1
176
     1
 40
1.0
176
     1
 90
        8
176
     1
 62
     7
176
     1
 40
1.0
176
     1
 90
        1
176
     1
 90
        6
176
     1
 90
        2
176
     1
 62
     7
176
     1
 90
        5
176
     1
 90
        0
176
     1
 90
        0
176
     1
290
     0
176
     1
 90
        1
176
     1
 40
50.0
176
     1
 90
        0
176
     1
290
     0
176
     1
290
     1
176
     1
290
     1
176
     1
290
     0
176
     1
290
     0
176
     1
290
     0
176
     1
290
     0
176
     1
290
     0
176
     1
290
     0
176
     1
 90
       50
176
     1
 40
0.0
176
     1
 40
1.0
176
     1
 90
        0
176
     1
 62
    18
420
        0
176
     1
 90
       50
176
     1
 90
        3
176
     1
 62
     5
420
      255
176
     1
290
     0
176
     1
 90
       50
176
     1
 90
       50
176
     1
 90
       50
176
     1
290
     0
176
     1
 90
       50
176
     1
 62
   256
176
     0
 40
1.0
176
     0
 90
        2
176
     1
  1
strokes_ogs.tif
176
     1
290
     0
176
     1
 40
1.0
176
     1
 40
1.0
176
     1
  0
VISUALSTYLE
  5
3A
102
{ACAD_REACTORS
330
2A
102
}
330
2A
100
AcDbVisualStyle
  2
ColorChange
 70
    16
177
     3
291
     1
 70
    58
 90
        2
176
     1
 90
        2
176
     1
 90
        3
176
     1
 90
        0
176
     1
 40
0.6
176
     1
 40
30.0
176
     1
 62
     8
420
  8421504
176
     1
 90
        1
176
     1
 90
        4
176
     1
 62
     7
176
     1
 62
   257
176
     1
 90
        1
176
     1
 90
        1
176
     1
 40
1.0
176
     1
 90
        8
176
     1
 62
     8
420
  8421504
176
     1
 40
1.0
176
     1
 90
        1
176
     1
 90
        6
176
     1
 90
        2
176
     1
 62
     7
176
     1
 90
        5
176
     1
 90
        0
176
     1
 90
        0
176
     1
290
     0
176
     1
 90
        1
176
     1
 40
0.0
176
     1
 90
        0
176
     1
290
     0
176
     1
290
     1
176
     1
290
     1
176
     1
290
     0
176
     1
290
     0
176
     1
290
     0
176
     1
290
     0
176
     1
290
     0
176
     1
290
     0
176
     1
 90
       50
176
     1
 40
0.0
176
     1
 40
1.0
176
     1
 90
        0
176
     1
 62
    18
420
        0
176
     1
 90
       50
176
     1
 90
        3
176
     1
 62
     5
420
      255
176
     1
290
     0
176
     1
 90
       50
176
     1
 90
       50
176
     1
 90
       50
176
     1
290
     0
176
     1
 90
       50
176
     1
 62
   256
176
     0
 40
1.0
176
     0
 90
        2
176
     1
  1
strokes_ogs.tif
176
     1
290
     0
176
     1
 40
1.0
176
     1
 40
1.0
176
     1
  0
VISUALSTYLE
  5
34
102
{ACAD_REACTORS
330
2A
102
}
330
2A
100
AcDbVisualStyle
  2
Conceptual
 70
     9
177
     3
291
     0
 70
    58
 90
        3
176
     1
 90
        2
176
     1
 90
        0
176
     1
 90
        0
176
     1
 40
0.6
176
     1
 40
30.0
176
     1
 62
     7
420
 16777215
176
     1
 90
        2
176
     1
 90
        2
176
     1
 62
     7
176
     1
 62
   257
176
     1
 90
        1
176
     1
 90
        1
176
     1
 40
179.0
176
     1
 90
        8
176
     1
 62
     7
176
     1
 40
1.0
176
     1
 90
        1
176
     1
 90
        6
176
     1
 90
        2
176
     1
 62
     7
176
     1
 90
        3
176
     1
 90
        0
176
     1
 90
        0
176
     1
290
     0
176
     1
 90
        1
176
     1
 40
0.0
176
     1
 90
        0
176
     1
290
     0
176
     1
290
     1
176
     1
290
     1
176
     1
290
     0
176
     1
290
     0
176
     1
290
     0
176
     1
290
     0
176
     1
290
     0
176
     1
290
     0
176
     1
 90
       50
176
     1
 40
0.0
176
     1
 40
1.0
176
     1
 90
        0
176
     1
 62
    18
420
        0
176
     1
 90
       50
176
     1
 90
        3
176
     1
 62
     5
420
      255
176
     1
290
     0
176
     1
 90
       50
176
     1
 90
       50
176
     1
 90
       50
176
     1
290
     0
176
     1
 90
       50
176
     1
 62
   256
176
     0
 40
1.0
176
     0
 90
        2
176
     1
  1
strokes_ogs.tif
176
     1
290
     0
176
     1
 40
1.0
176
     1
 40
1.0
176
     1
  0
VISUALSTYLE
  5
35
102
{ACAD_REACTORS
330
2A
102
}
330
2A
100
AcDbVisualStyle
  2
Dim
 70
    11
177
     3
291
     1
 70
    58
 90
        2
176
     1
 90
        2
176
     1
 90
        0
176
     1
 90
        0
176
     1
 40
0.6
176
     1
 40
30.0
176
     1
 62
     7
420
 16777215
176
     1
 90
        1
176
     1
 90
        4
176
     1
 62
     7
176
     1
 62
   257
176
     1
 90
        1
176
     1
 90
        1
176
     1
 40
1.0
176
     1
 90
        8
176
     1
 62
     7
176
     1
 40
1.0
176
     1
 90
        1
176
     1
 90
        6
176
     1
 90
        2
176
     1
 62
     7
176
     1
 90
        5
176
     1
 90
        0
176
     1
 90
        0
176
     1
290
     0
176
     1
 90
        1
176
     1
 40
-50.0
176
     1
 90
        0
176
     1
290
     0
176
     1
290
     1
176
     1
290
     1
176
     1
290
     0
176
     1
290
     0
176
     1
290
     0
176
     1
290
     0
176
     1
290
     0
176
     1
290
     0
176
     1
 90
       50
176
     1
 40
0.0
176
     1
 40
1.0
176
     1
 90
        0
176
     1
 62
    18
420
        0
176
     1
 90
       50
176
     1
 90
        3
176
     1
 62
     5
420
      255
176
     1
290
     0
176
     1
 90
       50
176
     1
 90
       50
176
     1
 90
       50
176
     1
290
     0
176
     1
 90
       50
176
     1
 62
   256
176
     0
 40
1.0
176
     0
 90
        2
176
     1
  1
strokes_ogs.tif
176
     1
290
     0
176
     1
 40
1.0
176
     1
 40
1.0
176
     1
  0
VISUALSTYLE
  5
3D
102
{ACAD_REACTORS
330
2A
102
}
330
2A
100
AcDbVisualStyle
  2
EdgeColorOff
 70
    22
177
     3
291
     1
 70
    58
 90
        2
176
     0
 90
        2
176
     0
 90
        0
176
     0
 90
        0
176
     0
 40
0.6
176
     0
 40
30.0
176
     0
 62
     7
420
 16777215
176
     0
 90
        1
176
     0
 90
        4
176
     0
 62
     7
176
     0
 62
   257
176
     0
 90
        1
176
     0
 90
        1
176
     0
 40
1.0
176
     0
 90
        8
176
     2
 62
     7
176
     0
 40
1.0
176
     0
 90
        1
176
     0
 90
        6
176
     0
 90
        2
176
     0
 62
     7
176
     0
 90
        5
176
     0
 90
        0
176
     0
 90
        0
176
     0
290
     0
176
     0
 90
        1
176
     0
 40
0.0
176
     0
 90
        0
176
     0
290
     0
176
     0
290
     1
176
     0
290
     1
176
     0
290
     0
176
     0
290
     0
176
     0
290
     0
176
     0
290
     0
176
     0
290
     0
176
     0
290
     0
176
     0
 90
       50
176
     0
 40
0.0
176
     0
 40
1.0
176
     0
 90
        0
176
     0
 62
    18
420
        0
176
     0
 90
       50
176
     0
 90
        3
176
     0
 62
     5
420
      255
176
     0
290
     0
176
     0
 90
       50
176
     0
 90
       50
176
     0
 90
       50
176
     0
290
     0
176
     0
 90
       50
176
     0
 62
   256
176
     0
 40
1.0
176
     0
 90
        2
176
     0
  1
strokes_ogs.tif
176
     0
290
     0
176
     0
 40
1.0
176
     0
 40
1.0
176
     0
  0
VISUALSTYLE
  5
39
102
{ACAD_REACTORS
330
2A
102
}
330
2A
100
AcDbVisualStyle
  2
Facepattern
 70
    15
177
     3
291
     1
 70
    58
 90
        2
176
     1
 90
        2
176
     1
 90
        0
176
     1
 90
        0
176
     1
 40
0.6
176
     1
 40
30.0
176
     1
 62
     7
420
 16777215
176
     1
 90
        1
176
     1
 90
        4
176
     1
 62
     7
176
     1
 62
   257
176
     1
 90
        1
176
     1
 90
        1
176
     1
 40
1.0
176
     1
 90
        8
176
     1
 62
     7
176
     1
 40
1.0
176
     1
 90
        1
176
     1
 90
        6
176
     1
 90
        2
176
     1
 62
     7
176
     1
 90
        5
176
     1
 90
        0
176
     1
 90
        0
176
     1
290
     0
176
     1
 90
        1
176
     1
 40
0.0
176
     1
 90
        0
176
     1
290
     0
176
     1
290
     1
176
     1
290
     1
176
     1
290
     0
176
     1
290
     0
176
     1
290
     0
176
     1
290
     0
176
     1
290
     0
176
     1
290
     0
176
     1
 90
       50
176
     1
 40
0.0
176
     1
 40
1.0
176
     1
 90
        0
176
     1
 62
    18
420
        0
176
     1
 90
       50
176
     1
 90
        3
176
     1
 62
     5
420
      255
176
     1
290
     0
176
     1
 90
       50
176
     1
 90
       50
176
     1
 90
       50
176
     1
290
     0
176
     1
 90
       50
176
     1
 62
   256
176
     0
 40
1.0
176
     0
 90
        2
176
     1
  1
strokes_ogs.tif
176
     1
290
     0
176
     1
 40
1.0
176
     1
 40
1.0
176
     1
  0
VISUALSTYLE
  5
2B
102
{ACAD_REACTORS
330
2A
102
}
330
2A
100
AcDbVisualStyle
  2
Flat
 70
     0
177
     3
291
     1
 70
    58
 90
        2
176
     1
 90
        1
176
     1
 90
        1
176
     1
 90
        2
176
     1
 40
0.6
176
     1
 40
30.0
176
     1
 62
     7
420
 16777215
176
     1
 90
        0
176
     1
 90
        0
176
     1
 62
     7
176
     1
 62
   257
176
     1
 90
        1
176
     1
 90
        1
176
     1
 40
1.0
176
     1
 90
        8
176
     1
 62
     7
176
     1
 40
1.0
176
     1
 90
        1
176
     1
 90
        6
176
     1
 90
        2
176
     1
 62
     7
176
     1
 90
        5
176
     1
 90
        0
176
     1
 90
        0
176
     1
290
     0
176
     1
 90
       13
176
     1
 40
0.0
176
     1
 90
        0
176
     1
290
     0
176
     1
290
     1
176
     1
290
     1
176
     1
290
     0
176
     1
290
     0
176
     1
290
     0
176
     1
290
     0
176
     1
290
     0
176
     1
290
     0
176
     1
 90
       50
176
     1
 40
0.0
176
     1
 40
1.0
176
     1
 90
        0
176
     1
 62
    18
420
        0
176
     1
 90
       50
176
     1
 90
        3
176
     1
 62
     5
420
      255
176
     1
290
     0
176
     1
 90
       50
176
     1
 90
       50
176
     1
 90
       50
176
     1
290
     0
176
     1
 90
       50
176
     1
 62
   256
176
     0
 40
1.0
176
     0
 90
        2
176
     1
  1
strokes_ogs.tif
176
     1
290
     0
176
     1
 40
1.0
176
     1
 40
1.0
176
     1
  0
VISUALSTYLE
  5
2C
102
{ACAD_REACTORS
330
2A
102
}
330
2A
100
AcDbVisualStyle
  2
FlatWithEdges
 70
     1
177
     3
291
     1
 70
    58
 90
        2
176
     1
 90
        1
176
     1
 90
        1
176
     1
 90
        2
176
     1
 40
0.6
176
     1
 40
30.0
176
     1
 62
     7
420
 16777215
176
     1
 90
        1
176
     1
 90
        0
176
     1
 62
     7
176
     1
 62
   257
176
     1
 90
        1
176
     1
 90
        1
176
     1
 40
1.0
176
     1
 90
        0
176
     1
 62
   257
176
     1
 40
1.0
176
     1
 90
        1
176
     1
 90
        6
176
     1
 90
        2
176
     1
 62
     7
176
     1
 90
        5
176
     1
 90
        0
176
     1
 90
        0
176
     1
290
     0
176
     1
 90
       13
176
     1
 40
0.0
176
     1
 90
        0
176
     1
290
     0
176
     1
290
     1
176
     1
290
     1
176
     1
290
     0
176
     1
290
     0
176
     1
290
     0
176
     1
290
     0
176
     1
290
     0
176
     1
290
     0
176
     1
 90
       50
176
     1
 40
0.0
176
     1
 40
1.0
176
     1
 90
        0
176
     1
 62
    18
420
        0
176
     1
 90
       50
176
     1
 90
        3
176
     1
 62
     5
420
      255
176
     1
290
     0
176
     1
 90
       50
176
     1
 90
       50
176
     1
 90
       50
176
     1
290
     0
176
     1
 90
       50
176
     1
 62
   256
176
     0
 40
1.0
176
     0
 90
        2
176
     1
  1
strokes_ogs.tif
176
     1
290
     0
176
     1
 40
1.0
176
     1
 40
1.0
176
     1
  0
VISUALSTYLE
  5
2D
102
{ACAD_REACTORS
330
2A
102
}
330
2A
100
AcDbVisualStyle
  2
Gouraud
 70
     2
177
     3
291
     1
 70
    58
 90
        2
176
     1
 90
        2
176
     1
 90
        1
176
     1
 90
        2
176
     1
 40
0.6
176
     1
 40
30.0
176
     1
 62
     7
420
 16777215
176
     1
 90
        0
176
     1
 90
        0
176
     1
 62
     7
176
     1
 62
   257
176
     1
 90
        1
176
     1
 90
        1
176
     1
 40
1.0
176
     1
 90
        0
176
     1
 62
     7
176
     1
 40
1.0
176
     1
 90
        1
176
     1
 90
        6
176
     1
 90
        2
176
     1
 62
     7
176
     1
 90
        5
176
     1
 90
        0
176
     1
 90
        0
176
     1
290
     0
176
     1
 90
       13
176
     1
 40
0.0
176
     1
 90
        0
176
     1
290
     0
176
     1
290
     1
176
     1
290
     1
176
     1
290
     0
176
     1
290
     0
176
     1
290
     0
176
     1
290
     0
176
     1
290
     0
176
     1
290
     0
176
     1
 90
       50
176
     1
 40
0.0
176
     1
 40
1.0
176
     1
 90
        0
176
     1
 62
    18
420
        0
176
     1
 90
       50
176
     1
 90
        3
176
     1
 62
     5
420
      255
176
     1
290
     0
176
     1
 90
       50
176
     1
 90
       50
176
     1
 90
       50
176
     1
290
     0
176
     1
 90
       50
176
     1
 62
   256
176
     0
 40
1.0
176
     0
 90
        2
176
     1
  1
strokes_ogs.tif
176
     1
290
     0
176
     1
 40
1.0
176
     1
 40
1.0
176
     1
  0
VISUALSTYLE
  5
2E
102
{ACAD_REACTORS
330
2A
102
}
330
2A
100
AcDbVisualStyle
  2
GouraudWithEdges
 70
     3
177
     3
291
     1
 70
    58
 90
        2
176
     1
 90
        2
176
     1
 90
        1
176
     1
 90
        2
176
     1
 40
0.6
176
     1
 40
30.0
176
     1
 62
     7
420
 16777215
176
     1
 90
        1
176
     1
 90
        0
176
     1
 62
     7
176
     1
 62
   257
176
     1
 90
        1
176
     1
 90
        1
176
     1
 40
1.0
176
     1
 90
        0
176
     1
 62
   257
176
     1
 40
1.0
176
     1
 90
        1
176
     1
 90
        6
176
     1
 90
        2
176
     1
 62
     7
176
     1
 90
        5
176
     1
 90
        0
176
     1
 90
        0
176
     1
290
     0
176
     1
 90
       13
176
     1
 40
0.0
176
     1
 90
        0
176
     1
290
     0
176
     1
290
     1
176
     1
290
     1
176
     1
290
     0
176
     1
290
     0
176
     1
290
     0
176
     1
290
     0
176
     1
290
     0
176
     1
290
     0
176
     1
 90
       50
176
     1
 40
0.0
176
     1
 40
1.0
176
     1
 90
        0
176
     1
 62
    18
420
        0
176
     1
 90
       50
176
     1
 90
        3
176
     1
 62
     5
420
      255
176
     1
290
     0
176
     1
 90
       50
176
     1
 90
       50
176
     1
 90
       50
176
     1
290
     0
176
     1
 90
       50
176
     1
 62
   256
176
     0
 40
1.0
176
     0
 90
        2
176
     1
  1
strokes_ogs.tif
176
     1
290
     0
176
     1
 40
1.0
176
     1
 40
1.0
176
     1
  0
VISUALSTYLE
  5
31
102
{ACAD_REACTORS
330
2A
102
}
330
2A
100
AcDbVisualStyle
  2
Hidden
 70
     6
177
     3
291
     0
 70
    58
 90
        1
176
     1
 90
        2
176
     1
 90
        2
176
     1
 90
        0
176
     1
 40
0.6
176
     1
 40
30.0
176
     1
 62
     7
420
 16777215
176
     1
 90
        2
176
     1
 90
        2
176
     1
 62
     7
176
     1
 62
   257
176
     1
 90
        2
176
     1
 90
        1
176
     1
 40
40.0
176
     1
 90
        0
176
     1
 62
   257
176
     1
 40
1.0
176
     1
 90
        1
176
     1
 90
        6
176
     1
 90
        2
176
     1
 62
     7
176
     1
 90
        3
176
     1
 90
        0
176
     1
 90
        0
176
     1
290
     0
176
     1
 90
        1
176
     1
 40
0.0
176
     1
 90
        0
176
     1
290
     0
176
     1
290
     1
176
     1
290
     1
176
     1
290
     0
176
     1
290
     0
176
     1
290
     0
176
     1
290
     0
176
     1
290
     0
176
     1
290
     0
176
     1
 90
       50
176
     1
 40
0.0
176
     1
 40
1.0
176
     1
 90
        0
176
     1
 62
    18
420
        0
176
     1
 90
       50
176
     1
 90
        3
176
     1
 62
     5
420
      255
176
     1
290
     0
176
     1
 90
       50
176
     1
 90
       50
176
     1
 90
       50
176
     1
290
     0
176
     1
 90
       50
176
     1
 62
   256
176
     0
 40
1.0
176
     0
 90
        2
176
     1
  1
strokes_ogs.tif
176
     1
290
     0
176
     1
 40
1.0
176
     1
 40
1.0
176
     1
  0
VISUALSTYLE
  5
3B
102
{ACAD_REACTORS
330
2A
102
}
330
2A
100
AcDbVisualStyle
  2
JitterOff
 70
    20
177
     3
291
     1
 70
    58
 90
        2
176
     0
 90
        2
176
     0
 90
        0
176
     0
 90
        0
176
     0
 40
0.6
176
     0
 40
30.0
176
     0
 62
     7
420
 16777215
176
     0
 90
        1
176
     0
 90
        4
176
     0
 62
     7
176
     0
 62
   257
176
     0
 90
        1
176
     0
 90
        1
176
     0
 40
1.0
176
     0
 90
       10
176
     2
 62
     7
176
     0
 40
1.0
176
     0
 90
        1
176
     0
 90
        6
176
     0
 90
        2
176
     0
 62
     7
176
     0
 90
        5
176
     0
 90
        0
176
     0
 90
        0
176
     0
290
     0
176
     0
 90
        1
176
     0
 40
0.0
176
     0
 90
        0
176
     0
290
     0
176
     0
290
     1
176
     0
290
     1
176
     0
290
     0
176
     0
290
     0
176
     0
290
     0
176
     0
290
     0
176
     0
290
     0
176
     0
290
     0
176
     0
 90
       50
176
     0
 40
0.0
176
     0
 40
1.0
176
     0
 90
        0
176
     0
 62
    18
420
        0
176
     0
 90
       50
176
     0
 90
        3
176
     0
 62
     5
420
      255
176
     0
290
     0
176
     0
 90
       50
176
     0
 90
       50
176
     0
 90
       50
176
     0
290
     0
176
     0
 90
       50
176
     0
 62
   256
176
     0
 40
1.0
176
     0
 90
        2
176
     0
  1
strokes_ogs.tif
176
     0
290
     0
176
     0
 40
1.0
176
     0
 40
1.0
176
     0
  0
VISUALSTYLE
  5
38
102
{ACAD_REACTORS
330
2A
102
}
330
2A
100
AcDbVisualStyle
  2
Linepattern
 70
    14
177
     3
291
     1
 70
    58
 90
        2
176
     1
 90
        2
176
     1
 90
        0
176
     1
 90
        0
176
     1
 40
0.6
176
     1
 40
30.0
176
     1
 62
     7
420
 16777215
176
     1
 90
        1
176
     1
 90
        4
176
     1
 62
     7
176
     1
 62
   257
176
     1
 90
        7
176
     1
 90
        7
176
     1
 40
1.0
176
     1
 90
        8
176
     1
 62
     7
176
     1
 40
1.0
176
     1
 90
        1
176
     1
 90
        6
176
     1
 90
        2
176
     1
 62
     7
176
     1
 90
        5
176
     1
 90
        0
176
     1
 90
        0
176
     1
290
     0
176
     1
 90
        1
176
     1
 40
0.0
176
     1
 90
        0
176
     1
290
     0
176
     1
290
     1
176
     1
290
     1
176
     1
290
     0
176
     1
290
     0
176
     1
290
     0
176
     1
290
     0
176
     1
290
     0
176
     1
290
     0
176
     1
 90
       50
176
     1
 40
0.0
176
     1
 40
1.0
176
     1
 90
        0
176
     1
 62
    18
420
        0
176
     1
 90
       50
176
     1
 90
        3
176
     1
 62
     5
420
      255
176
     1
290
     0
176
     1
 90
       50
176
     1
 90
       50
176
     1
 90
       50
176
     1
290
     0
176
     1
 90
       50
176
     1
 62
   256
176
     0
 40
1.0
176
     0
 90
        2
176
     1
  1
strokes_ogs.tif
176
     1
290
     0
176
     1
 40
1.0
176
     1
 40
1.0
176
     1
  0
VISUALSTYLE
  5
3C
102
{ACAD_REACTORS
330
2A
102
}
330
2A
100
AcDbVisualStyle
  2
OverhangOff
 70
    21
177
     3
291
     1
 70
    58
 90
        2
176
     0
 90
        2
176
     0
 90
        0
176
     0
 90
        0
176
     0
 40
0.6
176
     0
 40
30.0
176
     0
 62
     7
420
 16777215
176
     0
 90
        1
176
     0
 90
        4
176
     0
 62
     7
176
     0
 62
   257
176
     0
 90
        1
176
     0
 90
        1
176
     0
 40
1.0
176
     0
 90
        9
176
     2
 62
     7
176
     0
 40
1.0
176
     0
 90
        1
176
     0
 90
        6
176
     0
 90
        2
176
     0
 62
     7
176
     0
 90
        5
176
     0
 90
        0
176
     0
 90
        0
176
     0
290
     0
176
     0
 90
        1
176
     0
 40
0.0
176
     0
 90
        0
176
     0
290
     0
176
     0
290
     1
176
     0
290
     1
176
     0
290
     0
176
     0
290
     0
176
     0
290
     0
176
     0
290
     0
176
     0
290
     0
176
     0
290
     0
176
     0
 90
       50
176
     0
 40
0.0
176
     0
 40
1.0
176
     0
 90
        0
176
     0
 62
    18
420
        0
176
     0
 90
       50
176
     0
 90
        3
176
     0
 62
     5
420
      255
176
     0
290
     0
176
     0
 90
       50
176
     0
 90
       50
176
     0
 90
       50
176
     0
290
     0
176
     0
 90
       50
176
     0
 62
   256
176
     0
 40
1.0
176
     0
 90
        2
176
     0
  1
strokes_ogs.tif
176
     0
290
     0
176
     0
 40
1.0
176
     0
 40
1.0
176
     0
  0
VISUALSTYLE
  5
33
102
{ACAD_REACTORS
330
2A
102
}
330
2A
100
AcDbVisualStyle
  2
Realistic
 70
     8
177
     3
291
     0
 70
    58
 90
        2
176
     1
 90
        3
176
     1
 90
        0
176
     1
 90
        2
176
     1
 40
0.6
176
     1
 40
30.0
176
     1
 62
     7
420
 16777215
176
     1
 90
        0
176
     1
 90
        0
176
     1
 62
     7
176
     1
 62
   257
176
     1
 90
        1
176
     1
 90
        1
176
     1
 40
1.0
176
     1
 90
        8
176
     1
 62
   257
176
     1
 40
1.0
176
     1
 90
        1
176
     1
 90
        6
176
     1
 90
        2
176
     1
 62
     7
176
     1
 90
        3
176
     1
 90
        0
176
     1
 90
        0
176
     1
290
     0
176
     1
 90
       13
176
     1
 40
0.0
176
     1
 90
        0
176
     1
290
     0
176
     1
290
     1
176
     1
290
     1
176
     1
290
     0
176
     1
290
     0
176
     1
290
     0
176
     1
290
     0
176
     1
290
     0
176
     1
290
     0
176
     1
 90
       50
176
     1
 40
0.0
176
     1
 40
1.0
176
     1
 90
        0
176
     1
 62
    18
420
        0
176
     1
 90
       50
176
     1
 90
        3
176
     1
 62
     5
420
      255
176
     1
290
     0
176
     1
 90
       50
176
     1
 90
       50
176
     1
 90
       50
176
     1
290
     0
176
     1
 90
       50
176
     1
 62
   256
176
     0
 40
1.0
176
     0
 90
        2
176
     1
  1
strokes_ogs.tif
176
     1
290
     0
176
     1
 40
1.0
176
     1
 40
1.0
176
     1
  0
VISUALSTYLE
  5
42
102
{ACAD_REACTORS
330
2A
102
}
330
2A
100
AcDbVisualStyle
  2
Shaded
 70
    27
177
     3
291
     0
 70
    58
 90
        2
176
     1
 90
        2
176
     1
 90
        1
176
     1
 90
        2
176
     1
 40
0.6
176
     1
 40
30.0
176
     1
 62
     7
420
 16777215
176
     1
 90
        0
176
     1
 90
        4
176
     1
 62
     7
176
     1
 62
   257
176
     1
 90
        1
176
     1
 90
        1
176
     1
 40
1.0
176
     1
 90
        8
176
     1
 62
   257
176
     1
 40
1.0
176
     1
 90
        1
176
     1
 90
        6
176
     1
 90
        2
176
     1
 62
     8
420
  7895160
176
     1
 90
        3
176
     1
 90
        0
176
     1
 90
        0
176
     1
290
     0
176
     1
 90
        5
176
     1
 40
0.0
176
     1
 90
        0
176
     1
290
     0
176
     1
290
     1
176
     1
290
     1
176
     1
290
     0
176
     1
290
     0
176
     1
290
     0
176
     1
290
     0
176
     1
290
     0
176
     1
290
     0
176
     1
 90
       50
176
     1
 40
0.0
176
     1
 40
1.0
176
     1
 90
        0
176
     1
 62
    18
420
        0
176
     1
 90
       50
176
     1
 90
        3
176
     1
 62
     5
420
      255
176
     1
290
     0
176
     1
 90
       50
176
     1
 90
       50
176
     1
 90
       50
176
     1
290
     0
176
     1
 90
       50
176
     1
 62
   256
176
     0
 40
1.0
176
     0
 90
        2
176
     1
  1
strokes_ogs.tif
176
     1
290
     0
176
     1
 40
1.0
176
     1
 40
1.0
176
     1
  0
VISUALSTYLE
  5
41
102
{ACAD_REACTORS
330
2A
102
}
330
2A
100
AcDbVisualStyle
  2
Shaded with edges
 70
    26
177
     3
291
     0
 70
    58
 90
        2
176
     1
 90
        2
176
     1
 90
        1
176
     1
 90
        2
176
     1
 40
0.6
176
     1
 40
30.0
176
     1
 62
     7
420
 16777215
176
     1
 90
        1
176
     1
 90
       10
176
     1
 62
     7
176
     1
 62
   257
176
     1
 90
        2
176
     1
 90
        1
176
     1
 40
1.0
176
     1
 90
        8
176
     1
 62
   257
176
     1
 40
1.0
176
     1
 90
        1
176
     1
 90
        6
176
     1
 90
        2
176
     1
 62
     7
176
     1
 90
        3
176
     1
 90
        0
176
     1
 90
        0
176
     1
290
     0
176
     1
 90
        5
176
     1
 40
0.0
176
     1
 90
        0
176
     1
290
     0
176
     1
290
     1
176
     1
290
     1
176
     1
290
     0
176
     1
290
     0
176
     1
290
     0
176
     1
290
     0
176
     1
290
     0
176
     1
290
     0
176
     1
 90
       50
176
     1
 40
0.0
176
     1
 40
1.0
176
     1
 90
        0
176
     1
 62
    18
420
        0
176
     1
 90
       50
176
     1
 90
        3
176
     1
 62
     5
420
      255
176
     1
290
     0
176
     1
 90
       50
176
     1
 90
       50
176
     1
 90
       50
176
     1
290
     0
176
     1
 90
       50
176
     1
 62
   256
176
     0
 40
1.0
176
     0
 90
        2
176
     1
  1
strokes_ogs.tif
176
     1
290
     0
176
     1
 40
1.0
176
     1
 40
1.0
176
     1
  0
VISUALSTYLE
  5
3E
102
{ACAD_REACTORS
330
2A
102
}
330
2A
100
AcDbVisualStyle
  2
Shades of Gray
 70
    23
177
     3
291
     0
 70
    58
 90
        2
176
     1
 90
        2
176
     1
 90
        3
176
     1
 90
        0
176
     1
 40
0.6
176
     1
 40
30.0
176
     1
 62
     7
420
 16777215
176
     1
 90
        2
176
     1
 90
        2
176
     1
 62
     7
176
     1
 62
     7
176
     1
 90
        1
176
     1
 90
        1
176
     1
 40
40.0
176
     1
 90
        8
176
     1
 62
     7
176
     1
 40
1.0
176
     1
 90
        1
176
     1
 90
        6
176
     1
 90
        2
176
     1
 62
     7
176
     1
 90
        3
176
     1
 90
        0
176
     1
 90
        0
176
     1
290
     0
176
     1
 90
        1
176
     1
 40
0.0
176
     1
 90
        0
176
     1
290
     0
176
     1
290
     1
176
     1
290
     1
176
     1
290
     0
176
     1
290
     0
176
     1
290
     0
176
     1
290
     0
176
     1
290
     0
176
     1
290
     0
176
     1
 90
       50
176
     1
 40
0.0
176
     1
 40
1.0
176
     1
 90
        0
176
     1
 62
    18
420
        0
176
     1
 90
       50
176
     1
 90
        3
176
     1
 62
     5
420
      255
176
     1
290
     0
176
     1
 90
       50
176
     1
 90
       50
176
     1
 90
       50
176
     1
290
     0
176
     1
 90
       50
176
     1
 62
   256
176
     0
 40
1.0
176
     0
 90
        2
176
     1
  1
strokes_ogs.tif
176
     1
290
     0
176
     1
 40
1.0
176
     1
 40
1.0
176
     1
  0
VISUALSTYLE
  5
3F
102
{ACAD_REACTORS
330
2A
102
}
330
2A
100
AcDbVisualStyle
  2
Sketchy
 70
    24
177
     3
291
     0
 70
    58
 90
        1
176
     1
 90
        2
176
     1
 90
        2
176
     1
 90
        0
176
     1
 40
0.6
176
     1
 40
30.0
176
     1
 62
     7
420
 16777215
176
     1
 90
        2
176
     1
 90
        2
176
     1
 62
     7
176
     1
 62
     7
176
     1
 90
        1
176
     1
 90
        1
176
     1
 40
40.0
176
     1
 90
       11
176
     1
 62
     7
176
     1
 40
1.0
176
     1
 90
        1
176
     1
 90
        6
176
     1
 90
        2
176
     1
 62
     7
176
     1
 90
        6
176
     1
 90
        0
176
     1
 90
        0
176
     1
290
     0
176
     1
 90
        1
176
     1
 40
0.0
176
     1
 90
        0
176
     1
290
     0
176
     1
290
     1
176
     1
290
     1
176
     1
290
     0
176
     1
290
     0
176
     1
290
     0
176
     1
290
     0
176
     1
290
     0
176
     1
290
     0
176
     1
 90
       50
176
     1
 40
0.0
176
     1
 40
1.0
176
     1
 90
        0
176
     1
 62
    18
420
        0
176
     1
 90
       50
176
     1
 90
        3
176
     1
 62
     5
420
      255
176
     1
290
     0
176
     1
 90
       50
176
     1
 90
       50
176
     1
 90
       50
176
     1
290
     0
176
     1
 90
       50
176
     1
 62
   256
176
     0
 40
1.0
176
     0
 90
        2
176
     1
  1
strokes_ogs.tif
176
     1
290
     0
176
     1
 40
1.0
176
     1
 40
1.0
176
     1
  0
VISUALSTYLE
  5
37
102
{ACAD_REACTORS
330
2A
102
}
330
2A
100
AcDbVisualStyle
  2
Thicken
 70
    13
177
     3
291
     1
 70
    58
 90
        2
176
     1
 90
        2
176
     1
 90
        0
176
     1
 90
        0
176
     1
 40
0.6
176
     1
 40
30.0
176
     1
 62
     7
420
 16777215
176
     1
 90
        1
176
     1
 90
        4
176
     1
 62
     7
176
     1
 62
   257
176
     1
 90
        1
176
     1
 90
        1
176
     1
 40
1.0
176
     1
 90
       12
176
     1
 62
     7
176
     1
 40
1.0
176
     1
 90
        1
176
     1
 90
        6
176
     1
 90
        2
176
     1
 62
     7
176
     1
 90
        5
176
     1
 90
        0
176
     1
 90
        0
176
     1
290
     0
176
     1
 90
        1
176
     1
 40
0.0
176
     1
 90
        0
176
     1
290
     0
176
     1
290
     1
176
     1
290
     1
176
     1
290
     0
176
     1
290
     0
176
     1
290
     0
176
     1
290
     0
176
     1
290
     0
176
     1
290
     0
176
     1
 90
       50
176
     1
 40
0.0
176
     1
 40
1.0
176
     1
 90
        0
176
     1
 62
    18
420
        0
176
     1
 90
       50
176
     1
 90
        3
176
     1
 62
     5
420
      255
176
     1
290
     0
176
     1
 90
       50
176
     1
 90
       50
176
     1
 90
       50
176
     1
290
     0
176
     1
 90
       50
176
     1
 62
   256
176
     0
 40
1.0
176
     0
 90
        2
176
     1
  1
strokes_ogs.tif
176
     1
290
     0
176
     1
 40
1.0
176
     1
 40
1.0
176
     1
  0
VISUALSTYLE
  5
30
102
{ACAD_REACTORS
330
2A
102
}
330
2A
100
AcDbVisualStyle
  2
Wireframe
 70
     5
177
     3
291
     0
 70
    58
 90
        0
176
     1
 90
        2
176
     1
 90
        0
176
     1
 90
        0
176
     1
 40
0.6
176
     1
 40
30.0
176
     1
 62
     7
420
 16777215
176
     1
 90
        1
176
     1
 90
        4
176
     1
 62
     7
176
     1
 62
   257
176
     1
 90
        1
176
     1
 90
        1
176
     1
 40
1.0
176
     1
 90
        0
176
     1
 62
   257
176
     1
 40
1.0
176
     1
 90
        1
176
     1
 90
        6
176
     1
 90
        2
176
     1
 62
     7
176
     1
 90
        3
176
     1
 90
        0
176
     1
 90
        0
176
     1
290
     0
176
     1
 90
        1
176
     1
 40
0.0
176
     1
 90
        0
176
     1
290
     0
176
     1
290
     1
176
     1
290
     1
176
     1
290
     0
176
     1
290
     0
176
     1
290
     0
176
     1
290
     0
176
     1
290
     0
176
     1
290
     0
176
     1
 90
       50
176
     1
 40
0.0
176
     1
 40
1.0
176
     1
 90
        0
176
     1
 62
    18
420
        0
176
     1
 90
       50
176
     1
 90
        3
176
     1
 62
     5
420
      255
176
     1
290
     0
176
     1
 90
       50
176
     1
 90
       50
176
     1
 90
       50
176
     1
290
     0
176
     1
 90
       50
176
     1
 62
   256
176
     0
 40
1.0
176
     0
 90
        2
176
     1
  1
strokes_ogs.tif
176
     1
290
     0
176
     1
 40
1.0
176
     1
 40
1.0
176
     1
  0
VISUALSTYLE
  5
40
102
{ACAD_REACTORS
330
2A
102
}
330
2A
100
AcDbVisualStyle
  2
X-Ray
 70
    25
177
     3
291
     0
 70
    58
 90
        2
176
     1
 90
        2
176
     1
 90
        1
176
     1
 90
        1
176
     1
 40
0.5
176
     1
 40
30.0
176
     1
 62
     7
420
 16777215
176
     1
 90
        1
176
     1
 90
        0
176
     1
 62
     7
176
     1
 62
   257
176
     1
 90
        1
176
     1
 90
        1
176
     1
 40
1.0
176
     1
 90
        8
176
     1
 62
     7
176
     1
 40
1.0
176
     1
 90
        1
176
     1
 90
        6
176
     1
 90
        2
176
     1
 62
     7
176
     1
 90
        3
176
     1
 90
        0
176
     1
 90
        0
176
     1
290
     0
176
     1
 90
       13
176
     1
 40
0.0
176
     1
 90
        0
176
     1
290
     0
176
     1
290
     1
176
     1
290
     1
176
     1
290
     0
176
     1
290
     0
176
     1
290
     0
176
     1
290
     0
176
     1
290
     0
176
     1
290
     0
176
     1
 90
       50
176
     1
 40
0.0
176
     1
 40
1.0
176
     1
 90
        0
176
     1
 62
    18
420
        0
176
     1
 90
       50
176
     1
 90
        3
176
     1
 62
     5
420
      255
176
     1
290
     0
176
     1
 90
       50
176
     1
 90
       50
176
     1
 90
       50
176
     1
290
     0
176
     1
 90
       50
176
     1
 62
   256
176
     0
 40
1.0
176
     0
 90
        2
176
     1
  1
strokes_ogs.tif
176
     1
290
     0
176
     1
 40
1.0
176
     1
 40
1.0
176
     1
  0
DICTIONARYVAR
  5
1AF
102
{ACAD_REACTORS
330
1AE
102
}
330
1AE
100
DictionaryVariables
280
     0
  1
1:1
  0
DICTIONARYVAR
  5
1B4
102
{ACAD_REACTORS
330
1AE
102
}
330
1AE
100
DictionaryVariables
280
     0
  1
Standard
  0
DICTIONARYVAR
  5
1B3
102
{ACAD_REACTORS
330
1AE
102
}
330
1AE
100
DictionaryVariables
280
     0
  1
Standard
  0
DICTIONARY
  5
1B0
330
6A
100
AcDbDictionary
280
     1
281
     1
  3
ACAD_ROUNDTRIP_2008_TABLESTYLE_CELLSTYLEMAP
360
1B1
  0
CELLSTYLEMAP
  5
1B1
102
{ACAD_REACTORS
330
1B0
102
}
330
1B0
100
AcDbCellStyleMap
 90
        3
300
CELLSTYLE
  1
TABLEFORMAT_BEGIN
 90
        5
170
     1
 91
        0
 92
    32768
 62
   257
 93
        1
300
CONTENTFORMAT
  1
CONTENTFORMAT_BEGIN
 90
        0
 91
        0
 92
        4
 93
        0
300

 40
0.0
140
1.0
 94
        5
 62
     0
340
11
144
6.0
309
CONTENTFORMAT_END
171
     1
301
MARGIN
  1
CELLMARGIN_BEGIN
 40
1.5
 40
1.5
 40
1.5
 40
1.5
 40
1.5
 40
1.5
309
CELLMARGIN_END
 94
        6
 95
        1
302
GRIDFORMAT
  1
GRIDFORMAT_BEGIN
 90
        0
 91
        1
 62
     0
 92
       -2
340
14
 93
        0
 40
0.045
309
GRIDFORMAT_END
 95
        2
302
GRIDFORMAT
  1
GRIDFORMAT_BEGIN
 90
        0
 91
        1
 62
     0
 92
       -2
340
14
 93
        0
 40
0.045
309
GRIDFORMAT_END
 95
        4
302
GRIDFORMAT
  1
GRIDFORMAT_BEGIN
 90
        0
 91
        1
 62
     0
 92
       -2
340
14
 93
        0
 40
0.045
309
GRIDFORMAT_END
 95
        8
302
GRIDFORMAT
  1
GRIDFORMAT_BEGIN
 90
        0
 91
        1
 62
     0
 92
       -2
340
14
 93
        0
 40
0.045
309
GRIDFORMAT_END
 95
       16
302
GRIDFORMAT
  1
GRIDFORMAT_BEGIN
 90
        0
 91
        1
 62
     0
 92
       -2
340
14
 93
        0
 40
0.045
309
GRIDFORMAT_END
 95
       32
302
GRIDFORMAT
  1
GRIDFORMAT_BEGIN
 90
        0
 91
        1
 62
     0
 92
       -2
340
14
 93
        0
 40
0.045
309
GRIDFORMAT_END
309
TABLEFORMAT_END
  1
CELLSTYLE_BEGIN
 90
        1
 91
        1
300
_TITLE
309
CELLSTYLE_END
300
CELLSTYLE
  1
TABLEFORMAT_BEGIN
 90
        5
170
     1
 91
        0
 92
        0
 62
   257
 93
        1
300
CONTENTFORMAT
  1
CONTENTFORMAT_BEGIN
 90
        0
 91
        0
 92
        4
 93
        0
300

 40
0.0
140
1.0
 94
        5
 62
     0
340
11
144
4.5
309
CONTENTFORMAT_END
171
     1
301
MARGIN
  1
CELLMARGIN_BEGIN
 40
1.5
 40
1.5
 40
1.5
 40
1.5
 40
1.5
 40
1.5
309
CELLMARGIN_END
 94
        6
 95
        1
302
GRIDFORMAT
  1
GRIDFORMAT_BEGIN
 90
        0
 91
        1
 62
     0
 92
       -2
340
14
 93
        0
 40
0.045
309
GRIDFORMAT_END
 95
        2
302
GRIDFORMAT
  1
GRIDFORMAT_BEGIN
 90
        0
 91
        1
 62
     0
 92
       -2
340
14
 93
        0
 40
0.045
309
GRIDFORMAT_END
 95
        4
302
GRIDFORMAT
  1
GRIDFORMAT_BEGIN
 90
        0
 91
        1
 62
     0
 92
       -2
340
14
 93
        0
 40
0.045
309
GRIDFORMAT_END
 95
        8
302
GRIDFORMAT
  1
GRIDFORMAT_BEGIN
 90
        0
 91
        1
 62
     0
 92
       -2
340
14
 93
        0
 40
0.045
309
GRIDFORMAT_END
 95
       16
302
GRIDFORMAT
  1
GRIDFORMAT_BEGIN
 90
        0
 91
        1
 62
     0
 92
       -2
340
14
 93
        0
 40
0.045
309
GRIDFORMAT_END
 95
       32
302
GRIDFORMAT
  1
GRIDFORMAT_BEGIN
 90
        0
 91
        1
 62
     0
 92
       -2
340
14
 93
        0
 40
0.045
309
GRIDFORMAT_END
309
TABLEFORMAT_END
  1
CELLSTYLE_BEGIN
 90
        2
 91
        1
300
_HEADER
309
CELLSTYLE_END
300
CELLSTYLE
  1
TABLEFORMAT_BEGIN
 90
        5
170
     1
 91
        0
 92
        0
 62
   257
 93
        1
300
CONTENTFORMAT
  1
CONTENTFORMAT_BEGIN
 90
        0
 91
        0
 92
        4
 93
        0
300

 40
0.0
140
1.0
 94
        2
 62
     0
340
11
144
4.5
309
CONTENTFORMAT_END
171
     1
301
MARGIN
  1
CELLMARGIN_BEGIN
 40
1.5
 40
1.5
 40
1.5
 40
1.5
 40
1.5
 40
1.5
309
CELLMARGIN_END
 94
        6
 95
        1
302
GRIDFORMAT
  1
GRIDFORMAT_BEGIN
 90
        0
 91
        1
 62
     0
 92
       -2
340
14
 93
        0
 40
0.045
309
GRIDFORMAT_END
 95
        2
302
GRIDFORMAT
  1
GRIDFORMAT_BEGIN
 90
        0
 91
        1
 62
     0
 92
       -2
340
14
 93
        0
 40
0.045
309
GRIDFORMAT_END
 95
        4
302
GRIDFORMAT
  1
GRIDFORMAT_BEGIN
 90
        0
 91
        1
 62
     0
 92
       -2
340
14
 93
        0
 40
0.045
309
GRIDFORMAT_END
 95
        8
302
GRIDFORMAT
  1
GRIDFORMAT_BEGIN
 90
        0
 91
        1
 62
     0
 92
       -2
340
14
 93
        0
 40
0.045
309
GRIDFORMAT_END
 95
       16
302
GRIDFORMAT
  1
GRIDFORMAT_BEGIN
 90
        0
 91
        1
 62
     0
 92
       -2
340
14
 93
        0
 40
0.045
309
GRIDFORMAT_END
 95
       32
302
GRIDFORMAT
  1
GRIDFORMAT_BEGIN
 90
        0
 91
        1
 62
     0
 92
       -2
340
14
 93
        0
 40
0.045
309
GRIDFORMAT_END
309
TABLEFORMAT_END
  1
CELLSTYLE_BEGIN
 90
        3
 91
        2
300
_DATA
309
CELLSTYLE_END
  0
ENDSEC
  0
EOF