0
SECTION
  2
HEADER
  9
$ACADVER
  1
AC1027
  9
$ACADMAINTVER
 70
     8
  9
$DWGCODEPAGE
  3
ANSI_1252
  9
$REQUIREDVERSIONS
160
                 0
  9
$COMMENTS
  1
File was created by Cadenas
  9
$CUSTOMPROPERTYTAG
  1
NN
  9
$CUSTOMPROPERTY
  1
Eccentric Collar Two-Bolt Pillow Block Inch Bore
  9
$CUSTOMPROPERTYTAG
  1
NT
  9
$CUSTOMPROPERTY
  1
Eccentric Collar Pillow Block Bearings -(Normal Duty)
  9
$CUSTOMPROPERTYTAG
  1
NB
  9
$CUSTOMPROPERTY
  1
052762
  9
$CUSTOMPROPERTYTAG
  1
NBSYN
  9
$CUSTOMPROPERTY
  1
$PN.
  9
$CUSTOMPROPERTYTAG
  1
LINA
  9
$CUSTOMPROPERTY
  1
052762
  9
$CUSTOMPROPERTYTAG
  1
SERIES
  9
$CUSTOMPROPERTY
  1
209
  9
$CUSTOMPROPERTYTAG
  1
SS
  9
$CUSTOMPROPERTY
  1
1-11/16
  9
$CUSTOMPROPERTYTAG
  1
PN
  9
$CUSTOMPROPERTY
  1
052762
  9
$CUSTOMPROPERTYTAG
  1
DESCRIPTION
  9
$CUSTOMPROPERTY
  1
P2B-SXR-111-NL
  9
$CUSTOMPROPERTYTAG
  1
LF
  9
$CUSTOMPROPERTY
  1
NO-LUBE
  9
$CUSTOMPROPERTYTAG
  1
WEIGHT
  9
$CUSTOMPROPERTY
  1
6.5
  9
$CUSTOMPROPERTYTAG
  1
A
  9
$CUSTOMPROPERTY
  1
2.13
  9
$CUSTOMPROPERTYTAG
  1
B
  9
$CUSTOMPROPERTY
  1
7.44
  9
$CUSTOMPROPERTYTAG
  1
C
  9
$CUSTOMPROPERTY
  1
2.00
  9
$CUSTOMPROPERTYTAG
  1
DMIN
  9
$CUSTOMPROPERTY
  1
5.50
  9
$CUSTOMPROPERTYTAG
  1
DMAX
  9
$CUSTOMPROPERTY
  1
6.19
  9
$CUSTOMPROPERTYTAG
  1
F
  9
$CUSTOMPROPERTY
  1
1/2
  9
$CUSTOMPROPERTYTAG
  1
G
  9
$CUSTOMPROPERTY
  1
0.90
  9
$CUSTOMPROPERTYTAG
  1
H
  9
$CUSTOMPROPERTY
  1
0.75
  9
$CUSTOMPROPERTYTAG
  1
J
  9
$CUSTOMPROPERTY
  1
4.28
  9
$CUSTOMPROPERTYTAG
  1
L
  9
$CUSTOMPROPERTY
  1
2.50
  9
$CUSTOMPROPERTYTAG
  1
M
  9
$CUSTOMPROPERTY
  1
2.13
  9
$CUSTOMPROPERTYTAG
  1
R
  9
$CUSTOMPROPERTY
  1
0.75
  9
$CUSTOMPROPERTYTAG
  1
S
  9
$CUSTOMPROPERTY
  1
1.38
  9
$CUSTOMPROPERTYTAG
  1
U
  9
$CUSTOMPROPERTY
  1
3.38
  9
$CUSTOMPROPERTYTAG
  1
V
  9
$CUSTOMPROPERTY
  1
6.76
  9
$CUSTOMPROPERTYTAG
  1
W
  9
$CUSTOMPROPERTY
  1
0.69
  9
$CUSTOMPROPERTYTAG
  1
X
  9
$CUSTOMPROPERTY
  1
0.12
  9
$CUSTOMPROPERTYTAG
  1
COMPANY
  9
$CUSTOMPROPERTY
  1
baldor
  9
$INSBASE
 10
0.0
 20
0.0
 30
0.0
  9
$EXTMIN
 10
1.000000000000000E+20
 20
1.000000000000000E+20
 30
1.000000000000000E+20
  9
$EXTMAX
 10
-1.000000000000000E+20
 20
-1.000000000000000E+20
 30
-1.000000000000000E+20
  9
$LIMMIN
 10
0.0
 20
0.0
  9
$LIMMAX
 10
12.0
 20
9.0
  9
$ORTHOMODE
 70
     0
  9
$REGENMODE
 70
     1
  9
$FILLMODE
 70
     1
  9
$QTEXTMODE
 70
     0
  9
$MIRRTEXT
 70
     1
  9
$LTSCALE
 40
1.0
  9
$ATTMODE
 70
     1
  9
$TEXTSIZE
 40
0.2
  9
$TRACEWID
 40
0.05
  9
$TEXTSTYLE
  7
Standard
  9
$CLAYER
  8
0
  9
$CELTYPE
  6
ByLayer
  9
$CECOLOR
 62
   256
  9
$CELTSCALE
 40
1.0
  9
$DISPSILH
 70
     0
  9
$DIMSCALE
 40
1.0
  9
$DIMASZ
 40
0.18
  9
$DIMEXO
 40
0.0625
  9
$DIMDLI
 40
0.38
  9
$DIMRND
 40
0.0
  9
$DIMDLE
 40
0.0
  9
$DIMEXE
 40
0.18
  9
$DIMTP
 40
0.0
  9
$DIMTM
 40
0.0
  9
$DIMTXT
 40
0.18
  9
$DIMCEN
 40
0.09
  9
$DIMTSZ
 40
0.0
  9
$DIMTOL
 70
     0
  9
$DIMLIM
 70
     0
  9
$DIMTIH
 70
     1
  9
$DIMTOH
 70
     1
  9
$DIMSE1
 70
     0
  9
$DIMSE2
 70
     0
  9
$DIMTAD
 70
     0
  9
$DIMZIN
 70
     0
  9
$DIMBLK
  1

  9
$DIMASO
 70
     1
  9
$DIMSHO
 70
     1
  9
$DIMPOST
  1

  9
$DIMAPOST
  1

  9
$DIMALT
 70
     0
  9
$DIMALTD
 70
     2
  9
$DIMALTF
 40
25.4
  9
$DIMLFAC
 40
1.0
  9
$DIMTOFL
 70
     0
  9
$DIMTVP
 40
0.0
  9
$DIMTIX
 70
     0
  9
$DIMSOXD
 70
     0
  9
$DIMSAH
 70
     0
  9
$DIMBLK1
  1

  9
$DIMBLK2
  1

  9
$DIMSTYLE
  2
Standard
  9
$DIMCLRD
 70
     0
  9
$DIMCLRE
 70
     0
  9
$DIMCLRT
 70
     0
  9
$DIMTFAC
 40
1.0
  9
$DIMGAP
 40
0.09
  9
$DIMJUST
 70
     0
  9
$DIMSD1
 70
     0
  9
$DIMSD2
 70
     0
  9
$DIMTOLJ
 70
     1
  9
$DIMTZIN
 70
     0
  9
$DIMALTZ
 70
     0
  9
$DIMALTTZ
 70
     0
  9
$DIMUPT
 70
     0
  9
$DIMDEC
 70
     4
  9
$DIMTDEC
 70
     4
  9
$DIMALTU
 70
     2
  9
$DIMALTTD
 70
     2
  9
$DIMTXSTY
  7
Standard
  9
$DIMAUNIT
 70
     0
  9
$DIMADEC
 70
     0
  9
$DIMALTRND
 40
0.0
  9
$DIMAZIN
 70
     0
  9
$DIMDSEP
 70
    46
  9
$DIMATFIT
 70
     3
  9
$DIMFRAC
 70
     0
  9
$DIMLDRBLK
  1

  9
$DIMLUNIT
 70
     2
  9
$DIMLWD
 70
    -2
  9
$DIMLWE
 70
    -2
  9
$DIMTMOVE
 70
     0
  9
$DIMFXL
 40
1.0
  9
$DIMFXLON
 70
     0
  9
$DIMJOGANG
 40
0.7853981633974483
  9
$DIMTFILL
 70
     0
  9
$DIMTFILLCLR
 70
     0
  9
$DIMARCSYM
 70
     0
  9
$DIMLTYPE
  6

  9
$DIMLTEX1
  6

  9
$DIMLTEX2
  6

  9
$DIMTXTDIRECTION
 70
     0
  9
$LUNITS
 70
     2
  9
$LUPREC
 70
     4
  9
$SKETCHINC
 40
0.1
  9
$FILLETRAD
 40
0.5
  9
$AUNITS
 70
     0
  9
$AUPREC
 70
     0
  9
$MENU
  1
.
  9
$ELEVATION
 40
0.0
  9
$PELEVATION
 40
0.0
  9
$THICKNESS
 40
0.0
  9
$LIMCHECK
 70
     0
  9
$CHAMFERA
 40
0.0
  9
$CHAMFERB
 40
0.0
  9
$CHAMFERC
 40
0.0
  9
$CHAMFERD
 40
0.0
  9
$SKPOLY
 70
     0
  9
$TDCREATE
 40
2458168.980381343
  9
$TDUCREATE
 40
2458168.938714676
  9
$TDUPDATE
 40
2458168.980381516
  9
$TDUUPDATE
 40
2458168.93871485
  9
$TDINDWG
 40
0.0000000116
  9
$TDUSRTIMER
 40
0.0000000116
  9
$USRTIMER
 70
     1
  9
$ANGBASE
 50
0.0
  9
$ANGDIR
 70
     0
  9
$PDMODE
 70
     0
  9
$PDSIZE
 40
0.0
  9
$PLINEWID
 40
0.0
  9
$SPLFRAME
 70
     0
  9
$SPLINETYPE
 70
     6
  9
$SPLINESEGS
 70
     8
  9
$HANDSEED
  5
1D5
  9
$SURFTAB1
 70
     6
  9
$SURFTAB2
 70
     6
  9
$SURFTYPE
 70
     6
  9
$SURFU
 70
     6
  9
$SURFV
 70
     6
  9
$UCSBASE
  2

  9
$UCSNAME
  2

  9
$UCSORG
 10
0.0
 20
0.0
 30
0.0
  9
$UCSXDIR
 10
1.0
 20
0.0
 30
0.0
  9
$UCSYDIR
 10
0.0
 20
1.0
 30
0.0
  9
$UCSORTHOREF
  2

  9
$UCSORTHOVIEW
 70
     0
  9
$UCSORGTOP
 10
0.0
 20
0.0
 30
0.0
  9
$UCSORGBOTTOM
 10
0.0
 20
0.0
 30
0.0
  9
$UCSORGLEFT
 10
0.0
 20
0.0
 30
0.0
  9
$UCSORGRIGHT
 10
0.0
 20
0.0
 30
0.0
  9
$UCSORGFRONT
 10
0.0
 20
0.0
 30
0.0
  9
$UCSORGBACK
 10
0.0
 20
0.0
 30
0.0
  9
$PUCSBASE
  2

  9
$PUCSNAME
  2

  9
$PUCSORG
 10
0.0
 20
0.0
 30
0.0
  9
$PUCSXDIR
 10
1.0
 20
0.0
 30
0.0
  9
$PUCSYDIR
 10
0.0
 20
1.0
 30
0.0
  9
$PUCSORTHOREF
  2

  9
$PUCSORTHOVIEW
 70
     0
  9
$PUCSORGTOP
 10
0.0
 20
0.0
 30
0.0
  9
$PUCSORGBOTTOM
 10
0.0
 20
0.0
 30
0.0
  9
$PUCSORGLEFT
 10
0.0
 20
0.0
 30
0.0
  9
$PUCSORGRIGHT
 10
0.0
 20
0.0
 30
0.0
  9
$PUCSORGFRONT
 10
0.0
 20
0.0
 30
0.0
  9
$PUCSORGBACK
 10
0.0
 20
0.0
 30
0.0
  9
$USERI1
 70
     0
  9
$USERI2
 70
     0
  9
$USERI3
 70
     0
  9
$USERI4
 70
     0
  9
$USERI5
 70
     0
  9
$USERR1
 40
0.0
  9
$USERR2
 40
0.0
  9
$USERR3
 40
0.0
  9
$USERR4
 40
0.0
  9
$USERR5
 40
0.0
  9
$WORLDVIEW
 70
     1
  9
$SHADEDGE
 70
     3
  9
$SHADEDIF
 70
    70
  9
$TILEMODE
 70
     1
  9
$MAXACTVP
 70
    64
  9
$PINSBASE
 10
0.0
 20
0.0
 30
0.0
  9
$PLIMCHECK
 70
     0
  9
$PEXTMIN
 10
1.000000000000000E+20
 20
1.000000000000000E+20
 30
1.000000000000000E+20
  9
$PEXTMAX
 10
-1.000000000000000E+20
 20
-1.000000000000000E+20
 30
-1.000000000000000E+20
  9
$PLIMMIN
 10
0.0
 20
0.0
  9
$PLIMMAX
 10
12.0
 20
9.0
  9
$UNITMODE
 70
     0
  9
$VISRETAIN
 70
     1
  9
$PLINEGEN
 70
     0
  9
$PSLTSCALE
 70
     1
  9
$TREEDEPTH
 70
  3020
  9
$CMLSTYLE
  2
Standard
  9
$CMLJUST
 70
     0
  9
$CMLSCALE
 40
1.0
  9
$PROXYGRAPHICS
 70
     1
  9
$MEASUREMENT
 70
     0
  9
$CELWEIGHT
370
    -1
  9
$ENDCAPS
280
     0
  9
$JOINSTYLE
280
     0
  9
$LWDISPLAY
290
     0
  9
$INSUNITS
 70
     1
  9
$HYPERLINKBASE
  1

  9
$STYLESHEET
  1

  9
$XEDIT
290
     1
  9
$CEPSNTYPE
380
     0
  9
$PSTYLEMODE
290
     1
  9
$FINGERPRINTGUID
  2
{9A0D4CA4-D5AA-46D4-A7FF-08206AFA72AC}
  9
$VERSIONGUID
  2
{FAEB1C32-E019-11D5-929B-00C0DF256EC4}
  9
$EXTNAMES
290
     1
  9
$PSVPSCALE
 40
0.0
  9
$OLESTARTUP
290
     0
  9
$SORTENTS
280
   127
  9
$INDEXCTL
280
     0
  9
$HIDETEXT
280
     1
  9
$XCLIPFRAME
280
     2
  9
$HALOGAP
280
     0
  9
$OBSCOLOR
 70
   257
  9
$OBSLTYPE
280
     0
  9
$INTERSECTIONDISPLAY
280
     0
  9
$INTERSECTIONCOLOR
 70
   257
  9
$DIMASSOC
280
     2
  9
$PROJECTNAME
  1

  9
$CAMERADISPLAY
290
     0
  9
$LENSLENGTH
 40
50.0
  9
$CAMERAHEIGHT
 40
0.0
  9
$STEPSPERSEC
 40
2.0
  9
$STEPSIZE
 40
6.0
  9
$3DDWFPREC
 40
2.0
  9
$PSOLWIDTH
 40
0.25
  9
$PSOLHEIGHT
 40
4.0
  9
$LOFTANG1
 40
1.570796326794897
  9
$LOFTANG2
 40
1.570796326794897
  9
$LOFTMAG1
 40
0.0
  9
$LOFTMAG2
 40
0.0
  9
$LOFTPARAM
 70
     7
  9
$LOFTNORMALS
280
     1
  9
$LATITUDE
 40
37.795
  9
$LONGITUDE
 40
-122.394
  9
$NORTHDIRECTION
 40
0.0
  9
$TIMEZONE
 70
 -8000
  9
$LIGHTGLYPHDISPLAY
280
     1
  9
$TILEMODELIGHTSYNCH
280
     1
  9
$CMATERIAL
347
44
  9
$SOLIDHIST
280
     0
  9
$SHOWHIST
280
     1
  9
$DWFFRAME
280
     2
  9
$DGNFRAME
280
     2
  9
$REALWORLDSCALE
290
     1
  9
$INTERFERECOLOR
 62
   256
  9
$CSHADOW
280
     0
  9
$SHADOWPLANELOCATION
 40
0.0
  0
ENDSEC
  0
SECTION
  2
CLASSES
  0
CLASS
  1
ACDBDICTIONARYWDFLT
  2
AcDbDictionaryWithDefault
  3
ObjectDBX Classes
 90
        0
 91
        4
280
     0
281
     0
  0
CLASS
  1
VISUALSTYLE
  2
AcDbVisualStyle
  3
ObjectDBX Classes
 90
     4095
 91
        4
280
     0
281
     0
  0
CLASS
  1
MATERIAL
  2
AcDbMaterial
  3
ObjectDBX Classes
 90
     1153
 91
        4
280
     0
281
     0
  0
CLASS
  1
SCALE
  2
AcDbScale
  3
ObjectDBX Classes
 90
     1153
 91
        4
280
     0
281
     0
  0
CLASS
  1
TABLESTYLE
  2
AcDbTableStyle
  3
ObjectDBX Classes
 90
     4095
 91
        4
280
     0
281
     0
  0
CLASS
  1
MLEADERSTYLE
  2
AcDbMLeaderStyle
  3
ACDB_MLEADERSTYLE_CLASS
 90
     4095
 91
        4
280
     0
281
     0
  0
CLASS
  1
SUN
  2
AcDbSun
  3
SCENEOE
 90
     1153
 91
        4
280
     0
281
     0
  0
CLASS
  1
DICTIONARYVAR
  2
AcDbDictionaryVar
  3
ObjectDBX Classes
 90
        0
 91
        4
280
     0
281
     0
  0
CLASS
  1
CELLSTYLEMAP
  2
AcDbCellStyleMap
  3
ObjectDBX Classes
 90
     1152
 91
        4
280
     0
281
     0
  0
ENDSEC
  0
SECTION
  2
TABLES
  0
TABLE
  2
VPORT
  5
8
330
0
100
AcDbSymbolTable
 70
     1
  0
VPORT
  5
29
330
8
100
AcDbSymbolTableRecord
100
AcDbViewportTableRecord
  2
*Active
 70
     0
 10
0.0
 20
0.0
 11
1.0
 21
1.0
 12
0.0
 22
-0.1932499999999999
 13
0.0
 23
0.0
 14
0.5
 24
0.5
 15
0.5
 25
0.5
 16
0.0
 26
0.0
 36
1.0
 17
0.0
 27
0.0
 37
0.0
 40
2.638230000000001
 41
2.876473999613377
 42
50.0
 43
0.0
 44
0.0
 50
0.0
 51
0.0
 71
     0
 72
   100
 73
     1
 74
     3
 75
     0
 76
     0
 77
     0
 78
     0
281
     0
 65
     1
110
0.0
120
0.0
130
0.0
111
1.0
121
0.0
131
0.0
112
0.0
122
1.0
132
0.0
 79
     0
146
0.0
348
2F
 60
     3
 61
     5
292
     1
282
     1
141
0.0
142
0.0
 63
   250
361
6D
  0
ENDTAB
  0
TABLE
  2
LTYPE
  5
5
330
0
100
AcDbSymbolTable
 70
     3
  0
LTYPE
  5
14
330
5
100
AcDbSymbolTableRecord
100
AcDbLinetypeTableRecord
  2
ByBlock
 70
     0
  3

 72
    65
 73
     0
 40
0.0
  0
LTYPE
  5
15
330
5
100
AcDbSymbolTableRecord
100
AcDbLinetypeTableRecord
  2
ByLayer
 70
     0
  3

 72
    65
 73
     0
 40
0.0
  0
LTYPE
  5
16
330
5
100
AcDbSymbolTableRecord
100
AcDbLinetypeTableRecord
  2
Continuous
 70
     0
  3
Solid line
 72
    65
 73
     0
 40
0.0
  0
LTYPE
  5
9B
330
5
100
AcDbSymbolTableRecord
100
AcDbLinetypeTableRecord
  2
Dashed
 70
     0
  3

 72
    65
 73
     2
 40
2.0
 49
1.0
 74
     0
 49
-1.0
 74
     0
  0
LTYPE
  5
100
330
5
100
AcDbSymbolTableRecord
100
AcDbLinetypeTableRecord
  2
Center
 70
     0
  3

 72
    65
 73
     4
 40
1.5
 49
0.45
 74
     0
 49
-0.5
 74
     0
 49
0.05
 74
     0
 49
-0.5
 74
     0
  0
ENDTAB
  0
TABLE
  2
LAYER
  5
2
330
0
100
AcDbSymbolTable
 70
     7
  0
LAYER
  5
10
330
2
100
AcDbSymbolTableRecord
100
AcDbLayerTableRecord
  2
0
 70
     0
 62
     7
  6
Continuous
370
    -3
390
F
347
46
348
0
  0
LAYER
  5
72
330
2
100
AcDbSymbolTableRecord
100
AcDbLayerTableRecord
  2
AM_6
 70
     0
 62
    -2
  6
Continuous
370
    35
390
F
347
46
348
0
  0
LAYER
  5
9C
330
2
100
AcDbSymbolTableRecord
100
AcDbLayerTableRecord
  2
AM_9
 70
     0
 62
     6
  6
Dashed
370
    25
390
F
347
46
348
0
  0
LAYER
  5
AD
330
2
100
AcDbSymbolTableRecord
100
AcDbLayerTableRecord
  2
AM_4
 70
     0
 62
     7
  6
Continuous
370
    50
390
F
347
46
348
0
  0
LAYER
  5
101
330
2
100
AcDbSymbolTableRecord
100
AcDbLayerTableRecord
  2
AM_7
 70
     0
 62
     7
  6
Center
370
    25
390
F
347
46
348
0
  0
LAYER
  5
121
330
2
100
AcDbSymbolTableRecord
100
AcDbLayerTableRecord
  2
AM_5
 70
     0
 62
     3
  6
Continuous
370
    25
390
F
347
46
348
0
  0
LAYER
  5
1C6
330
2
100
AcDbSymbolTableRecord
100
AcDbLayerTableRecord
  2
ConnectionPoints
 70
     0
 62
     7
  6
Continuous
370
    50
390
F
347
46
348
0
  0
ENDTAB
  0
TABLE
  2
STYLE
  5
3
330
0
100
AcDbSymbolTable
 70
     1
  0
STYLE
  5
11
330
3
100
AcDbSymbolTableRecord
100
AcDbTextStyleTableRecord
  2
Standard
 70
     0
 40
0.0
 41
1.0
 50
0.0
 71
     0
 42
0.2
  3
txt
  4

  0
ENDTAB
  0
TABLE
  2
VIEW
  5
6
330
0
100
AcDbSymbolTable
 70
     0
  0
ENDTAB
  0
TABLE
  2
UCS
  5
7
330
0
100
AcDbSymbolTable
 70
     0
  0
ENDTAB
  0
TABLE
  2
APPID
  5
9
330
0
100
AcDbSymbolTable
 70
     1
  0
APPID
  5
12
330
9
100
AcDbSymbolTableRecord
100
AcDbRegAppTableRecord
  2
ACAD
 70
     0
  0
ENDTAB
  0
TABLE
  2
DIMSTYLE
  5
A
330
0
100
AcDbSymbolTable
 70
     1
100
AcDbDimStyleTable
  0
DIMSTYLE
105
27
330
A
100
AcDbSymbolTableRecord
100
AcDbDimStyleTableRecord
  2
Standard
 70
     0
178
     0
340
11
  0
ENDTAB
  0
TABLE
  2
BLOCK_RECORD
  5
1
330
0
100
AcDbSymbolTable
 70
     5
  0
BLOCK_RECORD
  5
1F
330
1
100
AcDbSymbolTableRecord
100
AcDbBlockTableRecord
  2
*Model_Space
340
22
 70
     0
280
     1
281
     0
  0
BLOCK_RECORD
  5
1B
330
1
100
AcDbSymbolTableRecord
100
AcDbBlockTableRecord
  2
*Paper_Space
340
1E
 70
     0
280
     1
281
     0
  0
BLOCK_RECORD
  5
23
330
1
100
AcDbSymbolTableRecord
100
AcDbBlockTableRecord
  2
*Paper_Space0
340
26
 70
     0
280
     1
281
     0
  0
BLOCK_RECORD
  5
6E
330
1
100
AcDbSymbolTableRecord
100
AcDbBlockTableRecord
  2
1_052762_4
340
0
102
{BLKREFS
331
6F
102
}
 70
     0
280
     1
281
     0
  0
BLOCK_RECORD
  5
90
330
1
100
AcDbSymbolTableRecord
100
AcDbBlockTableRecord
  2
2_430026_0_in_052762_4
340
0
102
{BLKREFS
331
91
102
}
 70
     0
280
     1
281
     0
  0
BLOCK_RECORD
  5
BF
330
1
100
AcDbSymbolTableRecord
100
AcDbBlockTableRecord
  2
3_131919_0_in_052762_4
340
0
102
{BLKREFS
331
C0
102
}
 70
     0
280
     1
281
     0
  0
BLOCK_RECORD
  5
123
330
1
100
AcDbSymbolTableRecord
100
AcDbBlockTableRecord
  2
4_052762H_0_in_052762_4
340
0
102
{BLKREFS
331
124
102
}
 70
     0
280
     1
281
     0
  0
ENDTAB
  0
ENDSEC
  0
SECTION
  2
BLOCKS
  0
BLOCK
  5
20
330
1F
100
AcDbEntity
  8
0
100
AcDbBlockBegin
  2
*Model_Space
 70
     0
 10
0.0
 20
0.0
 30
0.0
  3
*Model_Space
  1

  0
ENDBLK
  5
21
330
1F
100
AcDbEntity
  8
0
100
AcDbBlockEnd
  0
BLOCK
  5
1C
330
1B
100
AcDbEntity
 67
     1
  8
0
100
AcDbBlockBegin
  2
*Paper_Space
 70
     0
 10
0.0
 20
0.0
 30
0.0
  3
*Paper_Space
  1

  0
ENDBLK
  5
1D
330
1B
100
AcDbEntity
 67
     1
  8
0
100
AcDbBlockEnd
  0
BLOCK
  5
24
330
23
100
AcDbEntity
  8
0
100
AcDbBlockBegin
  2
*Paper_Space0
 70
     0
 10
0.0
 20
0.0
 30
0.0
  3
*Paper_Space0
  1

  0
ENDBLK
  5
25
330
23
100
AcDbEntity
  8
0
100
AcDbBlockEnd
  0
BLOCK
  5
70
330
6E
100
AcDbEntity
  8
0
100
AcDbBlockBegin
  2
1_052762_4
 70
     2
 10
0.0
 20
0.0
 30
0.0
  3
1_052762_4
  1

  0
ATTDEF
  5
73
330
6E
100
AcDbEntity
  8
AM_6
100
AcDbText
 10
8.72
 20
1.1
 30
0.0
 40
0.5
  1
Eccentric Collar Two-Bolt Pillow Block Inch Bore
100
AcDbAttributeDefinition
  3

  2
NN
 70
     8
280
     0
  0
ATTDEF
  5
74
330
6E
100
AcDbEntity
  8
AM_6
100
AcDbText
 10
8.72
 20
0.6000000000000001
 30
0.0
 40
0.5
  1
Eccentric Collar Pillow Block Bearings -(Normal Duty)
100
AcDbAttributeDefinition
  3

  2
NT
 70
     8
280
     0
  0
ATTDEF
  5
75
330
6E
100
AcDbEntity
  8
AM_6
100
AcDbText
 10
8.72
 20
0.1000000000000001
 30
0.0
 40
0.5
  1
052762
100
AcDbAttributeDefinition
  3

  2
NB
 70
     8
280
     0
  0
ATTDEF
  5
76
330
6E
100
AcDbEntity
  8
AM_6
100
AcDbText
 10
8.72
 20
-0.3999999999999999
 30
0.0
 40
0.5
  1
$PN.
100
AcDbAttributeDefinition
  3

  2
NBSYN
 70
     8
280
     0
  0
ATTDEF
  5
77
330
6E
100
AcDbEntity
  8
AM_6
100
AcDbText
 10
8.72
 20
-0.8999999999999999
 30
0.0
 40
0.5
  1
052762
100
AcDbAttributeDefinition
  3

  2
LINA
 70
     8
280
     0
  0
ATTDEF
  5
78
330
6E
100
AcDbEntity
  8
AM_6
100
AcDbText
 10
8.72
 20
-1.4
 30
0.0
 40
0.5
  1
209
100
AcDbAttributeDefinition
  3

  2
SERIES
 70
     8
280
     0
  0
ATTDEF
  5
79
330
6E
100
AcDbEntity
  8
AM_6
100
AcDbText
 10
8.72
 20
-1.9
 30
0.0
 40
0.5
  1
1-11/16
100
AcDbAttributeDefinition
  3

  2
SS
 70
     8
280
     0
  0
ATTDEF
  5
7A
330
6E
100
AcDbEntity
  8
AM_6
100
AcDbText
 10
8.72
 20
-2.4
 30
0.0
 40
0.5
  1
052762
100
AcDbAttributeDefinition
  3

  2
PN
 70
     8
280
     0
  0
ATTDEF
  5
7B
330
6E
100
AcDbEntity
  8
AM_6
100
AcDbText
 10
8.72
 20
-2.9
 30
0.0
 40
0.5
  1
P2B-SXR-111-NL
100
AcDbAttributeDefinition
  3

  2
DESCRIPTION
 70
     8
280
     0
  0
ATTDEF
  5
7C
330
6E
100
AcDbEntity
  8
AM_6
100
AcDbText
 10
8.72
 20
-3.4
 30
0.0
 40
0.5
  1
NO-LUBE
100
AcDbAttributeDefinition
  3

  2
LF
 70
     8
280
     0
  0
ATTDEF
  5
7D
330
6E
100
AcDbEntity
  8
AM_6
100
AcDbText
 10
8.72
 20
-3.9
 30
0.0
 40
0.5
  1
6.5
100
AcDbAttributeDefinition
  3

  2
WEIGHT
 70
     8
280
     0
  0
ATTDEF
  5
7E
330
6E
100
AcDbEntity
  8
AM_6
100
AcDbText
 10
8.72
 20
-4.4
 30
0.0
 40
0.5
  1
2.13
100
AcDbAttributeDefinition
  3

  2
A
 70
     8
280
     0
  0
ATTDEF
  5
7F
330
6E
100
AcDbEntity
  8
AM_6
100
AcDbText
 10
8.72
 20
-4.9
 30
0.0
 40
0.5
  1
7.44
100
AcDbAttributeDefinition
  3

  2
B
 70
     8
280
     0
  0
ATTDEF
  5
80
330
6E
100
AcDbEntity
  8
AM_6
100
AcDbText
 10
8.72
 20
-5.4
 30
0.0
 40
0.5
  1
2.00
100
AcDbAttributeDefinition
  3

  2
C
 70
     8
280
     0
  0
ATTDEF
  5
81
330
6E
100
AcDbEntity
  8
AM_6
100
AcDbText
 10
8.72
 20
-5.9
 30
0.0
 40
0.5
  1
5.50
100
AcDbAttributeDefinition
  3

  2
DMIN
 70
     8
280
     0
  0
ATTDEF
  5
82
330
6E
100
AcDbEntity
  8
AM_6
100
AcDbText
 10
8.72
 20
-6.4
 30
0.0
 40
0.5
  1
6.19
100
AcDbAttributeDefinition
  3

  2
DMAX
 70
     8
280
     0
  0
ATTDEF
  5
83
330
6E
100
AcDbEntity
  8
AM_6
100
AcDbText
 10
8.72
 20
-6.9
 30
0.0
 40
0.5
  1
1/2
100
AcDbAttributeDefinition
  3

  2
F
 70
     8
280
     0
  0
ATTDEF
  5
84
330
6E
100
AcDbEntity
  8
AM_6
100
AcDbText
 10
8.72
 20
-7.4
 30
0.0
 40
0.5
  1
0.90
100
AcDbAttributeDefinition
  3

  2
G
 70
     8
280
     0
  0
ATTDEF
  5
85
330
6E
100
AcDbEntity
  8
AM_6
100
AcDbText
 10
8.72
 20
-7.9
 30
0.0
 40
0.5
  1
0.75
100
AcDbAttributeDefinition
  3

  2
H
 70
     8
280
     0
  0
ATTDEF
  5
86
330
6E
100
AcDbEntity
  8
AM_6
100
AcDbText
 10
8.72
 20
-8.4
 30
0.0
 40
0.5
  1
4.28
100
AcDbAttributeDefinition
  3

  2
J
 70
     8
280
     0
  0
ATTDEF
  5
87
330
6E
100
AcDbEntity
  8
AM_6
100
AcDbText
 10
8.72
 20
-8.9
 30
0.0
 40
0.5
  1
2.50
100
AcDbAttributeDefinition
  3

  2
L
 70
     8
280
     0
  0
ATTDEF
  5
88
330
6E
100
AcDbEntity
  8
AM_6
100
AcDbText
 10
8.72
 20
-9.4
 30
0.0
 40
0.5
  1
2.13
100
AcDbAttributeDefinition
  3

  2
M
 70
     8
280
     0
  0
ATTDEF
  5
89
330
6E
100
AcDbEntity
  8
AM_6
100
AcDbText
 10
8.72
 20
-9.9
 30
0.0
 40
0.5
  1
0.75
100
AcDbAttributeDefinition
  3

  2
R
 70
     8
280
     0
  0
ATTDEF
  5
8A
330
6E
100
AcDbEntity
  8
AM_6
100
AcDbText
 10
8.72
 20
-10.4
 30
0.0
 40
0.5
  1
1.38
100
AcDbAttributeDefinition
  3

  2
S
 70
     8
280
     0
  0
ATTDEF
  5
8B
330
6E
100
AcDbEntity
  8
AM_6
100
AcDbText
 10
8.72
 20
-10.9
 30
0.0
 40
0.5
  1
3.38
100
AcDbAttributeDefinition
  3

  2
U
 70
     8
280
     0
  0
ATTDEF
  5
8C
330
6E
100
AcDbEntity
  8
AM_6
100
AcDbText
 10
8.72
 20
-11.4
 30
0.0
 40
0.5
  1
6.76
100
AcDbAttributeDefinition
  3

  2
V
 70
     8
280
     0
  0
ATTDEF
  5
8D
330
6E
100
AcDbEntity
  8
AM_6
100
AcDbText
 10
8.72
 20
-11.9
 30
0.0
 40
0.5
  1
0.69
100
AcDbAttributeDefinition
  3

  2
W
 70
     8
280
     0
  0
ATTDEF
  5
8E
330
6E
100
AcDbEntity
  8
AM_6
100
AcDbText
 10
8.72
 20
-12.4
 30
0.0
 40
0.5
  1
0.12
100
AcDbAttributeDefinition
  3

  2
X
 70
     8
280
     0
  0
ATTDEF
  5
8F
330
6E
100
AcDbEntity
  8
AM_6
100
AcDbText
 10
8.72
 20
-12.9
 30
0.0
 40
0.5
  1
baldor
100
AcDbAttributeDefinition
  3

  2
COMPANY
 70
     8
280
     0
  0
INSERT
  5
91
330
6E
100
AcDbEntity
  8
0
100
AcDbBlockReference
  2
2_430026_0_in_052762_4
 10
0.0
 20
0.0
 30
0.0
  0
INSERT
  5
C0
330
6E
100
AcDbEntity
  8
0
100
AcDbBlockReference
  2
3_131919_0_in_052762_4
 10
0.0
 20
0.0
 30
0.0
  0
INSERT
  5
124
330
6E
100
AcDbEntity
  8
0
100
AcDbBlockReference
  2
4_052762H_0_in_052762_4
 10
0.0
 20
0.0
 30
0.0
  0
ENDBLK
  5
71
330
6E
100
AcDbEntity
  8
0
100
AcDbBlockEnd
  0
BLOCK
  5
92
330
90
100
AcDbEntity
  8
0
100
AcDbBlockBegin
  2
2_430026_0_in_052762_4
 70
     2
 10
0.0
 20
0.0
 30
0.0
  3
2_430026_0_in_052762_4
  1

  0
ATTDEF
  5
94
330
90
100
AcDbEntity
  8
AM_6
100
AcDbText
 10
6.68433228331271
 20
0.1993639982534381
 30
0.0
 40
0.5
  1
430026 Plug
100
AcDbAttributeDefinition
  3

  2
NN
 70
     8
280
     0
  0
ATTDEF
  5
95
330
90
100
AcDbEntity
  8
AM_6
100
AcDbText
 10
6.68433228331271
 20
-0.3006360017465619
 30
0.0
 40
0.5
  1
Plug
100
AcDbAttributeDefinition
  3

  2
NT
 70
     8
280
     0
  0
ATTDEF
  5
96
330
90
100
AcDbEntity
  8
AM_6
100
AcDbText
 10
6.68433228331271
 20
-0.8006360017465619
 30
0.0
 40
0.5
  1
430026
100
AcDbAttributeDefinition
  3

  2
NB
 70
     8
280
     0
  0
ATTDEF
  5
97
330
90
100
AcDbEntity
  8
AM_6
100
AcDbText
 10
6.68433228331271
 20
-1.300636001746562
 30
0.0
 40
0.5
  1
$PN.
100
AcDbAttributeDefinition
  3

  2
NBSYN
 70
     8
280
     0
  0
ATTDEF
  5
98
330
90
100
AcDbEntity
  8
AM_6
100
AcDbText
 10
6.68433228331271
 20
-1.800636001746562
 30
0.0
 40
0.5
  1
430026
100
AcDbAttributeDefinition
  3

  2
LINA
 70
     8
280
     0
  0
ATTDEF
  5
99
330
90
100
AcDbEntity
  8
AM_6
100
AcDbText
 10
6.68433228331271
 20
-2.300636001746562
 30
0.0
 40
0.5
  1
430026
100
AcDbAttributeDefinition
  3

  2
PN
 70
     8
280
     0
  0
ATTDEF
  5
9A
330
90
100
AcDbEntity
  8
AM_6
100
AcDbText
 10
6.68433228331271
 20
-2.800636001746562
 30
0.0
 40
0.5
  1
baldor
100
AcDbAttributeDefinition
  3

  2
COMPANY
 70
     8
280
     0
  0
ELLIPSE
  5
9D
330
90
100
AcDbEntity
  8
AM_9
100
AcDbEllipse
 10
1.336078263051981
 20
0.0000000000000001
 30
0.0
 11
-3.127431692422572E-17
 21
-0.1702494517657397
 31
0.0
210
0.0
220
0.0
230
1.0
 40
0.7071067811865475
 41
0.0
 42
6.283185307179586
  0
LINE
  5
9E
330
90
100
AcDbEntity
  8
AM_9
100
AcDbLine
 10
1.392114230062484
 20
0.0000000000000001
 30
0.0
 11
1.430387507293472
 21
-0.0937499999999999
 31
0.0
  0
LINE
  5
9F
330
90
100
AcDbEntity
  8
AM_9
100
AcDbLine
 10
1.430387507293472
 20
0.0937500000000001
 30
0.0
 11
1.392114230062484
 21
0.0000000000000001
 31
0.0
  0
LINE
  5
A0
330
90
100
AcDbEntity
  8
AM_9
100
AcDbLine
 10
1.510977375896824
 20
0.0838459434838453
 30
0.0
 11
1.506934061755446
 21
0.0937500000000001
 31
0.0
  0
LINE
  5
A1
330
90
100
AcDbEntity
  8
AM_9
100
AcDbLine
 10
1.506934061755446
 20
-0.0937499999999999
 30
0.0
 11
1.510935748252872
 21
-0.0839479099707201
 31
0.0
  0
ELLIPSE
  5
A2
330
90
100
AcDbEntity
  8
AM_9
100
AcDbEllipse
 10
1.468660784524459
 20
-0.0000000000000015
 30
0.0
 11
5.740531871003314E-18
 21
0.09375000000000157
 31
0.0
210
0.0
220
0.0
230
1.0
 40
0.7071067811865485
 41
5.682241091603394
 42
10.02213560023942
  0
LINE
  5
A3
330
90
100
AcDbEntity
  8
AM_9
100
AcDbLine
 10
1.406193158630865
 20
-0.0661318839386912
 30
0.0
 11
1.444532738824488
 21
-0.0873197418766239
 31
0.0
  0
LINE
  5
A4
330
90
100
AcDbEntity
  8
AM_9
100
AcDbLine
 10
1.444532738824488
 20
0.0873197418766241
 30
0.0
 11
1.406193158630865
 21
0.0661318839386913
 31
0.0
  0
LINE
  5
A5
330
90
100
AcDbEntity
  8
AM_9
100
AcDbLine
 10
1.430387507293472
 20
0.0937500000000001
 30
0.0
 11
1.518247770254431
 21
0.0937500000000001
 31
0.0
  0
LINE
  5
A6
330
90
100
AcDbEntity
  8
AM_9
100
AcDbLine
 10
1.430387507293472
 20
-0.0937499999999999
 30
0.0
 11
1.518247770254431
 21
-0.0937499999999999
 31
0.0
  0
LINE
  5
A7
330
90
100
AcDbEntity
  8
AM_9
100
AcDbLine
 10
1.392114230062484
 20
0.0000000000000001
 30
0.0
 11
1.479974493023444
 21
0.0000000000000001
 31
0.0
  0
LINE
  5
A8
330
90
100
AcDbEntity
  8
AM_9
100
AcDbLine
 10
1.34599987352423
 20
-0.1907804974829229
 30
0.0
 11
1.515893883090993
 21
-0.1982851629499432
 31
0.0
  0
LINE
  5
A9
330
90
100
AcDbEntity
  8
AM_9
100
AcDbLine
 10
1.515893883090993
 20
0.1982851629499435
 30
0.0
 11
1.34599987352423
 21
0.1907804974829231
 31
0.0
  0
ELLIPSE
  5
AA
330
90
100
AcDbEntity
  8
AM_9
100
AcDbEllipse
 10
1.542913883400709
 20
0.0000000000000001
 30
0.0
 11
1.220859406418012E-17
 21
0.1993814718281258
 31
0.0
210
0.0
220
0.0
230
1.0
 40
0.7071067811865291
 41
4.46382894220813
 42
4.960949018561249
  0
ELLIPSE
  5
AB
330
90
100
AcDbEntity
  8
AM_9
100
AcDbEllipse
 10
1.424466610700297
 20
0.0000000000000016
 30
0.0
 11
4.347610051068886E-18
 21
0.07100186035836392
 31
0.0
210
0.0
220
0.0
230
1.0
 40
0.7071067811865427
 41
0.0
 42
6.283185307179586
  0
ELLIPSE
  5
AC
330
90
100
AcDbEntity
  8
AM_9
100
AcDbEllipse
 10
1.350213511824051
 20
-0.0000000000000001
 30
0.0
 11
1.168763340082628E-17
 21
0.1908735385412947
 31
0.0
210
0.0
220
0.0
230
1.0
 40
0.7071067811865489
 41
0.0
 42
6.283185307179586
  0
LINE
  5
AE
330
90
100
AcDbEntity
  8
AM_4
100
AcDbLine
 10
1.545207338986433
 20
0.0000000000000001
 30
0.0
 11
1.510977375896824
 21
0.0838459434838453
 31
0.0
  0
LINE
  5
AF
330
90
100
AcDbEntity
  8
AM_4
100
AcDbLine
 10
1.545207338986433
 20
0.0000000000000001
 30
0.0
 11
1.633067601947392
 21
0.0000000000000001
 31
0.0
  0
LINE
  5
B0
330
90
100
AcDbEntity
  8
AM_4
100
AcDbLine
 10
1.510935748252872
 20
-0.0839479099707201
 30
0.0
 11
1.545207338986433
 21
0.0000000000000001
 31
0.0
  0
ELLIPSE
  5
B1
330
90
100
AcDbEntity
  8
AM_4
100
AcDbEllipse
 10
1.468660784524461
 20
0.0000000000000008
 30
0.0
 11
5.740531871003260E-18
 21
0.09375000000000068
 31
0.0
210
0.0
220
0.0
230
1.0
 40
0.7071067811865315
 41
3.738950293059803
 42
5.682241091603395
  0
LWPOLYLINE
  5
B2
330
90
100
AcDbEntity
  8
AM_4
100
AcDbPolyline
 90
        7
 70
     0
 43
0.0
 10
1.479974493023444
 20
0.0000000000000001
 10
1.481352634541075
 20
0.0195395209668286
 10
1.483399033699804
 20
0.0300644955808391
 10
1.486626330467675
 20
0.0409874660471014
 10
1.493005251625318
 20
0.0560135656996071
 10
1.501723306102596
 20
0.071239635526069
 10
1.518247770254431
 20
0.0937500000000001
  0
LWPOLYLINE
  5
B3
330
90
100
AcDbEntity
  8
AM_4
100
AcDbPolyline
 90
        7
 70
     0
 43
0.0
 10
1.518247770254431
 20
-0.0937499999999999
 10
1.503671959709681
 20
-0.0742104790331714
 10
1.49712475308172
 20
-0.063685504419161
 10
1.491433481810313
 20
-0.0527625339528987
 10
1.485543643977006
 20
-0.037736434300393
 10
1.48182966450001
 20
-0.022510364473931
 10
1.479974493023444
 20
0.0000000000000001
  0
LINE
  5
B4
330
90
100
AcDbEntity
  8
AM_4
100
AcDbLine
 10
1.518247770254431
 20
0.0937500000000001
 30
0.0
 11
1.594794324716405
 21
0.0937500000000001
 31
0.0
  0
LWPOLYLINE
  5
B5
330
90
100
AcDbEntity
  8
AM_4
100
AcDbPolyline
 90
        6
 70
     0
 43
0.0
 10
1.594794324716405
 20
0.0937500000000001
 10
1.596172466234037
 20
0.0742104790331715
 10
1.601446162160637
 20
0.0527625339528988
 10
1.607825083318279
 20
0.0377364343003932
 10
1.616543137795557
 20
0.0225103644739312
 10
1.633067601947392
 20
0.0000000000000001
  0
LWPOLYLINE
  5
B6
330
90
100
AcDbEntity
  8
AM_4
100
AcDbPolyline
 90
        6
 70
     0
 43
0.0
 10
1.633067601947392
 20
0.0000000000000001
 10
1.618491791402643
 20
-0.0195395209668285
 10
1.606253313503274
 20
-0.0409874660471012
 10
1.600363475669967
 20
-0.0560135656996069
 10
1.596649496192972
 20
-0.0712396355260688
 10
1.594794324716405
 20
-0.0937499999999999
  0
LINE
  5
B7
330
90
100
AcDbEntity
  8
AM_4
100
AcDbLine
 10
1.594794324716405
 20
-0.0937499999999999
 30
0.0
 11
1.518247770254431
 21
-0.0937499999999999
 31
0.0
  0
LINE
  5
B8
330
90
100
AcDbEntity
  8
AM_4
100
AcDbLine
 10
1.515893883090993
 20
-0.1982851629499432
 30
0.0
 11
1.538512427796176
 21
-0.1992842835887233
 31
0.0
  0
LINE
  5
B9
330
90
100
AcDbEntity
  8
AM_4
100
AcDbLine
 10
1.538512427796176
 20
0.1992842835887235
 30
0.0
 11
1.515893883090993
 21
0.1982851629499435
 31
0.0
  0
ELLIPSE
  5
BA
330
90
100
AcDbEntity
  8
AM_4
100
AcDbEllipse
 10
1.542913883400708
 20
0.0
 30
0.0
 11
1.220859406417986E-17
 21
0.1993814718281215
 31
0.0
210
0.0
220
0.0
230
1.0
 40
0.7071067811865466
 41
4.960949018561255
 42
10.74701424938771
  0
ELLIPSE
  5
BB
330
90
100
AcDbEntity
  8
AM_4
100
AcDbEllipse
 10
1.557049132172777
 20
0.0000000000000001
 30
0.0
 11
-2.002297516605922E-17
 21
-0.109
 31
0.0
210
0.0
220
0.0
230
1.0
 40
0.7071067811865483
 41
0.0
 42
6.283185307179586
  0
LINE
  5
BC
330
90
100
AcDbEntity
  8
AM_4
100
AcDbLine
 10
1.680420575423013
 20
0.0442828986057767
 30
0.0
 11
1.679565107549567
 21
0.0490495380771809
 31
0.0
  0
LINE
  5
BD
330
90
100
AcDbEntity
  8
AM_4
100
AcDbLine
 10
1.679565107549567
 20
-0.0490495380771807
 30
0.0
 11
1.680420575423013
 21
-0.0442828986057765
 31
0.0
  0
ELLIPSE
  5
BE
330
90
100
AcDbEntity
  8
AM_4
100
AcDbEllipse
 10
1.557049132172777
 20
0.0000000000000001
 30
0.0
 11
1.102216155863618E-17
 21
0.1800055586036763
 31
0.0
210
0.0
220
0.0
230
1.0
 40
0.7071067811865496
 41
0.0
 42
6.283185307179586
  0
ENDBLK
  5
93
330
90
100
AcDbEntity
  8
0
100
AcDbBlockEnd
  0
BLOCK
  5
C1
330
BF
100
AcDbEntity
  8
0
100
AcDbBlockBegin
  2
3_131919_0_in_052762_4
 70
     2
 10
0.0
 20
0.0
 30
0.0
  3
3_131919_0_in_052762_4
  1

  0
ATTDEF
  5
C3
330
BF
100
AcDbEntity
  8
AM_6
100
AcDbText
 10
6.79000625
 20
0.7499999999999999
 30
0.0
 40
0.5
  1
Eccentric Collar Insert Inch Bore
100
AcDbAttributeDefinition
  3

  2
NN
 70
     8
280
     0
  0
ATTDEF
  5
C4
330
BF
100
AcDbEntity
  8
AM_6
100
AcDbText
 10
6.79000625
 20
0.2499999999999999
 30
0.0
 40
0.5
  1
SXR Normal Duty Bearing Inserts
100
AcDbAttributeDefinition
  3

  2
NT
 70
     8
280
     0
  0
ATTDEF
  5
C5
330
BF
100
AcDbEntity
  8
AM_6
100
AcDbText
 10
6.79000625
 20
-0.2500000000000001
 30
0.0
 40
0.5
  1
131919
100
AcDbAttributeDefinition
  3

  2
NB
 70
     8
280
     0
  0
ATTDEF
  5
C6
330
BF
100
AcDbEntity
  8
AM_6
100
AcDbText
 10
6.79000625
 20
-0.7500000000000001
 30
0.0
 40
0.5
  1
$PN.
100
AcDbAttributeDefinition
  3

  2
NBSYN
 70
     8
280
     0
  0
ATTDEF
  5
C7
330
BF
100
AcDbEntity
  8
AM_6
100
AcDbText
 10
6.79000625
 20
-1.25
 30
0.0
 40
0.5
  1
131919
100
AcDbAttributeDefinition
  3

  2
LINA
 70
     8
280
     0
  0
ATTDEF
  5
C8
330
BF
100
AcDbEntity
  8
AM_6
100
AcDbText
 10
6.79000625
 20
-1.75
 30
0.0
 40
0.5
  1
209
100
AcDbAttributeDefinition
  3

  2
SERIES
 70
     8
280
     0
  0
ATTDEF
  5
C9
330
BF
100
AcDbEntity
  8
AM_6
100
AcDbText
 10
6.79000625
 20
-2.25
 30
0.0
 40
0.5
  1
1-11/16
100
AcDbAttributeDefinition
  3

  2
SS
 70
     8
280
     0
  0
ATTDEF
  5
CA
330
BF
100
AcDbEntity
  8
AM_6
100
AcDbText
 10
6.79000625
 20
-2.75
 30
0.0
 40
0.5
  1
131919
100
AcDbAttributeDefinition
  3

  2
PN
 70
     8
280
     0
  0
ATTDEF
  5
CB
330
BF
100
AcDbEntity
  8
AM_6
100
AcDbText
 10
6.79000625
 20
-3.25
 30
0.0
 40
0.5
  1
INS-SXR-111
100
AcDbAttributeDefinition
  3

  2
DESCRIPTION
 70
     8
280
     0
  0
ATTDEF
  5
CC
330
BF
100
AcDbEntity
  8
AM_6
100
AcDbText
 10
6.79000625
 20
-3.75
 30
0.0
 40
0.5
  1
1.9
100
AcDbAttributeDefinition
  3

  2
WEIGHT
 70
     8
280
     0
  0
ATTDEF
  5
CD
330
BF
100
AcDbEntity
  8
AM_6
100
AcDbText
 10
6.79000625
 20
-4.25
 30
0.0
 40
0.5
  1
2.13
100
AcDbAttributeDefinition
  3

  2
A
 70
     8
280
     0
  0
ATTDEF
  5
CE
330
BF
100
AcDbEntity
  8
AM_6
100
AcDbText
 10
6.79000625
 20
-4.75
 30
0.0
 40
0.5
  1
0.87
100
AcDbAttributeDefinition
  3

  2
C
 70
     8
280
     0
  0
ATTDEF
  5
CF
330
BF
100
AcDbEntity
  8
AM_6
100
AcDbText
 10
6.79000625
 20
-5.25
 30
0.0
 40
0.5
  1
3.3465
100
AcDbAttributeDefinition
  3

  2
D
 70
     8
280
     0
  0
ATTDEF
  5
D0
330
BF
100
AcDbEntity
  8
AM_6
100
AcDbText
 10
6.79000625
 20
-5.75
 30
0.0
 40
0.5
  1
0.25
100
AcDbAttributeDefinition
  3

  2
J
 70
     8
280
     0
  0
ATTDEF
  5
D1
330
BF
100
AcDbEntity
  8
AM_6
100
AcDbText
 10
6.79000625
 20
-6.25
 30
0.0
 40
0.5
  1
2.50
100
AcDbAttributeDefinition
  3

  2
L
 70
     8
280
     0
  0
ATTDEF
  5
D2
330
BF
100
AcDbEntity
  8
AM_6
100
AcDbText
 10
6.79000625
 20
-6.75
 30
0.0
 40
0.5
  1
5/16 - 24
100
AcDbAttributeDefinition
  3

  2
N
 70
     8
280
     0
  0
ATTDEF
  5
D3
330
BF
100
AcDbEntity
  8
AM_6
100
AcDbText
 10
6.79000625
 20
-7.25
 30
0.0
 40
0.5
  1
0.75
100
AcDbAttributeDefinition
  3

  2
W
 70
     8
280
     0
  0
ATTDEF
  5
D4
330
BF
100
AcDbEntity
  8
AM_6
100
AcDbText
 10
6.79000625
 20
-7.75
 30
0.0
 40
0.5
  1
1.38
100
AcDbAttributeDefinition
  3

  2
Y
 70
     8
280
     0
  0
ATTDEF
  5
D5
330
BF
100
AcDbEntity
  8
AM_6
100
AcDbText
 10
6.79000625
 20
-8.25
 30
0.0
 40
0.5
  1
2.22
100
AcDbAttributeDefinition
  3

  2
Z
 70
     8
280
     0
  0
ATTDEF
  5
D6
330
BF
100
AcDbEntity
  8
AM_6
100
AcDbText
 10
6.79000625
 20
-8.75
 30
0.0
 40
0.5
  1
baldor
100
AcDbAttributeDefinition
  3

  2
COMPANY
 70
     8
280
     0
  0
LINE
  5
D7
330
BF
100
AcDbEntity
  8
AM_9
100
AcDbLine
 10
1.653458333333333
 20
0.3541666666666667
 30
0.0
 11
1.635357681319477
 21
0.3541666666666667
 31
0.0
  0
ARC
  5
D8
330
BF
100
AcDbEntity
  8
AM_9
100
AcDbCircle
 10
1.653458333333333
 20
0.2499999999999996
 30
0.0
 40
0.1041666666666672
100
AcDbArc
 50
277.3627685320398
 51
90.0
  0
LINE
  5
D9
330
BF
100
AcDbEntity
  8
AM_9
100
AcDbLine
 10
1.653458333333333
 20
0.3541666666666667
 30
0.0
 11
1.653458333333333
 21
0.2349808159721705
 31
0.0
  0
LINE
  5
DA
330
BF
100
AcDbEntity
  8
AM_9
100
AcDbLine
 10
0.84375
 20
-0.8989463420073543
 30
0.0
 11
0.84375
 21
0.7325999999999998
 31
0.0
  0
LINE
  5
DB
330
BF
100
AcDbEntity
  8
AM_9
100
AcDbLine
 10
-0.84375
 20
0.7325999999999998
 30
0.0
 11
-0.84375
 21
-0.8989463420073543
 31
0.0
  0
LINE
  5
DC
330
BF
100
AcDbEntity
  8
AM_9
100
AcDbLine
 10
0.84375
 20
-1.3626
 30
0.0
 11
0.84375
 21
-0.9235536579926457
 31
0.0
  0
LINE
  5
DD
330
BF
100
AcDbEntity
  8
AM_9
100
AcDbLine
 10
-0.84375
 20
-0.9235536579926457
 30
0.0
 11
-0.84375
 21
-1.3626
 31
0.0
  0
LINE
  5
DE
330
BF
100
AcDbEntity
  8
AM_9
100
AcDbLine
 10
-0.84375
 20
-0.8989463420073543
 30
0.0
 11
0.84375
 21
-0.8989463420073543
 31
0.0
  0
LINE
  5
DF
330
BF
100
AcDbEntity
  8
AM_9
100
AcDbLine
 10
-0.84375
 20
-0.8989463420073543
 30
0.0
 11
-0.8560536579926461
 21
-0.9112499999999998
 31
0.0
  0
LINE
  5
E0
330
BF
100
AcDbEntity
  8
AM_9
100
AcDbLine
 10
0.8560536579926461
 20
-0.9112499999999998
 30
0.0
 11
0.84375
 21
-0.8989463420073543
 31
0.0
  0
LINE
  5
E1
330
BF
100
AcDbEntity
  8
AM_9
100
AcDbLine
 10
-0.8560536579926461
 20
-0.9112499999999998
 30
0.0
 11
0.8560536579926461
 21
-0.9112499999999998
 31
0.0
  0
LINE
  5
E2
330
BF
100
AcDbEntity
  8
AM_9
100
AcDbLine
 10
-0.84375
 20
-0.9235536579926457
 30
0.0
 11
0.84375
 21
-0.9235536579926457
 31
0.0
  0
LINE
  5
E3
330
BF
100
AcDbEntity
  8
AM_9
100
AcDbLine
 10
0.84375
 20
-0.9235536579926457
 30
0.0
 11
0.8560536579926461
 21
-0.9112499999999998
 31
0.0
  0
LINE
  5
E4
330
BF
100
AcDbEntity
  8
AM_9
100
AcDbLine
 10
-0.8560536579926461
 20
-0.9112499999999998
 30
0.0
 11
-0.84375
 21
-0.9235536579926457
 31
0.0
  0
LINE
  5
E5
330
BF
100
AcDbEntity
  8
AM_9
100
AcDbLine
 10
0.84375
 20
0.7325999999999998
 30
0.0
 11
0.8611499999999999
 21
0.7499999999999999
 31
0.0
  0
LINE
  5
E6
330
BF
100
AcDbEntity
  8
AM_9
100
AcDbLine
 10
-0.8611499999999999
 20
0.7499999999999999
 30
0.0
 11
-0.84375
 21
0.7325999999999998
 31
0.0
  0
LINE
  5
E7
330
BF
100
AcDbEntity
  8
AM_9
100
AcDbLine
 10
-0.84375
 20
-1.3626
 30
0.0
 11
0.84375
 21
-1.3626
 31
0.0
  0
LINE
  5
E8
330
BF
100
AcDbEntity
  8
AM_9
100
AcDbLine
 10
-0.84375
 20
-1.3626
 30
0.0
 11
-0.8611499999999999
 21
-1.38
 31
0.0
  0
LINE
  5
E9
330
BF
100
AcDbEntity
  8
AM_9
100
AcDbLine
 10
0.8611499999999999
 20
-1.38
 30
0.0
 11
0.84375
 21
-1.3626
 31
0.0
  0
LINE
  5
EA
330
BF
100
AcDbEntity
  8
AM_9
100
AcDbLine
 10
1.11
 20
-0.6271863285973514
 30
0.0
 11
1.11
 21
-0.435
 31
0.0
  0
LINE
  5
EB
330
BF
100
AcDbEntity
  8
AM_9
100
AcDbLine
 10
-1.11
 20
-0.435
 30
0.0
 11
-1.11
 21
-0.6271863285973514
 31
0.0
  0
LINE
  5
EC
330
BF
100
AcDbEntity
  8
AM_9
100
AcDbLine
 10
1.11
 20
0.435
 30
0.0
 11
1.11
 21
0.6271863285973514
 31
0.0
  0
LINE
  5
ED
330
BF
100
AcDbEntity
  8
AM_9
100
AcDbLine
 10
-1.11
 20
0.6271863285973514
 30
0.0
 11
-1.11
 21
0.435
 31
0.0
  0
LINE
  5
EE
330
BF
100
AcDbEntity
  8
AM_9
100
AcDbLine
 10
1.593571428571428
 20
-0.2999999999999999
 30
0.0
 11
1.593571428571428
 21
-0.2
 31
0.0
  0
LINE
  5
EF
330
BF
100
AcDbEntity
  8
AM_9
100
AcDbLine
 10
-1.593571428571428
 20
-0.2
 30
0.0
 11
-1.593571428571428
 21
-0.2999999999999999
 31
0.0
  0
LINE
  5
F0
330
BF
100
AcDbEntity
  8
AM_9
100
AcDbLine
 10
-1.58882294927654
 20
-0.4350000000000002
 30
0.0
 11
1.588822949274409
 21
-0.4350000000000002
 31
0.0
  0
ARC
  5
F1
330
BF
100
AcDbEntity
  8
AM_9
100
AcDbCircle
 10
1.588822948757979
 20
-0.4002000000000002
 30
0.0
 40
0.0347999999999999
100
AcDbArc
 50
270.0
 51
345.8621749168508
  0
ARC
  5
F2
330
BF
100
AcDbEntity
  8
AM_9
100
AcDbCircle
 10
-1.588822948757979
 20
-0.4002000000000002
 30
0.0
 40
0.0347999999999998
100
AcDbArc
 50
194.1378250831492
 51
270.0
  0
LINE
  5
F3
330
BF
100
AcDbEntity
  8
AM_9
100
AcDbLine
 10
-1.588822948757979
 20
0.435
 30
0.0
 11
1.588822948755848
 21
0.435
 31
0.0
  0
ARC
  5
F4
330
BF
100
AcDbEntity
  8
AM_9
100
AcDbCircle
 10
1.58882294875798
 20
0.4002000000000007
 30
0.0
 40
0.0347999999999991
100
AcDbArc
 50
14.13782508314909
 51
90.0
  0
ARC
  5
F5
330
BF
100
AcDbEntity
  8
AM_9
100
AcDbCircle
 10
-1.58882294875798
 20
0.4002000000000007
 30
0.0
 40
0.0347999999999993
100
AcDbArc
 50
90.0
 51
165.8621749168509
  0
LINE
  5
F6
330
BF
100
AcDbEntity
  8
AM_9
100
AcDbLine
 10
-1.44493996415076
 20
-0.2999999999999999
 30
0.0
 11
1.44493996415076
 21
-0.2999999999999999
 31
0.0
  0
LINE
  5
F7
330
BF
100
AcDbEntity
  8
AM_9
100
AcDbLine
 10
-1.622568890725557
 20
-0.4087000823949463
 30
0.0
 11
1.622568890725341
 21
-0.4087000823949463
 31
0.0
  0
ARC
  5
F8
330
BF
100
AcDbEntity
  8
AM_9
100
AcDbCircle
 10
-0.0000000003718863
 20
0.0000000000805851
 30
0.0
 40
1.673250000380097
100
AcDbArc
 50
345.8621749172829
 51
349.6714882658766
  0
ARC
  5
F9
330
BF
100
AcDbEntity
  8
AM_9
100
AcDbCircle
 10
0.0000000003718017
 20
0.0000000000805668
 30
0.0
 40
1.67325000038001
100
AcDbArc
 50
190.3285117341233
 51
194.1378250827171
  0
LINE
  5
FA
330
BF
100
AcDbEntity
  8
AM_9
100
AcDbLine
 10
-1.661254213689163
 20
-0.2
 30
0.0
 11
1.661254213689159
 21
-0.2
 31
0.0
  0
LINE
  5
FB
330
BF
100
AcDbEntity
  8
AM_9
100
AcDbLine
 10
-1.622568890725557
 20
0.4087000823949465
 30
0.0
 11
1.622568890725552
 21
0.4087000823949465
 31
0.0
  0
LINE
  5
FC
330
BF
100
AcDbEntity
  8
AM_9
100
AcDbLine
 10
1.635338354825054
 20
0.3541666665872289
 30
0.0
 11
1.666807413531821
 21
0.1466922243860645
 31
0.0
  0
ARC
  5
FD
330
BF
100
AcDbEntity
  8
AM_9
100
AcDbCircle
 10
-0.0000000000003963
 20
-0.0000000000000134
 30
0.0
 40
1.673250000000388
100
AcDbArc
 50
353.1351448840018
 51
5.029522883683672
  0
ARC
  5
FE
330
BF
100
AcDbEntity
  8
AM_9
100
AcDbCircle
 10
-0.0000000000135234
 20
-0.0000000000030405
 30
0.0
 40
1.673250000013852
100
AcDbArc
 50
12.21543997356761
 51
14.13782508313771
  0
ARC
  5
FF
330
BF
100
AcDbEntity
  8
AM_9
100
AcDbCircle
 10
0.0000000000002565
 20
-0.0000000000000159
 30
0.0
 40
1.673250000000248
100
AcDbArc
 50
165.8621749168518
 51
186.8648551159986
  0
LINE
  5
102
330
BF
100
AcDbEntity
  8
AM_7
100
AcDbLine
 10
1.07761875
 20
0.25
 30
0.0
 11
1.79000625
 21
0.25
 31
0.0
  0
LINE
  5
103
330
BF
100
AcDbEntity
  8
AM_4
100
AcDbLine
 10
1.057142857142857
 20
-0.8487500000000001
 30
0.0
 11
1.057142857142857
 21
-0.8174999999999997
 31
0.0
  0
LINE
  5
104
330
BF
100
AcDbEntity
  8
AM_4
100
AcDbLine
 10
-1.057142857142857
 20
-0.8174999999999997
 30
0.0
 11
-1.057142857142857
 21
-0.8487500000000001
 31
0.0
  0
LINE
  5
105
330
BF
100
AcDbEntity
  8
AM_4
100
AcDbLine
 10
-1.0926
 20
0.7499999999999999
 30
0.0
 11
1.0926
 21
0.7499999999999999
 31
0.0
  0
LINE
  5
106
330
BF
100
AcDbEntity
  8
AM_4
100
AcDbLine
 10
-1.0926
 20
0.7499999999999999
 30
0.0
 11
-1.11
 21
0.7326
 31
0.0
  0
LINE
  5
107
330
BF
100
AcDbEntity
  8
AM_4
100
AcDbLine
 10
1.11
 20
0.7326
 30
0.0
 11
1.0926
 21
0.7499999999999999
 31
0.0
  0
LINE
  5
108
330
BF
100
AcDbEntity
  8
AM_4
100
AcDbLine
 10
1.11
 20
-0.8001
 30
0.0
 11
1.11
 21
-0.6271863285973514
 31
0.0
  0
LINE
  5
109
330
BF
100
AcDbEntity
  8
AM_4
100
AcDbLine
 10
-1.11
 20
-0.6271863285973514
 30
0.0
 11
-1.11
 21
-0.8001
 31
0.0
  0
LINE
  5
10A
330
BF
100
AcDbEntity
  8
AM_4
100
AcDbLine
 10
-1.0926
 20
-0.8175
 30
0.0
 11
1.0926
 21
-0.8175
 31
0.0
  0
LINE
  5
10B
330
BF
100
AcDbEntity
  8
AM_4
100
AcDbLine
 10
-1.11
 20
-0.8001
 30
0.0
 11
1.11
 21
-0.8001
 31
0.0
  0
LINE
  5
10C
330
BF
100
AcDbEntity
  8
AM_4
100
AcDbLine
 10
1.0926
 20
-0.8175
 30
0.0
 11
1.11
 21
-0.8001
 31
0.0
  0
LINE
  5
10D
330
BF
100
AcDbEntity
  8
AM_4
100
AcDbLine
 10
-1.11
 20
-0.8001
 30
0.0
 11
-1.0926
 21
-0.8175
 31
0.0
  0
LINE
  5
10E
330
BF
100
AcDbEntity
  8
AM_4
100
AcDbLine
 10
-1.11
 20
0.7326
 30
0.0
 11
1.11
 21
0.7326
 31
0.0
  0
LINE
  5
10F
330
BF
100
AcDbEntity
  8
AM_4
100
AcDbLine
 10
1.11
 20
0.6271863285973514
 30
0.0
 11
1.11
 21
0.7326
 31
0.0
  0
LINE
  5
110
330
BF
100
AcDbEntity
  8
AM_4
100
AcDbLine
 10
-1.11
 20
0.7326
 30
0.0
 11
-1.11
 21
0.6271863285973514
 31
0.0
  0
ARC
  5
111
330
BF
100
AcDbEntity
  8
AM_4
100
AcDbCircle
 10
0.0
 20
-1.145624999999999
 30
0.0
 40
0.1393500000000009
100
AcDbArc
 50
224.5268917025038
 51
315.4731082974962
  0
LWPOLYLINE
  5
112
330
BF
100
AcDbEntity
  8
AM_4
100
AcDbPolyline
 90
       10
 70
     0
 43
0.0
 10
-0.0993455970508073
 20
-1.243343344473382
 10
-0.1143158942177225
 20
-1.225289615488853
 10
-0.1260731775968879
 20
-1.204988089463264
 10
-0.1342363080626467
 20
-1.182975648100037
 10
-0.1386168558330822
 20
-1.159900495751479
 10
-0.1390372307655932
 20
-1.136507793346194
 10
-0.1355663654922536
 20
-1.113373131104993
 10
-0.1282743059244581
 20
-1.091216286196101
 10
-0.1174185286632318
 20
-1.070582934286416
 10
-0.0993455970508073
 20
-1.047906655526617
  0
LWPOLYLINE
  5
113
330
BF
100
AcDbEntity
  8
AM_4
100
AcDbPolyline
 90
       10
 70
     0
 43
0.0
 10
0.0993455970508073
 20
-1.047906655526617
 10
0.1143158942177225
 20
-1.065960384511147
 10
0.1260731775968879
 20
-1.086261910536735
 10
0.1342363080626467
 20
-1.108274351899963
 10
0.1386168558330822
 20
-1.13134950424852
 10
0.1390372307655932
 20
-1.154742206653806
 10
0.1355663654922536
 20
-1.177876868895006
 10
0.1282743059244581
 20
-1.200033713803898
 10
0.1174185286632318
 20
-1.220667065713583
 10
0.0993455970508072
 20
-1.243343344473382
  0
LWPOLYLINE
  5
114
330
BF
100
AcDbEntity
  8
AM_4
100
AcDbPolyline
 90
       12
 70
     0
 43
0.0
 10
0.0993455970508073
 20
-1.243343344473382
 10
0.0875983044213205
 20
-1.255129544155654
 10
0.0743164650588219
 20
-1.265559488145309
 10
0.0542439367921216
 20
-1.276993007404128
 10
0.0317592918255587
 20
-1.284951643706567
 10
0.0100738614560863
 20
-1.288533858330833
 10
-0.012587789751289
 20
-1.288311519760861
 10
-0.0335426990932463
 20
-1.284485136331133
 10
-0.0541385332294575
 20
-1.277041427521703
 10
-0.0729150595117986
 20
-1.266513168738818
 10
-0.0902011392472877
 20
-1.252753185281693
 10
-0.0993455970508073
 20
-1.243343344473382
  0
LINE
  5
115
330
BF
100
AcDbEntity
  8
AM_4
100
AcDbLine
 10
1.25
 20
-1.3409375
 30
0.0
 11
1.25
 21
-0.8878125
 31
0.0
  0
LINE
  5
116
330
BF
100
AcDbEntity
  8
AM_4
100
AcDbLine
 10
-1.25
 20
-0.8878125
 30
0.0
 11
-1.25
 21
-1.3409375
 31
0.0
  0
ARC
  5
117
330
BF
100
AcDbEntity
  8
AM_4
100
AcDbCircle
 10
0.0000000000000049
 20
-1.145625000000011
 30
0.0
 40
0.1393500000000114
100
AcDbArc
 50
44.52689170250595
 51
135.4731082974947
  0
LWPOLYLINE
  5
118
330
BF
100
AcDbEntity
  8
AM_4
100
AcDbPolyline
 90
       12
 70
     0
 43
0.0
 10
-0.0993455970508073
 20
-1.047906655526617
 10
-0.0875983044213206
 20
-1.036120455844346
 10
-0.0743164650588219
 20
-1.02569051185469
 10
-0.0542439367921216
 20
-1.014256992595872
 10
-0.0317592918255586
 20
-1.006298356293433
 10
-0.0100738614560863
 20
-1.002716141669166
 10
0.012587789751289
 20
-1.002938480239138
 10
0.0335426990932463
 20
-1.006764863668867
 10
0.0541385332294574
 20
-1.014208572478297
 10
0.0729150595117984
 20
-1.024736831261181
 10
0.0902011392472876
 20
-1.038496814718307
 10
0.099345597050816
 20
-1.047906655526616
  0
LINE
  5
119
330
BF
100
AcDbEntity
  8
AM_4
100
AcDbLine
 10
-1.25
 20
-0.8878125
 30
0.0
 11
1.25
 21
-0.8878125
 31
0.0
  0
LINE
  5
11A
330
BF
100
AcDbEntity
  8
AM_4
100
AcDbLine
 10
-1.2109375
 20
-0.8487500000000001
 30
0.0
 11
1.210937499997073
 21
-0.8487500000000001
 31
0.0
  0
ARC
  5
11B
330
BF
100
AcDbEntity
  8
AM_4
100
AcDbCircle
 10
1.2109375
 20
-0.8878124999999998
 30
0.0
 40
0.0390624999999996
100
AcDbArc
 50
0.0
 51
90.0
  0
ARC
  5
11C
330
BF
100
AcDbEntity
  8
AM_4
100
AcDbCircle
 10
-1.2109375
 20
-0.8878124999999998
 30
0.0
 40
0.0390624999999997
100
AcDbArc
 50
90.0
 51
180.0
  0
LINE
  5
11D
330
BF
100
AcDbEntity
  8
AM_4
100
AcDbLine
 10
-1.2109375
 20
-1.38
 30
0.0
 11
1.210937499997073
 21
-1.38
 31
0.0
  0
LINE
  5
11E
330
BF
100
AcDbEntity
  8
AM_4
100
AcDbLine
 10
-1.25
 20
-1.3409375
 30
0.0
 11
1.25
 21
-1.3409375
 31
0.0
  0
ARC
  5
11F
330
BF
100
AcDbEntity
  8
AM_4
100
AcDbCircle
 10
1.2109375
 20
-1.3409375
 30
0.0
 40
0.0390625
100
AcDbArc
 50
270.0
 51
0.0
  0
ARC
  5
120
330
BF
100
AcDbEntity
  8
AM_4
100
AcDbCircle
 10
-1.2109375
 20
-1.3409375
 30
0.0
 40
0.0390624999999998
100
AcDbArc
 50
180.0
 51
270.0
  0
ARC
  5
122
330
BF
100
AcDbEntity
  8
AM_5
100
AcDbCircle
 10
0.0
 20
-1.145625
 30
0.0
 40
0.15625
100
AcDbArc
 50
74.99999999999996
 51
15.00000000000004
  0
ENDBLK
  5
C2
330
BF
100
AcDbEntity
  8
0
100
AcDbBlockEnd
  0
BLOCK
  5
125
330
123
100
AcDbEntity
  8
0
100
AcDbBlockBegin
  2
4_052762H_0_in_052762_4
 70
     2
 10
0.0
 20
0.0
 30
0.0
  3
4_052762H_0_in_052762_4
  1

  0
ATTDEF
  5
127
330
123
100
AcDbEntity
  8
AM_6
100
AcDbText
 10
8.72
 20
1.1
 30
0.0
 40
0.5
  1
P2B-SXR -I-Housing
100
AcDbAttributeDefinition
  3

  2
NN
 70
     8
280
     0
  0
ATTDEF
  5
128
330
123
100
AcDbEntity
  8
AM_6
100
AcDbText
 10
8.72
 20
0.6000000000000001
 30
0.0
 40
0.5
  1
Eccentric Collar Pillow Block Bearings -(Normal Duty)
100
AcDbAttributeDefinition
  3

  2
NT
 70
     8
280
     0
  0
ATTDEF
  5
129
330
123
100
AcDbEntity
  8
AM_6
100
AcDbText
 10
8.72
 20
0.1000000000000001
 30
0.0
 40
0.5
  1
052762H
100
AcDbAttributeDefinition
  3

  2
NB
 70
     8
280
     0
  0
ATTDEF
  5
12A
330
123
100
AcDbEntity
  8
AM_6
100
AcDbText
 10
8.72
 20
-0.3999999999999999
 30
0.0
 40
0.5
  1
$PN.H
100
AcDbAttributeDefinition
  3

  2
NBSYN
 70
     8
280
     0
  0
ATTDEF
  5
12B
330
123
100
AcDbEntity
  8
AM_6
100
AcDbText
 10
8.72
 20
-0.8999999999999999
 30
0.0
 40
0.5
  1
052762
100
AcDbAttributeDefinition
  3

  2
LINA
 70
     8
280
     0
  0
ATTDEF
  5
12C
330
123
100
AcDbEntity
  8
AM_6
100
AcDbText
 10
8.72
 20
-1.4
 30
0.0
 40
0.5
  1
209
100
AcDbAttributeDefinition
  3

  2
SERIES
 70
     8
280
     0
  0
ATTDEF
  5
12D
330
123
100
AcDbEntity
  8
AM_6
100
AcDbText
 10
8.72
 20
-1.9
 30
0.0
 40
0.5
  1
1-11/16
100
AcDbAttributeDefinition
  3

  2
SS
 70
     8
280
     0
  0
ATTDEF
  5
12E
330
123
100
AcDbEntity
  8
AM_6
100
AcDbText
 10
8.72
 20
-2.4
 30
0.0
 40
0.5
  1
052762
100
AcDbAttributeDefinition
  3

  2
PN
 70
     8
280
     0
  0
ATTDEF
  5
12F
330
123
100
AcDbEntity
  8
AM_6
100
AcDbText
 10
8.72
 20
-2.9
 30
0.0
 40
0.5
  1
P2B-SXR-111-NL
100
AcDbAttributeDefinition
  3

  2
DESCRIPTION
 70
     8
280
     0
  0
ATTDEF
  5
130
330
123
100
AcDbEntity
  8
AM_6
100
AcDbText
 10
8.72
 20
-3.4
 30
0.0
 40
0.5
  1
NO-LUBE
100
AcDbAttributeDefinition
  3

  2
LF
 70
     8
280
     0
  0
ATTDEF
  5
131
330
123
100
AcDbEntity
  8
AM_6
100
AcDbText
 10
8.72
 20
-3.9
 30
0.0
 40
0.5
  1
6.5
100
AcDbAttributeDefinition
  3

  2
WEIGHT
 70
     8
280
     0
  0
ATTDEF
  5
132
330
123
100
AcDbEntity
  8
AM_6
100
AcDbText
 10
8.72
 20
-4.4
 30
0.0
 40
0.5
  1
2.13
100
AcDbAttributeDefinition
  3

  2
A
 70
     8
280
     0
  0
ATTDEF
  5
133
330
123
100
AcDbEntity
  8
AM_6
100
AcDbText
 10
8.72
 20
-4.9
 30
0.0
 40
0.5
  1
7.44
100
AcDbAttributeDefinition
  3

  2
B
 70
     8
280
     0
  0
ATTDEF
  5
134
330
123
100
AcDbEntity
  8
AM_6
100
AcDbText
 10
8.72
 20
-5.4
 30
0.0
 40
0.5
  1
2.00
100
AcDbAttributeDefinition
  3

  2
C
 70
     8
280
     0
  0
ATTDEF
  5
135
330
123
100
AcDbEntity
  8
AM_6
100
AcDbText
 10
8.72
 20
-5.9
 30
0.0
 40
0.5
  1
5.50
100
AcDbAttributeDefinition
  3

  2
DMIN
 70
     8
280
     0
  0
ATTDEF
  5
136
330
123
100
AcDbEntity
  8
AM_6
100
AcDbText
 10
8.72
 20
-6.4
 30
0.0
 40
0.5
  1
6.19
100
AcDbAttributeDefinition
  3

  2
DMAX
 70
     8
280
     0
  0
ATTDEF
  5
137
330
123
100
AcDbEntity
  8
AM_6
100
AcDbText
 10
8.72
 20
-6.9
 30
0.0
 40
0.5
  1
1/2
100
AcDbAttributeDefinition
  3

  2
F
 70
     8
280
     0
  0
ATTDEF
  5
138
330
123
100
AcDbEntity
  8
AM_6
100
AcDbText
 10
8.72
 20
-7.4
 30
0.0
 40
0.5
  1
0.90
100
AcDbAttributeDefinition
  3

  2
G
 70
     8
280
     0
  0
ATTDEF
  5
139
330
123
100
AcDbEntity
  8
AM_6
100
AcDbText
 10
8.72
 20
-7.9
 30
0.0
 40
0.5
  1
0.75
100
AcDbAttributeDefinition
  3

  2
H
 70
     8
280
     0
  0
ATTDEF
  5
13A
330
123
100
AcDbEntity
  8
AM_6
100
AcDbText
 10
8.72
 20
-8.4
 30
0.0
 40
0.5
  1
4.28
100
AcDbAttributeDefinition
  3

  2
J
 70
     8
280
     0
  0
ATTDEF
  5
13B
330
123
100
AcDbEntity
  8
AM_6
100
AcDbText
 10
8.72
 20
-8.9
 30
0.0
 40
0.5
  1
2.50
100
AcDbAttributeDefinition
  3

  2
L
 70
     8
280
     0
  0
ATTDEF
  5
13C
330
123
100
AcDbEntity
  8
AM_6
100
AcDbText
 10
8.72
 20
-9.4
 30
0.0
 40
0.5
  1
2.13
100
AcDbAttributeDefinition
  3

  2
M
 70
     8
280
     0
  0
ATTDEF
  5
13D
330
123
100
AcDbEntity
  8
AM_6
100
AcDbText
 10
8.72
 20
-9.9
 30
0.0
 40
0.5
  1
0.75
100
AcDbAttributeDefinition
  3

  2
R
 70
     8
280
     0
  0
ATTDEF
  5
13E
330
123
100
AcDbEntity
  8
AM_6
100
AcDbText
 10
8.72
 20
-10.4
 30
0.0
 40
0.5
  1
1.38
100
AcDbAttributeDefinition
  3

  2
S
 70
     8
280
     0
  0
ATTDEF
  5
13F
330
123
100
AcDbEntity
  8
AM_6
100
AcDbText
 10
8.72
 20
-10.9
 30
0.0
 40
0.5
  1
3.38
100
AcDbAttributeDefinition
  3

  2
U
 70
     8
280
     0
  0
ATTDEF
  5
140
330
123
100
AcDbEntity
  8
AM_6
100
AcDbText
 10
8.72
 20
-11.4
 30
0.0
 40
0.5
  1
6.76
100
AcDbAttributeDefinition
  3

  2
V
 70
     8
280
     0
  0
ATTDEF
  5
141
330
123
100
AcDbEntity
  8
AM_6
100
AcDbText
 10
8.72
 20
-11.9
 30
0.0
 40
0.5
  1
0.69
100
AcDbAttributeDefinition
  3

  2
W
 70
     8
280
     0
  0
ATTDEF
  5
142
330
123
100
AcDbEntity
  8
AM_6
100
AcDbText
 10
8.72
 20
-12.4
 30
0.0
 40
0.5
  1
0.12
100
AcDbAttributeDefinition
  3

  2
X
 70
     8
280
     0
  0
ATTDEF
  5
143
330
123
100
AcDbEntity
  8
AM_6
100
AcDbText
 10
8.72
 20
-12.9
 30
0.0
 40
0.5
  1
4450
100
AcDbAttributeDefinition
  3

  2
CAPS
 70
     8
280
     0
  0
ATTDEF
  5
144
330
123
100
AcDbEntity
  8
AM_6
100
AcDbText
 10
8.72
 20
-13.4
 30
0.0
 40
0.5
  1
7891
100
AcDbAttributeDefinition
  3

  2
CAPD
 70
     8
280
     0
  0
ATTDEF
  5
145
330
123
100
AcDbEntity
  8
AM_6
100
AcDbText
 10
8.72
 20
-13.9
 30
0.0
 40
0.5
  1
baldor
100
AcDbAttributeDefinition
  3

  2
COMPANY
 70
     8
280
     0
  0
LINE
  5
146
330
123
100
AcDbEntity
  8
AM_9
100
AcDbLine
 10
1.757625
 20
-0.3000000000000001
 30
0.0
 11
1.757625
 21
0.8099999999999987
 31
0.0
  0
LINE
  5
147
330
123
100
AcDbEntity
  8
AM_9
100
AcDbLine
 10
1.682624999999999
 20
0.4999999999999998
 30
0.0
 11
1.682624999999999
 21
0.7999999999999999
 31
0.0
  0
LINE
  5
148
330
123
100
AcDbEntity
  8
AM_9
100
AcDbLine
 10
-1.757625
 20
-0.3000000000000001
 30
0.0
 11
-1.757625
 21
0.8099999999999998
 31
0.0
  0
LINE
  5
149
330
123
100
AcDbEntity
  8
AM_9
100
AcDbLine
 10
-1.682625
 20
0.4999999999999998
 30
0.0
 11
-1.682625
 21
0.7999999999999999
 31
0.0
  0
LINE
  5
14A
330
123
100
AcDbEntity
  8
AM_9
100
AcDbLine
 10
-1.757625
 20
-0.8000000000000004
 30
0.0
 11
-1.757625
 21
-0.5000000000000001
 31
0.0
  0
LINE
  5
14B
330
123
100
AcDbEntity
  8
AM_9
100
AcDbLine
 10
-1.682625
 20
-0.8000000000000002
 30
0.0
 11
-1.682625
 21
-0.5000000000000001
 31
0.0
  0
LINE
  5
14C
330
123
100
AcDbEntity
  8
AM_9
100
AcDbLine
 10
1.757625
 20
-0.8000000000000002
 30
0.0
 11
1.757625
 21
-0.5000000000000001
 31
0.0
  0
LINE
  5
14D
330
123
100
AcDbEntity
  8
AM_9
100
AcDbLine
 10
1.682624999999999
 20
-0.8000000000000002
 30
0.0
 11
1.682624999999999
 21
-0.5000000000000001
 31
0.0
  0
LINE
  5
14E
330
123
100
AcDbEntity
  8
AM_9
100
AcDbLine
 10
3.222500000000001
 20
0.2464751508773241
 30
0.0
 11
3.222500000000001
 21
0.4999999999999998
 31
0.0
  0
LINE
  5
14F
330
123
100
AcDbEntity
  8
AM_9
100
AcDbLine
 10
3.3725
 20
-0.5000000000000001
 30
0.0
 11
3.3725
 21
0.4999999999999998
 31
0.0
  0
LINE
  5
150
330
123
100
AcDbEntity
  8
AM_9
100
AcDbLine
 10
3.222500000000001
 20
-0.5000000000000001
 30
0.0
 11
3.222500000000001
 21
-0.2464751508773244
 31
0.0
  0
LINE
  5
151
330
123
100
AcDbEntity
  8
AM_9
100
AcDbLine
 10
-3.222500000000001
 20
0.2464751508773245
 30
0.0
 11
-3.222500000000001
 21
0.4999999999999998
 31
0.0
  0
LINE
  5
152
330
123
100
AcDbEntity
  8
AM_9
100
AcDbLine
 10
-3.3725
 20
-0.5000000000000001
 30
0.0
 11
-3.3725
 21
0.4999999999999998
 31
0.0
  0
LINE
  5
153
330
123
100
AcDbEntity
  8
AM_9
100
AcDbLine
 10
-3.222500000000001
 20
-0.5000000000000001
 30
0.0
 11
-3.222500000000001
 21
-0.246475150877324
 31
0.0
  0
LINE
  5
154
330
123
100
AcDbEntity
  8
AM_9
100
AcDbLine
 10
-2.39123937319055
 20
-0.5000000000000001
 30
0.0
 11
-2.39123937319055
 21
0.4999999999999998
 31
0.0
  0
LINE
  5
155
330
123
100
AcDbEntity
  8
AM_9
100
AcDbLine
 10
2.391239373190547
 20
-0.5000000000000001
 30
0.0
 11
2.391239373190547
 21
0.4999999999999998
 31
0.0
  0
LINE
  5
156
330
123
100
AcDbEntity
  8
AM_9
100
AcDbLine
 10
2.197125089363657
 20
-0.5000000000000001
 30
0.0
 11
2.197125089363657
 21
0.4999999999999998
 31
0.0
  0
LINE
  5
157
330
123
100
AcDbEntity
  8
AM_9
100
AcDbLine
 10
-2.197125089363657
 20
-0.5000000000000001
 30
0.0
 11
-2.197125089363657
 21
0.4999999999999998
 31
0.0
  0
LINE
  5
158
330
123
100
AcDbEntity
  8
AM_9
100
AcDbLine
 10
1.122842707514134
 20
-0.5000000000000001
 30
0.0
 11
1.122842707514134
 21
0.4999999999999998
 31
0.0
  0
LINE
  5
159
330
123
100
AcDbEntity
  8
AM_9
100
AcDbLine
 10
-1.122842707514134
 20
-0.5000000000000001
 30
0.0
 11
-1.122842707514134
 21
0.4999999999999998
 31
0.0
  0
LINE
  5
15A
330
123
100
AcDbEntity
  8
AM_9
100
AcDbLine
 10
-1.426786480218784
 20
-0.5000000000000001
 30
0.0
 11
-1.426786480218784
 21
0.4999999999999999
 31
0.0
  0
LINE
  5
15B
330
123
100
AcDbEntity
  8
AM_9
100
AcDbLine
 10
1.426786480218784
 20
-0.5000000000000001
 30
0.0
 11
1.426786480218784
 21
0.4999999999999999
 31
0.0
  0
LINE
  5
15C
330
123
100
AcDbEntity
  8
AM_9
100
AcDbLine
 10
3.3725
 20
0.4999999999999998
 30
0.0
 11
-3.3725
 21
0.4999999999999998
 31
0.0
  0
LINE
  5
15D
330
123
100
AcDbEntity
  8
AM_9
100
AcDbLine
 10
3.3725
 20
-0.5000000000000001
 30
0.0
 11
-3.3725
 21
-0.5000000000000001
 31
0.0
  0
LINE
  5
15E
330
123
100
AcDbEntity
  8
AM_9
100
AcDbLine
 10
-1.44493996415076
 20
-0.3
 30
0.0
 11
-1.757625
 21
-0.3000000000000001
 31
0.0
  0
LINE
  5
15F
330
123
100
AcDbEntity
  8
AM_9
100
AcDbLine
 10
-1.541859779008779
 20
-0.3
 30
0.0
 11
-1.541859779008779
 21
0.6850212464589235
 31
0.0
  0
LINE
  5
160
330
123
100
AcDbEntity
  8
AM_9
100
AcDbLine
 10
1.757625
 20
-0.3000000000000001
 30
0.0
 11
1.44493996415076
 21
-0.3
 31
0.0
  0
LINE
  5
161
330
123
100
AcDbEntity
  8
AM_9
100
AcDbLine
 10
1.541859779008779
 20
-0.3
 30
0.0
 11
1.541859779008779
 21
0.6850212464589235
 31
0.0
  0
LINE
  5
162
330
123
100
AcDbEntity
  8
AM_9
100
AcDbLine
 10
1.295318015252109
 20
-0.1806863231297342
 30
0.0
 11
1.516034920897403
 21
-0.1904359696535153
 31
0.0
  0
LINE
  5
163
330
123
100
AcDbEntity
  8
AM_9
100
AcDbLine
 10
1.516033981474899
 20
0.1904359281567515
 30
0.0
 11
1.295318015252109
 21
0.1806863231297343
 31
0.0
  0
LWPOLYLINE
  5
164
330
123
100
AcDbEntity
  8
AM_9
100
AcDbPolyline
 90
       21
 70
     0
 43
0.0
 10
1.516052461260189
 20
-0.1904367432435883
 10
1.535023177828201
 20
-0.1893717501042436
 10
1.556767533291104
 20
-0.1831887966450477
 10
1.577195432168309
 20
-0.1719005422161126
 10
1.595790601374202
 20
-0.1557326494992031
 10
1.612103589990663
 20
-0.1352224227443558
 10
1.625782024561824
 20
-0.1107742837655259
 10
1.636485491897679
 20
-0.083208193277058
 10
1.643954043700856
 20
-0.0532145404446373
 10
1.648055116084622
 20
-0.0217129915412002
 10
1.648662076486757
 20
0.0103398176741325
 10
1.645820211197231
 20
0.0421005117438224
 10
1.63955483635123
 20
0.072615520258985
 10
1.630037122263457
 20
0.1010902020144775
 10
1.617396280805091
 20
0.1267400225249779
 10
1.601962689740094
 20
0.1488249387662019
 10
1.584016275113947
 20
0.1666917143154649
 10
1.564041919328561
 20
0.1798506956242683
 10
1.542575052612877
 20
0.1878361618476571
 10
1.520157199756748
 20
0.1905304694172732
 10
1.516082963320335
 20
0.1904380905960069
  0
LWPOLYLINE
  5
165
330
123
100
AcDbEntity
  8
AM_9
100
AcDbPolyline
 90
        6
 70
     0
 43
0.0
 10
1.497017440534453
 20
0.1877043869064209
 10
1.475171716740157
 20
0.1798276413251258
 10
1.453851680731615
 20
0.1667702087612019
 10
1.434179467467214
 20
0.1490694858170632
 10
1.422510564723403
 20
0.135177901136901
 10
1.411978720294678
 20
0.1196679975334444
  0
LWPOLYLINE
  5
166
330
123
100
AcDbEntity
  8
AM_9
100
AcDbPolyline
 90
        3
 70
     0
 43
0.0
 10
1.516082963320335
 20
0.1904380905960069
 10
1.497500508029819
 20
0.1878016167759488
 10
1.497017440534453
 20
0.1877043869064209
  0
LINE
  5
167
330
123
100
AcDbEntity
  8
AM_9
100
AcDbLine
 10
-1.44493996415076
 20
-0.3
 30
0.0
 11
-1.44493996415076
 21
0.6850212464589234
 31
0.0
  0
LINE
  5
168
330
123
100
AcDbEntity
  8
AM_9
100
AcDbLine
 10
1.44493996415076
 20
0.6850212464589234
 30
0.0
 11
1.44493996415076
 21
-0.3
 31
0.0
  0
LINE
  5
169
330
123
100
AcDbEntity
  8
AM_9
100
AcDbLine
 10
1.67325
 20
-0.8
 30
0.0
 11
1.67325
 21
-0.3000000000000001
 31
0.0
  0
LINE
  5
16A
330
123
100
AcDbEntity
  8
AM_9
100
AcDbLine
 10
-1.67325
 20
-0.3000000000000001
 30
0.0
 11
-1.67325
 21
-0.8
 31
0.0
  0
LINE
  5
16B
330
123
100
AcDbEntity
  8
AM_9
100
AcDbLine
 10
1.11
 20
-0.8000000000000002
 30
0.0
 11
-1.11
 21
-0.8000000000000002
 31
0.0
  0
LWPOLYLINE
  5
16C
330
123
100
AcDbEntity
  8
AM_9
100
AcDbPolyline
 90
       15
 70
     0
 43
0.0
 10
1.411978720294678
 20
0.1196679975334444
 10
1.39836518869237
 20
0.0930790923057576
 10
1.388230380758132
 20
0.0638658375605528
 10
1.38197995992843
 20
0.0328191759195155
 10
1.379776974100028
 20
0.0008437056210948
 10
1.381754347794629
 20
-0.0310934503044713
 10
1.387771293995354
 20
-0.0621540160756553
 10
1.397672673538656
 20
-0.0914351398465443
 10
1.411062241208023
 20
-0.1181484116333264
 10
1.427579577825834
 20
-0.1415577077880245
 10
1.446606821087571
 20
-0.1609792927872318
 10
1.46756607027922
 20
-0.1758048594929713
 10
1.48976698951978
 20
-0.1856643901420518
 10
1.512448108640511
 20
-0.1901898448750299
 10
1.516052461260189
 20
-0.1904367432435883
  0
ELLIPSE
  5
16D
330
123
100
AcDbEntity
  8
AM_9
100
AcDbEllipse
 10
1.299308710430287
 20
0.0000000000000091
 30
0.0
 11
1.106924205118176E-17
 21
0.1807744413963046
 31
0.0
210
0.0
220
0.0
230
1.0
 40
0.7071067811865477
 41
0.0
 42
6.283185307179586
  0
LINE
  5
16E
330
123
100
AcDbEntity
  8
AM_7
100
AcDbLine
 10
3.317
 20
-0.6900000000000001
 30
0.0
 11
3.443
 21
-0.6900000000000001
 31
0.0
  0
LINE
  5
16F
330
123
100
AcDbEntity
  8
AM_7
100
AcDbLine
 10
3.38
 20
-0.7530000000000001
 30
0.0
 11
3.38
 21
-0.627
 31
0.0
  0
LINE
  5
170
330
123
100
AcDbEntity
  8
AM_7
100
AcDbLine
 10
-3.443
 20
-0.6900000000000001
 30
0.0
 11
-3.317
 21
-0.6900000000000001
 31
0.0
  0
LINE
  5
171
330
123
100
AcDbEntity
  8
AM_7
100
AcDbLine
 10
-3.38
 20
-0.7530000000000001
 30
0.0
 11
-3.38
 21
-0.627
 31
0.0
  0
LINE
  5
172
330
123
100
AcDbEntity
  8
AM_7
100
AcDbLine
 10
0.0
 20
1.1
 30
0.0
 11
0.0
 21
-1.4865
 31
0.0
  0
LINE
  5
173
330
123
100
AcDbEntity
  8
AM_7
100
AcDbLine
 10
2.458624999999999
 20
-0.0000000000000001
 30
0.0
 11
3.386375
 21
-0.0000000000000001
 31
0.0
  0
LINE
  5
174
330
123
100
AcDbEntity
  8
AM_7
100
AcDbLine
 10
2.749999999999999
 20
-0.2913749999999999
 30
0.0
 11
2.749999999999999
 21
0.2913749999999998
 31
0.0
  0
LINE
  5
175
330
123
100
AcDbEntity
  8
AM_7
100
AcDbLine
 10
-3.386375
 20
0.0000000000000003
 30
0.0
 11
-2.458624999999999
 21
0.0000000000000002
 31
0.0
  0
LINE
  5
176
330
123
100
AcDbEntity
  8
AM_7
100
AcDbLine
 10
-3.095
 20
-0.2913749999999996
 30
0.0
 11
-3.095
 21
0.2913750000000002
 31
0.0
  0
LINE
  5
177
330
123
100
AcDbEntity
  8
AM_7
100
AcDbLine
 10
3.095
 20
-0.291375
 30
0.0
 11
3.095
 21
0.2913749999999998
 31
0.0
  0
LINE
  5
178
330
123
100
AcDbEntity
  8
AM_7
100
AcDbLine
 10
-2.749999999999999
 20
-0.2913749999999996
 30
0.0
 11
-2.749999999999999
 21
0.2913750000000002
 31
0.0
  0
LINE
  5
179
330
123
100
AcDbEntity
  8
AM_4
100
AcDbLine
 10
3.72
 20
-1.0
 30
0.0
 11
3.72
 21
0.9999999999999999
 31
0.0
  0
LINE
  5
17A
330
123
100
AcDbEntity
  8
AM_4
100
AcDbLine
 10
-3.72
 20
-1.0
 30
0.0
 11
-3.72
 21
0.9999999999999999
 31
0.0
  0
LINE
  5
17B
330
123
100
AcDbEntity
  8
AM_4
100
AcDbLine
 10
3.570000000000001
 20
0.7496049894151539
 30
0.0
 11
3.570000000000001
 21
0.9999999999999999
 31
0.0
  0
LINE
  5
17C
330
123
100
AcDbEntity
  8
AM_4
100
AcDbLine
 10
-3.57
 20
0.7496049894151537
 30
0.0
 11
-3.57
 21
0.9999999999999999
 31
0.0
  0
LINE
  5
17D
330
123
100
AcDbEntity
  8
AM_4
100
AcDbLine
 10
3.570000000000001
 20
-1.0
 30
0.0
 11
3.570000000000001
 21
-0.7496049894151537
 31
0.0
  0
LINE
  5
17E
330
123
100
AcDbEntity
  8
AM_4
100
AcDbLine
 10
-3.57
 20
-1.0
 30
0.0
 11
-3.57
 21
-0.7496049894151545
 31
0.0
  0
LINE
  5
17F
330
123
100
AcDbEntity
  8
AM_4
100
AcDbLine
 10
-2.934523844006109
 20
-1.0
 30
0.0
 11
-2.934523844006109
 21
-0.81
 31
0.0
  0
LINE
  5
180
330
123
100
AcDbEntity
  8
AM_4
100
AcDbLine
 10
-2.934523844006109
 20
0.8099999999999999
 30
0.0
 11
-2.934523844006109
 21
0.9999999999999999
 31
0.0
  0
LINE
  5
181
330
123
100
AcDbEntity
  8
AM_4
100
AcDbLine
 10
2.934523844006109
 20
0.8099999999999999
 30
0.0
 11
2.934523844006109
 21
0.9999999999999999
 31
0.0
  0
LINE
  5
182
330
123
100
AcDbEntity
  8
AM_4
100
AcDbLine
 10
2.934523844006109
 20
-1.0
 30
0.0
 11
2.934523844006109
 21
-0.81
 31
0.0
  0
CIRCLE
  5
183
330
123
100
AcDbEntity
  8
AM_4
100
AcDbCircle
 10
3.38
 20
-0.6900000000000001
 30
0.0
 40
0.06
  0
ARC
  5
184
330
123
100
AcDbEntity
  8
AM_4
100
AcDbCircle
 10
2.749999999999999
 20
-0.0000000000000001
 30
0.0
 40
0.2774999999999999
100
AcDbArc
 50
90.0
 51
270.0
  0
LINE
  5
185
330
123
100
AcDbEntity
  8
AM_4
100
AcDbLine
 10
2.75
 20
0.2774999999999999
 30
0.0
 11
3.095
 21
0.2774999999999997
 31
0.0
  0
ARC
  5
186
330
123
100
AcDbEntity
  8
AM_4
100
AcDbCircle
 10
3.095
 20
-0.0000000000000001
 30
0.0
 40
0.2774999999999999
100
AcDbArc
 50
270.0
 51
90.0
  0
LINE
  5
187
330
123
100
AcDbEntity
  8
AM_4
100
AcDbLine
 10
3.095
 20
-0.2775
 30
0.0
 11
2.75
 21
-0.2775
 31
0.0
  0
ARC
  5
188
330
123
100
AcDbEntity
  8
AM_4
100
AcDbCircle
 10
3.375
 20
0.4650000000000005
 30
0.0
 40
0.3449999999999998
100
AcDbArc
 50
0.0
 51
90.0
  0
LINE
  5
189
330
123
100
AcDbEntity
  8
AM_4
100
AcDbLine
 10
3.375
 20
0.81
 30
0.0
 11
2.75
 21
0.8099999999999999
 31
0.0
  0
LINE
  5
18A
330
123
100
AcDbEntity
  8
AM_4
100
AcDbLine
 10
2.75
 20
-0.8100000000000005
 30
0.0
 11
3.375
 21
-0.81
 31
0.0
  0
ARC
  5
18B
330
123
100
AcDbEntity
  8
AM_4
100
AcDbCircle
 10
3.375000000000001
 20
-0.4650000000000009
 30
0.0
 40
0.3449999999999991
100
AcDbArc
 50
270.0
 51
0.0
  0
CIRCLE
  5
18C
330
123
100
AcDbEntity
  8
AM_4
100
AcDbCircle
 10
-3.38
 20
-0.6900000000000001
 30
0.0
 40
0.06
  0
ARC
  5
18D
330
123
100
AcDbEntity
  8
AM_4
100
AcDbCircle
 10
-3.095
 20
0.0000000000000003
 30
0.0
 40
0.2774999999999999
100
AcDbArc
 50
90.0
 51
270.0
  0
LINE
  5
18E
330
123
100
AcDbEntity
  8
AM_4
100
AcDbLine
 10
-3.095
 20
0.2775000000000002
 30
0.0
 11
-2.75
 21
0.2775000000000001
 31
0.0
  0
ARC
  5
18F
330
123
100
AcDbEntity
  8
AM_4
100
AcDbCircle
 10
-2.749999999999999
 20
0.0000000000000002
 30
0.0
 40
0.2774999999999999
100
AcDbArc
 50
270.0
 51
90.0
  0
LINE
  5
190
330
123
100
AcDbEntity
  8
AM_4
100
AcDbLine
 10
-2.75
 20
-0.2774999999999996
 30
0.0
 11
-3.095
 21
-0.2774999999999996
 31
0.0
  0
ARC
  5
191
330
123
100
AcDbEntity
  8
AM_4
100
AcDbCircle
 10
-3.374999999999999
 20
-0.4649999999999995
 30
0.0
 40
0.3450000000000011
100
AcDbArc
 50
180.0
 51
270.0
  0
LINE
  5
192
330
123
100
AcDbEntity
  8
AM_4
100
AcDbLine
 10
-3.375
 20
-0.8100000000000004
 30
0.0
 11
-2.75
 21
-0.8099999999999998
 31
0.0
  0
LINE
  5
193
330
123
100
AcDbEntity
  8
AM_4
100
AcDbLine
 10
-2.75
 20
0.8099999999999999
 30
0.0
 11
-3.375
 21
0.8099999999999998
 31
0.0
  0
ARC
  5
194
330
123
100
AcDbEntity
  8
AM_4
100
AcDbCircle
 10
-3.375
 20
0.4650000000000002
 30
0.0
 40
0.3449999999999996
100
AcDbArc
 50
90.0
 51
179.9999987925817
  0
LWPOLYLINE
  5
195
330
123
100
AcDbEntity
  8
AM_4
100
AcDbPolyline
 90
       14
 70
     0
 43
0.0
 10
2.03258102715653
 20
-0.3760452331890701
 10
2.068085524548219
 20
-0.4371414509850602
 10
2.108779802849314
 20
-0.4949107583858293
 10
2.154354154030067
 20
-0.5489134960799957
 10
2.204461729759446
 20
-0.5987386706259625
 10
2.258721181130369
 20
-0.6440070823601721
 10
2.316719560955152
 20
-0.6843742113355125
 10
2.378015466542948
 20
-0.7195328393261423
 10
2.442142399040755
 20
-0.7492153879436932
 10
2.508612313771363
 20
-0.7731959550703726
 10
2.576919334548041
 20
-0.7912920341104842
 10
2.646543603697772
 20
-0.8033659029758216
 10
2.716955238492043
 20
-0.8093256722339179
 10
2.75
 20
-0.8100000000000005
  0
LINE
  5
196
330
123
100
AcDbEntity
  8
AM_4
100
AcDbLine
 10
2.79271586536728
 20
-1.0
 30
0.0
 11
2.79271586536728
 21
-0.81
 31
0.0
  0
LWPOLYLINE
  5
197
330
123
100
AcDbEntity
  8
AM_4
100
AcDbPolyline
 90
       14
 70
     0
 43
0.0
 10
2.75
 20
0.8099999999999999
 10
2.679403848374397
 20
0.8069177054543138
 10
2.609344976089786
 20
0.7976942799398885
 10
2.540356573466958
 20
0.7823999192941454
 10
2.472963683906208
 20
0.761151022836586
 10
2.407679207990033
 20
0.7341093074996866
 10
2.345
 20
0.7014805770653955
 10
2.285403086555652
 20
0.6635131558740835
 10
2.229342036153903
 20
0.6204959989263725
 10
2.177243507238896
 20
0.5727564927611039
 10
2.129504001073628
 20
0.5206579638460973
 10
2.086486844125917
 20
0.4645969134443478
 10
2.048519422934604
 20
0.4050000000000007
 10
2.03258102715653
 20
0.3760452331890698
  0
LINE
  5
198
330
123
100
AcDbEntity
  8
AM_4
100
AcDbLine
 10
2.79271586536728
 20
0.8099999999999999
 30
0.0
 11
2.79271586536728
 21
0.9999999999999999
 31
0.0
  0
LWPOLYLINE
  5
199
330
123
100
AcDbEntity
  8
AM_4
100
AcDbPolyline
 90
       14
 70
     0
 43
0.0
 10
-2.75
 20
-0.8099999999999997
 10
-2.679403848374397
 20
-0.8069177054543136
 10
-2.609344976089786
 20
-0.7976942799398882
 10
-2.540356573466958
 20
-0.782399919294145
 10
-2.472963683906208
 20
-0.7611510228365855
 10
-2.407679207990033
 20
-0.7341093074996862
 10
-2.345
 20
-0.701480577065395
 10
-2.285403086555653
 20
-0.6635131558740832
 10
-2.229342036153903
 20
-0.620495998926372
 10
-2.177243507238896
 20
-0.5727564927611034
 10
-2.129504001073628
 20
-0.5206579638460969
 10
-2.086486844125917
 20
-0.4645969134443474
 10
-2.048519422934605
 20
-0.4050000000000001
 10
-2.03258102715653
 20
-0.3760452331890674
  0
LINE
  5
19A
330
123
100
AcDbEntity
  8
AM_4
100
AcDbLine
 10
-2.792715865367281
 20
-1.0
 30
0.0
 11
-2.792715865367281
 21
-0.81
 31
0.0
  0
LWPOLYLINE
  5
19B
330
123
100
AcDbEntity
  8
AM_4
100
AcDbPolyline
 90
       14
 70
     0
 43
0.0
 10
-2.03258102715653
 20
0.3760452331890683
 10
-2.068085524548218
 20
0.4371414509850585
 10
-2.108779802849313
 20
0.4949107583858275
 10
-2.154354154030066
 20
0.5489134960799942
 10
-2.204461729759444
 20
0.5987386706259611
 10
-2.258721181130368
 20
0.6440070823601707
 10
-2.31671956095515
 20
0.684374211335511
 10
-2.378015466542946
 20
0.7195328393261412
 10
-2.442142399040752
 20
0.7492153879436922
 10
-2.50861231377136
 20
0.7731959550703719
 10
-2.576919334548038
 20
0.7912920341104838
 10
-2.646543603697769
 20
0.8033659029758211
 10
-2.716955238492039
 20
0.8093256722339177
 10
-2.75
 20
0.8100000000000005
  0
LINE
  5
19C
330
123
100
AcDbEntity
  8
AM_4
100
AcDbLine
 10
-2.792715865367281
 20
0.8099999999999999
 30
0.0
 11
-2.792715865367281
 21
0.9999999999999999
 31
0.0
  0
LINE
  5
19D
330
123
100
AcDbEntity
  8
AM_4
100
AcDbLine
 10
1.747625
 20
0.8000000000000005
 30
0.0
 11
-1.747624999999999
 21
0.8
 31
0.0
  0
LWPOLYLINE
  5
19E
330
123
100
AcDbEntity
  8
AM_4
100
AcDbPolyline
 90
        4
 70
     0
 43
0.0
 10
-1.755808862236548
 20
0.8042533140947848
 10
-1.755442192940944
 20
0.8037636954432879
 10
-1.74964226422858
 20
0.8002055809242156
 10
-1.747624999999999
 20
0.8
  0
LINE
  5
19F
330
123
100
AcDbEntity
  8
AM_4
100
AcDbLine
 10
-1.757443954792778
 20
0.8081057648567344
 30
0.0
 11
-1.755808862236548
 21
0.8042533140947848
 31
0.0
  0
LINE
  5
1A0
330
123
100
AcDbEntity
  8
AM_4
100
AcDbLine
 10
-1.541859779008778
 20
0.6850212464589237
 30
0.0
 11
-1.541859779008778
 21
0.8
 31
0.0
  0
LWPOLYLINE
  5
1A1
330
123
100
AcDbEntity
  8
AM_4
100
AcDbPolyline
 90
        7
 70
     0
 43
0.0
 10
-1.757625
 20
0.8045325779036829
 10
-1.750936706233504
 20
0.7828346866364234
 10
-1.730922726888082
 20
0.7613019294232526
 10
-1.697735380431324
 20
0.7400981835483972
 10
-1.651627242608833
 20
0.7193848223211365
 10
-1.592949224190292
 20
0.6993194869274796
 10
-1.541859779008779
 20
0.6850212464589238
  0
LINE
  5
1A2
330
123
100
AcDbEntity
  8
AM_4
100
AcDbLine
 10
1.541859779008779
 20
0.6850212464589231
 30
0.0
 11
1.541859779008779
 21
0.8
 31
0.0
  0
LINE
  5
1A3
330
123
100
AcDbEntity
  8
AM_4
100
AcDbLine
 10
1.756257296822687
 20
0.8049518863359619
 30
0.0
 11
1.757443954792778
 21
0.8081057648567346
 31
0.0
  0
LWPOLYLINE
  5
1A4
330
123
100
AcDbEntity
  8
AM_4
100
AcDbPolyline
 90
        4
 70
     0
 43
0.0
 10
1.747625
 20
0.8000000000000005
 10
1.749642264228582
 20
0.8002055809242161
 10
1.755442192940944
 20
0.8037636954432889
 10
1.756257296822687
 20
0.8049518863359619
  0
LINE
  5
1A5
330
123
100
AcDbEntity
  8
AM_4
100
AcDbLine
 10
1.757625
 20
0.8045325779036829
 30
0.0
 11
1.757443954792777
 21
0.8081057648568909
 31
0.0
  0
LINE
  5
1A6
330
123
100
AcDbEntity
  8
AM_4
100
AcDbLine
 10
1.44493996415076
 20
0.6850212464589234
 30
0.0
 11
1.44493996415076
 21
0.7999999999999999
 31
0.0
  0
LINE
  5
1A7
330
123
100
AcDbEntity
  8
AM_4
100
AcDbLine
 10
-1.44493996415076
 20
0.7999999999999999
 30
0.0
 11
-1.44493996415076
 21
0.6850212464589234
 31
0.0
  0
LINE
  5
1A8
330
123
100
AcDbEntity
  8
AM_4
100
AcDbLine
 10
-1.11
 20
-0.8000000000000002
 30
0.0
 11
-1.757624999999995
 21
-0.8000000000000005
 31
0.0
  0
LINE
  5
1A9
330
123
100
AcDbEntity
  8
AM_4
100
AcDbLine
 10
1.757624999999995
 20
-0.8
 30
0.0
 11
1.11
 21
-0.8000000000000002
 31
0.0
  0
LINE
  5
1AA
330
123
100
AcDbEntity
  8
AM_4
100
AcDbLine
 10
1.757624999999995
 20
-0.8
 30
0.0
 11
1.757624999999995
 21
-1.0
 31
0.0
  0
LINE
  5
1AB
330
123
100
AcDbEntity
  8
AM_4
100
AcDbLine
 10
1.757624999999995
 20
-1.0
 30
0.0
 11
3.72
 21
-1.0
 31
0.0
  0
LINE
  5
1AC
330
123
100
AcDbEntity
  8
AM_4
100
AcDbLine
 10
2.032581027156531
 20
-0.7052697556472004
 30
0.0
 11
2.75
 21
-1.0
 31
0.0
  0
LINE
  5
1AD
330
123
100
AcDbEntity
  8
AM_4
100
AcDbLine
 10
-2.75
 20
-1.0
 30
0.0
 11
-2.032581027156529
 21
-0.7052697556472001
 31
0.0
  0
LINE
  5
1AE
330
123
100
AcDbEntity
  8
AM_4
100
AcDbLine
 10
-3.72
 20
-1.0
 30
0.0
 11
-1.757624999999995
 21
-1.0
 31
0.0
  0
LINE
  5
1AF
330
123
100
AcDbEntity
  8
AM_4
100
AcDbLine
 10
-1.757624999999995
 20
-1.0
 30
0.0
 11
-1.757624999999995
 21
-0.8000000000000005
 31
0.0
  0
LWPOLYLINE
  5
1B0
330
123
100
AcDbEntity
  8
AM_4
100
AcDbPolyline
 90
       37
 70
     0
 43
0.0
 10
1.672943980681959
 20
-0.8000000000000002
 10
1.663788939991943
 20
-0.7793647442563039
 10
1.641971460845358
 20
-0.7589210309234176
 10
1.607657587432264
 20
-0.7388244490040562
 10
1.56110846904862
 20
-0.719227945621274
 10
1.502678372592449
 20
-0.7002806619985061
 10
1.432811986378841
 20
-0.6821267984048045
 10
1.352041035793359
 20
-0.6649045167037199
 10
1.26098023654079
 20
-0.6487448888580953
 10
1.160322616287462
 20
-0.6337708993932863
 10
1.050834240302235
 20
-0.6200965094106621
 10
0.9333483812372463
 20
-0.6078257892748126
 10
0.8087591774198802
 20
-0.5970521265752353
 10
0.6780148279202061
 20
-0.5878575153903892
 10
0.5421103761835128
 20
-0.5803119322632491
 10
0.402080137148868
 20
-0.5744728036375601
 10
0.2589898254878957
 20
-0.5703845688079262
 10
0.1139284448726282
 20
-0.5680783417099444
 10
-0.0319999999999959
 20
-0.5675716741243683
 10
-0.1776849055504916
 20
-0.5688684220974585
 10
-0.3220175216806688
 20
-0.5719587165941419
 10
-0.4638993900313603
 20
-0.5768190386073277
 10
-0.6022507039138031
 20
-0.5834123981517534
 10
-0.7360185262905442
 20
-0.5916886157801061
 10
-0.8641848032620773
 20
-0.6015847044789174
 10
-0.985774112071735
 20
-0.6130253490377676
 10
-1.099861084661844
 20
-0.6259234792435139
 10
-1.205577450283396
 20
-0.6401809325371862
 10
-1.302118643560723
 20
-0.6556892010903346
 10
-1.388749927719821
 20
-0.6723302576151206
 10
-1.464811986378837
 20
-0.6899774536232459
 10
-1.529725941343851
 20
-0.7084964832974208
 10
-1.58299775822146
 20
-0.7277464056397287
 10
-1.624222006318824
 20
-0.7475807171177237
 10
-1.65308494421604
 20
-0.7678484666447735
 10
-1.669366907527792
 20
-0.7883954044089757
 10
-1.672943980681959
 20
-0.8
  0
LINE
  5
1B1
330
123
100
AcDbEntity
  8
AM_4
100
AcDbLine
 10
-1.541859779008779
 20
0.6850212464589235
 30
0.0
 11
-1.44493996415076
 21
0.6850212464589234
 31
0.0
  0
LINE
  5
1B2
330
123
100
AcDbEntity
  8
AM_4
100
AcDbLine
 10
-1.757443954792778
 20
0.8081057648568906
 30
0.0
 11
-1.757625
 21
0.8045325779036829
 31
0.0
  0
LWPOLYLINE
  5
1B3
330
123
100
AcDbEntity
  8
AM_4
100
AcDbPolyline
 90
        4
 70
     0
 43
0.0
 10
-1.757625
 20
0.8099999999999999
 10
-1.757586946980918
 20
0.8091284425725234
 10
-1.757473077530122
 20
0.8082635182233308
 10
-1.757443954792778
 20
0.8081057648568903
  0
LINE
  5
1B4
330
123
100
AcDbEntity
  8
AM_4
100
AcDbLine
 10
-1.757625
 20
0.8099999999999999
 30
0.0
 11
-1.757625
 21
0.9999999999999999
 31
0.0
  0
LINE
  5
1B5
330
123
100
AcDbEntity
  8
AM_4
100
AcDbLine
 10
-3.72
 20
0.9999999999999999
 30
0.0
 11
-1.757625
 21
0.9999999999999999
 31
0.0
  0
LINE
  5
1B6
330
123
100
AcDbEntity
  8
AM_4
100
AcDbLine
 10
-2.032581027156529
 20
0.7052697556471998
 30
0.0
 11
-2.75
 21
0.9999999999999999
 31
0.0
  0
LINE
  5
1B7
330
123
100
AcDbEntity
  8
AM_4
100
AcDbLine
 10
2.75
 20
0.9999999999999999
 30
0.0
 11
2.032581027156531
 21
0.7052697556472005
 31
0.0
  0
LINE
  5
1B8
330
123
100
AcDbEntity
  8
AM_4
100
AcDbLine
 10
1.757625
 20
0.9999999999999999
 30
0.0
 11
3.72
 21
0.9999999999999999
 31
0.0
  0
LINE
  5
1B9
330
123
100
AcDbEntity
  8
AM_4
100
AcDbLine
 10
1.757625
 20
0.9999999999999999
 30
0.0
 11
1.757625
 21
0.8099999999999974
 31
0.0
  0
LWPOLYLINE
  5
1BA
330
123
100
AcDbEntity
  8
AM_4
100
AcDbPolyline
 90
        4
 70
     0
 43
0.0
 10
1.757443954792778
 20
0.8081057648568907
 10
1.757571684176204
 20
0.8089687512914655
 10
1.757623713287078
 20
0.8098395861513974
 10
1.757625
 20
0.8099999999999945
  0
LWPOLYLINE
  5
1BB
330
123
100
AcDbEntity
  8
AM_4
100
AcDbPolyline
 90
        7
 70
     0
 43
0.0
 10
1.541859779008778
 20
0.6850212464589237
 10
1.609530194992792
 20
0.7045102914642125
 10
1.664951114332007
 20
0.7247605664644137
 10
1.707700750366187
 20
0.745617954639325
 10
1.737453752552174
 20
0.7669237186709004
 10
1.75398368257798
 20
0.7885157088300873
 10
1.757625
 20
0.8045325779036829
  0
LINE
  5
1BC
330
123
100
AcDbEntity
  8
AM_4
100
AcDbLine
 10
1.44493996415076
 20
0.6850212464589234
 30
0.0
 11
1.541859779008779
 21
0.6850212464589235
 31
0.0
  0
LWPOLYLINE
  5
1BD
330
123
100
AcDbEntity
  8
AM_4
100
AcDbPolyline
 90
       25
 70
     0
 43
0.0
 10
-1.444939964150761
 20
0.6850212464589234
 10
-1.365903873404528
 20
0.6676382305501068
 10
-1.276472429426379
 20
0.6512970632837181
 10
-1.177326259505168
 20
0.6361221108097206
 10
-1.069219925860092
 20
0.6222288636793286
 10
-0.9529761829665776
 20
0.6097230578921761
 10
-0.8294797158979356
 20
0.5986998701815156
 10
-0.699670407337764
 20
0.5892431936618076
 10
-0.5645361845052093
 20
0.5814249993514646
 10
-0.4251055004323017
 20
0.5753047884299435
 10
-0.2824395068153853
 20
0.570929139397841
 10
-0.1376239780099667
 20
0.5683313535863805
 10
0.0082389523677376
 20
0.5675312017141735
 10
0.154039179343108
 20
0.5685347734201122
 10
0.2986670751522779
 20
0.5713344309175413
 10
0.4410219341794281
 20
0.575908867122426
 10
0.5800203499911484
 20
0.5822232678131267
 10
0.7146044607135733
 20
0.5902295765876483
 10
0.8437499999999971
 20
0.5998668606018749
 10
0.9664740923162414
 20
0.6110617743053073
 10
1.081842733216947
 20
0.6237291176449884
 10
1.188977897683369
 20
0.6377724844893524
 10
1.287064222423937
 20
0.6530849963370968
 10
1.375355211281234
 20
0.6695501157271132
 10
1.44493996415076
 20
0.6850212464589233
  0
LINE
  5
1BE
330
123
100
AcDbEntity
  8
AM_4
100
AcDbLine
 10
-2.032581027156529
 20
-0.7052697556472001
 30
0.0
 11
-2.03258102715653
 21
-0.3760452331890675
 31
0.0
  0
LWPOLYLINE
  5
1BF
330
123
100
AcDbEntity
  8
AM_4
100
AcDbPolyline
 90
       30
 70
     0
 43
0.0
 10
-2.03258102715653
 20
-0.7052697556472003
 10
-1.963768088188202
 20
-0.680555255566811
 10
-1.880009688313171
 20
-0.6567842977689591
 10
-1.781943279529191
 20
-0.6341377935957833
 10
-1.670315206421222
 20
-0.6127880966183743
 10
-1.545975026028491
 20
-0.5928976909220298
 10
-1.409869042202441
 20
-0.5746179545042543
 10
-1.263033103663027
 20
-0.5580880071967939
 10
-1.106584720564498
 20
-0.543433651879713
 10
-0.9417145595683503
 20
-0.5307664170455166
 10
-0.7696773821510896
 20
-0.5201827079999783
 10
-0.5917824951117494
 20
-0.5117630731595532
 10
-0.4093837859565684
 20
-0.505571591029291
 10
-0.2238694189975696
 20
-0.5016553825267223
 10
-0.0366512705839482
 20
-0.500044252363223
 10
0.1508458161294593
 20
-0.5007504622121643
 10
0.3371948750989275
 20
-0.5037686373901747
 10
0.5209776774650606
 20
-0.5090758077617255
 10
0.7007955251307622
 20
-0.516631582555732
 10
0.8752798956983111
 20
-0.5263784577637104
 10
1.043102857751145
 20
-0.5382422537800037
 10
1.202987177213767
 20
-0.5521326799533721
 10
1.353716037874274
 20
-0.5679440217533676
 10
1.494142302090466
 20
-0.5855559453217429
 10
1.623197241199961
 20
-0.6048344132857727
 10
1.739898669190633
 20
-0.6256327048635933
 10
1.843358417729223
 20
-0.647792532497946
 10
1.93278909565865
 20
-0.6711452465200631
 10
2.007510081520151
 20
-0.6955131186754825
 10
2.03258102715653
 20
-0.7052697556472003
  0
LINE
  5
1C0
330
123
100
AcDbEntity
  8
AM_4
100
AcDbLine
 10
2.032581027156531
 20
-0.7052697556472004
 30
0.0
 11
2.03258102715653
 21
-0.3760452331890695
 31
0.0
  0
LWPOLYLINE
  5
1C1
330
123
100
AcDbEntity
  8
AM_4
100
AcDbPolyline
 90
       27
 70
     0
 43
0.0
 10
2.03258102715653
 20
0.3760452331890694
 10
2.02156987661603
 20
0.3542459738941153
 10
2.010541333271803
 20
0.3306068362882977
 10
1.999463754816315
 20
0.3046235747416909
 10
1.988688787789674
 20
0.2765958028655683
 10
1.978547116943581
 20
0.2468995204801224
 10
1.969107162646593
 20
0.2151891646206792
 10
1.960354033175171
 20
0.1804309845857537
 10
1.952858862102007
 20
0.1437567607825572
 10
1.948293923185541
 20
0.11560823971544
 10
1.944651969745427
 20
0.0866865050920852
 10
1.94196199668037
 20
0.0563156099079933
 10
1.940401961590648
 20
0.0255150191795153
 10
1.94001531115399
 20
-0.0046615765493095
 10
1.940748057178774
 20
-0.0348036354433331
 10
1.94266322385876
 20
-0.0656067562654474
 10
1.945698276149294
 20
-0.0959100464538723
 10
1.949532660351293
 20
-0.1238961110779907
 10
1.954219209166901
 20
-0.1511057012195386
 10
1.959803225386289
 20
-0.1780108982049686
 10
1.966078813800133
 20
-0.2038812738507245
 10
1.975740609774481
 20
-0.2379511326463747
 10
1.986254231390689
 20
-0.2698006688860749
 10
1.997679811270677
 20
-0.3001907203020422
 10
2.009486720915872
 20
-0.3282378459289459
 10
2.021039755669924
 20
-0.3531539942446613
 10
2.03258102715653
 20
-0.3760452331890698
  0
LINE
  5
1C2
330
123
100
AcDbEntity
  8
AM_4
100
AcDbLine
 10
2.032581027156531
 20
0.3760452331890699
 30
0.0
 11
2.032581027156531
 21
0.7052697556472005
 31
0.0
  0
LWPOLYLINE
  5
1C3
330
123
100
AcDbEntity
  8
AM_4
100
AcDbPolyline
 90
       30
 70
     0
 43
0.0
 10
2.03258102715653
 20
0.7052697556472001
 10
1.963768088188203
 20
0.6805552555668107
 10
1.880009688313172
 20
0.656784297768959
 10
1.781943279529191
 20
0.634137793595783
 10
1.670315206421222
 20
0.6127880966183742
 10
1.545975026028491
 20
0.5928976909220297
 10
1.409869042202441
 20
0.5746179545042542
 10
1.263033103663027
 20
0.5580880071967937
 10
1.106584720564498
 20
0.5434336518797129
 10
0.9417145595683504
 20
0.5307664170455166
 10
0.7696773821510896
 20
0.5201827079999783
 10
0.5917824951117494
 20
0.511763073159553
 10
0.4093837859565684
 20
0.5055715910292908
 10
0.2238694189975696
 20
0.5016553825267223
 10
0.0366512705839482
 20
0.5000442523632229
 10
-0.1508458161294593
 20
0.5007504622121643
 10
-0.3371948750989275
 20
0.5037686373901746
 10
-0.5209776774650606
 20
0.5090758077617255
 10
-0.7007955251307622
 20
0.516631582555732
 10
-0.8752798956983111
 20
0.5263784577637103
 10
-1.043102857751145
 20
0.5382422537800037
 10
-1.202987177213767
 20
0.552132679953372
 10
-1.353716037874274
 20
0.5679440217533674
 10
-1.494142302090466
 20
0.5855559453217428
 10
-1.623197241199961
 20
0.6048344132857727
 10
-1.739898669190633
 20
0.6256327048635932
 10
-1.843358417729223
 20
0.6477925324979458
 10
-1.93278909565865
 20
0.671145246520063
 10
-2.007510081520151
 20
0.6955131186754824
 10
-2.032581027156529
 20
0.7052697556471997
  0
LINE
  5
1C4
330
123
100
AcDbEntity
  8
AM_4
100
AcDbLine
 10
-2.03258102715653
 20
0.3760452331890684
 30
0.0
 11
-2.032581027156529
 21
0.7052697556471998
 31
0.0
  0
LWPOLYLINE
  5
1C5
330
123
100
AcDbEntity
  8
AM_4
100
AcDbPolyline
 90
       27
 70
     0
 43
0.0
 10
-2.03258102715653
 20
-0.3760452331890675
 10
-2.02156987661603
 20
-0.3542459738941129
 10
-2.010541333271802
 20
-0.330606836288295
 10
-1.999463754816315
 20
-0.3046235747416883
 10
-1.988688787789673
 20
-0.276595802865566
 10
-1.97854711694358
 20
-0.2468995204801199
 10
-1.969107162646592
 20
-0.2151891646206766
 10
-1.960354033175171
 20
-0.1804309845857513
 10
-1.952858862102007
 20
-0.1437567607825552
 10
-1.94829392318554
 20
-0.115608239715438
 10
-1.944651969745427
 20
-0.086686505092083
 10
-1.94196199668037
 20
-0.0563156099079911
 10
-1.940401961590649
 20
-0.0255150191795131
 10
-1.94001531115399
 20
0.0046615765493117
 10
-1.940748057178775
 20
0.0348036354433352
 10
-1.942663223858761
 20
0.0656067562654494
 10
-1.945698276149295
 20
0.0959100464538743
 10
-1.949532660351293
 20
0.1238961110779925
 10
-1.954219209166902
 20
0.1511057012195402
 10
-1.959803225386289
 20
0.1780108982049704
 10
-1.966078813800133
 20
0.2038812738507265
 10
-1.975740609774481
 20
0.2379511326463767
 10
-1.98625423139069
 20
0.2698006688860767
 10
-1.997679811270678
 20
0.3001907203020441
 10
-2.009486720915873
 20
0.3282378459289481
 10
-2.021039755669924
 20
0.3531539942446617
 10
-2.03258102715653
 20
0.3760452331890687
  0
ENDBLK
  5
126
330
123
100
AcDbEntity
  8
0
100
AcDbBlockEnd
  0
ENDSEC
  0
SECTION
  2
ENTITIES
  0
INSERT
  5
6F
330
1F
100
AcDbEntity
  8
0
100
AcDbBlockReference
  2
1_052762_4
 10
0.0
 20
0.0
 30
0.0
  0
POINT
  5
1C7
330
1F
100
AcDbEntity
  8
ConnectionPoints
100
AcDbPoint
 10
0.0
 20
0.0
 30
0.0
  0
POINT
  5
1C8
330
1F
100
AcDbEntity
  8
ConnectionPoints
100
AcDbPoint
 10
0.0
 20
-1.38
 30
0.0000000000000001
  0
POINT
  5
1C9
330
1F
100
AcDbEntity
  8
ConnectionPoints
100
AcDbPoint
 10
1.520279579551077
 20
0.0000000000000001
 30
1.520279579551078
  0
POINT
  5
1CA
330
1F
100
AcDbEntity
  8
ConnectionPoints
100
AcDbPoint
 10
1.520279579551077
 20
0.0000000000000001
 30
1.520279579551078
  0
POINT
  5
1CB
330
1F
100
AcDbEntity
  8
ConnectionPoints
100
AcDbPoint
 10
0.0
 20
-1.38
 30
0.0000000000000001
  0
ENDSEC
  0
SECTION
  2
OBJECTS
  0
DICTIONARY
  5
C
330
0
100
AcDbDictionary
281
     1
  3
ACAD_DETAILVIEWSTYLE
350
1D3
  3
ACAD_GROUP
350
D
  3
ACAD_LAYOUT
350
1A
  3
ACAD_MATERIAL
350
43
  3
ACAD_MLEADERSTYLE
350
6B
  3
ACAD_MLINESTYLE
350
17
  3
ACAD_PLOTSETTINGS
350
19
  3
ACAD_PLOTSTYLENAME
350
E
  3
ACAD_SCALELIST
350
47
  3
ACAD_SECTIONVIEWSTYLE
350
1D4
  3
ACAD_TABLESTYLE
350
69
  3
ACAD_VISUALSTYLE
350
2A
  3
ACDB_RECOMPOSE_DATA
350
1D0
  3
AcDbVariableDictionary
350
1CC
  0
SUN
  5
6D
330
29
100
AcDbSun
 90
        1
290
     0
 63
     7
421
 16777215
 40
1.0
291
     1
 91
  2455826
 92
 54000000
292
     0
 70
     2
 71
   256
280
     1
  0
DICTIONARY
  5
1D3
102
{ACAD_REACTORS
330
C
102
}
330
C
100
AcDbDictionary
281
     1
  0
DICTIONARY
  5
D
102
{ACAD_REACTORS
330
C
102
}
330
C
100
AcDbDictionary
281
     1
  0
DICTIONARY
  5
1A
102
{ACAD_REACTORS
330
C
102
}
330
C
100
AcDbDictionary
281
     1
  3
Layout1
350
1E
  3
Layout2
350
26
  3
Model
350
22
  0
DICTIONARY
  5
43
102
{ACAD_REACTORS
330
C
102
}
330
C
100
AcDbDictionary
281
     1
  3
ByBlock
350
45
  3
ByLayer
350
44
  3
Global
350
46
  0
DICTIONARY
  5
6B
102
{ACAD_REACTORS
330
C
102
}
330
C
100
AcDbDictionary
281
     1
  3
Standard
350
6C
  0
DICTIONARY
  5
17
102
{ACAD_REACTORS
330
C
102
}
330
C
100
AcDbDictionary
281
     1
  3
Standard
350
18
  0
DICTIONARY
  5
19
102
{ACAD_REACTORS
330
C
102
}
330
C
100
AcDbDictionary
281
     1
  0
ACDBDICTIONARYWDFLT
  5
E
102
{ACAD_REACTORS
330
C
102
}
330
C
100
AcDbDictionary
281
     1
  3
Normal
350
F
100
AcDbDictionaryWithDefault
340
F
  0
DICTIONARY
  5
47
102
{ACAD_REACTORS
330
C
102
}
330
C
100
AcDbDictionary
281
     1
  3
A0
350
48
  3
A1
350
49
  3
A2
350
4A
  3
A3
350
4B
  3
A4
350
4C
  3
A5
350
4D
  3
A6
350
4E
  3
A7
350
4F
  3
A8
350
50
  3
A9
350
51
  3
B0
350
52
  3
B1
350
53
  3
B2
350
54
  3
B3
350
55
  3
B4
350
56
  3
B5
350
57
  3
B6
350
58
  3
B7
350
59
  3
B8
350
5A
  3
B9
350
5B
  3
C0
350
5C
  3
C1
350
5D
  3
C2
350
5E
  3
C3
350
5F
  3
C4
350
60
  3
C5
350
61
  3
C6
350
62
  3
C7
350
63
  3
C8
350
64
  3
C9
350
65
  3
D0
350
66
  3
D1
350
67
  3
D2
350
68
  0
DICTIONARY
  5
1D4
102
{ACAD_REACTORS
330
C
102
}
330
C
100
AcDbDictionary
281
     1
  0
DICTIONARY
  5
69
102
{ACAD_REACTORS
330
C
102
}
330
C
100
AcDbDictionary
281
     1
  3
Standard
350
6A
  0
DICTIONARY
  5
2A
102
{ACAD_REACTORS
330
C
102
}
330
C
100
AcDbDictionary
281
     1
  3
2dWireframe
350
2F
  3
Basic
350
32
  3
Brighten
350
36
  3
ColorChange
350
3A
  3
Conceptual
350
34
  3
Dim
350
35
  3
EdgeColorOff
350
3D
  3
Facepattern
350
39
  3
Flat
350
2B
  3
FlatWithEdges
350
2C
  3
Gouraud
350
2D
  3
GouraudWithEdges
350
2E
  3
Hidden
350
31
  3
JitterOff
350
3B
  3
Linepattern
350
38
  3
OverhangOff
350
3C
  3
Realistic
350
33
  3
Shaded
350
42
  3
Shaded with edges
350
41
  3
Shades of Gray
350
3E
  3
Sketchy
350
3F
  3
Thicken
350
37
  3
Wireframe
350
30
  3
X-Ray
350
40
  0
XRECORD
  5
1D0
102
{ACAD_REACTORS
330
C
102
}
330
C
100
AcDbXrecord
280
     1
 90
        1
330
6A
  0
DICTIONARY
  5
1CC
102
{ACAD_REACTORS
330
C
102
}
330
C
100
AcDbDictionary
281
     1
  3
CANNOSCALE
350
1CD
  3
CMLEADERSTYLE
350
1D2
  3
CTABLESTYLE
350
1D1
  0
LAYOUT
  5
1E
102
{ACAD_REACTORS
330
1A
102
}
330
1A
100
AcDbPlotSettings
  1

  2
none_device
  4

  6

 40
0.0
 41
0.0
 42
0.0
 43
0.0
 44
0.0
 45
0.0
 46
0.0
 47
0.0
 48
0.0
 49
0.0
140
0.0
141
0.0
142
1.0
143
1.0
 70
   688
 72
     0
 73
     0
 74
     5
  7

 75
    16
 76
     0
 77
     2
 78
   300
147
1.0
148
0.0
149
0.0
100
AcDbLayout
  1
Layout1
 70
     1
 71
     1
 10
0.0
 20
0.0
 11
12.0
 21
9.0
 12
0.0
 22
0.0
 32
0.0
 14
1.000000000000000E+20
 24
1.000000000000000E+20
 34
1.000000000000000E+20
 15
-1.000000000000000E+20
 25
-1.000000000000000E+20
 35
-1.000000000000000E+20
146
0.0
 13
0.0
 23
0.0
 33
0.0
 16
1.0
 26
0.0
 36
0.0
 17
0.0
 27
1.0
 37
0.0
 76
     0
330
1B
  0
LAYOUT
  5
26
102
{ACAD_REACTORS
330
1A
102
}
330
1A
100
AcDbPlotSettings
  1

  2
none_device
  4

  6

 40
0.0
 41
0.0
 42
0.0
 43
0.0
 44
0.0
 45
0.0
 46
0.0
 47
0.0
 48
0.0
 49
0.0
140
0.0
141
0.0
142
1.0
143
1.0
 70
   688
 72
     0
 73
     0
 74
     5
  7

 75
    16
 76
     0
 77
     2
 78
   300
147
1.0
148
0.0
149
0.0
100
AcDbLayout
  1
Layout2
 70
     1
 71
     2
 10
0.0
 20
0.0
 11
0.0
 21
0.0
 12
0.0
 22
0.0
 32
0.0
 14
0.0
 24
0.0
 34
0.0
 15
0.0
 25
0.0
 35
0.0
146
0.0
 13
0.0
 23
0.0
 33
0.0
 16
1.0
 26
0.0
 36
0.0
 17
0.0
 27
1.0
 37
0.0
 76
     0
330
23
  0
LAYOUT
  5
22
102
{ACAD_REACTORS
330
1A
102
}
330
1A
100
AcDbPlotSettings
  1

  2
none_device
  4
Letter_(8.50_x_11.00_Inches)
  6

 40
6.35
 41
6.35
 42
6.35000508
 43
6.35000508
 44
215.9
 45
279.4
 46
0.0
 47
0.0
 48
0.0
 49
0.0
140
0.0
141
0.0
142
1.0
143
1.0
 70
  1712
 72
     0
 73
     0
 74
     0
  7

 75
     0
 76
     0
 77
     2
 78
   300
147
1.0
148
0.0
149
0.0
100
AcDbLayout
  1
Model
 70
     1
 71
     0
 10
0.0
 20
0.0
 11
12.0
 21
9.0
 12
0.0
 22
0.0
 32
0.0
 14
1.000000000000000E+20
 24
1.000000000000000E+20
 34
1.000000000000000E+20
 15
-1.000000000000000E+20
 25
-1.000000000000000E+20
 35
-1.000000000000000E+20
146
0.0
 13
0.0
 23
0.0
 33
0.0
 16
1.0
 26
0.0
 36
0.0
 17
0.0
 27
1.0
 37
0.0
 76
     0
330
1F
331
29
  0
MATERIAL
  5
45
102
{ACAD_REACTORS
330
43
102
}
330
43
100
AcDbMaterial
  1
ByBlock
 72
     1
 94
      127
  0
MATERIAL
  5
44
102
{ACAD_REACTORS
330
43
102
}
330
43
100
AcDbMaterial
  1
ByLayer
 72
     1
 94
      127
  0
MATERIAL
  5
46
102
{ACAD_REACTORS
330
43
102
}
330
43
100
AcDbMaterial
  1
Global
 72
     1
 94
      127
  0
MLEADERSTYLE
  5
6C
102
{ACAD_REACTORS
330
6B
102
}
330
6B
100
AcDbMLeaderStyle
179
     2
170
     2
171
     1
172
     0
 90
        2
 40
0.0
 41
0.0
173
     1
 91
-1056964608
340
14
 92
       -2
290
     1
 42
0.09
291
     1
 43
0.36
  3
Standard
341
0
 44
0.18
300

342
11
174
     1
178
     6
175
     1
176
     0
 93
-1056964608
 45
0.18
292
     0
297
     0
 46
0.18
343
0
 94
-1056964608
 47
1.0
 49
1.0
140
1.0
293
     1
141
0.0
294
     1
177
     0
142
1.0
295
     0
296
     0
143
0.125
271
     0
272
     9
273
     9
298
     0
  0
MLINESTYLE
  5
18
102
{ACAD_REACTORS
330
17
102
}
330
17
100
AcDbMlineStyle
  2
Standard
 70
     0
  3

 62
   256
 51
90.0
 52
90.0
 71
     2
 49
0.5
 62
   256
  6
BYLAYER
 49
-0.5
 62
   256
  6
BYLAYER
  0
ACDBPLACEHOLDER
  5
F
102
{ACAD_REACTORS
330
E
102
}
330
E
  0
SCALE
  5
48
102
{ACAD_REACTORS
330
47
102
}
330
47
100
AcDbScale
 70
     0
300
1:1
140
1.0
141
1.0
290
     1
  0
SCALE
  5
49
102
{ACAD_REACTORS
330
47
102
}
330
47
100
AcDbScale
 70
     0
300
1:2
140
1.0
141
2.0
290
     0
  0
SCALE
  5
4A
102
{ACAD_REACTORS
330
47
102
}
330
47
100
AcDbScale
 70
     0
300
1:4
140
1.0
141
4.0
290
     0
  0
SCALE
  5
4B
102
{ACAD_REACTORS
330
47
102
}
330
47
100
AcDbScale
 70
     0
300
1:5
140
1.0
141
5.0
290
     0
  0
SCALE
  5
4C
102
{ACAD_REACTORS
330
47
102
}
330
47
100
AcDbScale
 70
     0
300
1:8
140
1.0
141
8.0
290
     0
  0
SCALE
  5
4D
102
{ACAD_REACTORS
330
47
102
}
330
47
100
AcDbScale
 70
     0
300
1:10
140
1.0
141
10.0
290
     0
  0
SCALE
  5
4E
102
{ACAD_REACTORS
330
47
102
}
330
47
100
AcDbScale
 70
     0
300
1:16
140
1.0
141
16.0
290
     0
  0
SCALE
  5
4F
102
{ACAD_REACTORS
330
47
102
}
330
47
100
AcDbScale
 70
     0
300
1:20
140
1.0
141
20.0
290
     0
  0
SCALE
  5
50
102
{ACAD_REACTORS
330
47
102
}
330
47
100
AcDbScale
 70
     0
300
1:30
140
1.0
141
30.0
290
     0
  0
SCALE
  5
51
102
{ACAD_REACTORS
330
47
102
}
330
47
100
AcDbScale
 70
     0
300
1:40
140
1.0
141
40.0
290
     0
  0
SCALE
  5
52
102
{ACAD_REACTORS
330
47
102
}
330
47
100
AcDbScale
 70
     0
300
1:50
140
1.0
141
50.0
290
     0
  0
SCALE
  5
53
102
{ACAD_REACTORS
330
47
102
}
330
47
100
AcDbScale
 70
     0
300
1:100
140
1.0
141
100.0
290
     0
  0
SCALE
  5
54
102
{ACAD_REACTORS
330
47
102
}
330
47
100
AcDbScale
 70
     0
300
2:1
140
2.0
141
1.0
290
     0
  0
SCALE
  5
55
102
{ACAD_REACTORS
330
47
102
}
330
47
100
AcDbScale
 70
     0
300
4:1
140
4.0
141
1.0
290
     0
  0
SCALE
  5
56
102
{ACAD_REACTORS
330
47
102
}
330
47
100
AcDbScale
 70
     0
300
8:1
140
8.0
141
1.0
290
     0
  0
SCALE
  5
57
102
{ACAD_REACTORS
330
47
102
}
330
47
100
AcDbScale
 70
     0
300
10:1
140
10.0
141
1.0
290
     0
  0
SCALE
  5
58
102
{ACAD_REACTORS
330
47
102
}
330
47
100
AcDbScale
 70
     0
300
100:1
140
100.0
141
1.0
290
     0
  0
SCALE
  5
59
102
{ACAD_REACTORS
330
47
102
}
330
47
100
AcDbScale
 70
     0
300
1/128" = 1'-0"
140
0.0078125
141
12.0
290
     0
  0
SCALE
  5
5A
102
{ACAD_REACTORS
330
47
102
}
330
47
100
AcDbScale
 70
     0
300
1/64" = 1'-0"
140
0.015625
141
12.0
290
     0
  0
SCALE
  5
5B
102
{ACAD_REACTORS
330
47
102
}
330
47
100
AcDbScale
 70
     0
300
1/32" = 1'-0"
140
0.03125
141
12.0
290
     0
  0
SCALE
  5
5C
102
{ACAD_REACTORS
330
47
102
}
330
47
100
AcDbScale
 70
     0
300
1/16" = 1'-0"
140
0.0625
141
12.0
290
     0
  0
SCALE
  5
5D
102
{ACAD_REACTORS
330
47
102
}
330
47
100
AcDbScale
 70
     0
300
3/32" = 1'-0"
140
0.09375
141
12.0
290
     0
  0
SCALE
  5
5E
102
{ACAD_REACTORS
330
47
102
}
330
47
100
AcDbScale
 70
     0
300
1/8" = 1'-0"
140
0.125
141
12.0
290
     0
  0
SCALE
  5
5F
102
{ACAD_REACTORS
330
47
102
}
330
47
100
AcDbScale
 70
     0
300
3/16" = 1'-0"
140
0.1875
141
12.0
290
     0
  0
SCALE
  5
60
102
{ACAD_REACTORS
330
47
102
}
330
47
100
AcDbScale
 70
     0
300
1/4" = 1'-0"
140
0.25
141
12.0
290
     0
  0
SCALE
  5
61
102
{ACAD_REACTORS
330
47
102
}
330
47
100
AcDbScale
 70
     0
300
3/8" = 1'-0"
140
0.375
141
12.0
290
     0
  0
SCALE
  5
62
102
{ACAD_REACTORS
330
47
102
}
330
47
100
AcDbScale
 70
     0
300
1/2" = 1'-0"
140
0.5
141
12.0
290
     0
  0
SCALE
  5
63
102
{ACAD_REACTORS
330
47
102
}
330
47
100
AcDbScale
 70
     0
300
3/4" = 1'-0"
140
0.75
141
12.0
290
     0
  0
SCALE
  5
64
102
{ACAD_REACTORS
330
47
102
}
330
47
100
AcDbScale
 70
     0
300
1" = 1'-0"
140
1.0
141
12.0
290
     0
  0
SCALE
  5
65
102
{ACAD_REACTORS
330
47
102
}
330
47
100
AcDbScale
 70
     0
300
1-1/2" = 1'-0"
140
1.5
141
12.0
290
     0
  0
SCALE
  5
66
102
{ACAD_REACTORS
330
47
102
}
330
47
100
AcDbScale
 70
     0
300
3" = 1'-0"
140
3.0
141
12.0
290
     0
  0
SCALE
  5
67
102
{ACAD_REACTORS
330
47
102
}
330
47
100
AcDbScale
 70
     0
300
6" = 1'-0"
140
6.0
141
12.0
290
     0
  0
SCALE
  5
68
102
{ACAD_REACTORS
330
47
102
}
330
47
100
AcDbScale
 70
     0
300
1'-0" = 1'-0"
140
12.0
141
12.0
290
     0
  0
TABLESTYLE
  5
6A
102
{ACAD_REACTORS
330
69
102
}
102
{ACAD_XDICTIONARY
360
1CE
102
}
330
69
100
AcDbTableStyle
  3
Standard
 70
     0
 71
     0
 40
0.06
 41
0.06
280
     0
281
     0
  7
Standard
140
0.18
170
     2
 62
     0
 63
   257
283
     0
 90
        4
 91
        0
  1

274
    -2
284
     1
 64
     0
275
    -2
285
     1
 65
     0
276
    -2
286
     1
 66
     0
277
    -2
287
     1
 67
     0
278
    -2
288
     1
 68
     0
279
    -2
289
     1
 69
     0
  7
Standard
140
0.25
170
     5
 62
     0
 63
   257
283
     0
 90
        4
 91
        0
  1

274
    -2
284
     1
 64
     0
275
    -2
285
     1
 65
     0
276
    -2
286
     1
 66
     0
277
    -2
287
     1
 67
     0
278
    -2
288
     1
 68
     0
279
    -2
289
     1
 69
     0
  7
Standard
140
0.18
170
     5
 62
     0
 63
   257
283
     0
 90
        4
 91
        0
  1

274
    -2
284
     1
 64
     0
275
    -2
285
     1
 65
     0
276
    -2
286
     1
 66
     0
277
    -2
287
     1
 67
     0
278
    -2
288
     1
 68
     0
279
    -2
289
     1
 69
     0
  0
VISUALSTYLE
  5
2F
102
{ACAD_REACTORS
330
2A
102
}
330
2A
100
AcDbVisualStyle
  2
2dWireframe
 70
     4
177
     3
291
     0
 70
    58
 90
        0
176
     1
 90
        2
176
     1
 90
        0
176
     1
 90
        0
176
     1
 40
0.6
176
     1
 40
30.0
176
     1
 62
     7
420
 16777215
176
     1
 90
        1
176
     1
 90
        4
176
     1
 62
     7
176
     1
 62
   257
176
     1
 90
        1
176
     1
 90
        1
176
     1
 40
1.0
176
     1
 90
        0
176
     1
 62
   257
176
     1
 40
1.0
176
     1
 90
        1
176
     1
 90
        6
176
     1
 90
        2
176
     1
 62
     7
176
     1
 90
        5
176
     1
 90
        0
176
     1
 90
        0
176
     1
290
     0
176
     1
 90
        1
176
     1
 40
0.0
176
     1
 90
        0
176
     1
290
     1
176
     1
290
     1
176
     1
290
     0
176
     1
290
     0
176
     1
290
     0
176
     1
290
     0
176
     1
290
     0
176
     1
290
     0
176
     1
290
     0
176
     1
 90
       50
176
     1
 40
0.0
176
     1
 40
1.0
176
     1
 90
        0
176
     1
 62
    18
420
        0
176
     1
 90
       50
176
     1
 90
        3
176
     1
 62
     5
420
      255
176
     1
290
     0
176
     1
 90
       50
176
     1
 90
       50
176
     1
 90
       50
176
     1
290
     0
176
     1
 90
       50
176
     1
 62
   256
176
     0
 40
1.0
176
     0
 90
        2
176
     1
  1
strokes_ogs.tif
176
     1
290
     0
176
     1
 40
1.0
176
     1
 40
1.0
176
     1
  0
VISUALSTYLE
  5
32
102
{ACAD_REACTORS
330
2A
102
}
330
2A
100
AcDbVisualStyle
  2
Basic
 70
     7
177
     3
291
     1
 70
    58
 90
        1
176
     1
 90
        0
176
     1
 90
        1
176
     1
 90
        0
176
     1
 40
0.6
176
     1
 40
30.0
176
     1
 62
     7
420
 16777215
176
     1
 90
        0
176
     1
 90
        4
176
     1
 62
     7
176
     1
 62
   257
176
     1
 90
        1
176
     1
 90
        1
176
     1
 40
1.0
176
     1
 90
        8
176
     1
 62
     7
176
     1
 40
1.0
176
     1
 90
        1
176
     1
 90
        6
176
     1
 90
        2
176
     1
 62
     7
176
     1
 90
        5
176
     1
 90
        0
176
     1
 90
        0
176
     1
290
     0
176
     1
 90
        1
176
     1
 40
0.0
176
     1
 90
        0
176
     1
290
     0
176
     1
290
     1
176
     1
290
     1
176
     1
290
     0
176
     1
290
     0
176
     1
290
     0
176
     1
290
     0
176
     1
290
     0
176
     1
290
     0
176
     1
 90
       50
176
     1
 40
0.0
176
     1
 40
1.0
176
     1
 90
        0
176
     1
 62
    18
420
        0
176
     1
 90
       50
176
     1
 90
        3
176
     1
 62
     5
420
      255
176
     1
290
     0
176
     1
 90
       50
176
     1
 90
       50
176
     1
 90
       50
176
     1
290
     0
176
     1
 90
       50
176
     1
 62
   256
176
     0
 40
1.0
176
     0
 90
        2
176
     1
  1
strokes_ogs.tif
176
     1
290
     0
176
     1
 40
1.0
176
     1
 40
1.0
176
     1
  0
VISUALSTYLE
  5
36
102
{ACAD_REACTORS
330
2A
102
}
330
2A
100
AcDbVisualStyle
  2
Brighten
 70
    12
177
     3
291
     1
 70
    58
 90
        2
176
     1
 90
        2
176
     1
 90
        0
176
     1
 90
        0
176
     1
 40
0.6
176
     1
 40
30.0
176
     1
 62
     7
420
 16777215
176
     1
 90
        1
176
     1
 90
        4
176
     1
 62
     7
176
     1
 62
   257
176
     1
 90
        1
176
     1
 90
        1
176
     1
 40
1.0
176
     1
 90
        8
176
     1
 62
     7
176
     1
 40
1.0
176
     1
 90
        1
176
     1
 90
        6
176
     1
 90
        2
176
     1
 62
     7
176
     1
 90
        5
176
     1
 90
        0
176
     1
 90
        0
176
     1
290
     0
176
     1
 90
        1
176
     1
 40
50.0
176
     1
 90
        0
176
     1
290
     0
176
     1
290
     1
176
     1
290
     1
176
     1
290
     0
176
     1
290
     0
176
     1
290
     0
176
     1
290
     0
176
     1
290
     0
176
     1
290
     0
176
     1
 90
       50
176
     1
 40
0.0
176
     1
 40
1.0
176
     1
 90
        0
176
     1
 62
    18
420
        0
176
     1
 90
       50
176
     1
 90
        3
176
     1
 62
     5
420
      255
176
     1
290
     0
176
     1
 90
       50
176
     1
 90
       50
176
     1
 90
       50
176
     1
290
     0
176
     1
 90
       50
176
     1
 62
   256
176
     0
 40
1.0
176
     0
 90
        2
176
     1
  1
strokes_ogs.tif
176
     1
290
     0
176
     1
 40
1.0
176
     1
 40
1.0
176
     1
  0
VISUALSTYLE
  5
3A
102
{ACAD_REACTORS
330
2A
102
}
330
2A
100
AcDbVisualStyle
  2
ColorChange
 70
    16
177
     3
291
     1
 70
    58
 90
        2
176
     1
 90
        2
176
     1
 90
        3
176
     1
 90
        0
176
     1
 40
0.6
176
     1
 40
30.0
176
     1
 62
     8
420
  8421504
176
     1
 90
        1
176
     1
 90
        4
176
     1
 62
     7
176
     1
 62
   257
176
     1
 90
        1
176
     1
 90
        1
176
     1
 40
1.0
176
     1
 90
        8
176
     1
 62
     8
420
  8421504
176
     1
 40
1.0
176
     1
 90
        1
176
     1
 90
        6
176
     1
 90
        2
176
     1
 62
     7
176
     1
 90
        5
176
     1
 90
        0
176
     1
 90
        0
176
     1
290
     0
176
     1
 90
        1
176
     1
 40
0.0
176
     1
 90
        0
176
     1
290
     0
176
     1
290
     1
176
     1
290
     1
176
     1
290
     0
176
     1
290
     0
176
     1
290
     0
176
     1
290
     0
176
     1
290
     0
176
     1
290
     0
176
     1
 90
       50
176
     1
 40
0.0
176
     1
 40
1.0
176
     1
 90
        0
176
     1
 62
    18
420
        0
176
     1
 90
       50
176
     1
 90
        3
176
     1
 62
     5
420
      255
176
     1
290
     0
176
     1
 90
       50
176
     1
 90
       50
176
     1
 90
       50
176
     1
290
     0
176
     1
 90
       50
176
     1
 62
   256
176
     0
 40
1.0
176
     0
 90
        2
176
     1
  1
strokes_ogs.tif
176
     1
290
     0
176
     1
 40
1.0
176
     1
 40
1.0
176
     1
  0
VISUALSTYLE
  5
34
102
{ACAD_REACTORS
330
2A
102
}
330
2A
100
AcDbVisualStyle
  2
Conceptual
 70
     9
177
     3
291
     0
 70
    58
 90
        3
176
     1
 90
        2
176
     1
 90
        0
176
     1
 90
        0
176
     1
 40
0.6
176
     1
 40
30.0
176
     1
 62
     7
420
 16777215
176
     1
 90
        2
176
     1
 90
        2
176
     1
 62
     7
176
     1
 62
   257
176
     1
 90
        1
176
     1
 90
        1
176
     1
 40
179.0
176
     1
 90
        8
176
     1
 62
     7
176
     1
 40
1.0
176
     1
 90
        1
176
     1
 90
        6
176
     1
 90
        2
176
     1
 62
     7
176
     1
 90
        3
176
     1
 90
        0
176
     1
 90
        0
176
     1
290
     0
176
     1
 90
        1
176
     1
 40
0.0
176
     1
 90
        0
176
     1
290
     0
176
     1
290
     1
176
     1
290
     1
176
     1
290
     0
176
     1
290
     0
176
     1
290
     0
176
     1
290
     0
176
     1
290
     0
176
     1
290
     0
176
     1
 90
       50
176
     1
 40
0.0
176
     1
 40
1.0
176
     1
 90
        0
176
     1
 62
    18
420
        0
176
     1
 90
       50
176
     1
 90
        3
176
     1
 62
     5
420
      255
176
     1
290
     0
176
     1
 90
       50
176
     1
 90
       50
176
     1
 90
       50
176
     1
290
     0
176
     1
 90
       50
176
     1
 62
   256
176
     0
 40
1.0
176
     0
 90
        2
176
     1
  1
strokes_ogs.tif
176
     1
290
     0
176
     1
 40
1.0
176
     1
 40
1.0
176
     1
  0
VISUALSTYLE
  5
35
102
{ACAD_REACTORS
330
2A
102
}
330
2A
100
AcDbVisualStyle
  2
Dim
 70
    11
177
     3
291
     1
 70
    58
 90
        2
176
     1
 90
        2
176
     1
 90
        0
176
     1
 90
        0
176
     1
 40
0.6
176
     1
 40
30.0
176
     1
 62
     7
420
 16777215
176
     1
 90
        1
176
     1
 90
        4
176
     1
 62
     7
176
     1
 62
   257
176
     1
 90
        1
176
     1
 90
        1
176
     1
 40
1.0
176
     1
 90
        8
176
     1
 62
     7
176
     1
 40
1.0
176
     1
 90
        1
176
     1
 90
        6
176
     1
 90
        2
176
     1
 62
     7
176
     1
 90
        5
176
     1
 90
        0
176
     1
 90
        0
176
     1
290
     0
176
     1
 90
        1
176
     1
 40
-50.0
176
     1
 90
        0
176
     1
290
     0
176
     1
290
     1
176
     1
290
     1
176
     1
290
     0
176
     1
290
     0
176
     1
290
     0
176
     1
290
     0
176
     1
290
     0
176
     1
290
     0
176
     1
 90
       50
176
     1
 40
0.0
176
     1
 40
1.0
176
     1
 90
        0
176
     1
 62
    18
420
        0
176
     1
 90
       50
176
     1
 90
        3
176
     1
 62
     5
420
      255
176
     1
290
     0
176
     1
 90
       50
176
     1
 90
       50
176
     1
 90
       50
176
     1
290
     0
176
     1
 90
       50
176
     1
 62
   256
176
     0
 40
1.0
176
     0
 90
        2
176
     1
  1
strokes_ogs.tif
176
     1
290
     0
176
     1
 40
1.0
176
     1
 40
1.0
176
     1
  0
VISUALSTYLE
  5
3D
102
{ACAD_REACTORS
330
2A
102
}
330
2A
100
AcDbVisualStyle
  2
EdgeColorOff
 70
    22
177
     3
291
     1
 70
    58
 90
        2
176
     0
 90
        2
176
     0
 90
        0
176
     0
 90
        0
176
     0
 40
0.6
176
     0
 40
30.0
176
     0
 62
     7
420
 16777215
176
     0
 90
        1
176
     0
 90
        4
176
     0
 62
     7
176
     0
 62
   257
176
     0
 90
        1
176
     0
 90
        1
176
     0
 40
1.0
176
     0
 90
        8
176
     2
 62
     7
176
     0
 40
1.0
176
     0
 90
        1
176
     0
 90
        6
176
     0
 90
        2
176
     0
 62
     7
176
     0
 90
        5
176
     0
 90
        0
176
     0
 90
        0
176
     0
290
     0
176
     0
 90
        1
176
     0
 40
0.0
176
     0
 90
        0
176
     0
290
     0
176
     0
290
     1
176
     0
290
     1
176
     0
290
     0
176
     0
290
     0
176
     0
290
     0
176
     0
290
     0
176
     0
290
     0
176
     0
290
     0
176
     0
 90
       50
176
     0
 40
0.0
176
     0
 40
1.0
176
     0
 90
        0
176
     0
 62
    18
420
        0
176
     0
 90
       50
176
     0
 90
        3
176
     0
 62
     5
420
      255
176
     0
290
     0
176
     0
 90
       50
176
     0
 90
       50
176
     0
 90
       50
176
     0
290
     0
176
     0
 90
       50
176
     0
 62
   256
176
     0
 40
1.0
176
     0
 90
        2
176
     0
  1
strokes_ogs.tif
176
     0
290
     0
176
     0
 40
1.0
176
     0
 40
1.0
176
     0
  0
VISUALSTYLE
  5
39
102
{ACAD_REACTORS
330
2A
102
}
330
2A
100
AcDbVisualStyle
  2
Facepattern
 70
    15
177
     3
291
     1
 70
    58
 90
        2
176
     1
 90
        2
176
     1
 90
        0
176
     1
 90
        0
176
     1
 40
0.6
176
     1
 40
30.0
176
     1
 62
     7
420
 16777215
176
     1
 90
        1
176
     1
 90
        4
176
     1
 62
     7
176
     1
 62
   257
176
     1
 90
        1
176
     1
 90
        1
176
     1
 40
1.0
176
     1
 90
        8
176
     1
 62
     7
176
     1
 40
1.0
176
     1
 90
        1
176
     1
 90
        6
176
     1
 90
        2
176
     1
 62
     7
176
     1
 90
        5
176
     1
 90
        0
176
     1
 90
        0
176
     1
290
     0
176
     1
 90
        1
176
     1
 40
0.0
176
     1
 90
        0
176
     1
290
     0
176
     1
290
     1
176
     1
290
     1
176
     1
290
     0
176
     1
290
     0
176
     1
290
     0
176
     1
290
     0
176
     1
290
     0
176
     1
290
     0
176
     1
 90
       50
176
     1
 40
0.0
176
     1
 40
1.0
176
     1
 90
        0
176
     1
 62
    18
420
        0
176
     1
 90
       50
176
     1
 90
        3
176
     1
 62
     5
420
      255
176
     1
290
     0
176
     1
 90
       50
176
     1
 90
       50
176
     1
 90
       50
176
     1
290
     0
176
     1
 90
       50
176
     1
 62
   256
176
     0
 40
1.0
176
     0
 90
        2
176
     1
  1
strokes_ogs.tif
176
     1
290
     0
176
     1
 40
1.0
176
     1
 40
1.0
176
     1
  0
VISUALSTYLE
  5
2B
102
{ACAD_REACTORS
330
2A
102
}
330
2A
100
AcDbVisualStyle
  2
Flat
 70
     0
177
     3
291
     1
 70
    58
 90
        2
176
     1
 90
        1
176
     1
 90
        1
176
     1
 90
        2
176
     1
 40
0.6
176
     1
 40
30.0
176
     1
 62
     7
420
 16777215
176
     1
 90
        0
176
     1
 90
        0
176
     1
 62
     7
176
     1
 62
   257
176
     1
 90
        1
176
     1
 90
        1
176
     1
 40
1.0
176
     1
 90
        8
176
     1
 62
     7
176
     1
 40
1.0
176
     1
 90
        1
176
     1
 90
        6
176
     1
 90
        2
176
     1
 62
     7
176
     1
 90
        5
176
     1
 90
        0
176
     1
 90
        0
176
     1
290
     0
176
     1
 90
       13
176
     1
 40
0.0
176
     1
 90
        0
176
     1
290
     0
176
     1
290
     1
176
     1
290
     1
176
     1
290
     0
176
     1
290
     0
176
     1
290
     0
176
     1
290
     0
176
     1
290
     0
176
     1
290
     0
176
     1
 90
       50
176
     1
 40
0.0
176
     1
 40
1.0
176
     1
 90
        0
176
     1
 62
    18
420
        0
176
     1
 90
       50
176
     1
 90
        3
176
     1
 62
     5
420
      255
176
     1
290
     0
176
     1
 90
       50
176
     1
 90
       50
176
     1
 90
       50
176
     1
290
     0
176
     1
 90
       50
176
     1
 62
   256
176
     0
 40
1.0
176
     0
 90
        2
176
     1
  1
strokes_ogs.tif
176
     1
290
     0
176
     1
 40
1.0
176
     1
 40
1.0
176
     1
  0
VISUALSTYLE
  5
2C
102
{ACAD_REACTORS
330
2A
102
}
330
2A
100
AcDbVisualStyle
  2
FlatWithEdges
 70
     1
177
     3
291
     1
 70
    58
 90
        2
176
     1
 90
        1
176
     1
 90
        1
176
     1
 90
        2
176
     1
 40
0.6
176
     1
 40
30.0
176
     1
 62
     7
420
 16777215
176
     1
 90
        1
176
     1
 90
        0
176
     1
 62
     7
176
     1
 62
   257
176
     1
 90
        1
176
     1
 90
        1
176
     1
 40
1.0
176
     1
 90
        0
176
     1
 62
   257
176
     1
 40
1.0
176
     1
 90
        1
176
     1
 90
        6
176
     1
 90
        2
176
     1
 62
     7
176
     1
 90
        5
176
     1
 90
        0
176
     1
 90
        0
176
     1
290
     0
176
     1
 90
       13
176
     1
 40
0.0
176
     1
 90
        0
176
     1
290
     0
176
     1
290
     1
176
     1
290
     1
176
     1
290
     0
176
     1
290
     0
176
     1
290
     0
176
     1
290
     0
176
     1
290
     0
176
     1
290
     0
176
     1
 90
       50
176
     1
 40
0.0
176
     1
 40
1.0
176
     1
 90
        0
176
     1
 62
    18
420
        0
176
     1
 90
       50
176
     1
 90
        3
176
     1
 62
     5
420
      255
176
     1
290
     0
176
     1
 90
       50
176
     1
 90
       50
176
     1
 90
       50
176
     1
290
     0
176
     1
 90
       50
176
     1
 62
   256
176
     0
 40
1.0
176
     0
 90
        2
176
     1
  1
strokes_ogs.tif
176
     1
290
     0
176
     1
 40
1.0
176
     1
 40
1.0
176
     1
  0
VISUALSTYLE
  5
2D
102
{ACAD_REACTORS
330
2A
102
}
330
2A
100
AcDbVisualStyle
  2
Gouraud
 70
     2
177
     3
291
     1
 70
    58
 90
        2
176
     1
 90
        2
176
     1
 90
        1
176
     1
 90
        2
176
     1
 40
0.6
176
     1
 40
30.0
176
     1
 62
     7
420
 16777215
176
     1
 90
        0
176
     1
 90
        0
176
     1
 62
     7
176
     1
 62
   257
176
     1
 90
        1
176
     1
 90
        1
176
     1
 40
1.0
176
     1
 90
        0
176
     1
 62
     7
176
     1
 40
1.0
176
     1
 90
        1
176
     1
 90
        6
176
     1
 90
        2
176
     1
 62
     7
176
     1
 90
        5
176
     1
 90
        0
176
     1
 90
        0
176
     1
290
     0
176
     1
 90
       13
176
     1
 40
0.0
176
     1
 90
        0
176
     1
290
     0
176
     1
290
     1
176
     1
290
     1
176
     1
290
     0
176
     1
290
     0
176
     1
290
     0
176
     1
290
     0
176
     1
290
     0
176
     1
290
     0
176
     1
 90
       50
176
     1
 40
0.0
176
     1
 40
1.0
176
     1
 90
        0
176
     1
 62
    18
420
        0
176
     1
 90
       50
176
     1
 90
        3
176
     1
 62
     5
420
      255
176
     1
290
     0
176
     1
 90
       50
176
     1
 90
       50
176
     1
 90
       50
176
     1
290
     0
176
     1
 90
       50
176
     1
 62
   256
176
     0
 40
1.0
176
     0
 90
        2
176
     1
  1
strokes_ogs.tif
176
     1
290
     0
176
     1
 40
1.0
176
     1
 40
1.0
176
     1
  0
VISUALSTYLE
  5
2E
102
{ACAD_REACTORS
330
2A
102
}
330
2A
100
AcDbVisualStyle
  2
GouraudWithEdges
 70
     3
177
     3
291
     1
 70
    58
 90
        2
176
     1
 90
        2
176
     1
 90
        1
176
     1
 90
        2
176
     1
 40
0.6
176
     1
 40
30.0
176
     1
 62
     7
420
 16777215
176
     1
 90
        1
176
     1
 90
        0
176
     1
 62
     7
176
     1
 62
   257
176
     1
 90
        1
176
     1
 90
        1
176
     1
 40
1.0
176
     1
 90
        0
176
     1
 62
   257
176
     1
 40
1.0
176
     1
 90
        1
176
     1
 90
        6
176
     1
 90
        2
176
     1
 62
     7
176
     1
 90
        5
176
     1
 90
        0
176
     1
 90
        0
176
     1
290
     0
176
     1
 90
       13
176
     1
 40
0.0
176
     1
 90
        0
176
     1
290
     0
176
     1
290
     1
176
     1
290
     1
176
     1
290
     0
176
     1
290
     0
176
     1
290
     0
176
     1
290
     0
176
     1
290
     0
176
     1
290
     0
176
     1
 90
       50
176
     1
 40
0.0
176
     1
 40
1.0
176
     1
 90
        0
176
     1
 62
    18
420
        0
176
     1
 90
       50
176
     1
 90
        3
176
     1
 62
     5
420
      255
176
     1
290
     0
176
     1
 90
       50
176
     1
 90
       50
176
     1
 90
       50
176
     1
290
     0
176
     1
 90
       50
176
     1
 62
   256
176
     0
 40
1.0
176
     0
 90
        2
176
     1
  1
strokes_ogs.tif
176
     1
290
     0
176
     1
 40
1.0
176
     1
 40
1.0
176
     1
  0
VISUALSTYLE
  5
31
102
{ACAD_REACTORS
330
2A
102
}
330
2A
100
AcDbVisualStyle
  2
Hidden
 70
     6
177
     3
291
     0
 70
    58
 90
        1
176
     1
 90
        2
176
     1
 90
        2
176
     1
 90
        0
176
     1
 40
0.6
176
     1
 40
30.0
176
     1
 62
     7
420
 16777215
176
     1
 90
        2
176
     1
 90
        2
176
     1
 62
     7
176
     1
 62
   257
176
     1
 90
        2
176
     1
 90
        1
176
     1
 40
40.0
176
     1
 90
        0
176
     1
 62
   257
176
     1
 40
1.0
176
     1
 90
        1
176
     1
 90
        6
176
     1
 90
        2
176
     1
 62
     7
176
     1
 90
        3
176
     1
 90
        0
176
     1
 90
        0
176
     1
290
     0
176
     1
 90
        1
176
     1
 40
0.0
176
     1
 90
        0
176
     1
290
     0
176
     1
290
     1
176
     1
290
     1
176
     1
290
     0
176
     1
290
     0
176
     1
290
     0
176
     1
290
     0
176
     1
290
     0
176
     1
290
     0
176
     1
 90
       50
176
     1
 40
0.0
176
     1
 40
1.0
176
     1
 90
        0
176
     1
 62
    18
420
        0
176
     1
 90
       50
176
     1
 90
        3
176
     1
 62
     5
420
      255
176
     1
290
     0
176
     1
 90
       50
176
     1
 90
       50
176
     1
 90
       50
176
     1
290
     0
176
     1
 90
       50
176
     1
 62
   256
176
     0
 40
1.0
176
     0
 90
        2
176
     1
  1
strokes_ogs.tif
176
     1
290
     0
176
     1
 40
1.0
176
     1
 40
1.0
176
     1
  0
VISUALSTYLE
  5
3B
102
{ACAD_REACTORS
330
2A
102
}
330
2A
100
AcDbVisualStyle
  2
JitterOff
 70
    20
177
     3
291
     1
 70
    58
 90
        2
176
     0
 90
        2
176
     0
 90
        0
176
     0
 90
        0
176
     0
 40
0.6
176
     0
 40
30.0
176
     0
 62
     7
420
 16777215
176
     0
 90
        1
176
     0
 90
        4
176
     0
 62
     7
176
     0
 62
   257
176
     0
 90
        1
176
     0
 90
        1
176
     0
 40
1.0
176
     0
 90
       10
176
     2
 62
     7
176
     0
 40
1.0
176
     0
 90
        1
176
     0
 90
        6
176
     0
 90
        2
176
     0
 62
     7
176
     0
 90
        5
176
     0
 90
        0
176
     0
 90
        0
176
     0
290
     0
176
     0
 90
        1
176
     0
 40
0.0
176
     0
 90
        0
176
     0
290
     0
176
     0
290
     1
176
     0
290
     1
176
     0
290
     0
176
     0
290
     0
176
     0
290
     0
176
     0
290
     0
176
     0
290
     0
176
     0
290
     0
176
     0
 90
       50
176
     0
 40
0.0
176
     0
 40
1.0
176
     0
 90
        0
176
     0
 62
    18
420
        0
176
     0
 90
       50
176
     0
 90
        3
176
     0
 62
     5
420
      255
176
     0
290
     0
176
     0
 90
       50
176
     0
 90
       50
176
     0
 90
       50
176
     0
290
     0
176
     0
 90
       50
176
     0
 62
   256
176
     0
 40
1.0
176
     0
 90
        2
176
     0
  1
strokes_ogs.tif
176
     0
290
     0
176
     0
 40
1.0
176
     0
 40
1.0
176
     0
  0
VISUALSTYLE
  5
38
102
{ACAD_REACTORS
330
2A
102
}
330
2A
100
AcDbVisualStyle
  2
Linepattern
 70
    14
177
     3
291
     1
 70
    58
 90
        2
176
     1
 90
        2
176
     1
 90
        0
176
     1
 90
        0
176
     1
 40
0.6
176
     1
 40
30.0
176
     1
 62
     7
420
 16777215
176
     1
 90
        1
176
     1
 90
        4
176
     1
 62
     7
176
     1
 62
   257
176
     1
 90
        7
176
     1
 90
        7
176
     1
 40
1.0
176
     1
 90
        8
176
     1
 62
     7
176
     1
 40
1.0
176
     1
 90
        1
176
     1
 90
        6
176
     1
 90
        2
176
     1
 62
     7
176
     1
 90
        5
176
     1
 90
        0
176
     1
 90
        0
176
     1
290
     0
176
     1
 90
        1
176
     1
 40
0.0
176
     1
 90
        0
176
     1
290
     0
176
     1
290
     1
176
     1
290
     1
176
     1
290
     0
176
     1
290
     0
176
     1
290
     0
176
     1
290
     0
176
     1
290
     0
176
     1
290
     0
176
     1
 90
       50
176
     1
 40
0.0
176
     1
 40
1.0
176
     1
 90
        0
176
     1
 62
    18
420
        0
176
     1
 90
       50
176
     1
 90
        3
176
     1
 62
     5
420
      255
176
     1
290
     0
176
     1
 90
       50
176
     1
 90
       50
176
     1
 90
       50
176
     1
290
     0
176
     1
 90
       50
176
     1
 62
   256
176
     0
 40
1.0
176
     0
 90
        2
176
     1
  1
strokes_ogs.tif
176
     1
290
     0
176
     1
 40
1.0
176
     1
 40
1.0
176
     1
  0
VISUALSTYLE
  5
3C
102
{ACAD_REACTORS
330
2A
102
}
330
2A
100
AcDbVisualStyle
  2
OverhangOff
 70
    21
177
     3
291
     1
 70
    58
 90
        2
176
     0
 90
        2
176
     0
 90
        0
176
     0
 90
        0
176
     0
 40
0.6
176
     0
 40
30.0
176
     0
 62
     7
420
 16777215
176
     0
 90
        1
176
     0
 90
        4
176
     0
 62
     7
176
     0
 62
   257
176
     0
 90
        1
176
     0
 90
        1
176
     0
 40
1.0
176
     0
 90
        9
176
     2
 62
     7
176
     0
 40
1.0
176
     0
 90
        1
176
     0
 90
        6
176
     0
 90
        2
176
     0
 62
     7
176
     0
 90
        5
176
     0
 90
        0
176
     0
 90
        0
176
     0
290
     0
176
     0
 90
        1
176
     0
 40
0.0
176
     0
 90
        0
176
     0
290
     0
176
     0
290
     1
176
     0
290
     1
176
     0
290
     0
176
     0
290
     0
176
     0
290
     0
176
     0
290
     0
176
     0
290
     0
176
     0
290
     0
176
     0
 90
       50
176
     0
 40
0.0
176
     0
 40
1.0
176
     0
 90
        0
176
     0
 62
    18
420
        0
176
     0
 90
       50
176
     0
 90
        3
176
     0
 62
     5
420
      255
176
     0
290
     0
176
     0
 90
       50
176
     0
 90
       50
176
     0
 90
       50
176
     0
290
     0
176
     0
 90
       50
176
     0
 62
   256
176
     0
 40
1.0
176
     0
 90
        2
176
     0
  1
strokes_ogs.tif
176
     0
290
     0
176
     0
 40
1.0
176
     0
 40
1.0
176
     0
  0
VISUALSTYLE
  5
33
102
{ACAD_REACTORS
330
2A
102
}
330
2A
100
AcDbVisualStyle
  2
Realistic
 70
     8
177
     3
291
     0
 70
    58
 90
        2
176
     1
 90
        3
176
     1
 90
        0
176
     1
 90
        2
176
     1
 40
0.6
176
     1
 40
30.0
176
     1
 62
     7
420
 16777215
176
     1
 90
        0
176
     1
 90
        0
176
     1
 62
     7
176
     1
 62
   257
176
     1
 90
        1
176
     1
 90
        1
176
     1
 40
1.0
176
     1
 90
        8
176
     1
 62
   257
176
     1
 40
1.0
176
     1
 90
        1
176
     1
 90
        6
176
     1
 90
        2
176
     1
 62
     7
176
     1
 90
        3
176
     1
 90
        0
176
     1
 90
        0
176
     1
290
     0
176
     1
 90
       13
176
     1
 40
0.0
176
     1
 90
        0
176
     1
290
     0
176
     1
290
     1
176
     1
290
     1
176
     1
290
     0
176
     1
290
     0
176
     1
290
     0
176
     1
290
     0
176
     1
290
     0
176
     1
290
     0
176
     1
 90
       50
176
     1
 40
0.0
176
     1
 40
1.0
176
     1
 90
        0
176
     1
 62
    18
420
        0
176
     1
 90
       50
176
     1
 90
        3
176
     1
 62
     5
420
      255
176
     1
290
     0
176
     1
 90
       50
176
     1
 90
       50
176
     1
 90
       50
176
     1
290
     0
176
     1
 90
       50
176
     1
 62
   256
176
     0
 40
1.0
176
     0
 90
        2
176
     1
  1
strokes_ogs.tif
176
     1
290
     0
176
     1
 40
1.0
176
     1
 40
1.0
176
     1
  0
VISUALSTYLE
  5
42
102
{ACAD_REACTORS
330
2A
102
}
330
2A
100
AcDbVisualStyle
  2
Shaded
 70
    27
177
     3
291
     0
 70
    58
 90
        2
176
     1
 90
        2
176
     1
 90
        1
176
     1
 90
        2
176
     1
 40
0.6
176
     1
 40
30.0
176
     1
 62
     7
420
 16777215
176
     1
 90
        0
176
     1
 90
        4
176
     1
 62
     7
176
     1
 62
   257
176
     1
 90
        1
176
     1
 90
        1
176
     1
 40
1.0
176
     1
 90
        8
176
     1
 62
   257
176
     1
 40
1.0
176
     1
 90
        1
176
     1
 90
        6
176
     1
 90
        2
176
     1
 62
     8
420
  7895160
176
     1
 90
        3
176
     1
 90
        0
176
     1
 90
        0
176
     1
290
     0
176
     1
 90
        5
176
     1
 40
0.0
176
     1
 90
        0
176
     1
290
     0
176
     1
290
     1
176
     1
290
     1
176
     1
290
     0
176
     1
290
     0
176
     1
290
     0
176
     1
290
     0
176
     1
290
     0
176
     1
290
     0
176
     1
 90
       50
176
     1
 40
0.0
176
     1
 40
1.0
176
     1
 90
        0
176
     1
 62
    18
420
        0
176
     1
 90
       50
176
     1
 90
        3
176
     1
 62
     5
420
      255
176
     1
290
     0
176
     1
 90
       50
176
     1
 90
       50
176
     1
 90
       50
176
     1
290
     0
176
     1
 90
       50
176
     1
 62
   256
176
     0
 40
1.0
176
     0
 90
        2
176
     1
  1
strokes_ogs.tif
176
     1
290
     0
176
     1
 40
1.0
176
     1
 40
1.0
176
     1
  0
VISUALSTYLE
  5
41
102
{ACAD_REACTORS
330
2A
102
}
330
2A
100
AcDbVisualStyle
  2
Shaded with edges
 70
    26
177
     3
291
     0
 70
    58
 90
        2
176
     1
 90
        2
176
     1
 90
        1
176
     1
 90
        2
176
     1
 40
0.6
176
     1
 40
30.0
176
     1
 62
     7
420
 16777215
176
     1
 90
        1
176
     1
 90
       10
176
     1
 62
     7
176
     1
 62
   257
176
     1
 90
        2
176
     1
 90
        1
176
     1
 40
1.0
176
     1
 90
        8
176
     1
 62
   257
176
     1
 40
1.0
176
     1
 90
        1
176
     1
 90
        6
176
     1
 90
        2
176
     1
 62
     7
176
     1
 90
        3
176
     1
 90
        0
176
     1
 90
        0
176
     1
290
     0
176
     1
 90
        5
176
     1
 40
0.0
176
     1
 90
        0
176
     1
290
     0
176
     1
290
     1
176
     1
290
     1
176
     1
290
     0
176
     1
290
     0
176
     1
290
     0
176
     1
290
     0
176
     1
290
     0
176
     1
290
     0
176
     1
 90
       50
176
     1
 40
0.0
176
     1
 40
1.0
176
     1
 90
        0
176
     1
 62
    18
420
        0
176
     1
 90
       50
176
     1
 90
        3
176
     1
 62
     5
420
      255
176
     1
290
     0
176
     1
 90
       50
176
     1
 90
       50
176
     1
 90
       50
176
     1
290
     0
176
     1
 90
       50
176
     1
 62
   256
176
     0
 40
1.0
176
     0
 90
        2
176
     1
  1
strokes_ogs.tif
176
     1
290
     0
176
     1
 40
1.0
176
     1
 40
1.0
176
     1
  0
VISUALSTYLE
  5
3E
102
{ACAD_REACTORS
330
2A
102
}
330
2A
100
AcDbVisualStyle
  2
Shades of Gray
 70
    23
177
     3
291
     0
 70
    58
 90
        2
176
     1
 90
        2
176
     1
 90
        3
176
     1
 90
        0
176
     1
 40
0.6
176
     1
 40
30.0
176
     1
 62
     7
420
 16777215
176
     1
 90
        2
176
     1
 90
        2
176
     1
 62
     7
176
     1
 62
     7
176
     1
 90
        1
176
     1
 90
        1
176
     1
 40
40.0
176
     1
 90
        8
176
     1
 62
     7
176
     1
 40
1.0
176
     1
 90
        1
176
     1
 90
        6
176
     1
 90
        2
176
     1
 62
     7
176
     1
 90
        3
176
     1
 90
        0
176
     1
 90
        0
176
     1
290
     0
176
     1
 90
        1
176
     1
 40
0.0
176
     1
 90
        0
176
     1
290
     0
176
     1
290
     1
176
     1
290
     1
176
     1
290
     0
176
     1
290
     0
176
     1
290
     0
176
     1
290
     0
176
     1
290
     0
176
     1
290
     0
176
     1
 90
       50
176
     1
 40
0.0
176
     1
 40
1.0
176
     1
 90
        0
176
     1
 62
    18
420
        0
176
     1
 90
       50
176
     1
 90
        3
176
     1
 62
     5
420
      255
176
     1
290
     0
176
     1
 90
       50
176
     1
 90
       50
176
     1
 90
       50
176
     1
290
     0
176
     1
 90
       50
176
     1
 62
   256
176
     0
 40
1.0
176
     0
 90
        2
176
     1
  1
strokes_ogs.tif
176
     1
290
     0
176
     1
 40
1.0
176
     1
 40
1.0
176
     1
  0
VISUALSTYLE
  5
3F
102
{ACAD_REACTORS
330
2A
102
}
330
2A
100
AcDbVisualStyle
  2
Sketchy
 70
    24
177
     3
291
     0
 70
    58
 90
        1
176
     1
 90
        2
176
     1
 90
        2
176
     1
 90
        0
176
     1
 40
0.6
176
     1
 40
30.0
176
     1
 62
     7
420
 16777215
176
     1
 90
        2
176
     1
 90
        2
176
     1
 62
     7
176
     1
 62
     7
176
     1
 90
        1
176
     1
 90
        1
176
     1
 40
40.0
176
     1
 90
       11
176
     1
 62
     7
176
     1
 40
1.0
176
     1
 90
        1
176
     1
 90
        6
176
     1
 90
        2
176
     1
 62
     7
176
     1
 90
        6
176
     1
 90
        0
176
     1
 90
        0
176
     1
290
     0
176
     1
 90
        1
176
     1
 40
0.0
176
     1
 90
        0
176
     1
290
     0
176
     1
290
     1
176
     1
290
     1
176
     1
290
     0
176
     1
290
     0
176
     1
290
     0
176
     1
290
     0
176
     1
290
     0
176
     1
290
     0
176
     1
 90
       50
176
     1
 40
0.0
176
     1
 40
1.0
176
     1
 90
        0
176
     1
 62
    18
420
        0
176
     1
 90
       50
176
     1
 90
        3
176
     1
 62
     5
420
      255
176
     1
290
     0
176
     1
 90
       50
176
     1
 90
       50
176
     1
 90
       50
176
     1
290
     0
176
     1
 90
       50
176
     1
 62
   256
176
     0
 40
1.0
176
     0
 90
        2
176
     1
  1
strokes_ogs.tif
176
     1
290
     0
176
     1
 40
1.0
176
     1
 40
1.0
176
     1
  0
VISUALSTYLE
  5
37
102
{ACAD_REACTORS
330
2A
102
}
330
2A
100
AcDbVisualStyle
  2
Thicken
 70
    13
177
     3
291
     1
 70
    58
 90
        2
176
     1
 90
        2
176
     1
 90
        0
176
     1
 90
        0
176
     1
 40
0.6
176
     1
 40
30.0
176
     1
 62
     7
420
 16777215
176
     1
 90
        1
176
     1
 90
        4
176
     1
 62
     7
176
     1
 62
   257
176
     1
 90
        1
176
     1
 90
        1
176
     1
 40
1.0
176
     1
 90
       12
176
     1
 62
     7
176
     1
 40
1.0
176
     1
 90
        1
176
     1
 90
        6
176
     1
 90
        2
176
     1
 62
     7
176
     1
 90
        5
176
     1
 90
        0
176
     1
 90
        0
176
     1
290
     0
176
     1
 90
        1
176
     1
 40
0.0
176
     1
 90
        0
176
     1
290
     0
176
     1
290
     1
176
     1
290
     1
176
     1
290
     0
176
     1
290
     0
176
     1
290
     0
176
     1
290
     0
176
     1
290
     0
176
     1
290
     0
176
     1
 90
       50
176
     1
 40
0.0
176
     1
 40
1.0
176
     1
 90
        0
176
     1
 62
    18
420
        0
176
     1
 90
       50
176
     1
 90
        3
176
     1
 62
     5
420
      255
176
     1
290
     0
176
     1
 90
       50
176
     1
 90
       50
176
     1
 90
       50
176
     1
290
     0
176
     1
 90
       50
176
     1
 62
   256
176
     0
 40
1.0
176
     0
 90
        2
176
     1
  1
strokes_ogs.tif
176
     1
290
     0
176
     1
 40
1.0
176
     1
 40
1.0
176
     1
  0
VISUALSTYLE
  5
30
102
{ACAD_REACTORS
330
2A
102
}
330
2A
100
AcDbVisualStyle
  2
Wireframe
 70
     5
177
     3
291
     0
 70
    58
 90
        0
176
     1
 90
        2
176
     1
 90
        0
176
     1
 90
        0
176
     1
 40
0.6
176
     1
 40
30.0
176
     1
 62
     7
420
 16777215
176
     1
 90
        1
176
     1
 90
        4
176
     1
 62
     7
176
     1
 62
   257
176
     1
 90
        1
176
     1
 90
        1
176
     1
 40
1.0
176
     1
 90
        0
176
     1
 62
   257
176
     1
 40
1.0
176
     1
 90
        1
176
     1
 90
        6
176
     1
 90
        2
176
     1
 62
     7
176
     1
 90
        3
176
     1
 90
        0
176
     1
 90
        0
176
     1
290
     0
176
     1
 90
        1
176
     1
 40
0.0
176
     1
 90
        0
176
     1
290
     0
176
     1
290
     1
176
     1
290
     1
176
     1
290
     0
176
     1
290
     0
176
     1
290
     0
176
     1
290
     0
176
     1
290
     0
176
     1
290
     0
176
     1
 90
       50
176
     1
 40
0.0
176
     1
 40
1.0
176
     1
 90
        0
176
     1
 62
    18
420
        0
176
     1
 90
       50
176
     1
 90
        3
176
     1
 62
     5
420
      255
176
     1
290
     0
176
     1
 90
       50
176
     1
 90
       50
176
     1
 90
       50
176
     1
290
     0
176
     1
 90
       50
176
     1
 62
   256
176
     0
 40
1.0
176
     0
 90
        2
176
     1
  1
strokes_ogs.tif
176
     1
290
     0
176
     1
 40
1.0
176
     1
 40
1.0
176
     1
  0
VISUALSTYLE
  5
40
102
{ACAD_REACTORS
330
2A
102
}
330
2A
100
AcDbVisualStyle
  2
X-Ray
 70
    25
177
     3
291
     0
 70
    58
 90
        2
176
     1
 90
        2
176
     1
 90
        1
176
     1
 90
        1
176
     1
 40
0.5
176
     1
 40
30.0
176
     1
 62
     7
420
 16777215
176
     1
 90
        1
176
     1
 90
        0
176
     1
 62
     7
176
     1
 62
   257
176
     1
 90
        1
176
     1
 90
        1
176
     1
 40
1.0
176
     1
 90
        8
176
     1
 62
     7
176
     1
 40
1.0
176
     1
 90
        1
176
     1
 90
        6
176
     1
 90
        2
176
     1
 62
     7
176
     1
 90
        3
176
     1
 90
        0
176
     1
 90
        0
176
     1
290
     0
176
     1
 90
       13
176
     1
 40
0.0
176
     1
 90
        0
176
     1
290
     0
176
     1
290
     1
176
     1
290
     1
176
     1
290
     0
176
     1
290
     0
176
     1
290
     0
176
     1
290
     0
176
     1
290
     0
176
     1
290
     0
176
     1
 90
       50
176
     1
 40
0.0
176
     1
 40
1.0
176
     1
 90
        0
176
     1
 62
    18
420
        0
176
     1
 90
       50
176
     1
 90
        3
176
     1
 62
     5
420
      255
176
     1
290
     0
176
     1
 90
       50
176
     1
 90
       50
176
     1
 90
       50
176
     1
290
     0
176
     1
 90
       50
176
     1
 62
   256
176
     0
 40
1.0
176
     0
 90
        2
176
     1
  1
strokes_ogs.tif
176
     1
290
     0
176
     1
 40
1.0
176
     1
 40
1.0
176
     1
  0
DICTIONARYVAR
  5
1CD
102
{ACAD_REACTORS
330
1CC
102
}
330
1CC
100
DictionaryVariables
280
     0
  1
1:1
  0
DICTIONARYVAR
  5
1D2
102
{ACAD_REACTORS
330
1CC
102
}
330
1CC
100
DictionaryVariables
280
     0
  1
Standard
  0
DICTIONARYVAR
  5
1D1
102
{ACAD_REACTORS
330
1CC
102
}
330
1CC
100
DictionaryVariables
280
     0
  1
Standard
  0
DICTIONARY
  5
1CE
330
6A
100
AcDbDictionary
280
     1
281
     1
  3
ACAD_ROUNDTRIP_2008_TABLESTYLE_CELLSTYLEMAP
360
1CF
  0
CELLSTYLEMAP
  5
1CF
102
{ACAD_REACTORS
330
1CE
102
}
330
1CE
100
AcDbCellStyleMap
 90
        3
300
CELLSTYLE
  1
TABLEFORMAT_BEGIN
 90
        5
170
     1
 91
        0
 92
    32768
 62
   257
 93
        1
300
CONTENTFORMAT
  1
CONTENTFORMAT_BEGIN
 90
        0
 91
        0
 92
        4
 93
        0
300

 40
0.0
140
1.0
 94
        5
 62
     0
340
11
144
0.25
309
CONTENTFORMAT_END
171
     1
301
MARGIN
  1
CELLMARGIN_BEGIN
 40
0.06
 40
0.06
 40
0.06
 40
0.06
 40
0.06
 40
0.06
309
CELLMARGIN_END
 94
        6
 95
        1
302
GRIDFORMAT
  1
GRIDFORMAT_BEGIN
 90
        0
 91
        1
 62
     0
 92
       -2
340
14
 93
        0
 40
0.045
309
GRIDFORMAT_END
 95
        2
302
GRIDFORMAT
  1
GRIDFORMAT_BEGIN
 90
        0
 91
        1
 62
     0
 92
       -2
340
14
 93
        0
 40
0.045
309
GRIDFORMAT_END
 95
        4
302
GRIDFORMAT
  1
GRIDFORMAT_BEGIN
 90
        0
 91
        1
 62
     0
 92
       -2
340
14
 93
        0
 40
0.045
309
GRIDFORMAT_END
 95
        8
302
GRIDFORMAT
  1
GRIDFORMAT_BEGIN
 90
        0
 91
        1
 62
     0
 92
       -2
340
14
 93
        0
 40
0.045
309
GRIDFORMAT_END
 95
       16
302
GRIDFORMAT
  1
GRIDFORMAT_BEGIN
 90
        0
 91
        1
 62
     0
 92
       -2
340
14
 93
        0
 40
0.045
309
GRIDFORMAT_END
 95
       32
302
GRIDFORMAT
  1
GRIDFORMAT_BEGIN
 90
        0
 91
        1
 62
     0
 92
       -2
340
14
 93
        0
 40
0.045
309
GRIDFORMAT_END
309
TABLEFORMAT_END
  1
CELLSTYLE_BEGIN
 90
        1
 91
        1
300
_TITLE
309
CELLSTYLE_END
300
CELLSTYLE
  1
TABLEFORMAT_BEGIN
 90
        5
170
     1
 91
        0
 92
        0
 62
   257
 93
        1
300
CONTENTFORMAT
  1
CONTENTFORMAT_BEGIN
 90
        0
 91
        0
 92
        4
 93
        0
300

 40
0.0
140
1.0
 94
        5
 62
     0
340
11
144
0.18
309
CONTENTFORMAT_END
171
     1
301
MARGIN
  1
CELLMARGIN_BEGIN
 40
0.06
 40
0.06
 40
0.06
 40
0.06
 40
0.06
 40
0.06
309
CELLMARGIN_END
 94
        6
 95
        1
302
GRIDFORMAT
  1
GRIDFORMAT_BEGIN
 90
        0
 91
        1
 62
     0
 92
       -2
340
14
 93
        0
 40
0.045
309
GRIDFORMAT_END
 95
        2
302
GRIDFORMAT
  1
GRIDFORMAT_BEGIN
 90
        0
 91
        1
 62
     0
 92
       -2
340
14
 93
        0
 40
0.045
309
GRIDFORMAT_END
 95
        4
302
GRIDFORMAT
  1
GRIDFORMAT_BEGIN
 90
        0
 91
        1
 62
     0
 92
       -2
340
14
 93
        0
 40
0.045
309
GRIDFORMAT_END
 95
        8
302
GRIDFORMAT
  1
GRIDFORMAT_BEGIN
 90
        0
 91
        1
 62
     0
 92
       -2
340
14
 93
        0
 40
0.045
309
GRIDFORMAT_END
 95
       16
302
GRIDFORMAT
  1
GRIDFORMAT_BEGIN
 90
        0
 91
        1
 62
     0
 92
       -2
340
14
 93
        0
 40
0.045
309
GRIDFORMAT_END
 95
       32
302
GRIDFORMAT
  1
GRIDFORMAT_BEGIN
 90
        0
 91
        1
 62
     0
 92
       -2
340
14
 93
        0
 40
0.045
309
GRIDFORMAT_END
309
TABLEFORMAT_END
  1
CELLSTYLE_BEGIN
 90
        2
 91
        1
300
_HEADER
309
CELLSTYLE_END
300
CELLSTYLE
  1
TABLEFORMAT_BEGIN
 90
        5
170
     1
 91
        0
 92
        0
 62
   257
 93
        1
300
CONTENTFORMAT
  1
CONTENTFORMAT_BEGIN
 90
        0
 91
        0
 92
        4
 93
        0
300

 40
0.0
140
1.0
 94
        2
 62
     0
340
11
144
0.18
309
CONTENTFORMAT_END
171
     1
301
MARGIN
  1
CELLMARGIN_BEGIN
 40
0.06
 40
0.06
 40
0.06
 40
0.06
 40
0.06
 40
0.06
309
CELLMARGIN_END
 94
        6
 95
        1
302
GRIDFORMAT
  1
GRIDFORMAT_BEGIN
 90
        0
 91
        1
 62
     0
 92
       -2
340
14
 93
        0
 40
0.045
309
GRIDFORMAT_END
 95
        2
302
GRIDFORMAT
  1
GRIDFORMAT_BEGIN
 90
        0
 91
        1
 62
     0
 92
       -2
340
14
 93
        0
 40
0.045
309
GRIDFORMAT_END
 95
        4
302
GRIDFORMAT
  1
GRIDFORMAT_BEGIN
 90
        0
 91
        1
 62
     0
 92
       -2
340
14
 93
        0
 40
0.045
309
GRIDFORMAT_END
 95
        8
302
GRIDFORMAT
  1
GRIDFORMAT_BEGIN
 90
        0
 91
        1
 62
     0
 92
       -2
340
14
 93
        0
 40
0.045
309
GRIDFORMAT_END
 95
       16
302
GRIDFORMAT
  1
GRIDFORMAT_BEGIN
 90
        0
 91
        1
 62
     0
 92
       -2
340
14
 93
        0
 40
0.045
309
GRIDFORMAT_END
 95
       32
302
GRIDFORMAT
  1
GRIDFORMAT_BEGIN
 90
        0
 91
        1
 62
     0
 92
       -2
340
14
 93
        0
 40
0.045
309
GRIDFORMAT_END
309
TABLEFORMAT_END
  1
CELLSTYLE_BEGIN
 90
        3
 91
        2
300
_DATA
309
CELLSTYLE_END
  0
ENDSEC
  0
EOF