0
SECTION
  2
HEADER
  9
$ACADVER
  1
AC1027
  9
$ACADMAINTVER
 70
     8
  9
$DWGCODEPAGE
  3
ANSI_1252
  9
$REQUIREDVERSIONS
160
                 0
  9
$COMMENTS
  1
File was created by Cadenas
  9
$CUSTOMPROPERTYTAG
  1
NN
  9
$CUSTOMPROPERTY
  1
D-Lok Wide Slot Take Up Inch Bore
  9
$CUSTOMPROPERTYTAG
  1
NT
  9
$CUSTOMPROPERTY
  1
DL Normal Duty Wide Slot Take-Up Bearings
  9
$CUSTOMPROPERTYTAG
  1
NB
  9
$CUSTOMPROPERTY
  1
052722
  9
$CUSTOMPROPERTYTAG
  1
NBSYN
  9
$CUSTOMPROPERTY
  1
$PN.
  9
$CUSTOMPROPERTYTAG
  1
LINA
  9
$CUSTOMPROPERTY
  1
052722
  9
$CUSTOMPROPERTYTAG
  1
SERIES
  9
$CUSTOMPROPERTY
  1
210
  9
$CUSTOMPROPERTYTAG
  1
SS
  9
$CUSTOMPROPERTY
  1
1-15/16
  9
$CUSTOMPROPERTYTAG
  1
PN
  9
$CUSTOMPROPERTY
  1
052722
  9
$CUSTOMPROPERTYTAG
  1
DESCRIPTION
  9
$CUSTOMPROPERTY
  1
WSTU-DL-115
  9
$CUSTOMPROPERTYTAG
  1
W
  9
$CUSTOMPROPERTY
  1
6.4
  9
$CUSTOMPROPERTYTAG
  1
FS
  9
$CUSTOMPROPERTY
  1
WS400
  9
$CUSTOMPROPERTYTAG
  1
A
  9
$CUSTOMPROPERTY
  1
2.01
  9
$CUSTOMPROPERTYTAG
  1
B
  9
$CUSTOMPROPERTY
  1
5.82
  9
$CUSTOMPROPERTYTAG
  1
C
  9
$CUSTOMPROPERTY
  1
0.688
  9
$CUSTOMPROPERTYTAG
  1
D
  9
$CUSTOMPROPERTY
  1
3.38
  9
$CUSTOMPROPERTYTAG
  1
E
  9
$CUSTOMPROPERTY
  1
3.56
  9
$CUSTOMPROPERTYTAG
  1
F
  9
$CUSTOMPROPERTY
  1
1
  9
$CUSTOMPROPERTYTAG
  1
G
  9
$CUSTOMPROPERTY
  1
0.63
  9
$CUSTOMPROPERTYTAG
  1
H
  9
$CUSTOMPROPERTY
  1
0.75
  9
$CUSTOMPROPERTYTAG
  1
J
  9
$CUSTOMPROPERTY
  1
3.25
  9
$CUSTOMPROPERTYTAG
  1
K
  9
$CUSTOMPROPERTY
  1
1.94
  9
$CUSTOMPROPERTYTAG
  1
L
  9
$CUSTOMPROPERTY
  1
3.24
  9
$CUSTOMPROPERTYTAG
  1
M
  9
$CUSTOMPROPERTY
  1
3.985/4.015
  9
$CUSTOMPROPERTYTAG
  1
N
  9
$CUSTOMPROPERTY
  1
4.75
  9
$CUSTOMPROPERTYTAG
  1
R
  9
$CUSTOMPROPERTY
  1
0.75
  9
$CUSTOMPROPERTYTAG
  1
S
  9
$CUSTOMPROPERTY
  1
1.26
  9
$CUSTOMPROPERTYTAG
  1
T
  9
$CUSTOMPROPERTY
  1
1.94
  9
$CUSTOMPROPERTYTAG
  1
COMPANY
  9
$CUSTOMPROPERTY
  1
baldor
  9
$INSBASE
 10
0.0
 20
0.0
 30
0.0
  9
$EXTMIN
 10
1.000000000000000E+20
 20
1.000000000000000E+20
 30
1.000000000000000E+20
  9
$EXTMAX
 10
-1.000000000000000E+20
 20
-1.000000000000000E+20
 30
-1.000000000000000E+20
  9
$LIMMIN
 10
0.0
 20
0.0
  9
$LIMMAX
 10
12.0
 20
9.0
  9
$ORTHOMODE
 70
     0
  9
$REGENMODE
 70
     1
  9
$FILLMODE
 70
     1
  9
$QTEXTMODE
 70
     0
  9
$MIRRTEXT
 70
     1
  9
$LTSCALE
 40
1.0
  9
$ATTMODE
 70
     1
  9
$TEXTSIZE
 40
0.2
  9
$TRACEWID
 40
0.05
  9
$TEXTSTYLE
  7
Standard
  9
$CLAYER
  8
0
  9
$CELTYPE
  6
ByLayer
  9
$CECOLOR
 62
   256
  9
$CELTSCALE
 40
1.0
  9
$DISPSILH
 70
     0
  9
$DIMSCALE
 40
1.0
  9
$DIMASZ
 40
0.18
  9
$DIMEXO
 40
0.0625
  9
$DIMDLI
 40
0.38
  9
$DIMRND
 40
0.0
  9
$DIMDLE
 40
0.0
  9
$DIMEXE
 40
0.18
  9
$DIMTP
 40
0.0
  9
$DIMTM
 40
0.0
  9
$DIMTXT
 40
0.18
  9
$DIMCEN
 40
0.09
  9
$DIMTSZ
 40
0.0
  9
$DIMTOL
 70
     0
  9
$DIMLIM
 70
     0
  9
$DIMTIH
 70
     1
  9
$DIMTOH
 70
     1
  9
$DIMSE1
 70
     0
  9
$DIMSE2
 70
     0
  9
$DIMTAD
 70
     0
  9
$DIMZIN
 70
     0
  9
$DIMBLK
  1

  9
$DIMASO
 70
     1
  9
$DIMSHO
 70
     1
  9
$DIMPOST
  1

  9
$DIMAPOST
  1

  9
$DIMALT
 70
     0
  9
$DIMALTD
 70
     2
  9
$DIMALTF
 40
25.4
  9
$DIMLFAC
 40
1.0
  9
$DIMTOFL
 70
     0
  9
$DIMTVP
 40
0.0
  9
$DIMTIX
 70
     0
  9
$DIMSOXD
 70
     0
  9
$DIMSAH
 70
     0
  9
$DIMBLK1
  1

  9
$DIMBLK2
  1

  9
$DIMSTYLE
  2
Standard
  9
$DIMCLRD
 70
     0
  9
$DIMCLRE
 70
     0
  9
$DIMCLRT
 70
     0
  9
$DIMTFAC
 40
1.0
  9
$DIMGAP
 40
0.09
  9
$DIMJUST
 70
     0
  9
$DIMSD1
 70
     0
  9
$DIMSD2
 70
     0
  9
$DIMTOLJ
 70
     1
  9
$DIMTZIN
 70
     0
  9
$DIMALTZ
 70
     0
  9
$DIMALTTZ
 70
     0
  9
$DIMUPT
 70
     0
  9
$DIMDEC
 70
     4
  9
$DIMTDEC
 70
     4
  9
$DIMALTU
 70
     2
  9
$DIMALTTD
 70
     2
  9
$DIMTXSTY
  7
Standard
  9
$DIMAUNIT
 70
     0
  9
$DIMADEC
 70
     0
  9
$DIMALTRND
 40
0.0
  9
$DIMAZIN
 70
     0
  9
$DIMDSEP
 70
    46
  9
$DIMATFIT
 70
     3
  9
$DIMFRAC
 70
     0
  9
$DIMLDRBLK
  1

  9
$DIMLUNIT
 70
     2
  9
$DIMLWD
 70
    -2
  9
$DIMLWE
 70
    -2
  9
$DIMTMOVE
 70
     0
  9
$DIMFXL
 40
1.0
  9
$DIMFXLON
 70
     0
  9
$DIMJOGANG
 40
0.7853981633974483
  9
$DIMTFILL
 70
     0
  9
$DIMTFILLCLR
 70
     0
  9
$DIMARCSYM
 70
     0
  9
$DIMLTYPE
  6

  9
$DIMLTEX1
  6

  9
$DIMLTEX2
  6

  9
$DIMTXTDIRECTION
 70
     0
  9
$LUNITS
 70
     2
  9
$LUPREC
 70
     4
  9
$SKETCHINC
 40
0.1
  9
$FILLETRAD
 40
0.5
  9
$AUNITS
 70
     0
  9
$AUPREC
 70
     0
  9
$MENU
  1
.
  9
$ELEVATION
 40
0.0
  9
$PELEVATION
 40
0.0
  9
$THICKNESS
 40
0.0
  9
$LIMCHECK
 70
     0
  9
$CHAMFERA
 40
0.0
  9
$CHAMFERB
 40
0.0
  9
$CHAMFERC
 40
0.0
  9
$CHAMFERD
 40
0.0
  9
$SKPOLY
 70
     0
  9
$TDCREATE
 40
2458169.001365359
  9
$TDUCREATE
 40
2458168.959698692
  9
$TDUPDATE
 40
2458169.001365533
  9
$TDUUPDATE
 40
2458168.959698866
  9
$TDINDWG
 40
0.0000000116
  9
$TDUSRTIMER
 40
0.0000000116
  9
$USRTIMER
 70
     1
  9
$ANGBASE
 50
0.0
  9
$ANGDIR
 70
     0
  9
$PDMODE
 70
     0
  9
$PDSIZE
 40
0.0
  9
$PLINEWID
 40
0.0
  9
$SPLFRAME
 70
     0
  9
$SPLINETYPE
 70
     6
  9
$SPLINESEGS
 70
     8
  9
$HANDSEED
  5
1CC
  9
$SURFTAB1
 70
     6
  9
$SURFTAB2
 70
     6
  9
$SURFTYPE
 70
     6
  9
$SURFU
 70
     6
  9
$SURFV
 70
     6
  9
$UCSBASE
  2

  9
$UCSNAME
  2

  9
$UCSORG
 10
0.0
 20
0.0
 30
0.0
  9
$UCSXDIR
 10
1.0
 20
0.0
 30
0.0
  9
$UCSYDIR
 10
0.0
 20
1.0
 30
0.0
  9
$UCSORTHOREF
  2

  9
$UCSORTHOVIEW
 70
     0
  9
$UCSORGTOP
 10
0.0
 20
0.0
 30
0.0
  9
$UCSORGBOTTOM
 10
0.0
 20
0.0
 30
0.0
  9
$UCSORGLEFT
 10
0.0
 20
0.0
 30
0.0
  9
$UCSORGRIGHT
 10
0.0
 20
0.0
 30
0.0
  9
$UCSORGFRONT
 10
0.0
 20
0.0
 30
0.0
  9
$UCSORGBACK
 10
0.0
 20
0.0
 30
0.0
  9
$PUCSBASE
  2

  9
$PUCSNAME
  2

  9
$PUCSORG
 10
0.0
 20
0.0
 30
0.0
  9
$PUCSXDIR
 10
1.0
 20
0.0
 30
0.0
  9
$PUCSYDIR
 10
0.0
 20
1.0
 30
0.0
  9
$PUCSORTHOREF
  2

  9
$PUCSORTHOVIEW
 70
     0
  9
$PUCSORGTOP
 10
0.0
 20
0.0
 30
0.0
  9
$PUCSORGBOTTOM
 10
0.0
 20
0.0
 30
0.0
  9
$PUCSORGLEFT
 10
0.0
 20
0.0
 30
0.0
  9
$PUCSORGRIGHT
 10
0.0
 20
0.0
 30
0.0
  9
$PUCSORGFRONT
 10
0.0
 20
0.0
 30
0.0
  9
$PUCSORGBACK
 10
0.0
 20
0.0
 30
0.0
  9
$USERI1
 70
     0
  9
$USERI2
 70
     0
  9
$USERI3
 70
     0
  9
$USERI4
 70
     0
  9
$USERI5
 70
     0
  9
$USERR1
 40
0.0
  9
$USERR2
 40
0.0
  9
$USERR3
 40
0.0
  9
$USERR4
 40
0.0
  9
$USERR5
 40
0.0
  9
$WORLDVIEW
 70
     1
  9
$SHADEDGE
 70
     3
  9
$SHADEDIF
 70
    70
  9
$TILEMODE
 70
     1
  9
$MAXACTVP
 70
    64
  9
$PINSBASE
 10
0.0
 20
0.0
 30
0.0
  9
$PLIMCHECK
 70
     0
  9
$PEXTMIN
 10
1.000000000000000E+20
 20
1.000000000000000E+20
 30
1.000000000000000E+20
  9
$PEXTMAX
 10
-1.000000000000000E+20
 20
-1.000000000000000E+20
 30
-1.000000000000000E+20
  9
$PLIMMIN
 10
0.0
 20
0.0
  9
$PLIMMAX
 10
12.0
 20
9.0
  9
$UNITMODE
 70
     0
  9
$VISRETAIN
 70
     1
  9
$PLINEGEN
 70
     0
  9
$PSLTSCALE
 70
     1
  9
$TREEDEPTH
 70
  3020
  9
$CMLSTYLE
  2
Standard
  9
$CMLJUST
 70
     0
  9
$CMLSCALE
 40
1.0
  9
$PROXYGRAPHICS
 70
     1
  9
$MEASUREMENT
 70
     0
  9
$CELWEIGHT
370
    -1
  9
$ENDCAPS
280
     0
  9
$JOINSTYLE
280
     0
  9
$LWDISPLAY
290
     0
  9
$INSUNITS
 70
     1
  9
$HYPERLINKBASE
  1

  9
$STYLESHEET
  1

  9
$XEDIT
290
     1
  9
$CEPSNTYPE
380
     0
  9
$PSTYLEMODE
290
     1
  9
$FINGERPRINTGUID
  2
{4F104C8B-FBD0-447B-A9AC-1EE5F6E3EDB0}
  9
$VERSIONGUID
  2
{FAEB1C32-E019-11D5-929B-00C0DF256EC4}
  9
$EXTNAMES
290
     1
  9
$PSVPSCALE
 40
0.0
  9
$OLESTARTUP
290
     0
  9
$SORTENTS
280
   127
  9
$INDEXCTL
280
     0
  9
$HIDETEXT
280
     1
  9
$XCLIPFRAME
280
     2
  9
$HALOGAP
280
     0
  9
$OBSCOLOR
 70
   257
  9
$OBSLTYPE
280
     0
  9
$INTERSECTIONDISPLAY
280
     0
  9
$INTERSECTIONCOLOR
 70
   257
  9
$DIMASSOC
280
     2
  9
$PROJECTNAME
  1

  9
$CAMERADISPLAY
290
     0
  9
$LENSLENGTH
 40
50.0
  9
$CAMERAHEIGHT
 40
0.0
  9
$STEPSPERSEC
 40
2.0
  9
$STEPSIZE
 40
6.0
  9
$3DDWFPREC
 40
2.0
  9
$PSOLWIDTH
 40
0.25
  9
$PSOLHEIGHT
 40
4.0
  9
$LOFTANG1
 40
1.570796326794897
  9
$LOFTANG2
 40
1.570796326794897
  9
$LOFTMAG1
 40
0.0
  9
$LOFTMAG2
 40
0.0
  9
$LOFTPARAM
 70
     7
  9
$LOFTNORMALS
280
     1
  9
$LATITUDE
 40
37.795
  9
$LONGITUDE
 40
-122.394
  9
$NORTHDIRECTION
 40
0.0
  9
$TIMEZONE
 70
 -8000
  9
$LIGHTGLYPHDISPLAY
280
     1
  9
$TILEMODELIGHTSYNCH
280
     1
  9
$CMATERIAL
347
44
  9
$SOLIDHIST
280
     0
  9
$SHOWHIST
280
     1
  9
$DWFFRAME
280
     2
  9
$DGNFRAME
280
     2
  9
$REALWORLDSCALE
290
     1
  9
$INTERFERECOLOR
 62
   256
  9
$CSHADOW
280
     0
  9
$SHADOWPLANELOCATION
 40
0.0
  0
ENDSEC
  0
SECTION
  2
CLASSES
  0
CLASS
  1
ACDBDICTIONARYWDFLT
  2
AcDbDictionaryWithDefault
  3
ObjectDBX Classes
 90
        0
 91
        4
280
     0
281
     0
  0
CLASS
  1
VISUALSTYLE
  2
AcDbVisualStyle
  3
ObjectDBX Classes
 90
     4095
 91
        4
280
     0
281
     0
  0
CLASS
  1
MATERIAL
  2
AcDbMaterial
  3
ObjectDBX Classes
 90
     1153
 91
        4
280
     0
281
     0
  0
CLASS
  1
SCALE
  2
AcDbScale
  3
ObjectDBX Classes
 90
     1153
 91
        4
280
     0
281
     0
  0
CLASS
  1
TABLESTYLE
  2
AcDbTableStyle
  3
ObjectDBX Classes
 90
     4095
 91
        4
280
     0
281
     0
  0
CLASS
  1
MLEADERSTYLE
  2
AcDbMLeaderStyle
  3
ACDB_MLEADERSTYLE_CLASS
 90
     4095
 91
        4
280
     0
281
     0
  0
CLASS
  1
SUN
  2
AcDbSun
  3
SCENEOE
 90
     1153
 91
        4
280
     0
281
     0
  0
CLASS
  1
DICTIONARYVAR
  2
AcDbDictionaryVar
  3
ObjectDBX Classes
 90
        0
 91
        4
280
     0
281
     0
  0
CLASS
  1
CELLSTYLEMAP
  2
AcDbCellStyleMap
  3
ObjectDBX Classes
 90
     1152
 91
        4
280
     0
281
     0
  0
ENDSEC
  0
SECTION
  2
TABLES
  0
TABLE
  2
VPORT
  5
8
330
0
100
AcDbSymbolTable
 70
     1
  0
VPORT
  5
29
330
8
100
AcDbSymbolTableRecord
100
AcDbViewportTableRecord
  2
*Active
 70
     0
 10
0.0
 20
0.0
 11
1.0
 21
1.0
 12
0.0
 22
0.0
 13
0.0
 23
0.0
 14
0.5
 24
0.5
 15
0.5
 25
0.5
 16
0.0
 26
0.0
 36
1.0
 17
0.0
 27
0.0
 37
0.0
 40
4.845
 41
0.6373052631578949
 42
50.0
 43
0.0
 44
0.0
 50
0.0
 51
0.0
 71
     0
 72
   100
 73
     1
 74
     3
 75
     0
 76
     0
 77
     0
 78
     0
281
     0
 65
     1
110
0.0
120
0.0
130
0.0
111
1.0
121
0.0
131
0.0
112
0.0
122
1.0
132
0.0
 79
     0
146
0.0
348
2F
 60
     3
 61
     5
292
     1
282
     1
141
0.0
142
0.0
 63
   250
361
6D
  0
ENDTAB
  0
TABLE
  2
LTYPE
  5
5
330
0
100
AcDbSymbolTable
 70
     3
  0
LTYPE
  5
14
330
5
100
AcDbSymbolTableRecord
100
AcDbLinetypeTableRecord
  2
ByBlock
 70
     0
  3

 72
    65
 73
     0
 40
0.0
  0
LTYPE
  5
15
330
5
100
AcDbSymbolTableRecord
100
AcDbLinetypeTableRecord
  2
ByLayer
 70
     0
  3

 72
    65
 73
     0
 40
0.0
  0
LTYPE
  5
16
330
5
100
AcDbSymbolTableRecord
100
AcDbLinetypeTableRecord
  2
Continuous
 70
     0
  3
Solid line
 72
    65
 73
     0
 40
0.0
  0
LTYPE
  5
A7
330
5
100
AcDbSymbolTableRecord
100
AcDbLinetypeTableRecord
  2
Dashed
 70
     0
  3

 72
    65
 73
     2
 40
2.0
 49
1.0
 74
     0
 49
-1.0
 74
     0
  0
LTYPE
  5
192
330
5
100
AcDbSymbolTableRecord
100
AcDbLinetypeTableRecord
  2
Center
 70
     0
  3

 72
    65
 73
     4
 40
1.5
 49
0.45
 74
     0
 49
-0.5
 74
     0
 49
0.05
 74
     0
 49
-0.5
 74
     0
  0
ENDTAB
  0
TABLE
  2
LAYER
  5
2
330
0
100
AcDbSymbolTable
 70
     6
  0
LAYER
  5
10
330
2
100
AcDbSymbolTableRecord
100
AcDbLayerTableRecord
  2
0
 70
     0
 62
     7
  6
Continuous
370
    -3
390
F
347
46
348
0
  0
LAYER
  5
72
330
2
100
AcDbSymbolTableRecord
100
AcDbLayerTableRecord
  2
AM_6
 70
     0
 62
    -2
  6
Continuous
370
    35
390
F
347
46
348
0
  0
LAYER
  5
A8
330
2
100
AcDbSymbolTableRecord
100
AcDbLayerTableRecord
  2
AM_9
 70
     0
 62
     6
  6
Dashed
370
    25
390
F
347
46
348
0
  0
LAYER
  5
CB
330
2
100
AcDbSymbolTableRecord
100
AcDbLayerTableRecord
  2
AM_4
 70
     0
 62
     7
  6
Continuous
370
    50
390
F
347
46
348
0
  0
LAYER
  5
193
330
2
100
AcDbSymbolTableRecord
100
AcDbLayerTableRecord
  2
AM_7
 70
     0
 62
     7
  6
Center
370
    25
390
F
347
46
348
0
  0
LAYER
  5
1BF
330
2
100
AcDbSymbolTableRecord
100
AcDbLayerTableRecord
  2
ConnectionPoints
 70
     0
 62
     7
  6
Continuous
370
    50
390
F
347
46
348
0
  0
ENDTAB
  0
TABLE
  2
STYLE
  5
3
330
0
100
AcDbSymbolTable
 70
     1
  0
STYLE
  5
11
330
3
100
AcDbSymbolTableRecord
100
AcDbTextStyleTableRecord
  2
Standard
 70
     0
 40
0.0
 41
1.0
 50
0.0
 71
     0
 42
0.2
  3
txt
  4

  0
ENDTAB
  0
TABLE
  2
VIEW
  5
6
330
0
100
AcDbSymbolTable
 70
     0
  0
ENDTAB
  0
TABLE
  2
UCS
  5
7
330
0
100
AcDbSymbolTable
 70
     0
  0
ENDTAB
  0
TABLE
  2
APPID
  5
9
330
0
100
AcDbSymbolTable
 70
     1
  0
APPID
  5
12
330
9
100
AcDbSymbolTableRecord
100
AcDbRegAppTableRecord
  2
ACAD
 70
     0
  0
ENDTAB
  0
TABLE
  2
DIMSTYLE
  5
A
330
0
100
AcDbSymbolTable
 70
     1
100
AcDbDimStyleTable
  0
DIMSTYLE
105
27
330
A
100
AcDbSymbolTableRecord
100
AcDbDimStyleTableRecord
  2
Standard
 70
     0
178
     0
340
11
  0
ENDTAB
  0
TABLE
  2
BLOCK_RECORD
  5
1
330
0
100
AcDbSymbolTable
 70
     5
  0
BLOCK_RECORD
  5
1F
330
1
100
AcDbSymbolTableRecord
100
AcDbBlockTableRecord
  2
*Model_Space
340
22
 70
     0
280
     1
281
     0
  0
BLOCK_RECORD
  5
1B
330
1
100
AcDbSymbolTableRecord
100
AcDbBlockTableRecord
  2
*Paper_Space
340
1E
 70
     0
280
     1
281
     0
  0
BLOCK_RECORD
  5
23
330
1
100
AcDbSymbolTableRecord
100
AcDbBlockTableRecord
  2
*Paper_Space0
340
26
 70
     0
280
     1
281
     0
  0
BLOCK_RECORD
  5
6E
330
1
100
AcDbSymbolTableRecord
100
AcDbBlockTableRecord
  2
1_052722_2
340
0
102
{BLKREFS
331
6F
102
}
 70
     0
280
     1
281
     0
  0
BLOCK_RECORD
  5
8F
330
1
100
AcDbSymbolTableRecord
100
AcDbBlockTableRecord
  2
2_128659_0_in_052722_2
340
0
102
{BLKREFS
331
90
102
}
 70
     0
280
     1
281
     0
  0
BLOCK_RECORD
  5
DA
330
1
100
AcDbSymbolTableRecord
100
AcDbBlockTableRecord
  2
3_405016_Inch_0_in_052722_2
340
0
102
{BLKREFS
331
DB
102
}
 70
     0
280
     1
281
     0
  0
BLOCK_RECORD
  5
14B
330
1
100
AcDbSymbolTableRecord
100
AcDbBlockTableRecord
  2
4_052722H_0_in_052722_2
340
0
102
{BLKREFS
331
14C
102
}
 70
     0
280
     1
281
     0
  0
ENDTAB
  0
ENDSEC
  0
SECTION
  2
BLOCKS
  0
BLOCK
  5
20
330
1F
100
AcDbEntity
  8
0
100
AcDbBlockBegin
  2
*Model_Space
 70
     0
 10
0.0
 20
0.0
 30
0.0
  3
*Model_Space
  1

  0
ENDBLK
  5
21
330
1F
100
AcDbEntity
  8
0
100
AcDbBlockEnd
  0
BLOCK
  5
1C
330
1B
100
AcDbEntity
 67
     1
  8
0
100
AcDbBlockBegin
  2
*Paper_Space
 70
     0
 10
0.0
 20
0.0
 30
0.0
  3
*Paper_Space
  1

  0
ENDBLK
  5
1D
330
1B
100
AcDbEntity
 67
     1
  8
0
100
AcDbBlockEnd
  0
BLOCK
  5
24
330
23
100
AcDbEntity
  8
0
100
AcDbBlockBegin
  2
*Paper_Space0
 70
     0
 10
0.0
 20
0.0
 30
0.0
  3
*Paper_Space0
  1

  0
ENDBLK
  5
25
330
23
100
AcDbEntity
  8
0
100
AcDbBlockEnd
  0
BLOCK
  5
70
330
6E
100
AcDbEntity
  8
0
100
AcDbBlockBegin
  2
1_052722_2
 70
     2
 10
0.0
 20
0.0
 30
0.0
  3
1_052722_2
  1

  0
ATTDEF
  5
73
330
6E
100
AcDbEntity
  8
AM_6
100
AcDbText
 10
6.513599999999999
 20
2.375
 30
0.0
 40
0.5
  1
D-Lok Wide Slot Take Up Inch Bore
100
AcDbAttributeDefinition
  3

  2
NN
 70
     8
280
     0
  0
ATTDEF
  5
74
330
6E
100
AcDbEntity
  8
AM_6
100
AcDbText
 10
6.513599999999999
 20
1.875
 30
0.0
 40
0.5
  1
DL Normal Duty Wide Slot Take-Up Bearings
100
AcDbAttributeDefinition
  3

  2
NT
 70
     8
280
     0
  0
ATTDEF
  5
75
330
6E
100
AcDbEntity
  8
AM_6
100
AcDbText
 10
6.513599999999999
 20
1.375
 30
0.0
 40
0.5
  1
052722
100
AcDbAttributeDefinition
  3

  2
NB
 70
     8
280
     0
  0
ATTDEF
  5
76
330
6E
100
AcDbEntity
  8
AM_6
100
AcDbText
 10
6.513599999999999
 20
0.875
 30
0.0
 40
0.5
  1
$PN.
100
AcDbAttributeDefinition
  3

  2
NBSYN
 70
     8
280
     0
  0
ATTDEF
  5
77
330
6E
100
AcDbEntity
  8
AM_6
100
AcDbText
 10
6.513599999999999
 20
0.375
 30
0.0
 40
0.5
  1
052722
100
AcDbAttributeDefinition
  3

  2
LINA
 70
     8
280
     0
  0
ATTDEF
  5
78
330
6E
100
AcDbEntity
  8
AM_6
100
AcDbText
 10
6.513599999999999
 20
-0.125
 30
0.0
 40
0.5
  1
210
100
AcDbAttributeDefinition
  3

  2
SERIES
 70
     8
280
     0
  0
ATTDEF
  5
79
330
6E
100
AcDbEntity
  8
AM_6
100
AcDbText
 10
6.513599999999999
 20
-0.625
 30
0.0
 40
0.5
  1
1-15/16
100
AcDbAttributeDefinition
  3

  2
SS
 70
     8
280
     0
  0
ATTDEF
  5
7A
330
6E
100
AcDbEntity
  8
AM_6
100
AcDbText
 10
6.513599999999999
 20
-1.125
 30
0.0
 40
0.5
  1
052722
100
AcDbAttributeDefinition
  3

  2
PN
 70
     8
280
     0
  0
ATTDEF
  5
7B
330
6E
100
AcDbEntity
  8
AM_6
100
AcDbText
 10
6.513599999999999
 20
-1.625
 30
0.0
 40
0.5
  1
WSTU-DL-115
100
AcDbAttributeDefinition
  3

  2
DESCRIPTION
 70
     8
280
     0
  0
ATTDEF
  5
7C
330
6E
100
AcDbEntity
  8
AM_6
100
AcDbText
 10
6.513599999999999
 20
-2.125
 30
0.0
 40
0.5
  1
6.4
100
AcDbAttributeDefinition
  3

  2
W
 70
     8
280
     0
  0
ATTDEF
  5
7D
330
6E
100
AcDbEntity
  8
AM_6
100
AcDbText
 10
6.513599999999999
 20
-2.625
 30
0.0
 40
0.5
  1
WS400
100
AcDbAttributeDefinition
  3

  2
FS
 70
     8
280
     0
  0
ATTDEF
  5
7E
330
6E
100
AcDbEntity
  8
AM_6
100
AcDbText
 10
6.513599999999999
 20
-3.125
 30
0.0
 40
0.5
  1
2.01
100
AcDbAttributeDefinition
  3

  2
A
 70
     8
280
     0
  0
ATTDEF
  5
7F
330
6E
100
AcDbEntity
  8
AM_6
100
AcDbText
 10
6.513599999999999
 20
-3.625
 30
0.0
 40
0.5
  1
5.82
100
AcDbAttributeDefinition
  3

  2
B
 70
     8
280
     0
  0
ATTDEF
  5
80
330
6E
100
AcDbEntity
  8
AM_6
100
AcDbText
 10
6.513599999999999
 20
-4.125
 30
0.0
 40
0.5
  1
0.688
100
AcDbAttributeDefinition
  3

  2
C
 70
     8
280
     0
  0
ATTDEF
  5
81
330
6E
100
AcDbEntity
  8
AM_6
100
AcDbText
 10
6.513599999999999
 20
-4.625
 30
0.0
 40
0.5
  1
3.38
100
AcDbAttributeDefinition
  3

  2
D
 70
     8
280
     0
  0
ATTDEF
  5
82
330
6E
100
AcDbEntity
  8
AM_6
100
AcDbText
 10
6.513599999999999
 20
-5.125
 30
0.0
 40
0.5
  1
3.56
100
AcDbAttributeDefinition
  3

  2
E
 70
     8
280
     0
  0
ATTDEF
  5
83
330
6E
100
AcDbEntity
  8
AM_6
100
AcDbText
 10
6.513599999999999
 20
-5.625
 30
0.0
 40
0.5
  1
1
100
AcDbAttributeDefinition
  3

  2
F
 70
     8
280
     0
  0
ATTDEF
  5
84
330
6E
100
AcDbEntity
  8
AM_6
100
AcDbText
 10
6.513599999999999
 20
-6.125
 30
0.0
 40
0.5
  1
0.63
100
AcDbAttributeDefinition
  3

  2
G
 70
     8
280
     0
  0
ATTDEF
  5
85
330
6E
100
AcDbEntity
  8
AM_6
100
AcDbText
 10
6.513599999999999
 20
-6.625
 30
0.0
 40
0.5
  1
0.75
100
AcDbAttributeDefinition
  3

  2
H
 70
     8
280
     0
  0
ATTDEF
  5
86
330
6E
100
AcDbEntity
  8
AM_6
100
AcDbText
 10
6.513599999999999
 20
-7.125
 30
0.0
 40
0.5
  1
3.25
100
AcDbAttributeDefinition
  3

  2
J
 70
     8
280
     0
  0
ATTDEF
  5
87
330
6E
100
AcDbEntity
  8
AM_6
100
AcDbText
 10
6.513599999999999
 20
-7.625
 30
0.0
 40
0.5
  1
1.94
100
AcDbAttributeDefinition
  3

  2
K
 70
     8
280
     0
  0
ATTDEF
  5
88
330
6E
100
AcDbEntity
  8
AM_6
100
AcDbText
 10
6.513599999999999
 20
-8.125
 30
0.0
 40
0.5
  1
3.24
100
AcDbAttributeDefinition
  3

  2
L
 70
     8
280
     0
  0
ATTDEF
  5
89
330
6E
100
AcDbEntity
  8
AM_6
100
AcDbText
 10
6.513599999999999
 20
-8.625
 30
0.0
 40
0.5
  1
3.985/4.015
100
AcDbAttributeDefinition
  3

  2
M
 70
     8
280
     0
  0
ATTDEF
  5
8A
330
6E
100
AcDbEntity
  8
AM_6
100
AcDbText
 10
6.513599999999999
 20
-9.125
 30
0.0
 40
0.5
  1
4.75
100
AcDbAttributeDefinition
  3

  2
N
 70
     8
280
     0
  0
ATTDEF
  5
8B
330
6E
100
AcDbEntity
  8
AM_6
100
AcDbText
 10
6.513599999999999
 20
-9.625
 30
0.0
 40
0.5
  1
0.75
100
AcDbAttributeDefinition
  3

  2
R
 70
     8
280
     0
  0
ATTDEF
  5
8C
330
6E
100
AcDbEntity
  8
AM_6
100
AcDbText
 10
6.513599999999999
 20
-10.125
 30
0.0
 40
0.5
  1
1.26
100
AcDbAttributeDefinition
  3

  2
S
 70
     8
280
     0
  0
ATTDEF
  5
8D
330
6E
100
AcDbEntity
  8
AM_6
100
AcDbText
 10
6.513599999999999
 20
-10.625
 30
0.0
 40
0.5
  1
1.94
100
AcDbAttributeDefinition
  3

  2
T
 70
     8
280
     0
  0
ATTDEF
  5
8E
330
6E
100
AcDbEntity
  8
AM_6
100
AcDbText
 10
6.513599999999999
 20
-11.125
 30
0.0
 40
0.5
  1
baldor
100
AcDbAttributeDefinition
  3

  2
COMPANY
 70
     8
280
     0
  0
INSERT
  5
90
330
6E
100
AcDbEntity
  8
0
100
AcDbBlockReference
  2
2_128659_0_in_052722_2
 10
0.0
 20
0.0
 30
0.0
  0
INSERT
  5
DB
330
6E
100
AcDbEntity
  8
0
100
AcDbBlockReference
  2
3_405016_Inch_0_in_052722_2
 10
0.0
 20
0.0
 30
0.0
  0
INSERT
  5
14C
330
6E
100
AcDbEntity
  8
0
100
AcDbBlockReference
  2
4_052722H_0_in_052722_2
 10
0.0
 20
0.0
 30
0.0
  0
ENDBLK
  5
71
330
6E
100
AcDbEntity
  8
0
100
AcDbBlockEnd
  0
BLOCK
  5
91
330
8F
100
AcDbEntity
  8
0
100
AcDbBlockBegin
  2
2_128659_0_in_052722_2
 70
     2
 10
0.0
 20
0.0
 30
0.0
  3
2_128659_0_in_052722_2
  1

  0
ATTDEF
  5
93
330
8F
100
AcDbEntity
  8
AM_6
100
AcDbText
 10
5.75
 20
1.770932289101472
 30
0.0
 40
0.5
  1
D-Lok Insert Inch Bore
100
AcDbAttributeDefinition
  3

  2
NN
 70
     8
280
     0
  0
ATTDEF
  5
94
330
8F
100
AcDbEntity
  8
AM_6
100
AcDbText
 10
5.75
 20
1.270932289101472
 30
0.0
 40
0.5
  1
D-LOK
100
AcDbAttributeDefinition
  3

  2
NT
 70
     8
280
     0
  0
ATTDEF
  5
95
330
8F
100
AcDbEntity
  8
AM_6
100
AcDbText
 10
5.75
 20
0.7709322891014718
 30
0.0
 40
0.5
  1
128659
100
AcDbAttributeDefinition
  3

  2
NB
 70
     8
280
     0
  0
ATTDEF
  5
96
330
8F
100
AcDbEntity
  8
AM_6
100
AcDbText
 10
5.75
 20
0.2709322891014718
 30
0.0
 40
0.5
  1
$PN.
100
AcDbAttributeDefinition
  3

  2
NBSYN
 70
     8
280
     0
  0
ATTDEF
  5
97
330
8F
100
AcDbEntity
  8
AM_6
100
AcDbText
 10
5.75
 20
-0.2290677108985282
 30
0.0
 40
0.5
  1
128659
100
AcDbAttributeDefinition
  3

  2
LINA
 70
     8
280
     0
  0
ATTDEF
  5
98
330
8F
100
AcDbEntity
  8
AM_6
100
AcDbText
 10
5.75
 20
-0.7290677108985282
 30
0.0
 40
0.5
  1
210
100
AcDbAttributeDefinition
  3

  2
SERIES
 70
     8
280
     0
  0
ATTDEF
  5
99
330
8F
100
AcDbEntity
  8
AM_6
100
AcDbText
 10
5.75
 20
-1.229067710898528
 30
0.0
 40
0.5
  1
1-15/16
100
AcDbAttributeDefinition
  3

  2
SS
 70
     8
280
     0
  0
ATTDEF
  5
9A
330
8F
100
AcDbEntity
  8
AM_6
100
AcDbText
 10
5.75
 20
-1.729067710898528
 30
0.0
 40
0.5
  1
128659
100
AcDbAttributeDefinition
  3

  2
PN
 70
     8
280
     0
  0
ATTDEF
  5
9B
330
8F
100
AcDbEntity
  8
AM_6
100
AcDbText
 10
5.75
 20
-2.229067710898528
 30
0.0
 40
0.5
  1
INS-DL-115
100
AcDbAttributeDefinition
  3

  2
DESCRIPTION
 70
     8
280
     0
  0
ATTDEF
  5
9C
330
8F
100
AcDbEntity
  8
AM_6
100
AcDbText
 10
5.75
 20
-2.729067710898528
 30
0.0
 40
0.5
  1
3.0
100
AcDbAttributeDefinition
  3

  2
WEIGHT
 70
     8
280
     0
  0
ATTDEF
  5
9D
330
8F
100
AcDbEntity
  8
AM_6
100
AcDbText
 10
5.75
 20
-3.229067710898528
 30
0.0
 40
0.5
  1
2.01
100
AcDbAttributeDefinition
  3

  2
A
 70
     8
280
     0
  0
ATTDEF
  5
9E
330
8F
100
AcDbEntity
  8
AM_6
100
AcDbText
 10
5.75
 20
-3.729067710898528
 30
0.0
 40
0.5
  1
0.87
100
AcDbAttributeDefinition
  3

  2
C
 70
     8
280
     0
  0
ATTDEF
  5
9F
330
8F
100
AcDbEntity
  8
AM_6
100
AcDbText
 10
5.75
 20
-4.229067710898528
 30
0.0
 40
0.5
  1
3.5433
100
AcDbAttributeDefinition
  3

  2
D
 70
     8
280
     0
  0
ATTDEF
  5
A0
330
8F
100
AcDbEntity
  8
AM_6
100
AcDbText
 10
5.75
 20
-4.729067710898528
 30
0.0
 40
0.5
  1
0.25
100
AcDbAttributeDefinition
  3

  2
J
 70
     8
280
     0
  0
ATTDEF
  5
A1
330
8F
100
AcDbEntity
  8
AM_6
100
AcDbText
 10
5.75
 20
-5.229067710898528
 30
0.0
 40
0.5
  1
3.24
100
AcDbAttributeDefinition
  3

  2
L
 70
     8
280
     0
  0
ATTDEF
  5
A2
330
8F
100
AcDbEntity
  8
AM_6
100
AcDbText
 10
5.75
 20
-5.729067710898528
 30
0.0
 40
0.5
  1
1/4-28
100
AcDbAttributeDefinition
  3

  2
N
 70
     8
280
     0
  0
ATTDEF
  5
A3
330
8F
100
AcDbEntity
  8
AM_6
100
AcDbText
 10
5.75
 20
-6.229067710898528
 30
0.0
 40
0.5
  1
0.75
100
AcDbAttributeDefinition
  3

  2
W
 70
     8
280
     0
  0
ATTDEF
  5
A4
330
8F
100
AcDbEntity
  8
AM_6
100
AcDbText
 10
5.75
 20
-6.729067710898528
 30
0.0
 40
0.5
  1
1.26
100
AcDbAttributeDefinition
  3

  2
Y
 70
     8
280
     0
  0
ATTDEF
  5
A5
330
8F
100
AcDbEntity
  8
AM_6
100
AcDbText
 10
5.75
 20
-7.229067710898528
 30
0.0
 40
0.5
  1
2.43
100
AcDbAttributeDefinition
  3

  2
Z
 70
     8
280
     0
  0
ATTDEF
  5
A6
330
8F
100
AcDbEntity
  8
AM_6
100
AcDbText
 10
5.75
 20
-7.729067710898528
 30
0.0
 40
0.5
  1
baldor
100
AcDbAttributeDefinition
  3

  2
COMPANY
 70
     8
280
     0
  0
LINE
  5
A9
330
8F
100
AcDbEntity
  8
AM_9
100
AcDbLine
 10
-1.1952
 20
-0.96875
 30
0.0
 11
0.6852000000000001
 21
-0.96875
 31
0.0
  0
LINE
  5
AA
330
8F
100
AcDbEntity
  8
AM_9
100
AcDbLine
 10
0.6852000000000001
 20
0.96875
 30
0.0
 11
-1.1952
 21
0.96875
 31
0.0
  0
LINE
  5
AB
330
8F
100
AcDbEntity
  8
AM_9
100
AcDbLine
 10
0.6852000000000001
 20
-0.96875
 30
0.0
 11
0.7499999999999999
 21
-1.03355
 31
0.0
  0
LINE
  5
AC
330
8F
100
AcDbEntity
  8
AM_9
100
AcDbLine
 10
0.7499999999999999
 20
1.03355
 30
0.0
 11
0.6852000000000001
 21
0.96875
 31
0.0
  0
LINE
  5
AD
330
8F
100
AcDbEntity
  8
AM_9
100
AcDbLine
 10
-1.1952
 20
0.96875
 30
0.0
 11
-1.26
 21
1.03355
 31
0.0
  0
LINE
  5
AE
330
8F
100
AcDbEntity
  8
AM_9
100
AcDbLine
 10
-1.26
 20
-1.03355
 30
0.0
 11
-1.1952
 21
-0.96875
 31
0.0
  0
LINE
  5
AF
330
8F
100
AcDbEntity
  8
AM_9
100
AcDbLine
 10
0.6879999999999997
 20
1.2122
 30
0.0
 11
0.6851999999999999
 21
1.215
 31
0.0
  0
LINE
  5
B0
330
8F
100
AcDbEntity
  8
AM_9
100
AcDbLine
 10
0.6851999999999999
 20
-1.215
 30
0.0
 11
0.6879999999999997
 21
-1.2122
 31
0.0
  0
LINE
  5
B1
330
8F
100
AcDbEntity
  8
AM_9
100
AcDbLine
 10
0.7499999999999999
 20
0.6151422599691878
 30
0.0
 11
0.7499999999999999
 21
-0.6151422599691878
 31
0.0
  0
LINE
  5
B2
330
8F
100
AcDbEntity
  8
AM_9
100
AcDbLine
 10
-0.6299999999999998
 20
-1.215
 30
0.0
 11
-0.435
 21
-1.215
 31
0.0
  0
LINE
  5
B3
330
8F
100
AcDbEntity
  8
AM_9
100
AcDbLine
 10
-0.435
 20
1.215
 30
0.0
 11
-0.6299999999999998
 21
1.215
 31
0.0
  0
LINE
  5
B4
330
8F
100
AcDbEntity
  8
AM_9
100
AcDbLine
 10
0.435
 20
-1.215
 30
0.0
 11
0.6851999999999999
 21
-1.215
 31
0.0
  0
LINE
  5
B5
330
8F
100
AcDbEntity
  8
AM_9
100
AcDbLine
 10
0.6851999999999999
 20
1.215
 30
0.0
 11
0.435
 21
1.215
 31
0.0
  0
LINE
  5
B6
330
8F
100
AcDbEntity
  8
AM_9
100
AcDbLine
 10
0.6851999999999999
 20
1.215
 30
0.0
 11
0.6851999999999999
 21
-1.215
 31
0.0
  0
LINE
  5
B7
330
8F
100
AcDbEntity
  8
AM_9
100
AcDbLine
 10
-0.6299999999999998
 20
1.5552
 30
0.0
 11
-0.6879999999999996
 21
1.6132
 31
0.0
  0
LINE
  5
B8
330
8F
100
AcDbEntity
  8
AM_9
100
AcDbLine
 10
-0.6879999999999998
 20
-1.6132
 30
0.0
 11
-0.6299999999999998
 21
-1.5552
 31
0.0
  0
LINE
  5
B9
330
8F
100
AcDbEntity
  8
AM_9
100
AcDbLine
 10
-0.6299999999999998
 20
1.5552
 30
0.0
 11
-0.6299999999999998
 21
-1.5552
 31
0.0
  0
LINE
  5
BA
330
8F
100
AcDbEntity
  8
AM_9
100
AcDbLine
 10
-0.6947999999999998
 20
0.6768699727421804
 30
0.0
 11
-0.6947999999999998
 21
-0.6768699727421804
 31
0.0
  0
LINE
  5
BB
330
8F
100
AcDbEntity
  8
AM_9
100
AcDbLine
 10
-0.3000000000000001
 20
-1.688316666666667
 30
0.0
 11
-0.2
 21
-1.688316666666667
 31
0.0
  0
LINE
  5
BC
330
8F
100
AcDbEntity
  8
AM_9
100
AcDbLine
 10
-0.2
 20
1.688316666666667
 30
0.0
 11
-0.3000000000000001
 21
1.688316666666667
 31
0.0
  0
LINE
  5
BD
330
8F
100
AcDbEntity
  8
AM_9
100
AcDbLine
 10
0.435
 20
1.67805057209251
 30
0.0
 11
0.435
 21
-1.67805057209251
 31
0.0
  0
ARC
  5
BE
330
8F
100
AcDbEntity
  8
AM_9
100
AcDbCircle
 10
0.3849999999999995
 20
-1.67805057209251
 30
0.0
 40
0.0500000000000007
100
AcDbArc
 50
282.9218949584466
 51
0.0
  0
ARC
  5
BF
330
8F
100
AcDbEntity
  8
AM_9
100
AcDbCircle
 10
0.3849999999999998
 20
1.67805057209251
 30
0.0
 40
0.0500000000000002
100
AcDbArc
 50
0.0
 51
77.07810504155374
  0
LINE
  5
C0
330
8F
100
AcDbEntity
  8
AM_9
100
AcDbLine
 10
-0.435
 20
1.678050572092514
 30
0.0
 11
-0.435
 21
-1.678050572092514
 31
0.0
  0
ARC
  5
C1
330
8F
100
AcDbEntity
  8
AM_9
100
AcDbCircle
 10
-0.3849999999999992
 20
-1.678050572092514
 30
0.0
 40
0.0500000000000008
100
AcDbArc
 50
180.0
 51
257.0781236960815
  0
ARC
  5
C2
330
8F
100
AcDbEntity
  8
AM_9
100
AcDbCircle
 10
-0.3849999999999991
 20
1.678050572092514
 30
0.0
 40
0.0500000000000009
100
AcDbArc
 50
102.9218763039185
 51
180.0
  0
ARC
  5
C3
330
8F
100
AcDbEntity
  8
AM_9
100
AcDbCircle
 10
-0.0000000000000974
 20
0.0000000000004621
 30
0.0
 40
1.771649999999528
100
AcDbArc
 50
99.74907960908715
 51
102.9218997707605
  0
ARC
  5
C4
330
8F
100
AcDbEntity
  8
AM_9
100
AcDbCircle
 10
-0.0000000000296593
 20
-0.0000000001480132
 30
0.0
 40
1.77164999984916
100
AcDbArc
 50
257.0781002291047
 51
260.2509203910474
  0
LINE
  5
C5
330
8F
100
AcDbEntity
  8
AM_9
100
AcDbLine
 10
-0.3961811138371493
 20
1.726784366253863
 30
0.0
 11
-0.3961811138371493
 21
-1.726784366253922
 31
0.0
  0
LINE
  5
C6
330
8F
100
AcDbEntity
  8
AM_9
100
AcDbLine
 10
-0.2999999999999999
 20
1.746065211411074
 30
0.0
 11
-0.2999999999999999
 21
-1.746065211411134
 31
0.0
  0
ARC
  5
C7
330
8F
100
AcDbEntity
  8
AM_9
100
AcDbCircle
 10
0.0000000000000004
 20
-0.00000000000002
 30
0.0
 40
1.77165000000002
100
AcDbArc
 50
77.0780997027666
 51
96.48188734017845
  0
ARC
  5
C8
330
8F
100
AcDbEntity
  8
AM_9
100
AcDbCircle
 10
0.0000000000000714
 20
-0.0000000000012741
 30
0.0
 40
1.77164999999876
100
AcDbArc
 50
263.5181126598146
 51
282.9219002972404
  0
LINE
  5
C9
330
8F
100
AcDbEntity
  8
AM_9
100
AcDbLine
 10
-0.2
 20
1.760324891177762
 30
0.0
 11
-0.2
 21
-1.76032489117778
 31
0.0
  0
LINE
  5
CA
330
8F
100
AcDbEntity
  8
AM_9
100
AcDbLine
 10
0.3961811297040407
 20
1.726784362613477
 30
0.0
 11
0.3961811297040407
 21
-1.726784362613495
 31
0.0
  0
LINE
  5
CC
330
8F
100
AcDbEntity
  8
AM_4
100
AcDbLine
 10
0.7499999999999999
 20
1.1502
 30
0.0
 11
0.6879999999999997
 21
1.2122
 31
0.0
  0
LINE
  5
CD
330
8F
100
AcDbEntity
  8
AM_4
100
AcDbLine
 10
0.6879999999999997
 20
-1.2122
 30
0.0
 11
0.7499999999999999
 21
-1.1502
 31
0.0
  0
LINE
  5
CE
330
8F
100
AcDbEntity
  8
AM_4
100
AcDbLine
 10
0.7499999999999999
 20
-0.6151422599691878
 30
0.0
 11
0.7499999999999999
 21
-1.1502
 31
0.0
  0
LINE
  5
CF
330
8F
100
AcDbEntity
  8
AM_4
100
AcDbLine
 10
0.7499999999999999
 20
1.1502
 30
0.0
 11
0.7499999999999999
 21
0.6151422599691878
 31
0.0
  0
LINE
  5
D0
330
8F
100
AcDbEntity
  8
AM_4
100
AcDbLine
 10
-1.26
 20
-1.5552
 30
0.0
 11
-1.1952
 21
-1.62
 31
0.0
  0
LINE
  5
D1
330
8F
100
AcDbEntity
  8
AM_4
100
AcDbLine
 10
-1.1952
 20
1.62
 30
0.0
 11
-1.26
 21
1.5552
 31
0.0
  0
LINE
  5
D2
330
8F
100
AcDbEntity
  8
AM_4
100
AcDbLine
 10
-1.26
 20
1.5552
 30
0.0
 11
-1.26
 21
-1.5552
 31
0.0
  0
LINE
  5
D3
330
8F
100
AcDbEntity
  8
AM_4
100
AcDbLine
 10
-0.6879999999999996
 20
1.6132
 30
0.0
 11
-0.6948
 21
1.62
 31
0.0
  0
LINE
  5
D4
330
8F
100
AcDbEntity
  8
AM_4
100
AcDbLine
 10
-0.6948
 20
-1.62
 30
0.0
 11
-0.6879999999999998
 21
-1.6132
 31
0.0
  0
LINE
  5
D5
330
8F
100
AcDbEntity
  8
AM_4
100
AcDbLine
 10
-1.1952
 20
-1.62
 30
0.0
 11
-0.6948
 21
-1.62
 31
0.0
  0
LINE
  5
D6
330
8F
100
AcDbEntity
  8
AM_4
100
AcDbLine
 10
-0.6948
 20
1.62
 30
0.0
 11
-1.1952
 21
1.62
 31
0.0
  0
LINE
  5
D7
330
8F
100
AcDbEntity
  8
AM_4
100
AcDbLine
 10
-1.1952
 20
1.62
 30
0.0
 11
-1.1952
 21
-1.62
 31
0.0
  0
LINE
  5
D8
330
8F
100
AcDbEntity
  8
AM_4
100
AcDbLine
 10
-0.6947999999999998
 20
-0.6768699727421804
 30
0.0
 11
-0.6948
 21
-1.62
 31
0.0
  0
LINE
  5
D9
330
8F
100
AcDbEntity
  8
AM_4
100
AcDbLine
 10
-0.6948
 20
1.62
 30
0.0
 11
-0.6947999999999998
 21
0.6768699727421804
 31
0.0
  0
ENDBLK
  5
92
330
8F
100
AcDbEntity
  8
0
100
AcDbBlockEnd
  0
BLOCK
  5
DC
330
DA
100
AcDbEntity
  8
0
100
AcDbBlockBegin
  2
3_405016_Inch_0_in_052722_2
 70
     2
 10
0.0
 20
0.0
 30
0.0
  3
3_405016_Inch_0_in_052722_2
  1

  0
ATTDEF
  5
DE
330
DA
100
AcDbEntity
  8
AM_6
100
AcDbText
 10
5.21875
 20
-0.921925698355158
 30
0.0
 40
0.5
  1
405016 -Inch
100
AcDbAttributeDefinition
  3

  2
NN
 70
     8
280
     0
  0
ATTDEF
  5
DF
330
DA
100
AcDbEntity
  8
AM_6
100
AcDbText
 10
5.21875
 20
-1.421925698355158
 30
0.0
 40
0.5
  1
Grease Fitting
100
AcDbAttributeDefinition
  3

  2
NT
 70
     8
280
     0
  0
ATTDEF
  5
E0
330
DA
100
AcDbEntity
  8
AM_6
100
AcDbText
 10
5.21875
 20
-1.921925698355158
 30
0.0
 40
0.5
  1
405016-Inch
100
AcDbAttributeDefinition
  3

  2
NB
 70
     8
280
     0
  0
ATTDEF
  5
E1
330
DA
100
AcDbEntity
  8
AM_6
100
AcDbText
 10
5.21875
 20
-2.421925698355158
 30
0.0
 40
0.5
  1
$MN.-Inch
100
AcDbAttributeDefinition
  3

  2
NBSYN
 70
     8
280
     0
  0
ATTDEF
  5
E2
330
DA
100
AcDbEntity
  8
AM_6
100
AcDbText
 10
5.21875
 20
-2.921925698355158
 30
0.0
 40
0.5
  1
405016
100
AcDbAttributeDefinition
  3

  2
LINA
 70
     8
280
     0
  0
ATTDEF
  5
E3
330
DA
100
AcDbEntity
  8
AM_6
100
AcDbText
 10
5.21875
 20
-3.421925698355158
 30
0.0
 40
0.5
  1
405016
100
AcDbAttributeDefinition
  3

  2
MN
 70
     8
280
     0
  0
ATTDEF
  5
E4
330
DA
100
AcDbEntity
  8
AM_6
100
AcDbText
 10
5.21875
 20
-3.921925698355158
 30
0.0
 40
0.5
  1
7/16 HEX
100
AcDbAttributeDefinition
  3

  2
H
 70
     8
280
     0
  0
ATTDEF
  5
E5
330
DA
100
AcDbEntity
  8
AM_6
100
AcDbText
 10
5.21875
 20
-4.421925698355158
 30
0.0
 40
0.5
  1
0.383
100
AcDbAttributeDefinition
  3

  2
NDR
 70
     8
280
     0
  0
ATTDEF
  5
E6
330
DA
100
AcDbEntity
  8
AM_6
100
AcDbText
 10
5.21875
 20
-4.921925698355158
 30
0.0
 40
0.5
  1
0.337
100
AcDbAttributeDefinition
  3

  2
KDR
 70
     8
280
     0
  0
ATTDEF
  5
E7
330
DA
100
AcDbEntity
  8
AM_6
100
AcDbText
 10
5.21875
 20
-5.421925698355158
 30
0.0
 40
0.5
  1
0.1575
100
AcDbAttributeDefinition
  3

  2
BZE
 70
     8
280
     0
  0
ATTDEF
  5
E8
330
DA
100
AcDbEntity
  8
AM_6
100
AcDbText
 10
5.21875
 20
-5.921925698355158
 30
0.0
 40
0.5
  1
0.4375
100
AcDbAttributeDefinition
  3

  2
HEX
 70
     8
280
     0
  0
ATTDEF
  5
E9
330
DA
100
AcDbEntity
  8
AM_6
100
AcDbText
 10
5.21875
 20
-6.421925698355158
 30
0.0
 40
0.5
  1
0.281250
100
AcDbAttributeDefinition
  3

  2
HEX2
 70
     8
280
     0
  0
ATTDEF
  5
EA
330
DA
100
AcDbEntity
  8
AM_6
100
AcDbText
 10
5.21875
 20
-6.921925698355158
 30
0.0
 40
0.5
  1
baldor
100
AcDbAttributeDefinition
  3

  2
COMPANY
 70
     8
280
     0
  0
LWPOLYLINE
  5
EB
330
DA
100
AcDbEntity
  8
AM_9
100
AcDbPolyline
 90
        5
 70
     0
 43
0.0
 10
-0.1791093260592888
 20
-1.526738809059826
 10
-0.1842540823997055
 20
-1.493670119967152
 10
-0.1862220679364952
 20
-1.459312409178914
 10
-0.1844124966919382
 20
-1.423126446285356
 10
-0.1791093260592888
 20
-1.386113809059826
  0
LINE
  5
EC
330
DA
100
AcDbEntity
  8
AM_9
100
AcDbLine
 10
-0.1510741298357571
 20
-1.37957729571137
 30
0.0
 11
-0.1791093260592888
 21
-1.386113809059826
 31
0.0
  0
LWPOLYLINE
  5
ED
330
DA
100
AcDbEntity
  8
AM_9
100
AcDbPolyline
 90
        5
 70
     0
 43
0.0
 10
-0.1791093260592888
 20
-1.386113809059826
 10
-0.198835512140694
 20
-1.354688517736611
 10
-0.2156330920108726
 20
-1.321997724328328
 10
-0.2290462109660022
 20
-1.287506153690794
 10
-0.2389369657326277
 20
-1.252169092407283
  0
LINE
  5
EE
330
DA
100
AcDbEntity
  8
AM_9
100
AcDbLine
 10
-0.2099962668917054
 20
-1.245421457656344
 30
0.0
 11
-0.2389369657326277
 21
-1.252169092407283
 31
0.0
  0
LINE
  5
EF
330
DA
100
AcDbEntity
  8
AM_9
100
AcDbLine
 10
-0.2389369657326277
 20
-1.252169092407283
 30
0.0
 11
-0.2711532636537957
 21
-1.256618123437406
 31
0.0
  0
LWPOLYLINE
  5
F0
330
DA
100
AcDbEntity
  8
AM_9
100
AcDbPolyline
 90
        3
 70
     0
 43
0.0
 10
-0.2813919000363601
 20
-1.257753048956784
 10
-0.2911775952746244
 20
-1.25855559349426
 10
-0.2987675689889719
 20
-1.258850066725467
  0
LWPOLYLINE
  5
F1
330
DA
100
AcDbEntity
  8
AM_9
100
AcDbPolyline
 90
        5
 70
     0
 43
0.0
 10
-0.2389369657326277
 20
-1.533419092407283
 10
-0.2295338871417797
 20
-1.532998062136291
 10
-0.2166871171046321
 20
-1.531802555641743
 10
-0.1996402057054679
 20
-1.529676787031713
 10
-0.1791093260592888
 20
-1.526738809059826
  0
LINE
  5
F2
330
DA
100
AcDbEntity
  8
AM_9
100
AcDbLine
 10
-0.1510741298357571
 20
-1.52020229571137
 30
0.0
 11
-0.1791093260592888
 21
-1.526738809059826
 31
0.0
  0
LINE
  5
F3
330
DA
100
AcDbEntity
  8
AM_9
100
AcDbLine
 10
-0.452415808934145
 20
-1.546254016496842
 30
0.0
 11
-0.3774664534000949
 21
-1.564780662014441
 31
0.0
  0
LINE
  5
F4
330
DA
100
AcDbEntity
  8
AM_9
100
AcDbLine
 10
-0.4395859245204076
 20
-1.298349390582632
 30
0.0
 11
-0.4986131040655764
 21
-1.348113178260487
 31
0.0
  0
LWPOLYLINE
  5
F5
330
DA
100
AcDbEntity
  8
AM_9
100
AcDbPolyline
 90
        3
 70
     0
 43
0.0
 10
-0.2689146070947223
 20
-1.251889734350518
 10
-0.2512755937295761
 20
-1.249238843014548
 10
-0.2360765106845276
 20
-1.247187592413266
  0
LWPOLYLINE
  5
F6
330
DA
100
AcDbEntity
  8
AM_9
100
AcDbPolyline
 90
       10
 70
     0
 43
0.0
 10
-0.3787713308900666
 20
-1.302346522568982
 10
-0.3819429356212662
 20
-1.299776076280542
 10
-0.389714332351887
 20
-1.294649129639884
 10
-0.3974255595764706
 20
-1.291111496643362
 10
-0.4051400722485039
 20
-1.289026162713299
 10
-0.4128591160089762
 20
-1.288351685634471
 10
-0.421267890758256
 20
-1.289256834940877
 10
-0.428995848470355
 20
-1.291740201530269
 10
-0.4359067354358372
 20
-1.295556818537534
 10
-0.4401824209698085
 20
-1.29886103435789
  0
LWPOLYLINE
  5
F7
330
DA
100
AcDbEntity
  8
AM_9
100
AcDbPolyline
 90
       10
 70
     0
 43
0.0
 10
-0.3779938526322919
 20
-1.564646985259866
 10
-0.3739929036023266
 20
-1.565496298564131
 10
-0.3662763178858892
 20
-1.566065305853099
 10
-0.3579092548578663
 20
-1.565048795896025
 10
-0.3502321601008988
 20
-1.562470125497149
 10
-0.3433777353078674
 20
-1.558573895424443
 10
-0.337350564302107
 20
-1.553538602831324
 10
-0.3320682606780332
 20
-1.547399494714167
 10
-0.3274458554629046
 20
-1.540041605601747
 10
-0.3242172121035086
 20
-1.533170814272375
  0
LWPOLYLINE
  5
F8
330
DA
100
AcDbEntity
  8
AM_9
100
AcDbPolyline
 90
        3
 70
     0
 43
0.0
 10
-0.0000000000000001
 20
-1.045778700151693
 10
0.0544416102741494
 20
-1.076326042662265
 10
0.1093749999999998
 20
-1.105
  0
LWPOLYLINE
  5
F9
330
DA
100
AcDbEntity
  8
AM_9
100
AcDbPolyline
 90
        3
 70
     0
 43
0.0
 10
-0.109375
 20
-1.105
 10
-0.0546875000000001
 20
-1.076459559607483
 10
-0.0000000000000001
 20
-1.045778700151693
  0
LWPOLYLINE
  5
FA
330
DA
100
AcDbEntity
  8
AM_9
100
AcDbPolyline
 90
        6
 70
     0
 43
0.0
 10
-0.1510741298357571
 20
-1.52020229571137
 10
-0.1564222384464443
 20
-1.520146258798399
 10
-0.1639940363880806
 20
-1.520585121917566
 10
-0.1744063212866123
 20
-1.521646289109958
 10
-0.1876759562813859
 20
-1.523363121169831
 10
-0.2099962668917054
 20
-1.526671457656344
  0
LINE
  5
FB
330
DA
100
AcDbEntity
  8
AM_9
100
AcDbLine
 10
-0.142129167457969
 20
-1.438522763614273
 30
0.0
 11
-0.1419585098156051
 21
-1.447769408754154
 31
0.0
  0
LWPOLYLINE
  5
FC
330
DA
100
AcDbEntity
  8
AM_9
100
AcDbPolyline
 90
        3
 70
     0
 43
0.0
 10
-0.1510741298357571
 20
-1.37957729571137
 10
-0.1458778226760521
 20
-1.403510622598914
 10
-0.1428230412872404
 20
-1.427015517118897
  0
LWPOLYLINE
  5
FD
330
DA
100
AcDbEntity
  8
AM_9
100
AcDbPolyline
 90
        3
 70
     0
 43
0.0
 10
-0.2099962668917054
 20
-1.245421457656344
 10
-0.1943573015029059
 20
-1.267992854288234
 10
-0.1863025632772656
 20
-1.281125577963926
  0
LWPOLYLINE
  5
FE
330
DA
100
AcDbEntity
  8
AM_9
100
AcDbPolyline
 90
        3
 70
     0
 43
0.0
 10
-0.2258378743019628
 20
-1.246052666893888
 10
-0.2189176876709016
 20
-1.245510369847584
 10
-0.2099962668917054
 20
-1.245421457656344
  0
LWPOLYLINE
  5
FF
330
DA
100
AcDbEntity
  8
AM_9
100
AcDbPolyline
 90
        4
 70
     0
 43
0.0
 10
-0.1420019716970401
 20
-1.452456021386444
 10
-0.1420496512545707
 20
-1.454566312422038
 10
-0.1441228263802215
 20
-1.481595324422914
 10
-0.1510741298357571
 20
-1.52020229571137
  0
LINE
  5
100
330
DA
100
AcDbEntity
  8
AM_9
100
AcDbLine
 10
-0.1419585098156051
 20
-1.447769408754154
 30
0.0
 11
-0.1420019716970401
 21
-1.452456021386444
 31
0.0
  0
LWPOLYLINE
  5
101
330
DA
100
AcDbEntity
  8
AM_9
100
AcDbPolyline
 90
        3
 70
     0
 43
0.0
 10
-0.1664751413194333
 20
-1.322327379786349
 10
-0.1598729403210872
 20
-1.341768689712644
 10
-0.1510741298357571
 20
-1.37957729571137
  0
LINE
  5
102
330
DA
100
AcDbEntity
  8
AM_9
100
AcDbLine
 10
-0.1765789831125443
 20
-1.299205855542361
 30
0.0
 11
-0.171288484128746
 21
-1.310577052266472
 31
0.0
  0
ELLIPSE
  5
103
330
DA
100
AcDbEntity
  8
AM_9
100
AcDbEllipse
 10
-0.2013892028241865
 20
-1.38327024483734
 30
0.0
 11
-0.03193085011438218
 21
0.136951858096092
 31
0.0
210
0.0
220
0.0
230
1.0
 40
0.3659981507706602
 41
2.150416404658175
 42
6.139946939636918
  0
LINE
  5
104
330
DA
100
AcDbEntity
  8
AM_9
100
AcDbLine
 10
-0.3001604473578121
 20
-1.392227923681266
 30
0.0
 11
-0.2987675689889719
 21
-1.399475066725467
 31
0.0
  0
LWPOLYLINE
  5
105
330
DA
100
AcDbEntity
  8
AM_9
100
AcDbPolyline
 90
        3
 70
     0
 43
0.0
 10
-0.3055458577949632
 20
-1.347852494962034
 10
-0.3030753670497809
 20
-1.373922855181632
 10
-0.3001604473578121
 20
-1.392227923681266
  0
LWPOLYLINE
  5
106
330
DA
100
AcDbEntity
  8
AM_9
100
AcDbPolyline
 90
        3
 70
     0
 43
0.0
 10
-0.2602304684431209
 20
-1.303067949924796
 10
-0.2616913382589204
 20
-1.2884112730526
 10
-0.2689146070947223
 20
-1.251889734350518
  0
LINE
  5
107
330
DA
100
AcDbEntity
  8
AM_9
100
AcDbLine
 10
-0.2689146070947223
 20
-1.251889734350518
 30
0.0
 11
-0.2987675689889719
 21
-1.258850066725467
 31
0.0
  0
LWPOLYLINE
  5
108
330
DA
100
AcDbEntity
  8
AM_9
100
AcDbPolyline
 90
        3
 70
     0
 43
0.0
 10
-0.3001593436617022
 20
-1.266740185070576
 10
-0.3030606061861224
 20
-1.286294122408012
 10
-0.3055458577949632
 20
-1.313633406468319
  0
LINE
  5
109
330
DA
100
AcDbEntity
  8
AM_9
100
AcDbLine
 10
-0.2987675689889719
 20
-1.258850066725467
 30
0.0
 11
-0.3001593436617022
 21
-1.266740185070576
 31
0.0
  0
LINE
  5
10A
330
DA
100
AcDbEntity
  8
AM_9
100
AcDbLine
 10
-0.2711532636537957
 20
-1.256618123437406
 30
0.0
 11
-0.2813919000363601
 21
-1.257753048956784
 31
0.0
  0
ELLIPSE
  5
10B
330
DA
100
AcDbEntity
  8
AM_9
100
AcDbEllipse
 10
-0.2467045921760209
 20
-1.393835701380858
 30
0.0
 11
-0.0319308501143827
 21
0.1369518580960943
 31
0.0
210
0.0
220
0.0
230
1.0
 40
0.3659981507706664
 41
2.150416404658201
 42
6.139946939636891
  0
ELLIPSE
  5
10C
330
DA
100
AcDbEntity
  8
AM_9
100
AcDbEllipse
 10
-0.2467045921760224
 20
-1.393835701380859
 30
0.0
 11
-0.03193085011438229
 21
0.136951858096092
 31
0.0
210
0.0
220
0.0
230
1.0
 40
0.3659981507706612
 41
1.280129580102987
 42
1.951156734850507
  0
LWPOLYLINE
  5
10D
330
DA
100
AcDbEntity
  8
AM_9
100
AcDbPolyline
 90
        3
 70
     0
 43
0.0
 10
-0.3055458577949632
 20
-1.313633406468319
 10
-0.3064767622622303
 20
-1.330869806845232
 10
-0.3055458577949632
 20
-1.347852494962034
  0
ELLIPSE
  5
10E
330
DA
100
AcDbEntity
  8
AM_9
100
AcDbEllipse
 10
-0.246704592176002
 20
-1.393835701380869
 30
0.0
 11
-0.03193085011439677
 21
0.1369518580961104
 31
0.0
210
0.0
220
0.0
230
1.0
 40
0.3659981507707195
 41
0.0560213022651075
 42
0.8626327579757248
  0
LWPOLYLINE
  5
10F
330
DA
100
AcDbEntity
  8
AM_9
100
AcDbPolyline
 90
       16
 70
     0
 43
0.0
 10
-0.3250063548992365
 20
-1.535026343627856
 10
-0.3247510485347025
 20
-1.534503341234722
 10
-0.3235668393230974
 20
-1.532483360760223
 10
-0.321186272770999
 20
-1.52921974716681
 10
-0.3173366729485566
 20
-1.525030038220571
 10
-0.3117778142412809
 20
-1.520332536965299
 10
-0.3044204521440905
 20
-1.515695772258299
 10
-0.2955107010907645
 20
-1.511803899717627
 10
-0.2857072563076822
 20
-1.509251450018615
 10
-0.2758796823928775
 20
-1.508294468346343
 10
-0.2668910710547912
 20
-1.508789795871433
 10
-0.2593374097362851
 20
-1.510296716818329
 10
-0.253521138277779
 20
-1.512260214839908
 10
-0.2494500205941496
 20
-1.514175936336032
 10
-0.2469555074953417
 20
-1.515671415276879
 10
-0.245832140639213
 20
-1.516484110720144
  0
LWPOLYLINE
  5
110
330
DA
100
AcDbEntity
  8
AM_9
100
AcDbPolyline
 90
        4
 70
     0
 43
0.0
 10
-0.2457249882508971
 20
-1.516571960916105
 10
-0.2459019098968085
 20
-1.516411255776051
 10
-0.2470138683657217
 20
-1.515285898114849
 10
-0.2471376226573726
 20
-1.515152679029325
  0
LWPOLYLINE
  5
111
330
DA
100
AcDbEntity
  8
AM_9
100
AcDbPolyline
 90
        3
 70
     0
 43
0.0
 10
-0.3007352935753966
 20
-1.285179449287742
 10
-0.300355654608272
 20
-1.283989137288559
 10
-0.3001080482840256
 20
-1.283322263717043
  0
LWPOLYLINE
  5
112
330
DA
100
AcDbEntity
  8
AM_9
100
AcDbPolyline
 90
       16
 70
     0
 43
0.0
 10
-0.3001118935519816
 20
-1.283331125782077
 10
-0.3005910678139632
 20
-1.284278444017442
 10
-0.3020675765467506
 20
-1.286657449072955
 10
-0.3048123346660709
 20
-1.290201474189387
 10
-0.3090963772256106
 20
-1.294572600773967
 10
-0.315135230840946
 20
-1.299316056697488
 10
-0.3229471568420155
 20
-1.303822847721769
 10
-0.3321732243997674
 20
-1.30740605741166
 10
-0.3420690939943216
 20
-1.309542045451747
 10
-0.3517531253030671
 20
-1.310083580321044
 10
-0.3604065430604183
 20
-1.309268163281204
 10
-0.3675143928338131
 20
-1.307584993384204
 10
-0.3728568281071893
 20
-1.305589981764671
 10
-0.3764884395737053
 20
-1.303755168270359
 10
-0.3785986256457987
 20
-1.30241902660155
 10
-0.379380890363567
 20
-1.301830185297707
  0
LINE
  5
113
330
DA
100
AcDbEntity
  8
AM_9
100
AcDbLine
 10
-0.177120771554662
 20
-1.264661692407327
 30
0.0
 11
-0.2263662233581053
 21
-1.276143458059952
 31
0.0
  0
LINE
  5
114
330
DA
100
AcDbEntity
  8
AM_9
100
AcDbLine
 10
-0.176412182290271
 20
-1.49039703161473
 30
0.0
 11
-0.1343592486638227
 21
-1.480592229115782
 31
0.0
  0
LWPOLYLINE
  5
115
330
DA
100
AcDbEntity
  8
AM_9
100
AcDbPolyline
 90
       20
 70
     0
 43
0.0
 10
-0.1343659249938089
 20
-1.48059378540361
 10
-0.1293028157827817
 20
-1.477990967168628
 10
-0.1247141396218193
 20
-1.472417196040507
 10
-0.1208880884981782
 20
-1.463797239076489
 10
-0.1181545989145989
 20
-1.452880991490922
 10
-0.1164278875396129
 20
-1.439336212655024
 10
-0.1158549073091555
 20
-1.424330271317741
 10
-0.1164156227038168
 20
-1.407408286749774
 10
-0.1180609686233502
 20
-1.390004703027538
 10
-0.1208367673933812
 20
-1.371607393511457
 10
-0.1245107513506023
 20
-1.353747455120003
 10
-0.1291842652280563
 20
-1.335922481606625
 10
-0.134472979061152
 20
-1.3195960564441
 10
-0.140518627090196
 20
-1.304328872764631
 10
-0.1468270783017121
 20
-1.291370478489194
 10
-0.1535654953592165
 20
-1.280381372029879
 10
-0.1601799433259584
 20
-1.272268942862664
 10
-0.1668493358980662
 20
-1.266820477436415
 10
-0.1731116383367607
 20
-1.264480939756073
 10
-0.1771125901748264
 20
-1.264659785344162
  0
LINE
  5
116
330
DA
100
AcDbEntity
  8
AM_9
100
AcDbLine
 10
-0.1771125901748264
 20
-1.264659785344162
 30
0.0
 11
-0.1790373738502117
 21
-1.265304054033761
 31
0.0
  0
LWPOLYLINE
  5
117
330
DA
100
AcDbEntity
  8
AM_9
100
AcDbPolyline
 90
        3
 70
     0
 43
0.0
 10
-0.2689146070947223
 20
-1.392514734350518
 10
-0.2634308483997529
 20
-1.364890958955647
 10
-0.2602304684431306
 20
-1.337287038418517
  0
LWPOLYLINE
  5
118
330
DA
100
AcDbEntity
  8
AM_9
100
AcDbPolyline
 90
        5
 70
     0
 43
0.0
 10
-0.179037373850178
 20
-1.419695945966246
 10
-0.1733931390117468
 20
-1.435209976006311
 10
-0.1670729780242512
 20
-1.44935797563067
 10
-0.1606047421316796
 20
-1.460955943415793
 10
-0.1545720665206208
 20
-1.469415210335925
  0
ARC
  5
119
330
DA
100
AcDbEntity
  8
AM_9
100
AcDbCircle
 10
0.0000000000000001
 20
-1.3425
 30
0.0
 40
0.1999999999999998
100
AcDbArc
 50
219.3560086674363
 51
0.0
  0
LWPOLYLINE
  5
11A
330
DA
100
AcDbEntity
  8
AM_9
100
AcDbPolyline
 90
        6
 70
     0
 43
0.0
 10
-0.1545720665206208
 20
-1.469415210335925
 10
-0.1538031670974778
 20
-1.470334802540261
 10
-0.1472336073736394
 20
-1.476712011960484
 10
-0.1407130262602577
 20
-1.48026170963818
 10
-0.1347930597680668
 20
-1.480684256104104
 10
-0.1343659249938089
 20
-1.48059378540361
  0
LINE
  5
11B
330
DA
100
AcDbEntity
  8
AM_9
100
AcDbLine
 10
-0.2360765106845276
 20
-1.247187592413266
 30
0.0
 11
-0.2258378743019628
 21
-1.246052666893888
 31
0.0
  0
ELLIPSE
  5
11C
330
DA
100
AcDbEntity
  8
AM_9
100
AcDbEllipse
 10
-0.2013892028241896
 20
-1.383270244837342
 30
0.0
 11
-0.03193085011438201
 21
0.1369518580960958
 31
0.0
210
0.0
220
0.0
230
1.0
 40
0.3659981507705636
 41
0.056021302265008
 42
0.862632757975738
  0
LINE
  5
11D
330
DA
100
AcDbEntity
  8
AM_9
100
AcDbLine
 10
-0.2602304684431306
 20
-1.337287038418517
 30
0.0
 11
-0.2602304684431209
 21
-1.303067949924796
 31
0.0
  0
ELLIPSE
  5
11E
330
DA
100
AcDbEntity
  8
AM_9
100
AcDbEllipse
 10
-0.2013892028241875
 20
-1.383270244837341
 30
0.0
 11
-0.03193085011438281
 21
0.1369518580960954
 31
0.0
210
0.0
220
0.0
230
1.0
 40
0.3659981507706691
 41
1.144545279139741
 42
1.951156734850493
  0
LWPOLYLINE
  5
11F
330
DA
100
AcDbEntity
  8
AM_9
100
AcDbPolyline
 90
        3
 70
     0
 43
0.0
 10
-0.2099962668917054
 20
-1.526671457656344
 10
-0.2163479371246914
 20
-1.497339189975666
 10
-0.225837874301963
 20
-1.468057477599441
  0
LINE
  5
120
330
DA
100
AcDbEntity
  8
AM_9
100
AcDbLine
 10
-0.225837874301963
 20
-1.468057477599441
 30
0.0
 11
-0.2360765106845278
 21
-1.444965725501071
 31
0.0
  0
LWPOLYLINE
  5
121
330
DA
100
AcDbEntity
  8
AM_9
100
AcDbPolyline
 90
        3
 70
     0
 43
0.0
 10
-0.2360765106845278
 20
-1.444965725501071
 10
-0.2462091938631852
 20
-1.426421611213502
 10
-0.2689146070947223
 20
-1.392514734350518
  0
LINE
  5
122
330
DA
100
AcDbEntity
  8
AM_9
100
AcDbLine
 10
-0.2689146070947223
 20
-1.392514734350518
 30
0.0
 11
-0.2987675689889719
 21
-1.399475066725467
 31
0.0
  0
LWPOLYLINE
  5
123
330
DA
100
AcDbEntity
  8
AM_9
100
AcDbPolyline
 90
        3
 70
     0
 43
0.0
 10
-0.2987675689889719
 20
-1.399475066725467
 10
-0.2912216284034025
 20
-1.427576183495197
 10
-0.28139190003636
 20
-1.45553118204459
  0
LINE
  5
124
330
DA
100
AcDbEntity
  8
AM_9
100
AcDbLine
 10
-0.28139190003636
 20
-1.45553118204459
 30
0.0
 11
-0.2711532636537957
 21
-1.478622934142958
 31
0.0
  0
LWPOLYLINE
  5
125
330
DA
100
AcDbEntity
  8
AM_9
100
AcDbPolyline
 90
        3
 70
     0
 43
0.0
 10
-0.2711532636537957
 20
-1.478622934142958
 10
-0.2561815527589922
 20
-1.506327936735335
 10
-0.2389369657326277
 20
-1.533419092407283
  0
LINE
  5
126
330
DA
100
AcDbEntity
  8
AM_9
100
AcDbLine
 10
-0.2099962668917054
 20
-1.526671457656344
 30
0.0
 11
-0.2389369657326277
 21
-1.533419092407283
 31
0.0
  0
LWPOLYLINE
  5
127
330
DA
100
AcDbEntity
  8
AM_9
100
AcDbPolyline
 90
        3
 70
     0
 43
0.0
 10
0.1093749999999999
 20
-1.055
 10
0.0546874999999999
 20
-1.028852940392517
 10
-0.0000000000000001
 20
-1.004846299848307
  0
LWPOLYLINE
  5
128
330
DA
100
AcDbEntity
  8
AM_9
100
AcDbPolyline
 90
        3
 70
     0
 43
0.0
 10
-0.0000000000000001
 20
-1.004846299848307
 10
-0.0544416102741497
 20
-1.028740567611885
 10
-0.1093750000000001
 20
-1.055
  0
LWPOLYLINE
  5
129
330
DA
100
AcDbEntity
  8
AM_9
100
AcDbPolyline
 90
        3
 70
     0
 43
0.0
 10
-0.2187500000000001
 20
-1.155153700151693
 10
-0.1643083897258505
 20
-1.131259432388115
 10
-0.109375
 20
-1.105
  0
LWPOLYLINE
  5
12A
330
DA
100
AcDbEntity
  8
AM_9
100
AcDbPolyline
 90
        3
 70
     0
 43
0.0
 10
0.1093749999999998
 20
-1.105
 10
0.1640624999999998
 20
-1.131147059607483
 10
0.2187499999999999
 20
-1.155153700151693
  0
LINE
  5
12B
330
DA
100
AcDbEntity
  8
AM_9
100
AcDbLine
 10
-0.0000000000000001
 20
-1.045778700151693
 30
0.0
 11
-0.0000000000000001
 21
-1.004846299848307
 31
0.0
  0
LWPOLYLINE
  5
12C
330
DA
100
AcDbEntity
  8
AM_9
100
AcDbPolyline
 90
        3
 70
     0
 43
0.0
 10
0.2187499999999999
 20
-1.114221299848307
 10
0.1643083897258503
 20
-1.083673957337735
 10
0.1093749999999999
 20
-1.055
  0
LWPOLYLINE
  5
12D
330
DA
100
AcDbEntity
  8
AM_9
100
AcDbPolyline
 90
        3
 70
     0
 43
0.0
 10
-0.1093750000000001
 20
-1.055
 10
-0.1640625000000001
 20
-1.083540440392517
 10
-0.2187500000000001
 20
-1.114221299848307
  0
ELLIPSE
  5
12E
330
DA
100
AcDbEntity
  8
AM_9
100
AcDbEllipse
 10
-0.0000000000000002
 20
-1.3425
 30
0.0
 11
-0.2
 21
2.449293598294707E-17
 31
0.0
210
0.0
220
0.0
230
1.0
 40
0.8660254037844395
 41
0.4619460205669661
 42
5.821239286612622
  0
LWPOLYLINE
  5
12F
330
DA
100
AcDbEntity
  8
AM_9
100
AcDbPolyline
 90
        7
 70
     0
 43
0.0
 10
-0.1790373738501785
 20
-1.419695945966246
 10
-0.1842628795203942
 20
-1.403701216295605
 10
-0.1891729979031394
 20
-1.387644458256412
 10
-0.1936098952159724
 20
-1.370877825105296
 10
-0.1971856748420372
 20
-1.353429808725254
 10
-0.1994144431868155
 20
-1.335957633207593
 10
-0.1999999999699529
 20
-1.32225755900097
  0
LINE
  5
130
330
DA
100
AcDbEntity
  8
AM_9
100
AcDbLine
 10
0.1999999999999998
 20
-1.3425
 30
0.0
 11
0.1999999999999998
 21
-1.2690625
 31
0.0
  0
LWPOLYLINE
  5
131
330
DA
100
AcDbEntity
  8
AM_9
100
AcDbPolyline
 90
        8
 70
     0
 43
0.0
 10
-0.1999999999699529
 20
-1.32225755900097
 10
-0.1999786710855128
 20
-1.319747492794572
 10
-0.1988321115509054
 20
-1.304477046299116
 10
-0.196164942998426
 20
-1.291547828583382
 10
-0.1920694300574959
 20
-1.280495849846331
 10
-0.1870948030566196
 20
-1.272226804053058
 10
-0.1815005947613931
 20
-1.266703487144152
 10
-0.1790373738501785
 20
-1.265304054033754
  0
LINE
  5
132
330
DA
100
AcDbEntity
  8
AM_9
100
AcDbLine
 10
-0.2187500000000001
 20
-1.373903700151693
 30
0.0
 11
-0.2187500000000001
 21
-1.114221299848307
 31
0.0
  0
LWPOLYLINE
  5
133
330
DA
100
AcDbEntity
  8
AM_9
100
AcDbPolyline
 90
        3
 70
     0
 43
0.0
 10
-0.109375
 20
-1.433125
 10
-0.1640625000000001
 20
-1.404584559607483
 10
-0.2187500000000001
 20
-1.373903700151693
  0
LWPOLYLINE
  5
134
330
DA
100
AcDbEntity
  8
AM_9
100
AcDbPolyline
 90
        3
 70
     0
 43
0.0
 10
-0.0000000000000001
 20
-1.483278700151693
 10
-0.0544416102741497
 20
-1.459384432388115
 10
-0.109375
 20
-1.433125
  0
LWPOLYLINE
  5
135
330
DA
100
AcDbEntity
  8
AM_9
100
AcDbPolyline
 90
        3
 70
     0
 43
0.0
 10
-0.2187500000000001
 20
-1.332971299848307
 10
-0.1643083897258505
 20
-1.356865567611885
 10
-0.1093750000000001
 20
-1.383125
  0
LWPOLYLINE
  5
136
330
DA
100
AcDbEntity
  8
AM_9
100
AcDbPolyline
 90
        3
 70
     0
 43
0.0
 10
-0.1093750000000001
 20
-1.383125
 10
-0.0546875000000001
 20
-1.411665440392517
 10
-0.0000000000000001
 20
-1.442346299848307
  0
LINE
  5
137
330
DA
100
AcDbEntity
  8
AM_9
100
AcDbLine
 10
-0.0000000000000001
 20
-1.483278700151693
 30
0.0
 11
-0.0000000000000001
 21
-1.442346299848307
 31
0.0
  0
LWPOLYLINE
  5
138
330
DA
100
AcDbEntity
  8
AM_9
100
AcDbPolyline
 90
        3
 70
     0
 43
0.0
 10
0.1093749999999998
 20
-1.433125
 10
0.0546874999999999
 20
-1.459272059607483
 10
-0.0000000000000001
 20
-1.483278700151693
  0
LWPOLYLINE
  5
139
330
DA
100
AcDbEntity
  8
AM_9
100
AcDbPolyline
 90
        3
 70
     0
 43
0.0
 10
0.2187499999999999
 20
-1.373903700151693
 10
0.1643083897258503
 20
-1.404451042662265
 10
0.1093749999999998
 20
-1.433125
  0
LINE
  5
13A
330
DA
100
AcDbEntity
  8
AM_9
100
AcDbLine
 10
0.2187499999999999
 20
-1.373903700151693
 30
0.0
 11
0.2187499999999999
 21
-1.114221299848307
 31
0.0
  0
LWPOLYLINE
  5
13B
330
DA
100
AcDbEntity
  8
AM_9
100
AcDbPolyline
 90
        3
 70
     0
 43
0.0
 10
0.1093749999999999
 20
-1.383125
 10
0.1640624999999998
 20
-1.356977940392517
 10
0.2187499999999999
 20
-1.332971299848307
  0
LWPOLYLINE
  5
13C
330
DA
100
AcDbEntity
  8
AM_9
100
AcDbPolyline
 90
        3
 70
     0
 43
0.0
 10
-0.0000000000000001
 20
-1.442346299848307
 10
0.0544416102741494
 20
-1.411798957337735
 10
0.1093749999999999
 20
-1.383125
  0
LINE
  5
13D
330
DA
100
AcDbEntity
  8
AM_9
100
AcDbLine
 10
0.1999999999999998
 20
-1.2190625
 30
0.0
 11
0.1999999999999998
 21
-1.18
 31
0.0
  0
LINE
  5
13E
330
DA
100
AcDbEntity
  8
AM_9
100
AcDbLine
 10
-0.1851454569549802
 20
-1.073809912570727
 30
0.0
 11
-0.1912304659644924
 21
-1.171022462287446
 31
0.0
  0
LINE
  5
13F
330
DA
100
AcDbEntity
  8
AM_9
100
AcDbLine
 10
0.1912304659644922
 20
-1.171022462287446
 30
0.0
 11
0.1851454569549799
 21
-1.073809912570727
 31
0.0
  0
ELLIPSE
  5
140
330
DA
100
AcDbEntity
  8
AM_9
100
AcDbEllipse
 10
-0.0000000000000001
 20
-1.070625
 30
0.0
 11
0.1616637258772237
 21
0.0
 31
0.0
210
0.0
220
0.0
230
1.0
 40
0.8660254037844384
 41
0.0
 42
6.283185307179586
  0
ELLIPSE
  5
141
330
DA
100
AcDbEntity
  8
AM_9
100
AcDbEllipse
 10
-0.4687500000000008
 20
-1.445606438444093
 30
0.0
 11
-0.02349716402074655
 21
0.1007796617096768
 31
0.0
210
0.0
220
0.0
230
1.0
 40
0.3659981507706673
 41
0.0
 42
6.283185307179586
  0
ELLIPSE
  5
142
330
DA
100
AcDbEntity
  8
AM_9
100
AcDbEllipse
 10
-0.3729962569715603
 20
-1.42328108661212
 30
0.0
 11
-0.0302435153458603
 21
0.1297148559273431
 31
0.0
210
0.0
220
0.0
230
1.0
 40
0.3659981507648832
 41
0.0
 42
6.283185307179586
  0
ELLIPSE
  5
143
330
DA
100
AcDbEntity
  8
AM_9
100
AcDbEllipse
 10
-0.2013892028241882
 20
-1.383270244837341
 30
0.0
 11
-0.02497702053391714
 21
0.1071267867773893
 31
0.0
210
0.0
220
0.0
230
1.0
 40
0.3659981507706665
 41
0.0
 42
6.283185307179586
  0
ELLIPSE
  5
144
330
DA
100
AcDbEntity
  8
AM_9
100
AcDbEllipse
 10
0.0000000000000003
 20
-1.2690625
 30
0.0
 11
-0.2000000000000004
 21
2.449293598294711E-17
 31
0.0
210
0.0
220
0.0
230
1.0
 40
0.8660254037844388
 41
0.0
 42
6.283185307179586
  0
ELLIPSE
  5
145
330
DA
100
AcDbEntity
  8
AM_9
100
AcDbEllipse
 10
-0.0000000000000001
 20
-1.2690625
 30
0.0
 11
-0.21875
 21
2.678914873134835E-17
 31
0.0
210
0.0
220
0.0
230
1.0
 40
0.866025403784442
 41
0.0
 42
6.283185307179586
  0
ELLIPSE
  5
146
330
DA
100
AcDbEntity
  8
AM_9
100
AcDbEllipse
 10
-0.0000000000000001
 20
-1.219062499999999
 30
0.0
 11
-0.21875
 21
2.678914873134835E-17
 31
0.0
210
0.0
220
0.0
230
1.0
 40
0.866025403784442
 41
0.0
 42
6.283185307179586
  0
ELLIPSE
  5
147
330
DA
100
AcDbEntity
  8
AM_9
100
AcDbEllipse
 10
-0.0000000000000004
 20
-1.2190625
 30
0.0
 11
-0.1999999999999996
 21
2.980232263262461E-9
 31
0.0
210
0.0
220
0.0
230
1.0
 40
0.866025403784439
 41
0.0
 42
6.283185307179586
  0
ELLIPSE
  5
148
330
DA
100
AcDbEntity
  8
AM_9
100
AcDbEllipse
 10
0.0000000000000002
 20
-1.179999999999999
 30
0.0
 11
-0.2000000000000004
 21
2.449293598294711E-17
 31
0.0
210
0.0
220
0.0
230
1.0
 40
0.8660254037844389
 41
0.0
 42
6.283185307179586
  0
ELLIPSE
  5
149
330
DA
100
AcDbEntity
  8
AM_9
100
AcDbEllipse
 10
-0.0000000000000002
 20
-1.18
 30
0.0
 11
-0.1915112338502293
 21
2.853739789488283E-9
 31
0.0
210
0.0
220
0.0
230
1.0
 40
0.866025403784438
 41
0.0
 42
6.283185307179586
  0
ELLIPSE
  5
14A
330
DA
100
AcDbEntity
  8
AM_9
100
AcDbEllipse
 10
-0.0000000000000001
 20
-1.082501782423881
 30
0.0
 11
-0.1854172907249859
 21
2.270706915929282E-17
 31
0.0
210
0.0
220
0.0
230
1.0
 40
0.8660254037844405
 41
0.0
 42
6.283185307179586
  0
ENDBLK
  5
DD
330
DA
100
AcDbEntity
  8
0
100
AcDbBlockEnd
  0
BLOCK
  5
14D
330
14B
100
AcDbEntity
  8
0
100
AcDbBlockBegin
  2
4_052722H_0_in_052722_2
 70
     2
 10
0.0
 20
0.0
 30
0.0
  3
4_052722H_0_in_052722_2
  1

  0
ATTDEF
  5
14F
330
14B
100
AcDbEntity
  8
AM_6
100
AcDbText
 10
6.513599999999999
 20
2.375
 30
0.0
 40
0.5
  1
WSTU-DL -Inch - housing
100
AcDbAttributeDefinition
  3

  2
NN
 70
     8
280
     0
  0
ATTDEF
  5
150
330
14B
100
AcDbEntity
  8
AM_6
100
AcDbText
 10
6.513599999999999
 20
1.875
 30
0.0
 40
0.5
  1
DL Normal Duty Wide Slot Take-Up Bearings
100
AcDbAttributeDefinition
  3

  2
NT
 70
     8
280
     0
  0
ATTDEF
  5
151
330
14B
100
AcDbEntity
  8
AM_6
100
AcDbText
 10
6.513599999999999
 20
1.375
 30
0.0
 40
0.5
  1
052722H
100
AcDbAttributeDefinition
  3

  2
NB
 70
     8
280
     0
  0
ATTDEF
  5
152
330
14B
100
AcDbEntity
  8
AM_6
100
AcDbText
 10
6.513599999999999
 20
0.875
 30
0.0
 40
0.5
  1
$PN.H
100
AcDbAttributeDefinition
  3

  2
NBSYN
 70
     8
280
     0
  0
ATTDEF
  5
153
330
14B
100
AcDbEntity
  8
AM_6
100
AcDbText
 10
6.513599999999999
 20
0.375
 30
0.0
 40
0.5
  1
052722
100
AcDbAttributeDefinition
  3

  2
LINA
 70
     8
280
     0
  0
ATTDEF
  5
154
330
14B
100
AcDbEntity
  8
AM_6
100
AcDbText
 10
6.513599999999999
 20
-0.125
 30
0.0
 40
0.5
  1
052722
100
AcDbAttributeDefinition
  3

  2
PN
 70
     8
280
     0
  0
ATTDEF
  5
155
330
14B
100
AcDbEntity
  8
AM_6
100
AcDbText
 10
6.513599999999999
 20
-0.625
 30
0.0
 40
0.5
  1
210
100
AcDbAttributeDefinition
  3

  2
SERIES
 70
     8
280
     0
  0
ATTDEF
  5
156
330
14B
100
AcDbEntity
  8
AM_6
100
AcDbText
 10
6.513599999999999
 20
-1.125
 30
0.0
 40
0.5
  1
3.54330
100
AcDbAttributeDefinition
  3

  2
BOD
 70
     8
280
     0
  0
ATTDEF
  5
157
330
14B
100
AcDbEntity
  8
AM_6
100
AcDbText
 10
6.513599999999999
 20
-1.625
 30
0.0
 40
0.5
  1
1-15/16
100
AcDbAttributeDefinition
  3

  2
SS
 70
     8
280
     0
  0
ATTDEF
  5
158
330
14B
100
AcDbEntity
  8
AM_6
100
AcDbText
 10
6.513599999999999
 20
-2.125
 30
0.0
 40
0.5
  1
1.93750
100
AcDbAttributeDefinition
  3

  2
SS2
 70
     8
280
     0
  0
ATTDEF
  5
159
330
14B
100
AcDbEntity
  8
AM_6
100
AcDbText
 10
6.513599999999999
 20
-2.625
 30
0.0
 40
0.5
  1
WSTU-DL-115
100
AcDbAttributeDefinition
  3

  2
DESCRIPTION
 70
     8
280
     0
  0
ATTDEF
  5
15A
330
14B
100
AcDbEntity
  8
AM_6
100
AcDbText
 10
6.513599999999999
 20
-3.125
 30
0.0
 40
0.5
  1
DL
100
AcDbAttributeDefinition
  3

  2
DESC
 70
     8
280
     0
  0
ATTDEF
  5
15B
330
14B
100
AcDbEntity
  8
AM_6
100
AcDbText
 10
6.513599999999999
 20
-3.625
 30
0.0
 40
0.5
  1
6.4
100
AcDbAttributeDefinition
  3

  2
W
 70
     8
280
     0
  0
ATTDEF
  5
15C
330
14B
100
AcDbEntity
  8
AM_6
100
AcDbText
 10
6.513599999999999
 20
-4.125
 30
0.0
 40
0.5
  1
WS400
100
AcDbAttributeDefinition
  3

  2
FS
 70
     8
280
     0
  0
ATTDEF
  5
15D
330
14B
100
AcDbEntity
  8
AM_6
100
AcDbText
 10
6.513599999999999
 20
-4.625
 30
0.0
 40
0.5
  1
2.01
100
AcDbAttributeDefinition
  3

  2
A
 70
     8
280
     0
  0
ATTDEF
  5
15E
330
14B
100
AcDbEntity
  8
AM_6
100
AcDbText
 10
6.513599999999999
 20
-5.125
 30
0.0
 40
0.5
  1
5.82
100
AcDbAttributeDefinition
  3

  2
B
 70
     8
280
     0
  0
ATTDEF
  5
15F
330
14B
100
AcDbEntity
  8
AM_6
100
AcDbText
 10
6.513599999999999
 20
-5.625
 30
0.0
 40
0.5
  1
0.688
100
AcDbAttributeDefinition
  3

  2
C
 70
     8
280
     0
  0
ATTDEF
  5
160
330
14B
100
AcDbEntity
  8
AM_6
100
AcDbText
 10
6.513599999999999
 20
-6.125
 30
0.0
 40
0.5
  1
3.38
100
AcDbAttributeDefinition
  3

  2
D
 70
     8
280
     0
  0
ATTDEF
  5
161
330
14B
100
AcDbEntity
  8
AM_6
100
AcDbText
 10
6.513599999999999
 20
-6.625
 30
0.0
 40
0.5
  1
3.56
100
AcDbAttributeDefinition
  3

  2
E
 70
     8
280
     0
  0
ATTDEF
  5
162
330
14B
100
AcDbEntity
  8
AM_6
100
AcDbText
 10
6.513599999999999
 20
-7.125
 30
0.0
 40
0.5
  1
1
100
AcDbAttributeDefinition
  3

  2
F
 70
     8
280
     0
  0
ATTDEF
  5
163
330
14B
100
AcDbEntity
  8
AM_6
100
AcDbText
 10
6.513599999999999
 20
-7.625
 30
0.0
 40
0.5
  1
0.63
100
AcDbAttributeDefinition
  3

  2
G
 70
     8
280
     0
  0
ATTDEF
  5
164
330
14B
100
AcDbEntity
  8
AM_6
100
AcDbText
 10
6.513599999999999
 20
-8.125
 30
0.0
 40
0.5
  1
0.75
100
AcDbAttributeDefinition
  3

  2
H
 70
     8
280
     0
  0
ATTDEF
  5
165
330
14B
100
AcDbEntity
  8
AM_6
100
AcDbText
 10
6.513599999999999
 20
-8.625
 30
0.0
 40
0.5
  1
3.25
100
AcDbAttributeDefinition
  3

  2
J
 70
     8
280
     0
  0
ATTDEF
  5
166
330
14B
100
AcDbEntity
  8
AM_6
100
AcDbText
 10
6.513599999999999
 20
-9.125
 30
0.0
 40
0.5
  1
1.94
100
AcDbAttributeDefinition
  3

  2
K
 70
     8
280
     0
  0
ATTDEF
  5
167
330
14B
100
AcDbEntity
  8
AM_6
100
AcDbText
 10
6.513599999999999
 20
-9.625
 30
0.0
 40
0.5
  1
3.24
100
AcDbAttributeDefinition
  3

  2
L
 70
     8
280
     0
  0
ATTDEF
  5
168
330
14B
100
AcDbEntity
  8
AM_6
100
AcDbText
 10
6.513599999999999
 20
-10.125
 30
0.0
 40
0.5
  1
3.985/4.015
100
AcDbAttributeDefinition
  3

  2
M
 70
     8
280
     0
  0
ATTDEF
  5
169
330
14B
100
AcDbEntity
  8
AM_6
100
AcDbText
 10
6.513599999999999
 20
-10.625
 30
0.0
 40
0.5
  1
4.75
100
AcDbAttributeDefinition
  3

  2
N
 70
     8
280
     0
  0
ATTDEF
  5
16A
330
14B
100
AcDbEntity
  8
AM_6
100
AcDbText
 10
6.513599999999999
 20
-11.125
 30
0.0
 40
0.5
  1
0.75
100
AcDbAttributeDefinition
  3

  2
R
 70
     8
280
     0
  0
ATTDEF
  5
16B
330
14B
100
AcDbEntity
  8
AM_6
100
AcDbText
 10
6.513599999999999
 20
-11.625
 30
0.0
 40
0.5
  1
1.26
100
AcDbAttributeDefinition
  3

  2
S
 70
     8
280
     0
  0
ATTDEF
  5
16C
330
14B
100
AcDbEntity
  8
AM_6
100
AcDbText
 10
6.513599999999999
 20
-12.125
 30
0.0
 40
0.5
  1
1.94
100
AcDbAttributeDefinition
  3

  2
T
 70
     8
280
     0
  0
ATTDEF
  5
16D
330
14B
100
AcDbEntity
  8
AM_6
100
AcDbText
 10
6.513599999999999
 20
-12.625
 30
0.0
 40
0.5
  1
4450
100
AcDbAttributeDefinition
  3

  2
CAPS
 70
     8
280
     0
  0
ATTDEF
  5
16E
330
14B
100
AcDbEntity
  8
AM_6
100
AcDbText
 10
6.513599999999999
 20
-13.125
 30
0.0
 40
0.5
  1
7891
100
AcDbAttributeDefinition
  3

  2
CAPD
 70
     8
280
     0
  0
ATTDEF
  5
16F
330
14B
100
AcDbEntity
  8
AM_6
100
AcDbText
 10
6.513599999999999
 20
-13.625
 30
0.0
 40
0.5
  1
baldor
100
AcDbAttributeDefinition
  3

  2
COMPANY
 70
     8
280
     0
  0
LWPOLYLINE
  5
170
330
14B
100
AcDbEntity
  8
AM_9
100
AcDbPolyline
 90
       28
 70
     0
 43
0.0
 10
-0.4359902151519753
 20
-1.032140869060918
 10
-0.427178609138625
 20
-1.005342542854799
 10
-0.4090090862133403
 20
-0.9636583211666332
 10
-0.3859981647853644
 20
-0.9237432802019059
 10
-0.3579369592750225
 20
-0.885598423827311
 10
-0.3253982391434559
 20
-0.8501151217627574
 10
-0.2889690146929869
 20
-0.8180155443222585
 10
-0.2482895216151622
 20
-0.7893292345826671
 10
-0.2042960627030098
 20
-0.7648778804445979
 10
-0.1578054885897531
 20
-0.745217346317859
 10
-0.1094802454387362
 20
-0.7307644202831325
 10
-0.0595700143103842
 20
-0.7215324573500695
 10
-0.0090432763029902
 20
-0.7177495188146576
 10
0.0406938897792075
 20
-0.7194833701319794
 10
0.0900725777081145
 20
-0.726502197298809
 10
0.1381638890131131
 20
-0.7386375190566941
 10
0.1843909015540487
 20
-0.7557469300390156
 10
0.2284816542853903
 20
-0.7775459787555056
 10
0.2696530264208479
 20
-0.8035563360771997
 10
0.308120360906759
 20
-0.8340517673757228
 10
0.3428637211834712
 20
-0.868204276372099
 10
0.3732530987712349
 20
-0.9053044591926386
 10
0.3991795178210188
 20
-0.9453757880254956
 10
0.4201251151781962
 20
-0.9875793392878359
 10
0.4356740074041974
 20
-1.031044970348049
 10
0.4435953538040294
 20
-1.063912039835024
 10
0.4483894538571037
 20
-1.097021415516611
 10
0.4499999999999997
 20
-1.13
  0
LWPOLYLINE
  5
171
330
14B
100
AcDbEntity
  8
AM_9
100
AcDbPolyline
 90
        4
 70
     0
 43
0.0
 10
-0.45
 20
-1.13
 10
-0.4475253298690046
 20
-1.088999299023849
 10
-0.4401612021270728
 20
-1.047983945713539
 10
-0.4359902151519753
 20
-1.032140869060918
  0
ELLIPSE
  5
172
330
14B
100
AcDbEntity
  8
AM_9
100
AcDbEllipse
 10
-0.0000000000000001
 20
-1.18
 30
0.0
 11
-0.35
 21
4.286263797015737E-17
 31
0.0
210
0.0
220
0.0
230
1.0
 40
0.8660254037844388
 41
0.0
 42
6.283185307179586
  0
ELLIPSE
  5
173
330
14B
100
AcDbEntity
  8
AM_9
100
AcDbEllipse
 10
-0.0000000000000036
 20
-1.129999999999986
 30
0.0
 11
0.4499999999999963
 21
0.0
 31
0.0
210
0.0
220
0.0
230
1.0
 40
0.8660254037844377
 41
2.887843751751554
 42
3.141592653589793
  0
ELLIPSE
  5
174
330
14B
100
AcDbEntity
  8
AM_9
100
AcDbEllipse
 10
-0.0000000000000003
 20
-1.129999999999999
 30
0.0
 11
0.4499999999999997
 21
0.0
 31
0.0
210
0.0
220
0.0
230
1.0
 40
0.8660254037844384
 41
0.1383077341651058
 42
2.887843751751523
  0
LINE
  5
175
330
14B
100
AcDbEntity
  8
AM_9
100
AcDbLine
 10
0.4499671960694432
 20
-1.134876675954737
 30
0.0
 11
0.4499995690515871
 21
-1.129441038957519
 31
0.0
  0
LWPOLYLINE
  5
176
330
14B
100
AcDbEntity
  8
AM_9
100
AcDbPolyline
 90
       52
 70
     0
 43
0.0
 10
-0.4489478385878323
 20
-1.157602725107021
 10
-0.4480812225554137
 20
-1.167257196609651
 10
-0.4448014607577106
 20
-1.19121121937852
 10
-0.4399354099577508
 20
-1.214934708166027
 10
-0.4335008052537024
 20
-1.23834725137828
 10
-0.4255196993526278
 20
-1.261369394497089
 10
-0.4160185474933685
 20
-1.283922611176459
 10
-0.4050283574434588
 20
-1.305929324711823
 10
-0.3925848807866466
 20
-1.327312999318179
 10
-0.3787288161332962
 20
-1.347998313938082
 10
-0.3635059920696289
 20
-1.367911422735157
 10
-0.3469674983743748
 20
-1.386980296832755
 10
-0.329169738572406
 20
-1.405135132458719
 10
-0.3101743848945573
 20
-1.422308802876864
 10
-0.290048227094707
 20
-1.43843732660733
 10
-0.2688629177331113
 20
-1.453460323265521
 10
-0.2466946266913958
 20
-1.467321430976539
 10
-0.2236236253167097
 20
-1.479968665100592
 10
-0.199733824779103
 20
-1.491354705730628
 10
-0.1751122938042022
 20
-1.501437109665647
 10
-0.1498487784373458
 20
-1.510178450019577
 10
-0.1240352418768222
 20
-1.517546392386326
 10
-0.0977654367938709
 20
-1.523513720137819
 10
-0.0711345169183245
 20
-1.528058323034063
 10
-0.0442386897021717
 20
-1.531163163240111
 10
-0.0171749079289499
 20
-1.532816231585993
 10
0.0099594047286266
 20
-1.533010504975471
 10
0.0370666011357462
 20
-1.531743913644182
 10
0.064048425024603
 20
-1.529019403580014
 10
0.090807345532735
 20
-1.524844906157358
 10
0.1172463447186283
 20
-1.519233334788068
 10
0.143269059824662
 20
-1.512202644730808
 10
0.1687800439040578
 20
-1.503775908391604
 10
0.1936850603776747
 20
-1.493981401383127
 10
0.2178914204352401
 20
-1.482852689550992
 10
0.2413083702836001
 20
-1.470428703809421
 10
0.2638475319389381
 20
-1.456753786496634
 10
0.2854233964173995
 20
-1.441877690640427
 10
0.3059538618912824
 20
-1.425855512736248
 10
0.3253608021274966
 20
-1.408747541103305
 10
0.3435706432263962
 20
-1.390619006112549
 10
0.3605149206038846
 20
-1.371539725647664
 10
0.3761307847041202
 20
-1.351583648522218
 10
0.390361424259878
 20
-1.330828309038479
 10
0.403156380586865
 20
-1.309354215770521
 10
0.4144717350874175
 20
-1.287244205224496
 10
0.4242701636366264
 20
-1.264582794880364
 10
0.4325208639972857
 20
-1.241455569613139
 10
0.4391993738768086
 20
-1.217948630895817
 10
0.4442873060688125
 20
-1.194148130538858
 10
0.4477720323812909
 20
-1.170139901471016
 10
0.4485155416386966
 20
-1.162778464552517
  0
LINE
  5
177
330
14B
100
AcDbEntity
  8
AM_9
100
AcDbLine
 10
-0.4499995724740437
 20
-1.130556737073136
 30
0.0
 11
-0.4499500623731065
 21
-1.136016871046748
 31
0.0
  0
LINE
  5
178
330
14B
100
AcDbEntity
  8
AM_9
100
AcDbLine
 10
-0.6491999999999999
 20
-1.500499916694433
 30
0.0
 11
-0.6491999999999999
 21
1.500499916694433
 31
0.0
  0
LINE
  5
179
330
14B
100
AcDbEntity
  8
AM_9
100
AcDbLine
 10
0.6492000000000001
 20
-1.500499916694433
 30
0.0
 11
0.6492000000000001
 21
1.500499916694433
 31
0.0
  0
LINE
  5
17A
330
14B
100
AcDbEntity
  8
AM_9
100
AcDbLine
 10
-0.6491999999999999
 20
1.500499916694433
 30
0.0
 11
0.6492000000000001
 21
1.500499916694433
 31
0.0
  0
LINE
  5
17B
330
14B
100
AcDbEntity
  8
AM_9
100
AcDbLine
 10
0.6492000000000001
 20
-1.500499916694433
 30
0.0
 11
-0.6491999999999999
 21
-1.500499916694433
 31
0.0
  0
LINE
  5
17C
330
14B
100
AcDbEntity
  8
AM_9
100
AcDbLine
 10
-0.6491999999999999
 20
-1.500499916694433
 30
0.0
 11
-0.6879999999999997
 21
-1.44139843207907
 31
0.0
  0
LINE
  5
17D
330
14B
100
AcDbEntity
  8
AM_9
100
AcDbLine
 10
0.6880000000000001
 20
-1.441398432079069
 30
0.0
 11
0.6492000000000001
 21
-1.500499916694433
 31
0.0
  0
LINE
  5
17E
330
14B
100
AcDbEntity
  8
AM_9
100
AcDbLine
 10
-0.6879999999999997
 20
1.44139843207907
 30
0.0
 11
-0.6491999999999999
 21
1.500499916694433
 31
0.0
  0
LINE
  5
17F
330
14B
100
AcDbEntity
  8
AM_9
100
AcDbLine
 10
0.6492000000000001
 20
1.500499916694433
 30
0.0
 11
0.6879999999999997
 21
1.441398432079069
 31
0.0
  0
ELLIPSE
  5
180
330
14B
100
AcDbEntity
  8
AM_9
100
AcDbEllipse
 10
-0.0000000000000001
 20
-1.13
 30
0.0
 11
0.4499999999999999
 21
0.0
 31
0.0
210
0.0
220
0.0
230
1.0
 40
0.8660254037844385
 41
3.141592653589793
 42
6.283185307179586
  0
LWPOLYLINE
  5
181
330
14B
100
AcDbEntity
  8
AM_9
100
AcDbPolyline
 90
       39
 70
     0
 43
0.0
 10
0.4499999999999997
 20
-1.13
 10
0.4484772106754646
 20
-1.161852807944272
 10
0.44393166451857
 20
-1.19318462224311
 10
0.4361209353537958
 20
-1.2246690595389
 10
0.4252073506524949
 20
-1.255166858749206
 10
0.4117072251277151
 20
-1.283652920452757
 10
0.3954577120719282
 20
-1.310857571603935
 10
0.375990416350525
 20
-1.337335426691713
 10
0.3538767195900779
 20
-1.362154946700828
 10
0.3296756627808863
 20
-1.384826651193313
 10
0.3032236213267458
 20
-1.405655898175233
 10
0.2738445051608036
 20
-1.42504709005015
 10
0.2424713225338224
 20
-1.442289491789939
 10
0.2099790554812158
 20
-1.457019929906538
 10
0.1759971130481071
 20
-1.469533396719205
 10
0.1396842084911788
 20
-1.480031781328748
 10
0.1023050024199555
 20
-1.488060430087357
 10
0.0657413350315371
 20
-1.493389073417967
 10
0.0287116632349715
 20
-1.496383449507983
 10
-0.0096392877257057
 20
-1.497003375799473
 10
-0.047917531080034
 20
-1.495127888829508
 10
-0.0842111103992657
 20
-1.490998199228753
 10
-0.1199259932219857
 20
-1.484612541636807
 10
-0.1558046458918929
 20
-1.475714938129999
 10
-0.1905639094691668
 20
-1.464507199574757
 10
-0.2232723373354418
 20
-1.451343178525711
 10
-0.2544652952382446
 20
-1.436077910719357
 10
-0.2847367864863598
 20
-1.418260417013986
 10
-0.3129911047540435
 20
-1.398380770946824
 10
-0.3387742763927039
 20
-1.376762957805815
 10
-0.3622229543213866
 20
-1.353323475077777
 10
-0.3837379272250293
 20
-1.327420446592315
 10
-0.4024552993122349
 20
-1.299855905033095
 10
-0.4178349579856765
 20
-1.271592246352023
 10
-0.4303197390633579
 20
-1.242071773499519
 10
-0.4400421084723747
 20
-1.210535795977571
 10
-0.4465131206157014
 20
-1.178074440613764
 10
-0.4491237805243591
 20
-1.154220712838108
 10
-0.45
 20
-1.13
  0
LINE
  5
182
330
14B
100
AcDbEntity
  8
AM_9
100
AcDbLine
 10
-0.3096000000000001
 20
-1.753363904379395
 30
0.0
 11
0.6879999999999998
 21
-1.753363904379395
 31
0.0
  0
LINE
  5
183
330
14B
100
AcDbEntity
  8
AM_9
100
AcDbLine
 10
-0.3096000000000002
 20
-1.868525
 30
0.0
 11
0.7327749999999994
 21
-1.868525
 31
0.0
  0
LINE
  5
184
330
14B
100
AcDbEntity
  8
AM_9
100
AcDbLine
 10
-0.3096000000000002
 20
-1.868525
 30
0.0
 11
-0.3096000000000001
 21
-1.649740291092981
 31
0.0
  0
LINE
  5
185
330
14B
100
AcDbEntity
  8
AM_9
100
AcDbLine
 10
-0.3096000000000001
 20
1.649740291092981
 30
0.0
 11
-0.3096000000000002
 21
1.868525
 31
0.0
  0
LINE
  5
186
330
14B
100
AcDbEntity
  8
AM_9
100
AcDbLine
 10
-0.3096000000000001
 20
1.753363904379394
 30
0.0
 11
0.6879999999999998
 21
1.753363904379394
 31
0.0
  0
LINE
  5
187
330
14B
100
AcDbEntity
  8
AM_9
100
AcDbLine
 10
0.7327750000000006
 20
1.868525
 30
0.0
 11
-0.3096000000000002
 21
1.868525
 31
0.0
  0
LINE
  5
188
330
14B
100
AcDbEntity
  8
AM_9
100
AcDbLine
 10
-0.3096000000000001
 20
1.649740291092981
 30
0.0
 11
0.6879999999999998
 21
1.649740291092981
 31
0.0
  0
LINE
  5
189
330
14B
100
AcDbEntity
  8
AM_9
100
AcDbLine
 10
0.6879999999999998
 20
-1.649740291092981
 30
0.0
 11
-0.3096000000000001
 21
-1.649740291092981
 31
0.0
  0
LINE
  5
18A
330
14B
100
AcDbEntity
  8
AM_9
100
AcDbLine
 10
-0.6880000000000002
 20
-1.77165
 30
0.0
 11
-0.3096000000000002
 21
-1.77165
 31
0.0
  0
LINE
  5
18B
330
14B
100
AcDbEntity
  8
AM_9
100
AcDbLine
 10
-0.3096000000000002
 20
1.77165
 30
0.0
 11
-0.6879999999999998
 21
1.77165
 31
0.0
  0
LINE
  5
18C
330
14B
100
AcDbEntity
  8
AM_9
100
AcDbLine
 10
0.6880000000000001
 20
0.6837806665883441
 30
0.0
 11
0.6880000000000001
 21
-0.6837806665883432
 31
0.0
  0
LINE
  5
18D
330
14B
100
AcDbEntity
  8
AM_9
100
AcDbLine
 10
-0.6879999999999997
 20
0.6837806665883438
 30
0.0
 11
-0.6879999999999997
 21
-0.683780666588343
 31
0.0
  0
LINE
  5
18E
330
14B
100
AcDbEntity
  8
AM_9
100
AcDbLine
 10
-0.6879999999999997
 20
0.9011999999999997
 30
0.0
 11
0.6880000000000001
 21
0.9011999999999997
 31
0.0
  0
LINE
  5
18F
330
14B
100
AcDbEntity
  8
AM_9
100
AcDbLine
 10
-0.6879999999999997
 20
0.9699999999999996
 30
0.0
 11
0.6880000000000001
 21
0.9699999999999996
 31
0.0
  0
LINE
  5
190
330
14B
100
AcDbEntity
  8
AM_9
100
AcDbLine
 10
-0.6879999999999997
 20
-0.901199999999999
 30
0.0
 11
0.6880000000000001
 21
-0.901199999999999
 31
0.0
  0
LINE
  5
191
330
14B
100
AcDbEntity
  8
AM_9
100
AcDbLine
 10
-0.6879999999999997
 20
-0.9699999999999999
 30
0.0
 11
0.6880000000000001
 21
-0.9699999999999999
 31
0.0
  0
LINE
  5
194
330
14B
100
AcDbEntity
  8
AM_7
100
AcDbLine
 10
0.0000000000000002
 20
-0.525
 30
0.0
 11
0.0000000000000002
 21
0.525
 31
0.0
  0
LINE
  5
195
330
14B
100
AcDbEntity
  8
AM_7
100
AcDbLine
 10
1.5136
 20
0.0
 30
0.0
 11
-1.5136
 21
0.0
 31
0.0
  0
LWPOLYLINE
  5
196
330
14B
100
AcDbEntity
  8
AM_4
100
AcDbPolyline
 90
       19
 70
     0
 43
0.0
 10
0.9699999999999996
 20
-2.3062
 10
0.9697381952287117
 20
-2.312196315101039
 10
0.9689547734072396
 20
-2.318146994623485
 10
0.9676556968486875
 20
-2.324006750303053
 10
0.9658508523100701
 20
-2.329730985860806
 10
0.9635539757481211
 20
-2.33527613640776
 10
0.960782547780369
 20
-2.3406
 10
0.9575576606470823
 20
-2.345662058820952
 10
0.9539038576865854
 20
-2.350423787546434
 10
0.949848946545634
 20
-2.354848946545634
 10
0.9454237875464335
 20
-2.358903857686586
 10
0.9406620588209516
 20
-2.362557660647083
 10
0.9355999999999998
 20
-2.365782547780369
 10
0.9302761364077597
 20
-2.368553975748121
 10
0.9247309858608056
 20
-2.37085085231007
 10
0.9190067503030531
 20
-2.372655696848688
 10
0.9131469946234844
 20
-2.37395477340724
 10
0.9071963151010385
 20
-2.374738195228712
 10
0.9011999999999997
 20
-2.375
  0
LINE
  5
197
330
14B
100
AcDbEntity
  8
AM_4
100
AcDbLine
 10
0.3439999999999998
 20
-2.375
 30
0.0
 11
0.3439999999999999
 21
-2.0075
 31
0.0
  0
LINE
  5
198
330
14B
100
AcDbEntity
  8
AM_4
100
AcDbLine
 10
0.3439999999999998
 20
-2.375
 30
0.0
 11
0.9011999999999996
 21
-2.375
 31
0.0
  0
LINE
  5
199
330
14B
100
AcDbEntity
  8
AM_4
100
AcDbLine
 10
0.6880000000000002
 20
0.6837806665883438
 30
0.0
 11
0.6880000000000001
 21
1.823749999999998
 31
0.0
  0
LINE
  5
19A
330
14B
100
AcDbEntity
  8
AM_4
100
AcDbLine
 10
-0.6879999999999997
 20
1.82375
 30
0.0
 11
-0.6879999999999997
 21
0.6837806665883438
 31
0.0
  0
LINE
  5
19B
330
14B
100
AcDbEntity
  8
AM_4
100
AcDbLine
 10
0.3440000000000001
 20
2.0075
 30
0.0
 11
-0.3439999999999998
 21
2.0075
 31
0.0
  0
LINE
  5
19C
330
14B
100
AcDbEntity
  8
AM_4
100
AcDbLine
 10
-0.9699999999999998
 20
2.10575
 30
0.0
 11
-0.6879999999999997
 21
1.82375
 31
0.0
  0
LINE
  5
19D
330
14B
100
AcDbEntity
  8
AM_4
100
AcDbLine
 10
-0.3439999999999998
 20
2.0075
 30
0.0
 11
-0.3439999999999999
 21
2.375
 31
0.0
  0
LINE
  5
19E
330
14B
100
AcDbEntity
  8
AM_4
100
AcDbLine
 10
0.344
 20
2.375
 30
0.0
 11
0.3440000000000001
 21
2.0075
 31
0.0
  0
LINE
  5
19F
330
14B
100
AcDbEntity
  8
AM_4
100
AcDbLine
 10
0.6880000000000001
 20
1.823749999999998
 30
0.0
 11
0.9700000000000001
 21
2.10575
 31
0.0
  0
LINE
  5
1A0
330
14B
100
AcDbEntity
  8
AM_4
100
AcDbLine
 10
0.9700000000000001
 20
2.10575
 30
0.0
 11
0.9700000000000002
 21
2.306200000000001
 31
0.0
  0
LINE
  5
1A1
330
14B
100
AcDbEntity
  8
AM_4
100
AcDbLine
 10
-0.9699999999999999
 20
2.3062
 30
0.0
 11
-0.9699999999999998
 21
2.10575
 31
0.0
  0
LINE
  5
1A2
330
14B
100
AcDbEntity
  8
AM_4
100
AcDbLine
 10
-0.344
 20
-2.0075
 30
0.0
 11
-0.3440000000000001
 21
-2.375
 31
0.0
  0
LWPOLYLINE
  5
1A3
330
14B
100
AcDbEntity
  8
AM_4
100
AcDbPolyline
 90
       19
 70
     0
 43
0.0
 10
-0.901199999999999
 20
-2.375
 10
-0.9071963151010379
 20
-2.374738195228712
 10
-0.9131469946234839
 20
-2.37395477340724
 10
-0.9190067503030526
 20
-2.372655696848688
 10
-0.9247309858608052
 20
-2.37085085231007
 10
-0.9302761364077593
 20
-2.368553975748121
 10
-0.9355999999999993
 20
-2.365782547780369
 10
-0.9406620588209513
 20
-2.362557660647083
 10
-0.9454237875464332
 20
-2.358903857686586
 10
-0.9498489465456339
 20
-2.354848946545634
 10
-0.953903857686585
 20
-2.350423787546434
 10
-0.9575576606470821
 20
-2.345662058820952
 10
-0.9607825477803689
 20
-2.3406
 10
-0.9635539757481211
 20
-2.33527613640776
 10
-0.9658508523100701
 20
-2.329730985860806
 10
-0.9676556968486875
 20
-2.324006750303053
 10
-0.9689547734072395
 20
-2.318146994623485
 10
-0.9697381952287117
 20
-2.312196315101038
 10
-0.9699999999999996
 20
-2.306200001449851
  0
LINE
  5
1A4
330
14B
100
AcDbEntity
  8
AM_4
100
AcDbLine
 10
-0.901199999999999
 20
-2.375
 30
0.0
 11
-0.3440000000000001
 21
-2.375
 31
0.0
  0
LINE
  5
1A5
330
14B
100
AcDbEntity
  8
AM_4
100
AcDbLine
 10
0.9700000000000002
 20
2.306200000000001
 30
0.0
 11
0.3440000000000001
 21
2.306199999999999
 31
0.0
  0
LWPOLYLINE
  5
1A6
330
14B
100
AcDbEntity
  8
AM_4
100
AcDbPolyline
 90
       19
 70
     0
 43
0.0
 10
0.901199999999999
 20
2.375
 10
0.9071963151010379
 20
2.374738195228712
 10
0.913146994623484
 20
2.37395477340724
 10
0.9190067503030527
 20
2.372655696848688
 10
0.9247309858608054
 20
2.37085085231007
 10
0.9302761364077596
 20
2.368553975748121
 10
0.9355999999999994
 20
2.365782547780369
 10
0.9406620588209516
 20
2.362557660647083
 10
0.9454237875464335
 20
2.358903857686585
 10
0.9498489465456342
 20
2.354848946545634
 10
0.9539038576865855
 20
2.350423787546434
 10
0.9575576606470825
 20
2.345662058820952
 10
0.9607825477803693
 20
2.340599999999999
 10
0.9635539757481215
 20
2.335276136407759
 10
0.9658508523100705
 20
2.329730985860805
 10
0.9676556968486879
 20
2.324006750303053
 10
0.96895477340724
 20
2.318146994623484
 10
0.9697381952287122
 20
2.312196315101038
 10
0.9700000000000001
 20
2.306199999999999
  0
LINE
  5
1A7
330
14B
100
AcDbEntity
  8
AM_4
100
AcDbLine
 10
0.344
 20
2.375
 30
0.0
 11
0.901199999999999
 21
2.375
 31
0.0
  0
LINE
  5
1A8
330
14B
100
AcDbEntity
  8
AM_4
100
AcDbLine
 10
-0.9011999999999998
 20
2.375
 30
0.0
 11
-0.3439999999999999
 21
2.375
 31
0.0
  0
LWPOLYLINE
  5
1A9
330
14B
100
AcDbEntity
  8
AM_4
100
AcDbPolyline
 90
       19
 70
     0
 43
0.0
 10
-0.9700000000000004
 20
2.306200001449851
 10
-0.9697381951023496
 20
2.312196316545373
 10
-0.9689547731554763
 20
2.318146996051309
 10
-0.9676556964734391
 20
2.324006751703502
 10
-0.9658508518141924
 20
2.329730987223221
 10
-0.9635539751353882
 20
2.335276137721771
 10
-0.9607825470554439
 20
2.340600001255608
 10
-0.9575576598154824
 20
2.345662060008601
 10
-0.9539038567546394
 20
2.350423788657084
 10
-0.9498489455204349
 20
2.354848947570834
 10
-0.9454237864357834
 20
2.358903858618532
 10
-0.9406620576333034
 20
2.362557661478683
 10
-0.9355999987443918
 20
2.365782548505295
 10
-0.9302761350937485
 20
2.368553976360855
 10
-0.9247309844983912
 20
2.370850852805949
 10
-0.9190067489026045
 20
2.372655697223937
 10
-0.9131469931956597
 20
2.373954773659004
 10
-0.9071963136567043
 20
2.374738195355075
 10
-0.9011999999999998
 20
2.375
  0
LINE
  5
1AA
330
14B
100
AcDbEntity
  8
AM_4
100
AcDbLine
 10
-0.3439999999999998
 20
2.3062
 30
0.0
 11
-0.9699999999999999
 21
2.3062
 31
0.0
  0
LINE
  5
1AB
330
14B
100
AcDbEntity
  8
AM_4
100
AcDbLine
 10
0.6879999999999998
 20
-1.82375
 30
0.0
 11
0.6880000000000002
 21
-0.683780666588344
 31
0.0
  0
LINE
  5
1AC
330
14B
100
AcDbEntity
  8
AM_4
100
AcDbLine
 10
-0.6879999999999996
 20
-0.6837806665883438
 30
0.0
 11
-0.6880000000000001
 21
-1.823749999999998
 31
0.0
  0
LINE
  5
1AD
330
14B
100
AcDbEntity
  8
AM_4
100
AcDbLine
 10
-0.6880000000000001
 20
-1.823749999999998
 30
0.0
 11
-0.9700000000000001
 21
-2.10575
 31
0.0
  0
LINE
  5
1AE
330
14B
100
AcDbEntity
  8
AM_4
100
AcDbLine
 10
-0.9700000000000001
 20
-2.10575
 30
0.0
 11
-0.9700000000000002
 21
-2.3062
 31
0.0
  0
LINE
  5
1AF
330
14B
100
AcDbEntity
  8
AM_4
100
AcDbLine
 10
-0.3440000000000001
 20
-2.306199999999999
 30
0.0
 11
-0.9700000000000002
 21
-2.3062
 31
0.0
  0
LINE
  5
1B0
330
14B
100
AcDbEntity
  8
AM_4
100
AcDbLine
 10
-0.344
 20
-2.0075
 30
0.0
 11
0.3439999999999999
 21
-2.0075
 31
0.0
  0
LINE
  5
1B1
330
14B
100
AcDbEntity
  8
AM_4
100
AcDbLine
 10
0.9699999999999998
 20
-2.3062
 30
0.0
 11
0.3439999999999998
 21
-2.306199999999999
 31
0.0
  0
LINE
  5
1B2
330
14B
100
AcDbEntity
  8
AM_4
100
AcDbLine
 10
0.9699999999999998
 20
-2.3062
 30
0.0
 11
0.9699999999999999
 21
-2.10575
 31
0.0
  0
LINE
  5
1B3
330
14B
100
AcDbEntity
  8
AM_4
100
AcDbLine
 10
0.9699999999999999
 20
-2.10575
 30
0.0
 11
0.6879999999999998
 21
-1.82375
 31
0.0
  0
LWPOLYLINE
  5
1B4
330
14B
100
AcDbEntity
  8
AM_4
100
AcDbPolyline
 90
       19
 70
     0
 43
0.0
 10
-0.6192000000000001
 20
-1.625
 10
-0.6251963151010389
 20
-1.624738195228712
 10
-0.6311469946234849
 20
-1.62395477340724
 10
-0.6370067503030535
 20
-1.622655696848688
 10
-0.6427309858608061
 20
-1.62085085231007
 10
-0.6482761364077603
 20
-1.618553975748122
 10
-0.6536000000000002
 20
-1.615782547780369
 10
-0.6586620588209522
 20
-1.612557660647082
 10
-0.6634237875464342
 20
-1.608903857686586
 10
-0.6678489465456348
 20
-1.604848946545634
 10
-0.671903857686586
 20
-1.600423787546434
 10
-0.6755576606470829
 20
-1.595662058820952
 10
-0.6787825477803696
 20
-1.5906
 10
-0.6815539757481219
 20
-1.58527613640776
 10
-0.6838508523100708
 20
-1.579730985860806
 10
-0.6856556968486883
 20
-1.574006750303053
 10
-0.6869547734072402
 20
-1.568146994623485
 10
-0.6877381952287126
 20
-1.562196315101039
 10
-0.6880000000000004
 20
-1.5562
  0
LWPOLYLINE
  5
1B5
330
14B
100
AcDbEntity
  8
AM_4
100
AcDbPolyline
 90
       19
 70
     0
 43
0.0
 10
0.6880000000000008
 20
-1.5562
 10
0.6877381952287129
 20
-1.562196315101039
 10
0.6869547734072408
 20
-1.568146994623485
 10
0.6856556968486887
 20
-1.574006750303053
 10
0.6838508523100713
 20
-1.579730985860806
 10
0.6815539757481223
 20
-1.58527613640776
 10
0.6787825477803702
 20
-1.5906
 10
0.6755576606470834
 20
-1.595662058820952
 10
0.6719038576865863
 20
-1.600423787546434
 10
0.6678489465456352
 20
-1.604848946545634
 10
0.6634237875464346
 20
-1.608903857686586
 10
0.6586620588209526
 20
-1.612557660647083
 10
0.6536000000000006
 20
-1.615782547780369
 10
0.6482761364077608
 20
-1.618553975748122
 10
0.6427309858608066
 20
-1.62085085231007
 10
0.6370067503030541
 20
-1.622655696848688
 10
0.6311469946234853
 20
-1.62395477340724
 10
0.6251963151010395
 20
-1.624738195228712
 10
0.6192000000000004
 20
-1.625
  0
LINE
  5
1B6
330
14B
100
AcDbEntity
  8
AM_4
100
AcDbLine
 10
-0.6192000000000001
 20
-1.625
 30
0.0
 11
0.6192000000000004
 21
-1.625
 31
0.0
  0
ARC
  5
1B7
330
14B
100
AcDbEntity
  8
AM_4
100
AcDbCircle
 10
0.0
 20
0.0000000000000001
 30
0.0
 40
0.9699999999999995
100
AcDbArc
 50
135.1762302388223
 51
224.8237697611777
  0
CIRCLE
  5
1B8
330
14B
100
AcDbEntity
  8
AM_4
100
AcDbCircle
 10
0.0000000000000002
 20
0.0
 30
0.0
 40
0.5
  0
ARC
  5
1B9
330
14B
100
AcDbEntity
  8
AM_4
100
AcDbCircle
 10
0.0000000000000003
 20
-0.0000000000000001
 30
0.0
 40
0.9699999999999999
100
AcDbArc
 50
315.1762302388223
 51
44.82376976117769
  0
LINE
  5
1BA
330
14B
100
AcDbEntity
  8
AM_4
100
AcDbLine
 10
0.6880000000000002
 20
-1.5562
 30
0.0
 11
-0.6879999999999996
 21
-1.5562
 31
0.0
  0
LWPOLYLINE
  5
1BB
330
14B
100
AcDbEntity
  8
AM_4
100
AcDbPolyline
 90
       19
 70
     0
 43
0.0
 10
-0.6880000000000002
 20
1.5562
 10
-0.6877381952287123
 20
1.562196315101039
 10
-0.6869547734072401
 20
1.568146994623485
 10
-0.685655696848688
 20
1.574006750303053
 10
-0.6838508523100706
 20
1.579730985860806
 10
-0.6815539757481216
 20
1.58527613640776
 10
-0.6787825477803695
 20
1.5906
 10
-0.6755576606470828
 20
1.595662058820952
 10
-0.6719038576865859
 20
1.600423787546434
 10
-0.6678489465456345
 20
1.604848946545634
 10
-0.663423787546434
 20
1.608903857686586
 10
-0.6586620588209521
 20
1.612557660647082
 10
-0.6536000000000001
 20
1.615782547780369
 10
-0.6482761364077602
 20
1.618553975748121
 10
-0.642730985860806
 20
1.62085085231007
 10
-0.6370067503030533
 20
1.622655696848688
 10
-0.6311469946234848
 20
1.62395477340724
 10
-0.6251963151010388
 20
1.624738195228712
 10
-0.6192000000000009
 20
1.625
  0
LINE
  5
1BC
330
14B
100
AcDbEntity
  8
AM_4
100
AcDbLine
 10
-0.6192000000000009
 20
1.625
 30
0.0
 11
0.6191999999999999
 21
1.625
 31
0.0
  0
LINE
  5
1BD
330
14B
100
AcDbEntity
  8
AM_4
100
AcDbLine
 10
0.6880000000000001
 20
1.556199999999999
 30
0.0
 11
-0.6879999999999993
 21
1.5562
 31
0.0
  0
LWPOLYLINE
  5
1BE
330
14B
100
AcDbEntity
  8
AM_4
100
AcDbPolyline
 90
       19
 70
     0
 43
0.0
 10
0.6192000000000004
 20
1.625
 10
0.6251963151010393
 20
1.624738195228712
 10
0.6311469946234853
 20
1.623954773407239
 10
0.6370067503030541
 20
1.622655696848687
 10
0.6427309858608066
 20
1.62085085231007
 10
0.6482761364077608
 20
1.618553975748121
 10
0.6536000000000006
 20
1.615782547780369
 10
0.6586620588209526
 20
1.612557660647082
 10
0.6634237875464346
 20
1.608903857686585
 10
0.6678489465456352
 20
1.604848946545634
 10
0.6719038576865863
 20
1.600423787546433
 10
0.6755576606470833
 20
1.595662058820951
 10
0.6787825477803701
 20
1.590599999999999
 10
0.6815539757481223
 20
1.585276136407759
 10
0.6838508523100711
 20
1.579730985860805
 10
0.6856556968486885
 20
1.574006750303052
 10
0.6869547734072405
 20
1.568146994623483
 10
0.6877381952287127
 20
1.562196315101038
 10
0.6880000000000006
 20
1.556199999999998
  0
ENDBLK
  5
14E
330
14B
100
AcDbEntity
  8
0
100
AcDbBlockEnd
  0
ENDSEC
  0
SECTION
  2
ENTITIES
  0
INSERT
  5
6F
330
1F
100
AcDbEntity
  8
0
100
AcDbBlockReference
  2
1_052722_2
 10
0.0
 20
0.0
 30
0.0
  0
POINT
  5
1C0
330
1F
100
AcDbEntity
  8
ConnectionPoints
100
AcDbPoint
 10
-0.0000000000000001
 20
-1.18
 30
-2.043819952931276
  0
POINT
  5
1C1
330
1F
100
AcDbEntity
  8
ConnectionPoints
100
AcDbPoint
 10
-0.0000000000000001
 20
-1.18
 30
-2.043819952931276
  0
POINT
  5
1C2
330
1F
100
AcDbEntity
  8
ConnectionPoints
100
AcDbPoint
 10
-1.26
 20
0.0
 30
0.0000000000000001
  0
ENDSEC
  0
SECTION
  2
OBJECTS
  0
DICTIONARY
  5
C
330
0
100
AcDbDictionary
281
     1
  3
ACAD_DETAILVIEWSTYLE
350
1CA
  3
ACAD_GROUP
350
D
  3
ACAD_LAYOUT
350
1A
  3
ACAD_MATERIAL
350
43
  3
ACAD_MLEADERSTYLE
350
6B
  3
ACAD_MLINESTYLE
350
17
  3
ACAD_PLOTSETTINGS
350
19
  3
ACAD_PLOTSTYLENAME
350
E
  3
ACAD_SCALELIST
350
47
  3
ACAD_SECTIONVIEWSTYLE
350
1CB
  3
ACAD_TABLESTYLE
350
69
  3
ACAD_VISUALSTYLE
350
2A
  3
ACDB_RECOMPOSE_DATA
350
1C7
  3
AcDbVariableDictionary
350
1C3
  0
SUN
  5
6D
330
29
100
AcDbSun
 90
        1
290
     0
 63
     7
421
 16777215
 40
1.0
291
     1
 91
  2455826
 92
 54000000
292
     0
 70
     2
 71
   256
280
     1
  0
DICTIONARY
  5
1CA
102
{ACAD_REACTORS
330
C
102
}
330
C
100
AcDbDictionary
281
     1
  0
DICTIONARY
  5
D
102
{ACAD_REACTORS
330
C
102
}
330
C
100
AcDbDictionary
281
     1
  0
DICTIONARY
  5
1A
102
{ACAD_REACTORS
330
C
102
}
330
C
100
AcDbDictionary
281
     1
  3
Layout1
350
1E
  3
Layout2
350
26
  3
Model
350
22
  0
DICTIONARY
  5
43
102
{ACAD_REACTORS
330
C
102
}
330
C
100
AcDbDictionary
281
     1
  3
ByBlock
350
45
  3
ByLayer
350
44
  3
Global
350
46
  0
DICTIONARY
  5
6B
102
{ACAD_REACTORS
330
C
102
}
330
C
100
AcDbDictionary
281
     1
  3
Standard
350
6C
  0
DICTIONARY
  5
17
102
{ACAD_REACTORS
330
C
102
}
330
C
100
AcDbDictionary
281
     1
  3
Standard
350
18
  0
DICTIONARY
  5
19
102
{ACAD_REACTORS
330
C
102
}
330
C
100
AcDbDictionary
281
     1
  0
ACDBDICTIONARYWDFLT
  5
E
102
{ACAD_REACTORS
330
C
102
}
330
C
100
AcDbDictionary
281
     1
  3
Normal
350
F
100
AcDbDictionaryWithDefault
340
F
  0
DICTIONARY
  5
47
102
{ACAD_REACTORS
330
C
102
}
330
C
100
AcDbDictionary
281
     1
  3
A0
350
48
  3
A1
350
49
  3
A2
350
4A
  3
A3
350
4B
  3
A4
350
4C
  3
A5
350
4D
  3
A6
350
4E
  3
A7
350
4F
  3
A8
350
50
  3
A9
350
51
  3
B0
350
52
  3
B1
350
53
  3
B2
350
54
  3
B3
350
55
  3
B4
350
56
  3
B5
350
57
  3
B6
350
58
  3
B7
350
59
  3
B8
350
5A
  3
B9
350
5B
  3
C0
350
5C
  3
C1
350
5D
  3
C2
350
5E
  3
C3
350
5F
  3
C4
350
60
  3
C5
350
61
  3
C6
350
62
  3
C7
350
63
  3
C8
350
64
  3
C9
350
65
  3
D0
350
66
  3
D1
350
67
  3
D2
350
68
  0
DICTIONARY
  5
1CB
102
{ACAD_REACTORS
330
C
102
}
330
C
100
AcDbDictionary
281
     1
  0
DICTIONARY
  5
69
102
{ACAD_REACTORS
330
C
102
}
330
C
100
AcDbDictionary
281
     1
  3
Standard
350
6A
  0
DICTIONARY
  5
2A
102
{ACAD_REACTORS
330
C
102
}
330
C
100
AcDbDictionary
281
     1
  3
2dWireframe
350
2F
  3
Basic
350
32
  3
Brighten
350
36
  3
ColorChange
350
3A
  3
Conceptual
350
34
  3
Dim
350
35
  3
EdgeColorOff
350
3D
  3
Facepattern
350
39
  3
Flat
350
2B
  3
FlatWithEdges
350
2C
  3
Gouraud
350
2D
  3
GouraudWithEdges
350
2E
  3
Hidden
350
31
  3
JitterOff
350
3B
  3
Linepattern
350
38
  3
OverhangOff
350
3C
  3
Realistic
350
33
  3
Shaded
350
42
  3
Shaded with edges
350
41
  3
Shades of Gray
350
3E
  3
Sketchy
350
3F
  3
Thicken
350
37
  3
Wireframe
350
30
  3
X-Ray
350
40
  0
XRECORD
  5
1C7
102
{ACAD_REACTORS
330
C
102
}
330
C
100
AcDbXrecord
280
     1
 90
        1
330
6A
  0
DICTIONARY
  5
1C3
102
{ACAD_REACTORS
330
C
102
}
330
C
100
AcDbDictionary
281
     1
  3
CANNOSCALE
350
1C4
  3
CMLEADERSTYLE
350
1C9
  3
CTABLESTYLE
350
1C8
  0
LAYOUT
  5
1E
102
{ACAD_REACTORS
330
1A
102
}
330
1A
100
AcDbPlotSettings
  1

  2
none_device
  4

  6

 40
0.0
 41
0.0
 42
0.0
 43
0.0
 44
0.0
 45
0.0
 46
0.0
 47
0.0
 48
0.0
 49
0.0
140
0.0
141
0.0
142
1.0
143
1.0
 70
   688
 72
     0
 73
     0
 74
     5
  7

 75
    16
 76
     0
 77
     2
 78
   300
147
1.0
148
0.0
149
0.0
100
AcDbLayout
  1
Layout1
 70
     1
 71
     1
 10
0.0
 20
0.0
 11
12.0
 21
9.0
 12
0.0
 22
0.0
 32
0.0
 14
1.000000000000000E+20
 24
1.000000000000000E+20
 34
1.000000000000000E+20
 15
-1.000000000000000E+20
 25
-1.000000000000000E+20
 35
-1.000000000000000E+20
146
0.0
 13
0.0
 23
0.0
 33
0.0
 16
1.0
 26
0.0
 36
0.0
 17
0.0
 27
1.0
 37
0.0
 76
     0
330
1B
  0
LAYOUT
  5
26
102
{ACAD_REACTORS
330
1A
102
}
330
1A
100
AcDbPlotSettings
  1

  2
none_device
  4

  6

 40
0.0
 41
0.0
 42
0.0
 43
0.0
 44
0.0
 45
0.0
 46
0.0
 47
0.0
 48
0.0
 49
0.0
140
0.0
141
0.0
142
1.0
143
1.0
 70
   688
 72
     0
 73
     0
 74
     5
  7

 75
    16
 76
     0
 77
     2
 78
   300
147
1.0
148
0.0
149
0.0
100
AcDbLayout
  1
Layout2
 70
     1
 71
     2
 10
0.0
 20
0.0
 11
0.0
 21
0.0
 12
0.0
 22
0.0
 32
0.0
 14
0.0
 24
0.0
 34
0.0
 15
0.0
 25
0.0
 35
0.0
146
0.0
 13
0.0
 23
0.0
 33
0.0
 16
1.0
 26
0.0
 36
0.0
 17
0.0
 27
1.0
 37
0.0
 76
     0
330
23
  0
LAYOUT
  5
22
102
{ACAD_REACTORS
330
1A
102
}
330
1A
100
AcDbPlotSettings
  1

  2
none_device
  4
Letter_(8.50_x_11.00_Inches)
  6

 40
6.35
 41
6.35
 42
6.35000508
 43
6.35000508
 44
215.9
 45
279.4
 46
0.0
 47
0.0
 48
0.0
 49
0.0
140
0.0
141
0.0
142
1.0
143
1.0
 70
  1712
 72
     0
 73
     0
 74
     0
  7

 75
     0
 76
     0
 77
     2
 78
   300
147
1.0
148
0.0
149
0.0
100
AcDbLayout
  1
Model
 70
     1
 71
     0
 10
0.0
 20
0.0
 11
12.0
 21
9.0
 12
0.0
 22
0.0
 32
0.0
 14
1.000000000000000E+20
 24
1.000000000000000E+20
 34
1.000000000000000E+20
 15
-1.000000000000000E+20
 25
-1.000000000000000E+20
 35
-1.000000000000000E+20
146
0.0
 13
0.0
 23
0.0
 33
0.0
 16
1.0
 26
0.0
 36
0.0
 17
0.0
 27
1.0
 37
0.0
 76
     0
330
1F
331
29
  0
MATERIAL
  5
45
102
{ACAD_REACTORS
330
43
102
}
330
43
100
AcDbMaterial
  1
ByBlock
 72
     1
 94
      127
  0
MATERIAL
  5
44
102
{ACAD_REACTORS
330
43
102
}
330
43
100
AcDbMaterial
  1
ByLayer
 72
     1
 94
      127
  0
MATERIAL
  5
46
102
{ACAD_REACTORS
330
43
102
}
330
43
100
AcDbMaterial
  1
Global
 72
     1
 94
      127
  0
MLEADERSTYLE
  5
6C
102
{ACAD_REACTORS
330
6B
102
}
330
6B
100
AcDbMLeaderStyle
179
     2
170
     2
171
     1
172
     0
 90
        2
 40
0.0
 41
0.0
173
     1
 91
-1056964608
340
14
 92
       -2
290
     1
 42
0.09
291
     1
 43
0.36
  3
Standard
341
0
 44
0.18
300

342
11
174
     1
178
     6
175
     1
176
     0
 93
-1056964608
 45
0.18
292
     0
297
     0
 46
0.18
343
0
 94
-1056964608
 47
1.0
 49
1.0
140
1.0
293
     1
141
0.0
294
     1
177
     0
142
1.0
295
     0
296
     0
143
0.125
271
     0
272
     9
273
     9
298
     0
  0
MLINESTYLE
  5
18
102
{ACAD_REACTORS
330
17
102
}
330
17
100
AcDbMlineStyle
  2
Standard
 70
     0
  3

 62
   256
 51
90.0
 52
90.0
 71
     2
 49
0.5
 62
   256
  6
BYLAYER
 49
-0.5
 62
   256
  6
BYLAYER
  0
ACDBPLACEHOLDER
  5
F
102
{ACAD_REACTORS
330
E
102
}
330
E
  0
SCALE
  5
48
102
{ACAD_REACTORS
330
47
102
}
330
47
100
AcDbScale
 70
     0
300
1:1
140
1.0
141
1.0
290
     1
  0
SCALE
  5
49
102
{ACAD_REACTORS
330
47
102
}
330
47
100
AcDbScale
 70
     0
300
1:2
140
1.0
141
2.0
290
     0
  0
SCALE
  5
4A
102
{ACAD_REACTORS
330
47
102
}
330
47
100
AcDbScale
 70
     0
300
1:4
140
1.0
141
4.0
290
     0
  0
SCALE
  5
4B
102
{ACAD_REACTORS
330
47
102
}
330
47
100
AcDbScale
 70
     0
300
1:5
140
1.0
141
5.0
290
     0
  0
SCALE
  5
4C
102
{ACAD_REACTORS
330
47
102
}
330
47
100
AcDbScale
 70
     0
300
1:8
140
1.0
141
8.0
290
     0
  0
SCALE
  5
4D
102
{ACAD_REACTORS
330
47
102
}
330
47
100
AcDbScale
 70
     0
300
1:10
140
1.0
141
10.0
290
     0
  0
SCALE
  5
4E
102
{ACAD_REACTORS
330
47
102
}
330
47
100
AcDbScale
 70
     0
300
1:16
140
1.0
141
16.0
290
     0
  0
SCALE
  5
4F
102
{ACAD_REACTORS
330
47
102
}
330
47
100
AcDbScale
 70
     0
300
1:20
140
1.0
141
20.0
290
     0
  0
SCALE
  5
50
102
{ACAD_REACTORS
330
47
102
}
330
47
100
AcDbScale
 70
     0
300
1:30
140
1.0
141
30.0
290
     0
  0
SCALE
  5
51
102
{ACAD_REACTORS
330
47
102
}
330
47
100
AcDbScale
 70
     0
300
1:40
140
1.0
141
40.0
290
     0
  0
SCALE
  5
52
102
{ACAD_REACTORS
330
47
102
}
330
47
100
AcDbScale
 70
     0
300
1:50
140
1.0
141
50.0
290
     0
  0
SCALE
  5
53
102
{ACAD_REACTORS
330
47
102
}
330
47
100
AcDbScale
 70
     0
300
1:100
140
1.0
141
100.0
290
     0
  0
SCALE
  5
54
102
{ACAD_REACTORS
330
47
102
}
330
47
100
AcDbScale
 70
     0
300
2:1
140
2.0
141
1.0
290
     0
  0
SCALE
  5
55
102
{ACAD_REACTORS
330
47
102
}
330
47
100
AcDbScale
 70
     0
300
4:1
140
4.0
141
1.0
290
     0
  0
SCALE
  5
56
102
{ACAD_REACTORS
330
47
102
}
330
47
100
AcDbScale
 70
     0
300
8:1
140
8.0
141
1.0
290
     0
  0
SCALE
  5
57
102
{ACAD_REACTORS
330
47
102
}
330
47
100
AcDbScale
 70
     0
300
10:1
140
10.0
141
1.0
290
     0
  0
SCALE
  5
58
102
{ACAD_REACTORS
330
47
102
}
330
47
100
AcDbScale
 70
     0
300
100:1
140
100.0
141
1.0
290
     0
  0
SCALE
  5
59
102
{ACAD_REACTORS
330
47
102
}
330
47
100
AcDbScale
 70
     0
300
1/128" = 1'-0"
140
0.0078125
141
12.0
290
     0
  0
SCALE
  5
5A
102
{ACAD_REACTORS
330
47
102
}
330
47
100
AcDbScale
 70
     0
300
1/64" = 1'-0"
140
0.015625
141
12.0
290
     0
  0
SCALE
  5
5B
102
{ACAD_REACTORS
330
47
102
}
330
47
100
AcDbScale
 70
     0
300
1/32" = 1'-0"
140
0.03125
141
12.0
290
     0
  0
SCALE
  5
5C
102
{ACAD_REACTORS
330
47
102
}
330
47
100
AcDbScale
 70
     0
300
1/16" = 1'-0"
140
0.0625
141
12.0
290
     0
  0
SCALE
  5
5D
102
{ACAD_REACTORS
330
47
102
}
330
47
100
AcDbScale
 70
     0
300
3/32" = 1'-0"
140
0.09375
141
12.0
290
     0
  0
SCALE
  5
5E
102
{ACAD_REACTORS
330
47
102
}
330
47
100
AcDbScale
 70
     0
300
1/8" = 1'-0"
140
0.125
141
12.0
290
     0
  0
SCALE
  5
5F
102
{ACAD_REACTORS
330
47
102
}
330
47
100
AcDbScale
 70
     0
300
3/16" = 1'-0"
140
0.1875
141
12.0
290
     0
  0
SCALE
  5
60
102
{ACAD_REACTORS
330
47
102
}
330
47
100
AcDbScale
 70
     0
300
1/4" = 1'-0"
140
0.25
141
12.0
290
     0
  0
SCALE
  5
61
102
{ACAD_REACTORS
330
47
102
}
330
47
100
AcDbScale
 70
     0
300
3/8" = 1'-0"
140
0.375
141
12.0
290
     0
  0
SCALE
  5
62
102
{ACAD_REACTORS
330
47
102
}
330
47
100
AcDbScale
 70
     0
300
1/2" = 1'-0"
140
0.5
141
12.0
290
     0
  0
SCALE
  5
63
102
{ACAD_REACTORS
330
47
102
}
330
47
100
AcDbScale
 70
     0
300
3/4" = 1'-0"
140
0.75
141
12.0
290
     0
  0
SCALE
  5
64
102
{ACAD_REACTORS
330
47
102
}
330
47
100
AcDbScale
 70
     0
300
1" = 1'-0"
140
1.0
141
12.0
290
     0
  0
SCALE
  5
65
102
{ACAD_REACTORS
330
47
102
}
330
47
100
AcDbScale
 70
     0
300
1-1/2" = 1'-0"
140
1.5
141
12.0
290
     0
  0
SCALE
  5
66
102
{ACAD_REACTORS
330
47
102
}
330
47
100
AcDbScale
 70
     0
300
3" = 1'-0"
140
3.0
141
12.0
290
     0
  0
SCALE
  5
67
102
{ACAD_REACTORS
330
47
102
}
330
47
100
AcDbScale
 70
     0
300
6" = 1'-0"
140
6.0
141
12.0
290
     0
  0
SCALE
  5
68
102
{ACAD_REACTORS
330
47
102
}
330
47
100
AcDbScale
 70
     0
300
1'-0" = 1'-0"
140
12.0
141
12.0
290
     0
  0
TABLESTYLE
  5
6A
102
{ACAD_REACTORS
330
69
102
}
102
{ACAD_XDICTIONARY
360
1C5
102
}
330
69
100
AcDbTableStyle
  3
Standard
 70
     0
 71
     0
 40
0.06
 41
0.06
280
     0
281
     0
  7
Standard
140
0.18
170
     2
 62
     0
 63
   257
283
     0
 90
        4
 91
        0
  1

274
    -2
284
     1
 64
     0
275
    -2
285
     1
 65
     0
276
    -2
286
     1
 66
     0
277
    -2
287
     1
 67
     0
278
    -2
288
     1
 68
     0
279
    -2
289
     1
 69
     0
  7
Standard
140
0.25
170
     5
 62
     0
 63
   257
283
     0
 90
        4
 91
        0
  1

274
    -2
284
     1
 64
     0
275
    -2
285
     1
 65
     0
276
    -2
286
     1
 66
     0
277
    -2
287
     1
 67
     0
278
    -2
288
     1
 68
     0
279
    -2
289
     1
 69
     0
  7
Standard
140
0.18
170
     5
 62
     0
 63
   257
283
     0
 90
        4
 91
        0
  1

274
    -2
284
     1
 64
     0
275
    -2
285
     1
 65
     0
276
    -2
286
     1
 66
     0
277
    -2
287
     1
 67
     0
278
    -2
288
     1
 68
     0
279
    -2
289
     1
 69
     0
  0
VISUALSTYLE
  5
2F
102
{ACAD_REACTORS
330
2A
102
}
330
2A
100
AcDbVisualStyle
  2
2dWireframe
 70
     4
177
     3
291
     0
 70
    58
 90
        0
176
     1
 90
        2
176
     1
 90
        0
176
     1
 90
        0
176
     1
 40
0.6
176
     1
 40
30.0
176
     1
 62
     7
420
 16777215
176
     1
 90
        1
176
     1
 90
        4
176
     1
 62
     7
176
     1
 62
   257
176
     1
 90
        1
176
     1
 90
        1
176
     1
 40
1.0
176
     1
 90
        0
176
     1
 62
   257
176
     1
 40
1.0
176
     1
 90
        1
176
     1
 90
        6
176
     1
 90
        2
176
     1
 62
     7
176
     1
 90
        5
176
     1
 90
        0
176
     1
 90
        0
176
     1
290
     0
176
     1
 90
        1
176
     1
 40
0.0
176
     1
 90
        0
176
     1
290
     1
176
     1
290
     1
176
     1
290
     0
176
     1
290
     0
176
     1
290
     0
176
     1
290
     0
176
     1
290
     0
176
     1
290
     0
176
     1
290
     0
176
     1
 90
       50
176
     1
 40
0.0
176
     1
 40
1.0
176
     1
 90
        0
176
     1
 62
    18
420
        0
176
     1
 90
       50
176
     1
 90
        3
176
     1
 62
     5
420
      255
176
     1
290
     0
176
     1
 90
       50
176
     1
 90
       50
176
     1
 90
       50
176
     1
290
     0
176
     1
 90
       50
176
     1
 62
   256
176
     0
 40
1.0
176
     0
 90
        2
176
     1
  1
strokes_ogs.tif
176
     1
290
     0
176
     1
 40
1.0
176
     1
 40
1.0
176
     1
  0
VISUALSTYLE
  5
32
102
{ACAD_REACTORS
330
2A
102
}
330
2A
100
AcDbVisualStyle
  2
Basic
 70
     7
177
     3
291
     1
 70
    58
 90
        1
176
     1
 90
        0
176
     1
 90
        1
176
     1
 90
        0
176
     1
 40
0.6
176
     1
 40
30.0
176
     1
 62
     7
420
 16777215
176
     1
 90
        0
176
     1
 90
        4
176
     1
 62
     7
176
     1
 62
   257
176
     1
 90
        1
176
     1
 90
        1
176
     1
 40
1.0
176
     1
 90
        8
176
     1
 62
     7
176
     1
 40
1.0
176
     1
 90
        1
176
     1
 90
        6
176
     1
 90
        2
176
     1
 62
     7
176
     1
 90
        5
176
     1
 90
        0
176
     1
 90
        0
176
     1
290
     0
176
     1
 90
        1
176
     1
 40
0.0
176
     1
 90
        0
176
     1
290
     0
176
     1
290
     1
176
     1
290
     1
176
     1
290
     0
176
     1
290
     0
176
     1
290
     0
176
     1
290
     0
176
     1
290
     0
176
     1
290
     0
176
     1
 90
       50
176
     1
 40
0.0
176
     1
 40
1.0
176
     1
 90
        0
176
     1
 62
    18
420
        0
176
     1
 90
       50
176
     1
 90
        3
176
     1
 62
     5
420
      255
176
     1
290
     0
176
     1
 90
       50
176
     1
 90
       50
176
     1
 90
       50
176
     1
290
     0
176
     1
 90
       50
176
     1
 62
   256
176
     0
 40
1.0
176
     0
 90
        2
176
     1
  1
strokes_ogs.tif
176
     1
290
     0
176
     1
 40
1.0
176
     1
 40
1.0
176
     1
  0
VISUALSTYLE
  5
36
102
{ACAD_REACTORS
330
2A
102
}
330
2A
100
AcDbVisualStyle
  2
Brighten
 70
    12
177
     3
291
     1
 70
    58
 90
        2
176
     1
 90
        2
176
     1
 90
        0
176
     1
 90
        0
176
     1
 40
0.6
176
     1
 40
30.0
176
     1
 62
     7
420
 16777215
176
     1
 90
        1
176
     1
 90
        4
176
     1
 62
     7
176
     1
 62
   257
176
     1
 90
        1
176
     1
 90
        1
176
     1
 40
1.0
176
     1
 90
        8
176
     1
 62
     7
176
     1
 40
1.0
176
     1
 90
        1
176
     1
 90
        6
176
     1
 90
        2
176
     1
 62
     7
176
     1
 90
        5
176
     1
 90
        0
176
     1
 90
        0
176
     1
290
     0
176
     1
 90
        1
176
     1
 40
50.0
176
     1
 90
        0
176
     1
290
     0
176
     1
290
     1
176
     1
290
     1
176
     1
290
     0
176
     1
290
     0
176
     1
290
     0
176
     1
290
     0
176
     1
290
     0
176
     1
290
     0
176
     1
 90
       50
176
     1
 40
0.0
176
     1
 40
1.0
176
     1
 90
        0
176
     1
 62
    18
420
        0
176
     1
 90
       50
176
     1
 90
        3
176
     1
 62
     5
420
      255
176
     1
290
     0
176
     1
 90
       50
176
     1
 90
       50
176
     1
 90
       50
176
     1
290
     0
176
     1
 90
       50
176
     1
 62
   256
176
     0
 40
1.0
176
     0
 90
        2
176
     1
  1
strokes_ogs.tif
176
     1
290
     0
176
     1
 40
1.0
176
     1
 40
1.0
176
     1
  0
VISUALSTYLE
  5
3A
102
{ACAD_REACTORS
330
2A
102
}
330
2A
100
AcDbVisualStyle
  2
ColorChange
 70
    16
177
     3
291
     1
 70
    58
 90
        2
176
     1
 90
        2
176
     1
 90
        3
176
     1
 90
        0
176
     1
 40
0.6
176
     1
 40
30.0
176
     1
 62
     8
420
  8421504
176
     1
 90
        1
176
     1
 90
        4
176
     1
 62
     7
176
     1
 62
   257
176
     1
 90
        1
176
     1
 90
        1
176
     1
 40
1.0
176
     1
 90
        8
176
     1
 62
     8
420
  8421504
176
     1
 40
1.0
176
     1
 90
        1
176
     1
 90
        6
176
     1
 90
        2
176
     1
 62
     7
176
     1
 90
        5
176
     1
 90
        0
176
     1
 90
        0
176
     1
290
     0
176
     1
 90
        1
176
     1
 40
0.0
176
     1
 90
        0
176
     1
290
     0
176
     1
290
     1
176
     1
290
     1
176
     1
290
     0
176
     1
290
     0
176
     1
290
     0
176
     1
290
     0
176
     1
290
     0
176
     1
290
     0
176
     1
 90
       50
176
     1
 40
0.0
176
     1
 40
1.0
176
     1
 90
        0
176
     1
 62
    18
420
        0
176
     1
 90
       50
176
     1
 90
        3
176
     1
 62
     5
420
      255
176
     1
290
     0
176
     1
 90
       50
176
     1
 90
       50
176
     1
 90
       50
176
     1
290
     0
176
     1
 90
       50
176
     1
 62
   256
176
     0
 40
1.0
176
     0
 90
        2
176
     1
  1
strokes_ogs.tif
176
     1
290
     0
176
     1
 40
1.0
176
     1
 40
1.0
176
     1
  0
VISUALSTYLE
  5
34
102
{ACAD_REACTORS
330
2A
102
}
330
2A
100
AcDbVisualStyle
  2
Conceptual
 70
     9
177
     3
291
     0
 70
    58
 90
        3
176
     1
 90
        2
176
     1
 90
        0
176
     1
 90
        0
176
     1
 40
0.6
176
     1
 40
30.0
176
     1
 62
     7
420
 16777215
176
     1
 90
        2
176
     1
 90
        2
176
     1
 62
     7
176
     1
 62
   257
176
     1
 90
        1
176
     1
 90
        1
176
     1
 40
179.0
176
     1
 90
        8
176
     1
 62
     7
176
     1
 40
1.0
176
     1
 90
        1
176
     1
 90
        6
176
     1
 90
        2
176
     1
 62
     7
176
     1
 90
        3
176
     1
 90
        0
176
     1
 90
        0
176
     1
290
     0
176
     1
 90
        1
176
     1
 40
0.0
176
     1
 90
        0
176
     1
290
     0
176
     1
290
     1
176
     1
290
     1
176
     1
290
     0
176
     1
290
     0
176
     1
290
     0
176
     1
290
     0
176
     1
290
     0
176
     1
290
     0
176
     1
 90
       50
176
     1
 40
0.0
176
     1
 40
1.0
176
     1
 90
        0
176
     1
 62
    18
420
        0
176
     1
 90
       50
176
     1
 90
        3
176
     1
 62
     5
420
      255
176
     1
290
     0
176
     1
 90
       50
176
     1
 90
       50
176
     1
 90
       50
176
     1
290
     0
176
     1
 90
       50
176
     1
 62
   256
176
     0
 40
1.0
176
     0
 90
        2
176
     1
  1
strokes_ogs.tif
176
     1
290
     0
176
     1
 40
1.0
176
     1
 40
1.0
176
     1
  0
VISUALSTYLE
  5
35
102
{ACAD_REACTORS
330
2A
102
}
330
2A
100
AcDbVisualStyle
  2
Dim
 70
    11
177
     3
291
     1
 70
    58
 90
        2
176
     1
 90
        2
176
     1
 90
        0
176
     1
 90
        0
176
     1
 40
0.6
176
     1
 40
30.0
176
     1
 62
     7
420
 16777215
176
     1
 90
        1
176
     1
 90
        4
176
     1
 62
     7
176
     1
 62
   257
176
     1
 90
        1
176
     1
 90
        1
176
     1
 40
1.0
176
     1
 90
        8
176
     1
 62
     7
176
     1
 40
1.0
176
     1
 90
        1
176
     1
 90
        6
176
     1
 90
        2
176
     1
 62
     7
176
     1
 90
        5
176
     1
 90
        0
176
     1
 90
        0
176
     1
290
     0
176
     1
 90
        1
176
     1
 40
-50.0
176
     1
 90
        0
176
     1
290
     0
176
     1
290
     1
176
     1
290
     1
176
     1
290
     0
176
     1
290
     0
176
     1
290
     0
176
     1
290
     0
176
     1
290
     0
176
     1
290
     0
176
     1
 90
       50
176
     1
 40
0.0
176
     1
 40
1.0
176
     1
 90
        0
176
     1
 62
    18
420
        0
176
     1
 90
       50
176
     1
 90
        3
176
     1
 62
     5
420
      255
176
     1
290
     0
176
     1
 90
       50
176
     1
 90
       50
176
     1
 90
       50
176
     1
290
     0
176
     1
 90
       50
176
     1
 62
   256
176
     0
 40
1.0
176
     0
 90
        2
176
     1
  1
strokes_ogs.tif
176
     1
290
     0
176
     1
 40
1.0
176
     1
 40
1.0
176
     1
  0
VISUALSTYLE
  5
3D
102
{ACAD_REACTORS
330
2A
102
}
330
2A
100
AcDbVisualStyle
  2
EdgeColorOff
 70
    22
177
     3
291
     1
 70
    58
 90
        2
176
     0
 90
        2
176
     0
 90
        0
176
     0
 90
        0
176
     0
 40
0.6
176
     0
 40
30.0
176
     0
 62
     7
420
 16777215
176
     0
 90
        1
176
     0
 90
        4
176
     0
 62
     7
176
     0
 62
   257
176
     0
 90
        1
176
     0
 90
        1
176
     0
 40
1.0
176
     0
 90
        8
176
     2
 62
     7
176
     0
 40
1.0
176
     0
 90
        1
176
     0
 90
        6
176
     0
 90
        2
176
     0
 62
     7
176
     0
 90
        5
176
     0
 90
        0
176
     0
 90
        0
176
     0
290
     0
176
     0
 90
        1
176
     0
 40
0.0
176
     0
 90
        0
176
     0
290
     0
176
     0
290
     1
176
     0
290
     1
176
     0
290
     0
176
     0
290
     0
176
     0
290
     0
176
     0
290
     0
176
     0
290
     0
176
     0
290
     0
176
     0
 90
       50
176
     0
 40
0.0
176
     0
 40
1.0
176
     0
 90
        0
176
     0
 62
    18
420
        0
176
     0
 90
       50
176
     0
 90
        3
176
     0
 62
     5
420
      255
176
     0
290
     0
176
     0
 90
       50
176
     0
 90
       50
176
     0
 90
       50
176
     0
290
     0
176
     0
 90
       50
176
     0
 62
   256
176
     0
 40
1.0
176
     0
 90
        2
176
     0
  1
strokes_ogs.tif
176
     0
290
     0
176
     0
 40
1.0
176
     0
 40
1.0
176
     0
  0
VISUALSTYLE
  5
39
102
{ACAD_REACTORS
330
2A
102
}
330
2A
100
AcDbVisualStyle
  2
Facepattern
 70
    15
177
     3
291
     1
 70
    58
 90
        2
176
     1
 90
        2
176
     1
 90
        0
176
     1
 90
        0
176
     1
 40
0.6
176
     1
 40
30.0
176
     1
 62
     7
420
 16777215
176
     1
 90
        1
176
     1
 90
        4
176
     1
 62
     7
176
     1
 62
   257
176
     1
 90
        1
176
     1
 90
        1
176
     1
 40
1.0
176
     1
 90
        8
176
     1
 62
     7
176
     1
 40
1.0
176
     1
 90
        1
176
     1
 90
        6
176
     1
 90
        2
176
     1
 62
     7
176
     1
 90
        5
176
     1
 90
        0
176
     1
 90
        0
176
     1
290
     0
176
     1
 90
        1
176
     1
 40
0.0
176
     1
 90
        0
176
     1
290
     0
176
     1
290
     1
176
     1
290
     1
176
     1
290
     0
176
     1
290
     0
176
     1
290
     0
176
     1
290
     0
176
     1
290
     0
176
     1
290
     0
176
     1
 90
       50
176
     1
 40
0.0
176
     1
 40
1.0
176
     1
 90
        0
176
     1
 62
    18
420
        0
176
     1
 90
       50
176
     1
 90
        3
176
     1
 62
     5
420
      255
176
     1
290
     0
176
     1
 90
       50
176
     1
 90
       50
176
     1
 90
       50
176
     1
290
     0
176
     1
 90
       50
176
     1
 62
   256
176
     0
 40
1.0
176
     0
 90
        2
176
     1
  1
strokes_ogs.tif
176
     1
290
     0
176
     1
 40
1.0
176
     1
 40
1.0
176
     1
  0
VISUALSTYLE
  5
2B
102
{ACAD_REACTORS
330
2A
102
}
330
2A
100
AcDbVisualStyle
  2
Flat
 70
     0
177
     3
291
     1
 70
    58
 90
        2
176
     1
 90
        1
176
     1
 90
        1
176
     1
 90
        2
176
     1
 40
0.6
176
     1
 40
30.0
176
     1
 62
     7
420
 16777215
176
     1
 90
        0
176
     1
 90
        0
176
     1
 62
     7
176
     1
 62
   257
176
     1
 90
        1
176
     1
 90
        1
176
     1
 40
1.0
176
     1
 90
        8
176
     1
 62
     7
176
     1
 40
1.0
176
     1
 90
        1
176
     1
 90
        6
176
     1
 90
        2
176
     1
 62
     7
176
     1
 90
        5
176
     1
 90
        0
176
     1
 90
        0
176
     1
290
     0
176
     1
 90
       13
176
     1
 40
0.0
176
     1
 90
        0
176
     1
290
     0
176
     1
290
     1
176
     1
290
     1
176
     1
290
     0
176
     1
290
     0
176
     1
290
     0
176
     1
290
     0
176
     1
290
     0
176
     1
290
     0
176
     1
 90
       50
176
     1
 40
0.0
176
     1
 40
1.0
176
     1
 90
        0
176
     1
 62
    18
420
        0
176
     1
 90
       50
176
     1
 90
        3
176
     1
 62
     5
420
      255
176
     1
290
     0
176
     1
 90
       50
176
     1
 90
       50
176
     1
 90
       50
176
     1
290
     0
176
     1
 90
       50
176
     1
 62
   256
176
     0
 40
1.0
176
     0
 90
        2
176
     1
  1
strokes_ogs.tif
176
     1
290
     0
176
     1
 40
1.0
176
     1
 40
1.0
176
     1
  0
VISUALSTYLE
  5
2C
102
{ACAD_REACTORS
330
2A
102
}
330
2A
100
AcDbVisualStyle
  2
FlatWithEdges
 70
     1
177
     3
291
     1
 70
    58
 90
        2
176
     1
 90
        1
176
     1
 90
        1
176
     1
 90
        2
176
     1
 40
0.6
176
     1
 40
30.0
176
     1
 62
     7
420
 16777215
176
     1
 90
        1
176
     1
 90
        0
176
     1
 62
     7
176
     1
 62
   257
176
     1
 90
        1
176
     1
 90
        1
176
     1
 40
1.0
176
     1
 90
        0
176
     1
 62
   257
176
     1
 40
1.0
176
     1
 90
        1
176
     1
 90
        6
176
     1
 90
        2
176
     1
 62
     7
176
     1
 90
        5
176
     1
 90
        0
176
     1
 90
        0
176
     1
290
     0
176
     1
 90
       13
176
     1
 40
0.0
176
     1
 90
        0
176
     1
290
     0
176
     1
290
     1
176
     1
290
     1
176
     1
290
     0
176
     1
290
     0
176
     1
290
     0
176
     1
290
     0
176
     1
290
     0
176
     1
290
     0
176
     1
 90
       50
176
     1
 40
0.0
176
     1
 40
1.0
176
     1
 90
        0
176
     1
 62
    18
420
        0
176
     1
 90
       50
176
     1
 90
        3
176
     1
 62
     5
420
      255
176
     1
290
     0
176
     1
 90
       50
176
     1
 90
       50
176
     1
 90
       50
176
     1
290
     0
176
     1
 90
       50
176
     1
 62
   256
176
     0
 40
1.0
176
     0
 90
        2
176
     1
  1
strokes_ogs.tif
176
     1
290
     0
176
     1
 40
1.0
176
     1
 40
1.0
176
     1
  0
VISUALSTYLE
  5
2D
102
{ACAD_REACTORS
330
2A
102
}
330
2A
100
AcDbVisualStyle
  2
Gouraud
 70
     2
177
     3
291
     1
 70
    58
 90
        2
176
     1
 90
        2
176
     1
 90
        1
176
     1
 90
        2
176
     1
 40
0.6
176
     1
 40
30.0
176
     1
 62
     7
420
 16777215
176
     1
 90
        0
176
     1
 90
        0
176
     1
 62
     7
176
     1
 62
   257
176
     1
 90
        1
176
     1
 90
        1
176
     1
 40
1.0
176
     1
 90
        0
176
     1
 62
     7
176
     1
 40
1.0
176
     1
 90
        1
176
     1
 90
        6
176
     1
 90
        2
176
     1
 62
     7
176
     1
 90
        5
176
     1
 90
        0
176
     1
 90
        0
176
     1
290
     0
176
     1
 90
       13
176
     1
 40
0.0
176
     1
 90
        0
176
     1
290
     0
176
     1
290
     1
176
     1
290
     1
176
     1
290
     0
176
     1
290
     0
176
     1
290
     0
176
     1
290
     0
176
     1
290
     0
176
     1
290
     0
176
     1
 90
       50
176
     1
 40
0.0
176
     1
 40
1.0
176
     1
 90
        0
176
     1
 62
    18
420
        0
176
     1
 90
       50
176
     1
 90
        3
176
     1
 62
     5
420
      255
176
     1
290
     0
176
     1
 90
       50
176
     1
 90
       50
176
     1
 90
       50
176
     1
290
     0
176
     1
 90
       50
176
     1
 62
   256
176
     0
 40
1.0
176
     0
 90
        2
176
     1
  1
strokes_ogs.tif
176
     1
290
     0
176
     1
 40
1.0
176
     1
 40
1.0
176
     1
  0
VISUALSTYLE
  5
2E
102
{ACAD_REACTORS
330
2A
102
}
330
2A
100
AcDbVisualStyle
  2
GouraudWithEdges
 70
     3
177
     3
291
     1
 70
    58
 90
        2
176
     1
 90
        2
176
     1
 90
        1
176
     1
 90
        2
176
     1
 40
0.6
176
     1
 40
30.0
176
     1
 62
     7
420
 16777215
176
     1
 90
        1
176
     1
 90
        0
176
     1
 62
     7
176
     1
 62
   257
176
     1
 90
        1
176
     1
 90
        1
176
     1
 40
1.0
176
     1
 90
        0
176
     1
 62
   257
176
     1
 40
1.0
176
     1
 90
        1
176
     1
 90
        6
176
     1
 90
        2
176
     1
 62
     7
176
     1
 90
        5
176
     1
 90
        0
176
     1
 90
        0
176
     1
290
     0
176
     1
 90
       13
176
     1
 40
0.0
176
     1
 90
        0
176
     1
290
     0
176
     1
290
     1
176
     1
290
     1
176
     1
290
     0
176
     1
290
     0
176
     1
290
     0
176
     1
290
     0
176
     1
290
     0
176
     1
290
     0
176
     1
 90
       50
176
     1
 40
0.0
176
     1
 40
1.0
176
     1
 90
        0
176
     1
 62
    18
420
        0
176
     1
 90
       50
176
     1
 90
        3
176
     1
 62
     5
420
      255
176
     1
290
     0
176
     1
 90
       50
176
     1
 90
       50
176
     1
 90
       50
176
     1
290
     0
176
     1
 90
       50
176
     1
 62
   256
176
     0
 40
1.0
176
     0
 90
        2
176
     1
  1
strokes_ogs.tif
176
     1
290
     0
176
     1
 40
1.0
176
     1
 40
1.0
176
     1
  0
VISUALSTYLE
  5
31
102
{ACAD_REACTORS
330
2A
102
}
330
2A
100
AcDbVisualStyle
  2
Hidden
 70
     6
177
     3
291
     0
 70
    58
 90
        1
176
     1
 90
        2
176
     1
 90
        2
176
     1
 90
        0
176
     1
 40
0.6
176
     1
 40
30.0
176
     1
 62
     7
420
 16777215
176
     1
 90
        2
176
     1
 90
        2
176
     1
 62
     7
176
     1
 62
   257
176
     1
 90
        2
176
     1
 90
        1
176
     1
 40
40.0
176
     1
 90
        0
176
     1
 62
   257
176
     1
 40
1.0
176
     1
 90
        1
176
     1
 90
        6
176
     1
 90
        2
176
     1
 62
     7
176
     1
 90
        3
176
     1
 90
        0
176
     1
 90
        0
176
     1
290
     0
176
     1
 90
        1
176
     1
 40
0.0
176
     1
 90
        0
176
     1
290
     0
176
     1
290
     1
176
     1
290
     1
176
     1
290
     0
176
     1
290
     0
176
     1
290
     0
176
     1
290
     0
176
     1
290
     0
176
     1
290
     0
176
     1
 90
       50
176
     1
 40
0.0
176
     1
 40
1.0
176
     1
 90
        0
176
     1
 62
    18
420
        0
176
     1
 90
       50
176
     1
 90
        3
176
     1
 62
     5
420
      255
176
     1
290
     0
176
     1
 90
       50
176
     1
 90
       50
176
     1
 90
       50
176
     1
290
     0
176
     1
 90
       50
176
     1
 62
   256
176
     0
 40
1.0
176
     0
 90
        2
176
     1
  1
strokes_ogs.tif
176
     1
290
     0
176
     1
 40
1.0
176
     1
 40
1.0
176
     1
  0
VISUALSTYLE
  5
3B
102
{ACAD_REACTORS
330
2A
102
}
330
2A
100
AcDbVisualStyle
  2
JitterOff
 70
    20
177
     3
291
     1
 70
    58
 90
        2
176
     0
 90
        2
176
     0
 90
        0
176
     0
 90
        0
176
     0
 40
0.6
176
     0
 40
30.0
176
     0
 62
     7
420
 16777215
176
     0
 90
        1
176
     0
 90
        4
176
     0
 62
     7
176
     0
 62
   257
176
     0
 90
        1
176
     0
 90
        1
176
     0
 40
1.0
176
     0
 90
       10
176
     2
 62
     7
176
     0
 40
1.0
176
     0
 90
        1
176
     0
 90
        6
176
     0
 90
        2
176
     0
 62
     7
176
     0
 90
        5
176
     0
 90
        0
176
     0
 90
        0
176
     0
290
     0
176
     0
 90
        1
176
     0
 40
0.0
176
     0
 90
        0
176
     0
290
     0
176
     0
290
     1
176
     0
290
     1
176
     0
290
     0
176
     0
290
     0
176
     0
290
     0
176
     0
290
     0
176
     0
290
     0
176
     0
290
     0
176
     0
 90
       50
176
     0
 40
0.0
176
     0
 40
1.0
176
     0
 90
        0
176
     0
 62
    18
420
        0
176
     0
 90
       50
176
     0
 90
        3
176
     0
 62
     5
420
      255
176
     0
290
     0
176
     0
 90
       50
176
     0
 90
       50
176
     0
 90
       50
176
     0
290
     0
176
     0
 90
       50
176
     0
 62
   256
176
     0
 40
1.0
176
     0
 90
        2
176
     0
  1
strokes_ogs.tif
176
     0
290
     0
176
     0
 40
1.0
176
     0
 40
1.0
176
     0
  0
VISUALSTYLE
  5
38
102
{ACAD_REACTORS
330
2A
102
}
330
2A
100
AcDbVisualStyle
  2
Linepattern
 70
    14
177
     3
291
     1
 70
    58
 90
        2
176
     1
 90
        2
176
     1
 90
        0
176
     1
 90
        0
176
     1
 40
0.6
176
     1
 40
30.0
176
     1
 62
     7
420
 16777215
176
     1
 90
        1
176
     1
 90
        4
176
     1
 62
     7
176
     1
 62
   257
176
     1
 90
        7
176
     1
 90
        7
176
     1
 40
1.0
176
     1
 90
        8
176
     1
 62
     7
176
     1
 40
1.0
176
     1
 90
        1
176
     1
 90
        6
176
     1
 90
        2
176
     1
 62
     7
176
     1
 90
        5
176
     1
 90
        0
176
     1
 90
        0
176
     1
290
     0
176
     1
 90
        1
176
     1
 40
0.0
176
     1
 90
        0
176
     1
290
     0
176
     1
290
     1
176
     1
290
     1
176
     1
290
     0
176
     1
290
     0
176
     1
290
     0
176
     1
290
     0
176
     1
290
     0
176
     1
290
     0
176
     1
 90
       50
176
     1
 40
0.0
176
     1
 40
1.0
176
     1
 90
        0
176
     1
 62
    18
420
        0
176
     1
 90
       50
176
     1
 90
        3
176
     1
 62
     5
420
      255
176
     1
290
     0
176
     1
 90
       50
176
     1
 90
       50
176
     1
 90
       50
176
     1
290
     0
176
     1
 90
       50
176
     1
 62
   256
176
     0
 40
1.0
176
     0
 90
        2
176
     1
  1
strokes_ogs.tif
176
     1
290
     0
176
     1
 40
1.0
176
     1
 40
1.0
176
     1
  0
VISUALSTYLE
  5
3C
102
{ACAD_REACTORS
330
2A
102
}
330
2A
100
AcDbVisualStyle
  2
OverhangOff
 70
    21
177
     3
291
     1
 70
    58
 90
        2
176
     0
 90
        2
176
     0
 90
        0
176
     0
 90
        0
176
     0
 40
0.6
176
     0
 40
30.0
176
     0
 62
     7
420
 16777215
176
     0
 90
        1
176
     0
 90
        4
176
     0
 62
     7
176
     0
 62
   257
176
     0
 90
        1
176
     0
 90
        1
176
     0
 40
1.0
176
     0
 90
        9
176
     2
 62
     7
176
     0
 40
1.0
176
     0
 90
        1
176
     0
 90
        6
176
     0
 90
        2
176
     0
 62
     7
176
     0
 90
        5
176
     0
 90
        0
176
     0
 90
        0
176
     0
290
     0
176
     0
 90
        1
176
     0
 40
0.0
176
     0
 90
        0
176
     0
290
     0
176
     0
290
     1
176
     0
290
     1
176
     0
290
     0
176
     0
290
     0
176
     0
290
     0
176
     0
290
     0
176
     0
290
     0
176
     0
290
     0
176
     0
 90
       50
176
     0
 40
0.0
176
     0
 40
1.0
176
     0
 90
        0
176
     0
 62
    18
420
        0
176
     0
 90
       50
176
     0
 90
        3
176
     0
 62
     5
420
      255
176
     0
290
     0
176
     0
 90
       50
176
     0
 90
       50
176
     0
 90
       50
176
     0
290
     0
176
     0
 90
       50
176
     0
 62
   256
176
     0
 40
1.0
176
     0
 90
        2
176
     0
  1
strokes_ogs.tif
176
     0
290
     0
176
     0
 40
1.0
176
     0
 40
1.0
176
     0
  0
VISUALSTYLE
  5
33
102
{ACAD_REACTORS
330
2A
102
}
330
2A
100
AcDbVisualStyle
  2
Realistic
 70
     8
177
     3
291
     0
 70
    58
 90
        2
176
     1
 90
        3
176
     1
 90
        0
176
     1
 90
        2
176
     1
 40
0.6
176
     1
 40
30.0
176
     1
 62
     7
420
 16777215
176
     1
 90
        0
176
     1
 90
        0
176
     1
 62
     7
176
     1
 62
   257
176
     1
 90
        1
176
     1
 90
        1
176
     1
 40
1.0
176
     1
 90
        8
176
     1
 62
   257
176
     1
 40
1.0
176
     1
 90
        1
176
     1
 90
        6
176
     1
 90
        2
176
     1
 62
     7
176
     1
 90
        3
176
     1
 90
        0
176
     1
 90
        0
176
     1
290
     0
176
     1
 90
       13
176
     1
 40
0.0
176
     1
 90
        0
176
     1
290
     0
176
     1
290
     1
176
     1
290
     1
176
     1
290
     0
176
     1
290
     0
176
     1
290
     0
176
     1
290
     0
176
     1
290
     0
176
     1
290
     0
176
     1
 90
       50
176
     1
 40
0.0
176
     1
 40
1.0
176
     1
 90
        0
176
     1
 62
    18
420
        0
176
     1
 90
       50
176
     1
 90
        3
176
     1
 62
     5
420
      255
176
     1
290
     0
176
     1
 90
       50
176
     1
 90
       50
176
     1
 90
       50
176
     1
290
     0
176
     1
 90
       50
176
     1
 62
   256
176
     0
 40
1.0
176
     0
 90
        2
176
     1
  1
strokes_ogs.tif
176
     1
290
     0
176
     1
 40
1.0
176
     1
 40
1.0
176
     1
  0
VISUALSTYLE
  5
42
102
{ACAD_REACTORS
330
2A
102
}
330
2A
100
AcDbVisualStyle
  2
Shaded
 70
    27
177
     3
291
     0
 70
    58
 90
        2
176
     1
 90
        2
176
     1
 90
        1
176
     1
 90
        2
176
     1
 40
0.6
176
     1
 40
30.0
176
     1
 62
     7
420
 16777215
176
     1
 90
        0
176
     1
 90
        4
176
     1
 62
     7
176
     1
 62
   257
176
     1
 90
        1
176
     1
 90
        1
176
     1
 40
1.0
176
     1
 90
        8
176
     1
 62
   257
176
     1
 40
1.0
176
     1
 90
        1
176
     1
 90
        6
176
     1
 90
        2
176
     1
 62
     8
420
  7895160
176
     1
 90
        3
176
     1
 90
        0
176
     1
 90
        0
176
     1
290
     0
176
     1
 90
        5
176
     1
 40
0.0
176
     1
 90
        0
176
     1
290
     0
176
     1
290
     1
176
     1
290
     1
176
     1
290
     0
176
     1
290
     0
176
     1
290
     0
176
     1
290
     0
176
     1
290
     0
176
     1
290
     0
176
     1
 90
       50
176
     1
 40
0.0
176
     1
 40
1.0
176
     1
 90
        0
176
     1
 62
    18
420
        0
176
     1
 90
       50
176
     1
 90
        3
176
     1
 62
     5
420
      255
176
     1
290
     0
176
     1
 90
       50
176
     1
 90
       50
176
     1
 90
       50
176
     1
290
     0
176
     1
 90
       50
176
     1
 62
   256
176
     0
 40
1.0
176
     0
 90
        2
176
     1
  1
strokes_ogs.tif
176
     1
290
     0
176
     1
 40
1.0
176
     1
 40
1.0
176
     1
  0
VISUALSTYLE
  5
41
102
{ACAD_REACTORS
330
2A
102
}
330
2A
100
AcDbVisualStyle
  2
Shaded with edges
 70
    26
177
     3
291
     0
 70
    58
 90
        2
176
     1
 90
        2
176
     1
 90
        1
176
     1
 90
        2
176
     1
 40
0.6
176
     1
 40
30.0
176
     1
 62
     7
420
 16777215
176
     1
 90
        1
176
     1
 90
       10
176
     1
 62
     7
176
     1
 62
   257
176
     1
 90
        2
176
     1
 90
        1
176
     1
 40
1.0
176
     1
 90
        8
176
     1
 62
   257
176
     1
 40
1.0
176
     1
 90
        1
176
     1
 90
        6
176
     1
 90
        2
176
     1
 62
     7
176
     1
 90
        3
176
     1
 90
        0
176
     1
 90
        0
176
     1
290
     0
176
     1
 90
        5
176
     1
 40
0.0
176
     1
 90
        0
176
     1
290
     0
176
     1
290
     1
176
     1
290
     1
176
     1
290
     0
176
     1
290
     0
176
     1
290
     0
176
     1
290
     0
176
     1
290
     0
176
     1
290
     0
176
     1
 90
       50
176
     1
 40
0.0
176
     1
 40
1.0
176
     1
 90
        0
176
     1
 62
    18
420
        0
176
     1
 90
       50
176
     1
 90
        3
176
     1
 62
     5
420
      255
176
     1
290
     0
176
     1
 90
       50
176
     1
 90
       50
176
     1
 90
       50
176
     1
290
     0
176
     1
 90
       50
176
     1
 62
   256
176
     0
 40
1.0
176
     0
 90
        2
176
     1
  1
strokes_ogs.tif
176
     1
290
     0
176
     1
 40
1.0
176
     1
 40
1.0
176
     1
  0
VISUALSTYLE
  5
3E
102
{ACAD_REACTORS
330
2A
102
}
330
2A
100
AcDbVisualStyle
  2
Shades of Gray
 70
    23
177
     3
291
     0
 70
    58
 90
        2
176
     1
 90
        2
176
     1
 90
        3
176
     1
 90
        0
176
     1
 40
0.6
176
     1
 40
30.0
176
     1
 62
     7
420
 16777215
176
     1
 90
        2
176
     1
 90
        2
176
     1
 62
     7
176
     1
 62
     7
176
     1
 90
        1
176
     1
 90
        1
176
     1
 40
40.0
176
     1
 90
        8
176
     1
 62
     7
176
     1
 40
1.0
176
     1
 90
        1
176
     1
 90
        6
176
     1
 90
        2
176
     1
 62
     7
176
     1
 90
        3
176
     1
 90
        0
176
     1
 90
        0
176
     1
290
     0
176
     1
 90
        1
176
     1
 40
0.0
176
     1
 90
        0
176
     1
290
     0
176
     1
290
     1
176
     1
290
     1
176
     1
290
     0
176
     1
290
     0
176
     1
290
     0
176
     1
290
     0
176
     1
290
     0
176
     1
290
     0
176
     1
 90
       50
176
     1
 40
0.0
176
     1
 40
1.0
176
     1
 90
        0
176
     1
 62
    18
420
        0
176
     1
 90
       50
176
     1
 90
        3
176
     1
 62
     5
420
      255
176
     1
290
     0
176
     1
 90
       50
176
     1
 90
       50
176
     1
 90
       50
176
     1
290
     0
176
     1
 90
       50
176
     1
 62
   256
176
     0
 40
1.0
176
     0
 90
        2
176
     1
  1
strokes_ogs.tif
176
     1
290
     0
176
     1
 40
1.0
176
     1
 40
1.0
176
     1
  0
VISUALSTYLE
  5
3F
102
{ACAD_REACTORS
330
2A
102
}
330
2A
100
AcDbVisualStyle
  2
Sketchy
 70
    24
177
     3
291
     0
 70
    58
 90
        1
176
     1
 90
        2
176
     1
 90
        2
176
     1
 90
        0
176
     1
 40
0.6
176
     1
 40
30.0
176
     1
 62
     7
420
 16777215
176
     1
 90
        2
176
     1
 90
        2
176
     1
 62
     7
176
     1
 62
     7
176
     1
 90
        1
176
     1
 90
        1
176
     1
 40
40.0
176
     1
 90
       11
176
     1
 62
     7
176
     1
 40
1.0
176
     1
 90
        1
176
     1
 90
        6
176
     1
 90
        2
176
     1
 62
     7
176
     1
 90
        6
176
     1
 90
        0
176
     1
 90
        0
176
     1
290
     0
176
     1
 90
        1
176
     1
 40
0.0
176
     1
 90
        0
176
     1
290
     0
176
     1
290
     1
176
     1
290
     1
176
     1
290
     0
176
     1
290
     0
176
     1
290
     0
176
     1
290
     0
176
     1
290
     0
176
     1
290
     0
176
     1
 90
       50
176
     1
 40
0.0
176
     1
 40
1.0
176
     1
 90
        0
176
     1
 62
    18
420
        0
176
     1
 90
       50
176
     1
 90
        3
176
     1
 62
     5
420
      255
176
     1
290
     0
176
     1
 90
       50
176
     1
 90
       50
176
     1
 90
       50
176
     1
290
     0
176
     1
 90
       50
176
     1
 62
   256
176
     0
 40
1.0
176
     0
 90
        2
176
     1
  1
strokes_ogs.tif
176
     1
290
     0
176
     1
 40
1.0
176
     1
 40
1.0
176
     1
  0
VISUALSTYLE
  5
37
102
{ACAD_REACTORS
330
2A
102
}
330
2A
100
AcDbVisualStyle
  2
Thicken
 70
    13
177
     3
291
     1
 70
    58
 90
        2
176
     1
 90
        2
176
     1
 90
        0
176
     1
 90
        0
176
     1
 40
0.6
176
     1
 40
30.0
176
     1
 62
     7
420
 16777215
176
     1
 90
        1
176
     1
 90
        4
176
     1
 62
     7
176
     1
 62
   257
176
     1
 90
        1
176
     1
 90
        1
176
     1
 40
1.0
176
     1
 90
       12
176
     1
 62
     7
176
     1
 40
1.0
176
     1
 90
        1
176
     1
 90
        6
176
     1
 90
        2
176
     1
 62
     7
176
     1
 90
        5
176
     1
 90
        0
176
     1
 90
        0
176
     1
290
     0
176
     1
 90
        1
176
     1
 40
0.0
176
     1
 90
        0
176
     1
290
     0
176
     1
290
     1
176
     1
290
     1
176
     1
290
     0
176
     1
290
     0
176
     1
290
     0
176
     1
290
     0
176
     1
290
     0
176
     1
290
     0
176
     1
 90
       50
176
     1
 40
0.0
176
     1
 40
1.0
176
     1
 90
        0
176
     1
 62
    18
420
        0
176
     1
 90
       50
176
     1
 90
        3
176
     1
 62
     5
420
      255
176
     1
290
     0
176
     1
 90
       50
176
     1
 90
       50
176
     1
 90
       50
176
     1
290
     0
176
     1
 90
       50
176
     1
 62
   256
176
     0
 40
1.0
176
     0
 90
        2
176
     1
  1
strokes_ogs.tif
176
     1
290
     0
176
     1
 40
1.0
176
     1
 40
1.0
176
     1
  0
VISUALSTYLE
  5
30
102
{ACAD_REACTORS
330
2A
102
}
330
2A
100
AcDbVisualStyle
  2
Wireframe
 70
     5
177
     3
291
     0
 70
    58
 90
        0
176
     1
 90
        2
176
     1
 90
        0
176
     1
 90
        0
176
     1
 40
0.6
176
     1
 40
30.0
176
     1
 62
     7
420
 16777215
176
     1
 90
        1
176
     1
 90
        4
176
     1
 62
     7
176
     1
 62
   257
176
     1
 90
        1
176
     1
 90
        1
176
     1
 40
1.0
176
     1
 90
        0
176
     1
 62
   257
176
     1
 40
1.0
176
     1
 90
        1
176
     1
 90
        6
176
     1
 90
        2
176
     1
 62
     7
176
     1
 90
        3
176
     1
 90
        0
176
     1
 90
        0
176
     1
290
     0
176
     1
 90
        1
176
     1
 40
0.0
176
     1
 90
        0
176
     1
290
     0
176
     1
290
     1
176
     1
290
     1
176
     1
290
     0
176
     1
290
     0
176
     1
290
     0
176
     1
290
     0
176
     1
290
     0
176
     1
290
     0
176
     1
 90
       50
176
     1
 40
0.0
176
     1
 40
1.0
176
     1
 90
        0
176
     1
 62
    18
420
        0
176
     1
 90
       50
176
     1
 90
        3
176
     1
 62
     5
420
      255
176
     1
290
     0
176
     1
 90
       50
176
     1
 90
       50
176
     1
 90
       50
176
     1
290
     0
176
     1
 90
       50
176
     1
 62
   256
176
     0
 40
1.0
176
     0
 90
        2
176
     1
  1
strokes_ogs.tif
176
     1
290
     0
176
     1
 40
1.0
176
     1
 40
1.0
176
     1
  0
VISUALSTYLE
  5
40
102
{ACAD_REACTORS
330
2A
102
}
330
2A
100
AcDbVisualStyle
  2
X-Ray
 70
    25
177
     3
291
     0
 70
    58
 90
        2
176
     1
 90
        2
176
     1
 90
        1
176
     1
 90
        1
176
     1
 40
0.5
176
     1
 40
30.0
176
     1
 62
     7
420
 16777215
176
     1
 90
        1
176
     1
 90
        0
176
     1
 62
     7
176
     1
 62
   257
176
     1
 90
        1
176
     1
 90
        1
176
     1
 40
1.0
176
     1
 90
        8
176
     1
 62
     7
176
     1
 40
1.0
176
     1
 90
        1
176
     1
 90
        6
176
     1
 90
        2
176
     1
 62
     7
176
     1
 90
        3
176
     1
 90
        0
176
     1
 90
        0
176
     1
290
     0
176
     1
 90
       13
176
     1
 40
0.0
176
     1
 90
        0
176
     1
290
     0
176
     1
290
     1
176
     1
290
     1
176
     1
290
     0
176
     1
290
     0
176
     1
290
     0
176
     1
290
     0
176
     1
290
     0
176
     1
290
     0
176
     1
 90
       50
176
     1
 40
0.0
176
     1
 40
1.0
176
     1
 90
        0
176
     1
 62
    18
420
        0
176
     1
 90
       50
176
     1
 90
        3
176
     1
 62
     5
420
      255
176
     1
290
     0
176
     1
 90
       50
176
     1
 90
       50
176
     1
 90
       50
176
     1
290
     0
176
     1
 90
       50
176
     1
 62
   256
176
     0
 40
1.0
176
     0
 90
        2
176
     1
  1
strokes_ogs.tif
176
     1
290
     0
176
     1
 40
1.0
176
     1
 40
1.0
176
     1
  0
DICTIONARYVAR
  5
1C4
102
{ACAD_REACTORS
330
1C3
102
}
330
1C3
100
DictionaryVariables
280
     0
  1
1:1
  0
DICTIONARYVAR
  5
1C9
102
{ACAD_REACTORS
330
1C3
102
}
330
1C3
100
DictionaryVariables
280
     0
  1
Standard
  0
DICTIONARYVAR
  5
1C8
102
{ACAD_REACTORS
330
1C3
102
}
330
1C3
100
DictionaryVariables
280
     0
  1
Standard
  0
DICTIONARY
  5
1C5
330
6A
100
AcDbDictionary
280
     1
281
     1
  3
ACAD_ROUNDTRIP_2008_TABLESTYLE_CELLSTYLEMAP
360
1C6
  0
CELLSTYLEMAP
  5
1C6
102
{ACAD_REACTORS
330
1C5
102
}
330
1C5
100
AcDbCellStyleMap
 90
        3
300
CELLSTYLE
  1
TABLEFORMAT_BEGIN
 90
        5
170
     1
 91
        0
 92
    32768
 62
   257
 93
        1
300
CONTENTFORMAT
  1
CONTENTFORMAT_BEGIN
 90
        0
 91
        0
 92
        4
 93
        0
300

 40
0.0
140
1.0
 94
        5
 62
     0
340
11
144
0.25
309
CONTENTFORMAT_END
171
     1
301
MARGIN
  1
CELLMARGIN_BEGIN
 40
0.06
 40
0.06
 40
0.06
 40
0.06
 40
0.06
 40
0.06
309
CELLMARGIN_END
 94
        6
 95
        1
302
GRIDFORMAT
  1
GRIDFORMAT_BEGIN
 90
        0
 91
        1
 62
     0
 92
       -2
340
14
 93
        0
 40
0.045
309
GRIDFORMAT_END
 95
        2
302
GRIDFORMAT
  1
GRIDFORMAT_BEGIN
 90
        0
 91
        1
 62
     0
 92
       -2
340
14
 93
        0
 40
0.045
309
GRIDFORMAT_END
 95
        4
302
GRIDFORMAT
  1
GRIDFORMAT_BEGIN
 90
        0
 91
        1
 62
     0
 92
       -2
340
14
 93
        0
 40
0.045
309
GRIDFORMAT_END
 95
        8
302
GRIDFORMAT
  1
GRIDFORMAT_BEGIN
 90
        0
 91
        1
 62
     0
 92
       -2
340
14
 93
        0
 40
0.045
309
GRIDFORMAT_END
 95
       16
302
GRIDFORMAT
  1
GRIDFORMAT_BEGIN
 90
        0
 91
        1
 62
     0
 92
       -2
340
14
 93
        0
 40
0.045
309
GRIDFORMAT_END
 95
       32
302
GRIDFORMAT
  1
GRIDFORMAT_BEGIN
 90
        0
 91
        1
 62
     0
 92
       -2
340
14
 93
        0
 40
0.045
309
GRIDFORMAT_END
309
TABLEFORMAT_END
  1
CELLSTYLE_BEGIN
 90
        1
 91
        1
300
_TITLE
309
CELLSTYLE_END
300
CELLSTYLE
  1
TABLEFORMAT_BEGIN
 90
        5
170
     1
 91
        0
 92
        0
 62
   257
 93
        1
300
CONTENTFORMAT
  1
CONTENTFORMAT_BEGIN
 90
        0
 91
        0
 92
        4
 93
        0
300

 40
0.0
140
1.0
 94
        5
 62
     0
340
11
144
0.18
309
CONTENTFORMAT_END
171
     1
301
MARGIN
  1
CELLMARGIN_BEGIN
 40
0.06
 40
0.06
 40
0.06
 40
0.06
 40
0.06
 40
0.06
309
CELLMARGIN_END
 94
        6
 95
        1
302
GRIDFORMAT
  1
GRIDFORMAT_BEGIN
 90
        0
 91
        1
 62
     0
 92
       -2
340
14
 93
        0
 40
0.045
309
GRIDFORMAT_END
 95
        2
302
GRIDFORMAT
  1
GRIDFORMAT_BEGIN
 90
        0
 91
        1
 62
     0
 92
       -2
340
14
 93
        0
 40
0.045
309
GRIDFORMAT_END
 95
        4
302
GRIDFORMAT
  1
GRIDFORMAT_BEGIN
 90
        0
 91
        1
 62
     0
 92
       -2
340
14
 93
        0
 40
0.045
309
GRIDFORMAT_END
 95
        8
302
GRIDFORMAT
  1
GRIDFORMAT_BEGIN
 90
        0
 91
        1
 62
     0
 92
       -2
340
14
 93
        0
 40
0.045
309
GRIDFORMAT_END
 95
       16
302
GRIDFORMAT
  1
GRIDFORMAT_BEGIN
 90
        0
 91
        1
 62
     0
 92
       -2
340
14
 93
        0
 40
0.045
309
GRIDFORMAT_END
 95
       32
302
GRIDFORMAT
  1
GRIDFORMAT_BEGIN
 90
        0
 91
        1
 62
     0
 92
       -2
340
14
 93
        0
 40
0.045
309
GRIDFORMAT_END
309
TABLEFORMAT_END
  1
CELLSTYLE_BEGIN
 90
        2
 91
        1
300
_HEADER
309
CELLSTYLE_END
300
CELLSTYLE
  1
TABLEFORMAT_BEGIN
 90
        5
170
     1
 91
        0
 92
        0
 62
   257
 93
        1
300
CONTENTFORMAT
  1
CONTENTFORMAT_BEGIN
 90
        0
 91
        0
 92
        4
 93
        0
300

 40
0.0
140
1.0
 94
        2
 62
     0
340
11
144
0.18
309
CONTENTFORMAT_END
171
     1
301
MARGIN
  1
CELLMARGIN_BEGIN
 40
0.06
 40
0.06
 40
0.06
 40
0.06
 40
0.06
 40
0.06
309
CELLMARGIN_END
 94
        6
 95
        1
302
GRIDFORMAT
  1
GRIDFORMAT_BEGIN
 90
        0
 91
        1
 62
     0
 92
       -2
340
14
 93
        0
 40
0.045
309
GRIDFORMAT_END
 95
        2
302
GRIDFORMAT
  1
GRIDFORMAT_BEGIN
 90
        0
 91
        1
 62
     0
 92
       -2
340
14
 93
        0
 40
0.045
309
GRIDFORMAT_END
 95
        4
302
GRIDFORMAT
  1
GRIDFORMAT_BEGIN
 90
        0
 91
        1
 62
     0
 92
       -2
340
14
 93
        0
 40
0.045
309
GRIDFORMAT_END
 95
        8
302
GRIDFORMAT
  1
GRIDFORMAT_BEGIN
 90
        0
 91
        1
 62
     0
 92
       -2
340
14
 93
        0
 40
0.045
309
GRIDFORMAT_END
 95
       16
302
GRIDFORMAT
  1
GRIDFORMAT_BEGIN
 90
        0
 91
        1
 62
     0
 92
       -2
340
14
 93
        0
 40
0.045
309
GRIDFORMAT_END
 95
       32
302
GRIDFORMAT
  1
GRIDFORMAT_BEGIN
 90
        0
 91
        1
 62
     0
 92
       -2
340
14
 93
        0
 40
0.045
309
GRIDFORMAT_END
309
TABLEFORMAT_END
  1
CELLSTYLE_BEGIN
 90
        3
 91
        2
300
_DATA
309
CELLSTYLE_END
  0
ENDSEC
  0
EOF