0
SECTION
  2
HEADER
  9
$ACADVER
  1
AC1027
  9
$ACADMAINTVER
 70
     8
  9
$DWGCODEPAGE
  3
ANSI_1252
  9
$REQUIREDVERSIONS
160
                 0
  9
$COMMENTS
  1
File was created by Cadenas
  9
$CUSTOMPROPERTYTAG
  1
NN
  9
$CUSTOMPROPERTY
  1
Set Screw Two-Bolt Flange Inch Bore
  9
$CUSTOMPROPERTYTAG
  1
NT
  9
$CUSTOMPROPERTY
  1
SC 2 Bolt Flange Bearings -(Normal Duty)
  9
$CUSTOMPROPERTYTAG
  1
NB
  9
$CUSTOMPROPERTY
  1
052011
  9
$CUSTOMPROPERTYTAG
  1
NBSYN
  9
$CUSTOMPROPERTY
  1
$PN.
  9
$CUSTOMPROPERTYTAG
  1
LINA
  9
$CUSTOMPROPERTY
  1
052011
  9
$CUSTOMPROPERTYTAG
  1
SERIES
  9
$CUSTOMPROPERTY
  1
208
  9
$CUSTOMPROPERTYTAG
  1
SS
  9
$CUSTOMPROPERTY
  1
1-1/2
  9
$CUSTOMPROPERTYTAG
  1
PN
  9
$CUSTOMPROPERTY
  1
052011
  9
$CUSTOMPROPERTYTAG
  1
DESCRIPTION
  9
$CUSTOMPROPERTY
  1
F2B-SC-108-NL
  9
$CUSTOMPROPERTYTAG
  1
W
  9
$CUSTOMPROPERTY
  1
4.1
  9
$CUSTOMPROPERTYTAG
  1
LF
  9
$CUSTOMPROPERTY
  1
NO-LUBE
  9
$CUSTOMPROPERTYTAG
  1
A
  9
$CUSTOMPROPERTY
  1
1.94
  9
$CUSTOMPROPERTYTAG
  1
B
  9
$CUSTOMPROPERTY
  1
6.75
  9
$CUSTOMPROPERTYTAG
  1
C
  9
$CUSTOMPROPERTY
  1
1.97
  9
$CUSTOMPROPERTYTAG
  1
D
  9
$CUSTOMPROPERTY
  1
5.66
  9
$CUSTOMPROPERTYTAG
  1
F
  9
$CUSTOMPROPERTY
  1
1/2
  9
$CUSTOMPROPERTYTAG
  1
H
  9
$CUSTOMPROPERTY
  1
0.56
  9
$CUSTOMPROPERTYTAG
  1
J
  9
$CUSTOMPROPERTY
  1
0.63
  9
$CUSTOMPROPERTYTAG
  1
L
  9
$CUSTOMPROPERTY
  1
2.05
  9
$CUSTOMPROPERTYTAG
  1
M
  9
$CUSTOMPROPERTY
  1
4.13
  9
$CUSTOMPROPERTYTAG
  1
N
  9
$CUSTOMPROPERTY
  1
1.83
  9
$CUSTOMPROPERTYTAG
  1
COMPANY
  9
$CUSTOMPROPERTY
  1
baldor
  9
$INSBASE
 10
0.0
 20
0.0
 30
0.0
  9
$EXTMIN
 10
1.000000000000000E+20
 20
1.000000000000000E+20
 30
1.000000000000000E+20
  9
$EXTMAX
 10
-1.000000000000000E+20
 20
-1.000000000000000E+20
 30
-1.000000000000000E+20
  9
$LIMMIN
 10
0.0
 20
0.0
  9
$LIMMAX
 10
12.0
 20
9.0
  9
$ORTHOMODE
 70
     0
  9
$REGENMODE
 70
     1
  9
$FILLMODE
 70
     1
  9
$QTEXTMODE
 70
     0
  9
$MIRRTEXT
 70
     1
  9
$LTSCALE
 40
1.0
  9
$ATTMODE
 70
     1
  9
$TEXTSIZE
 40
0.2
  9
$TRACEWID
 40
0.05
  9
$TEXTSTYLE
  7
Standard
  9
$CLAYER
  8
0
  9
$CELTYPE
  6
ByLayer
  9
$CECOLOR
 62
   256
  9
$CELTSCALE
 40
1.0
  9
$DISPSILH
 70
     0
  9
$DIMSCALE
 40
1.0
  9
$DIMASZ
 40
0.18
  9
$DIMEXO
 40
0.0625
  9
$DIMDLI
 40
0.38
  9
$DIMRND
 40
0.0
  9
$DIMDLE
 40
0.0
  9
$DIMEXE
 40
0.18
  9
$DIMTP
 40
0.0
  9
$DIMTM
 40
0.0
  9
$DIMTXT
 40
0.18
  9
$DIMCEN
 40
0.09
  9
$DIMTSZ
 40
0.0
  9
$DIMTOL
 70
     0
  9
$DIMLIM
 70
     0
  9
$DIMTIH
 70
     1
  9
$DIMTOH
 70
     1
  9
$DIMSE1
 70
     0
  9
$DIMSE2
 70
     0
  9
$DIMTAD
 70
     0
  9
$DIMZIN
 70
     0
  9
$DIMBLK
  1

  9
$DIMASO
 70
     1
  9
$DIMSHO
 70
     1
  9
$DIMPOST
  1

  9
$DIMAPOST
  1

  9
$DIMALT
 70
     0
  9
$DIMALTD
 70
     2
  9
$DIMALTF
 40
25.4
  9
$DIMLFAC
 40
1.0
  9
$DIMTOFL
 70
     0
  9
$DIMTVP
 40
0.0
  9
$DIMTIX
 70
     0
  9
$DIMSOXD
 70
     0
  9
$DIMSAH
 70
     0
  9
$DIMBLK1
  1

  9
$DIMBLK2
  1

  9
$DIMSTYLE
  2
Standard
  9
$DIMCLRD
 70
     0
  9
$DIMCLRE
 70
     0
  9
$DIMCLRT
 70
     0
  9
$DIMTFAC
 40
1.0
  9
$DIMGAP
 40
0.09
  9
$DIMJUST
 70
     0
  9
$DIMSD1
 70
     0
  9
$DIMSD2
 70
     0
  9
$DIMTOLJ
 70
     1
  9
$DIMTZIN
 70
     0
  9
$DIMALTZ
 70
     0
  9
$DIMALTTZ
 70
     0
  9
$DIMUPT
 70
     0
  9
$DIMDEC
 70
     4
  9
$DIMTDEC
 70
     4
  9
$DIMALTU
 70
     2
  9
$DIMALTTD
 70
     2
  9
$DIMTXSTY
  7
Standard
  9
$DIMAUNIT
 70
     0
  9
$DIMADEC
 70
     0
  9
$DIMALTRND
 40
0.0
  9
$DIMAZIN
 70
     0
  9
$DIMDSEP
 70
    46
  9
$DIMATFIT
 70
     3
  9
$DIMFRAC
 70
     0
  9
$DIMLDRBLK
  1

  9
$DIMLUNIT
 70
     2
  9
$DIMLWD
 70
    -2
  9
$DIMLWE
 70
    -2
  9
$DIMTMOVE
 70
     0
  9
$DIMFXL
 40
1.0
  9
$DIMFXLON
 70
     0
  9
$DIMJOGANG
 40
0.7853981633974483
  9
$DIMTFILL
 70
     0
  9
$DIMTFILLCLR
 70
     0
  9
$DIMARCSYM
 70
     0
  9
$DIMLTYPE
  6

  9
$DIMLTEX1
  6

  9
$DIMLTEX2
  6

  9
$DIMTXTDIRECTION
 70
     0
  9
$LUNITS
 70
     2
  9
$LUPREC
 70
     4
  9
$SKETCHINC
 40
0.1
  9
$FILLETRAD
 40
0.5
  9
$AUNITS
 70
     0
  9
$AUPREC
 70
     0
  9
$MENU
  1
.
  9
$ELEVATION
 40
0.0
  9
$PELEVATION
 40
0.0
  9
$THICKNESS
 40
0.0
  9
$LIMCHECK
 70
     0
  9
$CHAMFERA
 40
0.0
  9
$CHAMFERB
 40
0.0
  9
$CHAMFERC
 40
0.0
  9
$CHAMFERD
 40
0.0
  9
$SKPOLY
 70
     0
  9
$TDCREATE
 40
2458168.978997048
  9
$TDUCREATE
 40
2458168.937330382
  9
$TDUPDATE
 40
2458168.978997234
  9
$TDUUPDATE
 40
2458168.937330567
  9
$TDINDWG
 40
0.0000000116
  9
$TDUSRTIMER
 40
0.0000000116
  9
$USRTIMER
 70
     1
  9
$ANGBASE
 50
0.0
  9
$ANGDIR
 70
     0
  9
$PDMODE
 70
     0
  9
$PDSIZE
 40
0.0
  9
$PLINEWID
 40
0.0
  9
$SPLFRAME
 70
     0
  9
$SPLINETYPE
 70
     6
  9
$SPLINESEGS
 70
     8
  9
$HANDSEED
  5
17D
  9
$SURFTAB1
 70
     6
  9
$SURFTAB2
 70
     6
  9
$SURFTYPE
 70
     6
  9
$SURFU
 70
     6
  9
$SURFV
 70
     6
  9
$UCSBASE
  2

  9
$UCSNAME
  2

  9
$UCSORG
 10
0.0
 20
0.0
 30
0.0
  9
$UCSXDIR
 10
1.0
 20
0.0
 30
0.0
  9
$UCSYDIR
 10
0.0
 20
1.0
 30
0.0
  9
$UCSORTHOREF
  2

  9
$UCSORTHOVIEW
 70
     0
  9
$UCSORGTOP
 10
0.0
 20
0.0
 30
0.0
  9
$UCSORGBOTTOM
 10
0.0
 20
0.0
 30
0.0
  9
$UCSORGLEFT
 10
0.0
 20
0.0
 30
0.0
  9
$UCSORGRIGHT
 10
0.0
 20
0.0
 30
0.0
  9
$UCSORGFRONT
 10
0.0
 20
0.0
 30
0.0
  9
$UCSORGBACK
 10
0.0
 20
0.0
 30
0.0
  9
$PUCSBASE
  2

  9
$PUCSNAME
  2

  9
$PUCSORG
 10
0.0
 20
0.0
 30
0.0
  9
$PUCSXDIR
 10
1.0
 20
0.0
 30
0.0
  9
$PUCSYDIR
 10
0.0
 20
1.0
 30
0.0
  9
$PUCSORTHOREF
  2

  9
$PUCSORTHOVIEW
 70
     0
  9
$PUCSORGTOP
 10
0.0
 20
0.0
 30
0.0
  9
$PUCSORGBOTTOM
 10
0.0
 20
0.0
 30
0.0
  9
$PUCSORGLEFT
 10
0.0
 20
0.0
 30
0.0
  9
$PUCSORGRIGHT
 10
0.0
 20
0.0
 30
0.0
  9
$PUCSORGFRONT
 10
0.0
 20
0.0
 30
0.0
  9
$PUCSORGBACK
 10
0.0
 20
0.0
 30
0.0
  9
$USERI1
 70
     0
  9
$USERI2
 70
     0
  9
$USERI3
 70
     0
  9
$USERI4
 70
     0
  9
$USERI5
 70
     0
  9
$USERR1
 40
0.0
  9
$USERR2
 40
0.0
  9
$USERR3
 40
0.0
  9
$USERR4
 40
0.0
  9
$USERR5
 40
0.0
  9
$WORLDVIEW
 70
     1
  9
$SHADEDGE
 70
     3
  9
$SHADEDIF
 70
    70
  9
$TILEMODE
 70
     1
  9
$MAXACTVP
 70
    64
  9
$PINSBASE
 10
0.0
 20
0.0
 30
0.0
  9
$PLIMCHECK
 70
     0
  9
$PEXTMIN
 10
1.000000000000000E+20
 20
1.000000000000000E+20
 30
1.000000000000000E+20
  9
$PEXTMAX
 10
-1.000000000000000E+20
 20
-1.000000000000000E+20
 30
-1.000000000000000E+20
  9
$PLIMMIN
 10
0.0
 20
0.0
  9
$PLIMMAX
 10
12.0
 20
9.0
  9
$UNITMODE
 70
     0
  9
$VISRETAIN
 70
     1
  9
$PLINEGEN
 70
     0
  9
$PSLTSCALE
 70
     1
  9
$TREEDEPTH
 70
  3020
  9
$CMLSTYLE
  2
Standard
  9
$CMLJUST
 70
     0
  9
$CMLSCALE
 40
1.0
  9
$PROXYGRAPHICS
 70
     1
  9
$MEASUREMENT
 70
     0
  9
$CELWEIGHT
370
    -1
  9
$ENDCAPS
280
     0
  9
$JOINSTYLE
280
     0
  9
$LWDISPLAY
290
     0
  9
$INSUNITS
 70
     1
  9
$HYPERLINKBASE
  1

  9
$STYLESHEET
  1

  9
$XEDIT
290
     1
  9
$CEPSNTYPE
380
     0
  9
$PSTYLEMODE
290
     1
  9
$FINGERPRINTGUID
  2
{F3DF3D9A-57BC-4F0C-9525-593A752A4AA3}
  9
$VERSIONGUID
  2
{FAEB1C32-E019-11D5-929B-00C0DF256EC4}
  9
$EXTNAMES
290
     1
  9
$PSVPSCALE
 40
0.0
  9
$OLESTARTUP
290
     0
  9
$SORTENTS
280
   127
  9
$INDEXCTL
280
     0
  9
$HIDETEXT
280
     1
  9
$XCLIPFRAME
280
     2
  9
$HALOGAP
280
     0
  9
$OBSCOLOR
 70
   257
  9
$OBSLTYPE
280
     0
  9
$INTERSECTIONDISPLAY
280
     0
  9
$INTERSECTIONCOLOR
 70
   257
  9
$DIMASSOC
280
     2
  9
$PROJECTNAME
  1

  9
$CAMERADISPLAY
290
     0
  9
$LENSLENGTH
 40
50.0
  9
$CAMERAHEIGHT
 40
0.0
  9
$STEPSPERSEC
 40
2.0
  9
$STEPSIZE
 40
6.0
  9
$3DDWFPREC
 40
2.0
  9
$PSOLWIDTH
 40
0.25
  9
$PSOLHEIGHT
 40
4.0
  9
$LOFTANG1
 40
1.570796326794897
  9
$LOFTANG2
 40
1.570796326794897
  9
$LOFTMAG1
 40
0.0
  9
$LOFTMAG2
 40
0.0
  9
$LOFTPARAM
 70
     7
  9
$LOFTNORMALS
280
     1
  9
$LATITUDE
 40
37.795
  9
$LONGITUDE
 40
-122.394
  9
$NORTHDIRECTION
 40
0.0
  9
$TIMEZONE
 70
 -8000
  9
$LIGHTGLYPHDISPLAY
280
     1
  9
$TILEMODELIGHTSYNCH
280
     1
  9
$CMATERIAL
347
44
  9
$SOLIDHIST
280
     0
  9
$SHOWHIST
280
     1
  9
$DWFFRAME
280
     2
  9
$DGNFRAME
280
     2
  9
$REALWORLDSCALE
290
     1
  9
$INTERFERECOLOR
 62
   256
  9
$CSHADOW
280
     0
  9
$SHADOWPLANELOCATION
 40
0.0
  0
ENDSEC
  0
SECTION
  2
CLASSES
  0
CLASS
  1
ACDBDICTIONARYWDFLT
  2
AcDbDictionaryWithDefault
  3
ObjectDBX Classes
 90
        0
 91
        4
280
     0
281
     0
  0
CLASS
  1
VISUALSTYLE
  2
AcDbVisualStyle
  3
ObjectDBX Classes
 90
     4095
 91
        4
280
     0
281
     0
  0
CLASS
  1
MATERIAL
  2
AcDbMaterial
  3
ObjectDBX Classes
 90
     1153
 91
        4
280
     0
281
     0
  0
CLASS
  1
SCALE
  2
AcDbScale
  3
ObjectDBX Classes
 90
     1153
 91
        4
280
     0
281
     0
  0
CLASS
  1
TABLESTYLE
  2
AcDbTableStyle
  3
ObjectDBX Classes
 90
     4095
 91
        4
280
     0
281
     0
  0
CLASS
  1
MLEADERSTYLE
  2
AcDbMLeaderStyle
  3
ACDB_MLEADERSTYLE_CLASS
 90
     4095
 91
        4
280
     0
281
     0
  0
CLASS
  1
SUN
  2
AcDbSun
  3
SCENEOE
 90
     1153
 91
        4
280
     0
281
     0
  0
CLASS
  1
DICTIONARYVAR
  2
AcDbDictionaryVar
  3
ObjectDBX Classes
 90
        0
 91
        4
280
     0
281
     0
  0
CLASS
  1
CELLSTYLEMAP
  2
AcDbCellStyleMap
  3
ObjectDBX Classes
 90
     1152
 91
        4
280
     0
281
     0
  0
ENDSEC
  0
SECTION
  2
TABLES
  0
TABLE
  2
VPORT
  5
8
330
0
100
AcDbSymbolTable
 70
     1
  0
VPORT
  5
29
330
8
100
AcDbSymbolTableRecord
100
AcDbViewportTableRecord
  2
*Active
 70
     0
 10
0.0
 20
0.0
 11
1.0
 21
1.0
 12
0.0
 22
-1.0
 13
0.0
 23
0.0
 14
0.5
 24
0.5
 15
0.5
 25
0.5
 16
0.0
 26
0.0
 36
1.0
 17
0.0
 27
0.0
 37
0.0
 40
2.17668
 41
1.935332708528586
 42
50.0
 43
0.0
 44
0.0
 50
0.0
 51
0.0
 71
     0
 72
   100
 73
     1
 74
     3
 75
     0
 76
     0
 77
     0
 78
     0
281
     0
 65
     1
110
0.0
120
0.0
130
0.0
111
1.0
121
0.0
131
0.0
112
0.0
122
1.0
132
0.0
 79
     0
146
0.0
348
2F
 60
     3
 61
     5
292
     1
282
     1
141
0.0
142
0.0
 63
   250
361
6D
  0
ENDTAB
  0
TABLE
  2
LTYPE
  5
5
330
0
100
AcDbSymbolTable
 70
     3
  0
LTYPE
  5
14
330
5
100
AcDbSymbolTableRecord
100
AcDbLinetypeTableRecord
  2
ByBlock
 70
     0
  3

 72
    65
 73
     0
 40
0.0
  0
LTYPE
  5
15
330
5
100
AcDbSymbolTableRecord
100
AcDbLinetypeTableRecord
  2
ByLayer
 70
     0
  3

 72
    65
 73
     0
 40
0.0
  0
LTYPE
  5
16
330
5
100
AcDbSymbolTableRecord
100
AcDbLinetypeTableRecord
  2
Continuous
 70
     0
  3
Solid line
 72
    65
 73
     0
 40
0.0
  0
LTYPE
  5
94
330
5
100
AcDbSymbolTableRecord
100
AcDbLinetypeTableRecord
  2
Dashed
 70
     0
  3

 72
    65
 73
     2
 40
2.0
 49
1.0
 74
     0
 49
-1.0
 74
     0
  0
LTYPE
  5
108
330
5
100
AcDbSymbolTableRecord
100
AcDbLinetypeTableRecord
  2
Center
 70
     0
  3

 72
    65
 73
     4
 40
1.5
 49
0.45
 74
     0
 49
-0.5
 74
     0
 49
0.05
 74
     0
 49
-0.5
 74
     0
  0
ENDTAB
  0
TABLE
  2
LAYER
  5
2
330
0
100
AcDbSymbolTable
 70
     7
  0
LAYER
  5
10
330
2
100
AcDbSymbolTableRecord
100
AcDbLayerTableRecord
  2
0
 70
     0
 62
     7
  6
Continuous
370
    -3
390
F
347
46
348
0
  0
LAYER
  5
72
330
2
100
AcDbSymbolTableRecord
100
AcDbLayerTableRecord
  2
AM_6
 70
     0
 62
    -2
  6
Continuous
370
    35
390
F
347
46
348
0
  0
LAYER
  5
95
330
2
100
AcDbSymbolTableRecord
100
AcDbLayerTableRecord
  2
AM_9
 70
     0
 62
     6
  6
Dashed
370
    25
390
F
347
46
348
0
  0
LAYER
  5
A7
330
2
100
AcDbSymbolTableRecord
100
AcDbLayerTableRecord
  2
AM_4
 70
     0
 62
     7
  6
Continuous
370
    50
390
F
347
46
348
0
  0
LAYER
  5
102
330
2
100
AcDbSymbolTableRecord
100
AcDbLayerTableRecord
  2
AM_5
 70
     0
 62
     3
  6
Continuous
370
    25
390
F
347
46
348
0
  0
LAYER
  5
109
330
2
100
AcDbSymbolTableRecord
100
AcDbLayerTableRecord
  2
AM_7
 70
     0
 62
     7
  6
Center
370
    25
390
F
347
46
348
0
  0
LAYER
  5
16F
330
2
100
AcDbSymbolTableRecord
100
AcDbLayerTableRecord
  2
ConnectionPoints
 70
     0
 62
     7
  6
Continuous
370
    50
390
F
347
46
348
0
  0
ENDTAB
  0
TABLE
  2
STYLE
  5
3
330
0
100
AcDbSymbolTable
 70
     1
  0
STYLE
  5
11
330
3
100
AcDbSymbolTableRecord
100
AcDbTextStyleTableRecord
  2
Standard
 70
     0
 40
0.0
 41
1.0
 50
0.0
 71
     0
 42
0.2
  3
txt
  4

  0
ENDTAB
  0
TABLE
  2
VIEW
  5
6
330
0
100
AcDbSymbolTable
 70
     0
  0
ENDTAB
  0
TABLE
  2
UCS
  5
7
330
0
100
AcDbSymbolTable
 70
     0
  0
ENDTAB
  0
TABLE
  2
APPID
  5
9
330
0
100
AcDbSymbolTable
 70
     1
  0
APPID
  5
12
330
9
100
AcDbSymbolTableRecord
100
AcDbRegAppTableRecord
  2
ACAD
 70
     0
  0
ENDTAB
  0
TABLE
  2
DIMSTYLE
  5
A
330
0
100
AcDbSymbolTable
 70
     1
100
AcDbDimStyleTable
  0
DIMSTYLE
105
27
330
A
100
AcDbSymbolTableRecord
100
AcDbDimStyleTableRecord
  2
Standard
 70
     0
178
     0
340
11
  0
ENDTAB
  0
TABLE
  2
BLOCK_RECORD
  5
1
330
0
100
AcDbSymbolTable
 70
     5
  0
BLOCK_RECORD
  5
1F
330
1
100
AcDbSymbolTableRecord
100
AcDbBlockTableRecord
  2
*Model_Space
340
22
 70
     0
280
     1
281
     0
  0
BLOCK_RECORD
  5
1B
330
1
100
AcDbSymbolTableRecord
100
AcDbBlockTableRecord
  2
*Paper_Space
340
1E
 70
     0
280
     1
281
     0
  0
BLOCK_RECORD
  5
23
330
1
100
AcDbSymbolTableRecord
100
AcDbBlockTableRecord
  2
*Paper_Space0
340
26
 70
     0
280
     1
281
     0
  0
BLOCK_RECORD
  5
6E
330
1
100
AcDbSymbolTableRecord
100
AcDbBlockTableRecord
  2
1_052011_4
340
0
102
{BLKREFS
331
6F
102
}
 70
     0
280
     1
281
     0
  0
BLOCK_RECORD
  5
89
330
1
100
AcDbSymbolTableRecord
100
AcDbBlockTableRecord
  2
2_430026_0_in_052011_4
340
0
102
{BLKREFS
331
8A
102
}
 70
     0
280
     1
281
     0
  0
BLOCK_RECORD
  5
B9
330
1
100
AcDbSymbolTableRecord
100
AcDbBlockTableRecord
  2
3_123342_0_in_052011_4
340
0
102
{BLKREFS
331
BA
102
}
 70
     0
280
     1
281
     0
  0
BLOCK_RECORD
  5
116
330
1
100
AcDbSymbolTableRecord
100
AcDbBlockTableRecord
  2
4_052011h_0_in_052011_4
340
0
102
{BLKREFS
331
117
102
}
 70
     0
280
     1
281
     0
  0
ENDTAB
  0
ENDSEC
  0
SECTION
  2
BLOCKS
  0
BLOCK
  5
20
330
1F
100
AcDbEntity
  8
0
100
AcDbBlockBegin
  2
*Model_Space
 70
     0
 10
0.0
 20
0.0
 30
0.0
  3
*Model_Space
  1

  0
ENDBLK
  5
21
330
1F
100
AcDbEntity
  8
0
100
AcDbBlockEnd
  0
BLOCK
  5
1C
330
1B
100
AcDbEntity
 67
     1
  8
0
100
AcDbBlockBegin
  2
*Paper_Space
 70
     0
 10
0.0
 20
0.0
 30
0.0
  3
*Paper_Space
  1

  0
ENDBLK
  5
1D
330
1B
100
AcDbEntity
 67
     1
  8
0
100
AcDbBlockEnd
  0
BLOCK
  5
24
330
23
100
AcDbEntity
  8
0
100
AcDbBlockBegin
  2
*Paper_Space0
 70
     0
 10
0.0
 20
0.0
 30
0.0
  3
*Paper_Space0
  1

  0
ENDBLK
  5
25
330
23
100
AcDbEntity
  8
0
100
AcDbBlockEnd
  0
BLOCK
  5
70
330
6E
100
AcDbEntity
  8
0
100
AcDbBlockBegin
  2
1_052011_4
 70
     2
 10
0.0
 20
0.0
 30
0.0
  3
1_052011_4
  1

  0
ATTDEF
  5
73
330
6E
100
AcDbEntity
  8
AM_6
100
AcDbText
 10
7.065
 20
0.0669999999999999
 30
0.0
 40
0.5
  1
Set Screw Two-Bolt Flange Inch Bore
100
AcDbAttributeDefinition
  3

  2
NN
 70
     8
280
     0
  0
ATTDEF
  5
74
330
6E
100
AcDbEntity
  8
AM_6
100
AcDbText
 10
7.065
 20
-0.4330000000000001
 30
0.0
 40
0.5
  1
SC 2 Bolt Flange Bearings -(Normal Duty)
100
AcDbAttributeDefinition
  3

  2
NT
 70
     8
280
     0
  0
ATTDEF
  5
75
330
6E
100
AcDbEntity
  8
AM_6
100
AcDbText
 10
7.065
 20
-0.933
 30
0.0
 40
0.5
  1
052011
100
AcDbAttributeDefinition
  3

  2
NB
 70
     8
280
     0
  0
ATTDEF
  5
76
330
6E
100
AcDbEntity
  8
AM_6
100
AcDbText
 10
7.065
 20
-1.433
 30
0.0
 40
0.5
  1
$PN.
100
AcDbAttributeDefinition
  3

  2
NBSYN
 70
     8
280
     0
  0
ATTDEF
  5
77
330
6E
100
AcDbEntity
  8
AM_6
100
AcDbText
 10
7.065
 20
-1.933
 30
0.0
 40
0.5
  1
052011
100
AcDbAttributeDefinition
  3

  2
LINA
 70
     8
280
     0
  0
ATTDEF
  5
78
330
6E
100
AcDbEntity
  8
AM_6
100
AcDbText
 10
7.065
 20
-2.433
 30
0.0
 40
0.5
  1
208
100
AcDbAttributeDefinition
  3

  2
SERIES
 70
     8
280
     0
  0
ATTDEF
  5
79
330
6E
100
AcDbEntity
  8
AM_6
100
AcDbText
 10
7.065
 20
-2.933
 30
0.0
 40
0.5
  1
1-1/2
100
AcDbAttributeDefinition
  3

  2
SS
 70
     8
280
     0
  0
ATTDEF
  5
7A
330
6E
100
AcDbEntity
  8
AM_6
100
AcDbText
 10
7.065
 20
-3.433
 30
0.0
 40
0.5
  1
052011
100
AcDbAttributeDefinition
  3

  2
PN
 70
     8
280
     0
  0
ATTDEF
  5
7B
330
6E
100
AcDbEntity
  8
AM_6
100
AcDbText
 10
7.065
 20
-3.933
 30
0.0
 40
0.5
  1
F2B-SC-108-NL
100
AcDbAttributeDefinition
  3

  2
DESCRIPTION
 70
     8
280
     0
  0
ATTDEF
  5
7C
330
6E
100
AcDbEntity
  8
AM_6
100
AcDbText
 10
7.065
 20
-4.433
 30
0.0
 40
0.5
  1
4.1
100
AcDbAttributeDefinition
  3

  2
W
 70
     8
280
     0
  0
ATTDEF
  5
7D
330
6E
100
AcDbEntity
  8
AM_6
100
AcDbText
 10
7.065
 20
-4.933
 30
0.0
 40
0.5
  1
NO-LUBE
100
AcDbAttributeDefinition
  3

  2
LF
 70
     8
280
     0
  0
ATTDEF
  5
7E
330
6E
100
AcDbEntity
  8
AM_6
100
AcDbText
 10
7.065
 20
-5.433
 30
0.0
 40
0.5
  1
1.94
100
AcDbAttributeDefinition
  3

  2
A
 70
     8
280
     0
  0
ATTDEF
  5
7F
330
6E
100
AcDbEntity
  8
AM_6
100
AcDbText
 10
7.065
 20
-5.933
 30
0.0
 40
0.5
  1
6.75
100
AcDbAttributeDefinition
  3

  2
B
 70
     8
280
     0
  0
ATTDEF
  5
80
330
6E
100
AcDbEntity
  8
AM_6
100
AcDbText
 10
7.065
 20
-6.433
 30
0.0
 40
0.5
  1
1.97
100
AcDbAttributeDefinition
  3

  2
C
 70
     8
280
     0
  0
ATTDEF
  5
81
330
6E
100
AcDbEntity
  8
AM_6
100
AcDbText
 10
7.065
 20
-6.933
 30
0.0
 40
0.5
  1
5.66
100
AcDbAttributeDefinition
  3

  2
D
 70
     8
280
     0
  0
ATTDEF
  5
82
330
6E
100
AcDbEntity
  8
AM_6
100
AcDbText
 10
7.065
 20
-7.433
 30
0.0
 40
0.5
  1
1/2
100
AcDbAttributeDefinition
  3

  2
F
 70
     8
280
     0
  0
ATTDEF
  5
83
330
6E
100
AcDbEntity
  8
AM_6
100
AcDbText
 10
7.065
 20
-7.933
 30
0.0
 40
0.5
  1
0.56
100
AcDbAttributeDefinition
  3

  2
H
 70
     8
280
     0
  0
ATTDEF
  5
84
330
6E
100
AcDbEntity
  8
AM_6
100
AcDbText
 10
7.065
 20
-8.433
 30
0.0
 40
0.5
  1
0.63
100
AcDbAttributeDefinition
  3

  2
J
 70
     8
280
     0
  0
ATTDEF
  5
85
330
6E
100
AcDbEntity
  8
AM_6
100
AcDbText
 10
7.065
 20
-8.933
 30
0.0
 40
0.5
  1
2.05
100
AcDbAttributeDefinition
  3

  2
L
 70
     8
280
     0
  0
ATTDEF
  5
86
330
6E
100
AcDbEntity
  8
AM_6
100
AcDbText
 10
7.065
 20
-9.433
 30
0.0
 40
0.5
  1
4.13
100
AcDbAttributeDefinition
  3

  2
M
 70
     8
280
     0
  0
ATTDEF
  5
87
330
6E
100
AcDbEntity
  8
AM_6
100
AcDbText
 10
7.065
 20
-9.933
 30
0.0
 40
0.5
  1
1.83
100
AcDbAttributeDefinition
  3

  2
N
 70
     8
280
     0
  0
ATTDEF
  5
88
330
6E
100
AcDbEntity
  8
AM_6
100
AcDbText
 10
7.065
 20
-10.433
 30
0.0
 40
0.5
  1
baldor
100
AcDbAttributeDefinition
  3

  2
COMPANY
 70
     8
280
     0
  0
INSERT
  5
8A
330
6E
100
AcDbEntity
  8
0
100
AcDbBlockReference
  2
2_430026_0_in_052011_4
 10
0.0
 20
0.0
 30
0.0
  0
INSERT
  5
BA
330
6E
100
AcDbEntity
  8
0
100
AcDbBlockReference
  2
3_123342_0_in_052011_4
 10
0.0
 20
0.0
 30
0.0
  0
INSERT
  5
117
330
6E
100
AcDbEntity
  8
0
100
AcDbBlockReference
  2
4_052011h_0_in_052011_4
 10
0.0
 20
0.0
 30
0.0
  0
ENDBLK
  5
71
330
6E
100
AcDbEntity
  8
0
100
AcDbBlockEnd
  0
BLOCK
  5
8B
330
89
100
AcDbEntity
  8
0
100
AcDbBlockBegin
  2
2_430026_0_in_052011_4
 70
     2
 10
0.0
 20
0.0
 30
0.0
  3
2_430026_0_in_052011_4
  1

  0
ATTDEF
  5
8D
330
89
100
AcDbEntity
  8
AM_6
100
AcDbText
 10
6.716254771417827
 20
-0.6206360017465617
 30
0.0
 40
0.5
  1
430026 Plug
100
AcDbAttributeDefinition
  3

  2
NN
 70
     8
280
     0
  0
ATTDEF
  5
8E
330
89
100
AcDbEntity
  8
AM_6
100
AcDbText
 10
6.716254771417827
 20
-1.120636001746562
 30
0.0
 40
0.5
  1
Plug
100
AcDbAttributeDefinition
  3

  2
NT
 70
     8
280
     0
  0
ATTDEF
  5
8F
330
89
100
AcDbEntity
  8
AM_6
100
AcDbText
 10
6.716254771417827
 20
-1.620636001746562
 30
0.0
 40
0.5
  1
430026
100
AcDbAttributeDefinition
  3

  2
NB
 70
     8
280
     0
  0
ATTDEF
  5
90
330
89
100
AcDbEntity
  8
AM_6
100
AcDbText
 10
6.716254771417827
 20
-2.120636001746562
 30
0.0
 40
0.5
  1
$PN.
100
AcDbAttributeDefinition
  3

  2
NBSYN
 70
     8
280
     0
  0
ATTDEF
  5
91
330
89
100
AcDbEntity
  8
AM_6
100
AcDbText
 10
6.716254771417827
 20
-2.620636001746562
 30
0.0
 40
0.5
  1
430026
100
AcDbAttributeDefinition
  3

  2
LINA
 70
     8
280
     0
  0
ATTDEF
  5
92
330
89
100
AcDbEntity
  8
AM_6
100
AcDbText
 10
6.716254771417827
 20
-3.120636001746562
 30
0.0
 40
0.5
  1
430026
100
AcDbAttributeDefinition
  3

  2
PN
 70
     8
280
     0
  0
ATTDEF
  5
93
330
89
100
AcDbEntity
  8
AM_6
100
AcDbText
 10
6.716254771417827
 20
-3.620636001746562
 30
0.0
 40
0.5
  1
baldor
100
AcDbAttributeDefinition
  3

  2
COMPANY
 70
     8
280
     0
  0
ELLIPSE
  5
96
330
89
100
AcDbEntity
  8
AM_9
100
AcDbEllipse
 10
1.368000751157099
 20
-0.8199999999999998
 30
0.0
 11
-3.127431692422572E-17
 21
-0.1702494517657397
 31
0.0
210
0.0
220
0.0
230
1.0
 40
0.7071067811865474
 41
0.0
 42
6.283185307179586
  0
LINE
  5
97
330
89
100
AcDbEntity
  8
AM_9
100
AcDbLine
 10
1.434292011893338
 20
-0.8741265877365272
 30
0.0
 11
1.500583272629576
 21
-0.9282531754730547
 31
0.0
  0
LINE
  5
98
330
89
100
AcDbEntity
  8
AM_9
100
AcDbLine
 10
1.500583272629576
 20
-0.7117468245269449
 30
0.0
 11
1.434292011893338
 21
-0.7658734122634725
 31
0.0
  0
LINE
  5
99
330
89
100
AcDbEntity
  8
AM_9
100
AcDbLine
 10
1.434292011893338
 20
-0.7658734122634725
 30
0.0
 11
1.434292011893338
 21
-0.8741265877365272
 31
0.0
  0
ELLIPSE
  5
9A
330
89
100
AcDbEntity
  8
AM_9
100
AcDbEllipse
 10
1.500583272629548
 20
-0.8200000000000633
 30
0.0
 11
5.740531871007821E-18
 21
0.09375000000007516
 31
0.0
210
0.0
220
0.0
230
1.0
 40
0.7071067811865477
 41
5.662062982589854
 42
10.04511691096238
  0
LINE
  5
9B
330
89
100
AcDbEntity
  8
AM_9
100
AcDbLine
 10
1.438115646735983
 20
-0.8861318839386911
 30
0.0
 11
1.476455226929606
 21
-0.9073197418766239
 31
0.0
  0
LINE
  5
9C
330
89
100
AcDbEntity
  8
AM_9
100
AcDbLine
 10
1.476455226929606
 20
-0.7326802581233758
 30
0.0
 11
1.438115646735983
 21
-0.7538681160613087
 31
0.0
  0
LINE
  5
9D
330
89
100
AcDbEntity
  8
AM_9
100
AcDbLine
 10
1.500583272629576
 20
-0.9282531754730547
 30
0.0
 11
1.588443535590536
 21
-0.9282531754730547
 31
0.0
  0
LINE
  5
9E
330
89
100
AcDbEntity
  8
AM_9
100
AcDbLine
 10
1.500583272629576
 20
-0.9282531754730547
 30
0.0
 11
1.539588126238109
 21
-0.8964058458621014
 31
0.0
  0
LINE
  5
9F
330
89
100
AcDbEntity
  8
AM_9
100
AcDbLine
 10
1.500583272629576
 20
-0.7117468245269449
 30
0.0
 11
1.588443535590536
 21
-0.7117468245269449
 31
0.0
  0
LINE
  5
A0
330
89
100
AcDbEntity
  8
AM_9
100
AcDbLine
 10
1.539609839512436
 20
-0.743611882952147
 30
0.0
 11
1.500583272629576
 21
-0.7117468245269449
 31
0.0
  0
LINE
  5
A1
330
89
100
AcDbEntity
  8
AM_9
100
AcDbLine
 10
1.434292011893338
 20
-0.8741265877365272
 30
0.0
 11
1.522152274854297
 21
-0.8741265877365272
 31
0.0
  0
LINE
  5
A2
330
89
100
AcDbEntity
  8
AM_9
100
AcDbLine
 10
1.434292011893338
 20
-0.7658734122634725
 30
0.0
 11
1.522152274854297
 21
-0.7658734122634725
 31
0.0
  0
LINE
  5
A3
330
89
100
AcDbEntity
  8
AM_9
100
AcDbLine
 10
1.377922361629348
 20
-1.010780497482923
 30
0.0
 11
1.569772186368625
 21
-1.019255009081338
 31
0.0
  0
LINE
  5
A4
330
89
100
AcDbEntity
  8
AM_9
100
AcDbLine
 10
1.569772186368625
 20
-0.620744990918662
 30
0.0
 11
1.377922361629348
 21
-0.6292195025170769
 31
0.0
  0
ELLIPSE
  5
A5
330
89
100
AcDbEntity
  8
AM_9
100
AcDbEllipse
 10
1.574836371505825
 20
-0.8199999999999998
 30
0.0
 11
1.220859406417996E-17
 21
0.1993814718281232
 31
0.0
210
0.0
220
0.0
230
1.0
 40
0.7071067811865476
 41
4.463828942208124
 42
4.960949018561255
  0
ELLIPSE
  5
A6
330
89
100
AcDbEntity
  8
AM_9
100
AcDbEllipse
 10
1.382135999929168
 20
-0.82
 30
0.0
 11
1.168763340082626E-17
 21
0.1908735385412945
 31
0.0
210
0.0
220
0.0
230
1.0
 40
0.7071067811865474
 41
0.0
 42
6.283185307179586
  0
LINE
  5
A8
330
89
100
AcDbEntity
  8
AM_4
100
AcDbLine
 10
1.566874533365815
 20
-0.8741265877365272
 30
0.0
 11
1.566874533365815
 21
-0.7658734122634725
 31
0.0
  0
ELLIPSE
  5
A9
330
89
100
AcDbEntity
  8
AM_4
100
AcDbEllipse
 10
1.500583272629575
 20
-0.8200000000000004
 30
0.0
 11
5.740531871003286E-18
 21
0.09375000000000111
 31
0.0
210
0.0
220
0.0
230
1.0
 40
0.7071067811865567
 41
3.76193160378206
 42
5.662062982589803
  0
LINE
  5
AA
330
89
100
AcDbEntity
  8
AM_4
100
AcDbLine
 10
1.566874533365815
 20
-0.8741265877365272
 30
0.0
 11
1.654734796326774
 21
-0.8741265877365272
 31
0.0
  0
LINE
  5
AB
330
89
100
AcDbEntity
  8
AM_4
100
AcDbLine
 10
1.539588126238109
 20
-0.8964058458621014
 30
0.0
 11
1.566874533365815
 21
-0.8741265877365272
 31
0.0
  0
LINE
  5
AC
330
89
100
AcDbEntity
  8
AM_4
100
AcDbLine
 10
1.566874533365815
 20
-0.7658734122634725
 30
0.0
 11
1.539609839512436
 21
-0.743611882952147
 31
0.0
  0
LINE
  5
AD
330
89
100
AcDbEntity
  8
AM_4
100
AcDbLine
 10
1.566874533365815
 20
-0.7658734122634725
 30
0.0
 11
1.654734796326774
 21
-0.7658734122634725
 31
0.0
  0
LWPOLYLINE
  5
AE
330
89
100
AcDbEntity
  8
AM_4
100
AcDbPolyline
 90
        8
 70
     0
 43
0.0
 10
1.522152274854297
 20
-0.7658734122634725
 10
1.529369968117519
 20
-0.7545922645734375
 10
1.534607873887169
 20
-0.7484713493082572
 10
1.541053564539912
 20
-0.7422092877077778
 10
1.551923163161151
 20
-0.7335339650285335
 10
1.565191657886404
 20
-0.7247431895155257
 10
1.576537485961601
 20
-0.7181284108040092
 10
1.588443535590536
 20
-0.7117468245269449
  0
LWPOLYLINE
  5
AF
330
89
100
AcDbEntity
  8
AM_4
100
AcDbPolyline
 90
        8
 70
     0
 43
0.0
 10
1.588443535590536
 20
-0.7117468245269449
 10
1.595661228853758
 20
-0.7230279722169799
 10
1.600899134623408
 20
-0.7291488874821604
 10
1.607344825276151
 20
-0.7354109490826396
 10
1.61821442389739
 20
-0.7440862717618839
 10
1.631482918622643
 20
-0.7528770472748918
 10
1.64282874669784
 20
-0.7594918259864084
 10
1.654734796326774
 20
-0.7658734122634725
  0
LWPOLYLINE
  5
B0
330
89
100
AcDbEntity
  8
AM_4
100
AcDbPolyline
 90
        7
 70
     0
 43
0.0
 10
1.654734796326774
 20
-0.7658734122634725
 10
1.650351796246686
 20
-0.7796751359325902
 10
1.646246101941829
 20
-0.7982127987908302
 10
1.644493615183727
 20
-0.8180654297830282
 10
1.645500253869719
 20
-0.836515187564806
 10
1.648957639658608
 20
-0.8550364499942056
 10
1.654734796326774
 20
-0.8741265877365272
  0
LWPOLYLINE
  5
B1
330
89
100
AcDbEntity
  8
AM_4
100
AcDbPolyline
 90
        8
 70
     0
 43
0.0
 10
1.654734796326774
 20
-0.8741265877365272
 10
1.634319434036435
 20
-0.8854077354265621
 10
1.624564220647579
 20
-0.8915286506917426
 10
1.615671055641273
 20
-0.8977907122922218
 10
1.605290540344369
 20
-0.9064660349714662
 10
1.597026120619399
 20
-0.9152568104844739
 10
1.592169116089955
 20
-0.9218715891959904
 10
1.588443535590536
 20
-0.9282531754730547
  0
LWPOLYLINE
  5
B2
330
89
100
AcDbEntity
  8
AM_4
100
AcDbPolyline
 90
        8
 70
     0
 43
0.0
 10
1.588443535590536
 20
-0.9282531754730547
 10
1.568028173300196
 20
-0.9169720277830199
 10
1.558272959911341
 20
-0.9108511125178393
 10
1.549379794905034
 20
-0.9045890509173601
 10
1.53899927960813
 20
-0.8959137282381158
 10
1.53073485988316
 20
-0.8871229527251079
 10
1.525877855353716
 20
-0.8805081740135914
 10
1.522152274854297
 20
-0.8741265877365272
  0
LWPOLYLINE
  5
B3
330
89
100
AcDbEntity
  8
AM_4
100
AcDbPolyline
 90
        7
 70
     0
 43
0.0
 10
1.522152274854297
 20
-0.8741265877365272
 10
1.51637511818613
 20
-0.8550364499942056
 10
1.512993270179483
 20
-0.8371201995500699
 10
1.511911093711249
 20
-0.8180654297830282
 10
1.513565636276295
 20
-0.7988330957881564
 10
1.517769274774209
 20
-0.7796751359325902
 10
1.522152274854297
 20
-0.7658734122634725
  0
ELLIPSE
  5
B4
330
89
100
AcDbEntity
  8
AM_4
100
AcDbEllipse
 10
1.588971620277895
 20
-0.8199999999999998
 30
0.0
 11
-2.002297516605922E-17
 21
-0.109
 31
0.0
210
0.0
220
0.0
230
1.0
 40
0.7071067811865485
 41
0.0
 42
6.283185307179586
  0
ELLIPSE
  5
B5
330
89
100
AcDbEntity
  8
AM_4
100
AcDbEllipse
 10
1.574836371505826
 20
-0.8200000000000005
 30
0.0
 11
1.220859406417990E-17
 21
0.1993814718281222
 31
0.0
210
0.0
220
0.0
230
1.0
 40
0.7071067811865477
 41
4.96094901856126
 42
10.74701424938771
  0
LINE
  5
B6
330
89
100
AcDbEntity
  8
AM_4
100
AcDbLine
 10
1.71234306352813
 20
-0.775717101394223
 30
0.0
 11
1.711487595654684
 21
-0.7709504619228187
 31
0.0
  0
LINE
  5
B7
330
89
100
AcDbEntity
  8
AM_4
100
AcDbLine
 10
1.711487595654684
 20
-0.8690495380771809
 30
0.0
 11
1.71234306352813
 21
-0.8642828986057768
 31
0.0
  0
ELLIPSE
  5
B8
330
89
100
AcDbEntity
  8
AM_4
100
AcDbEllipse
 10
1.588971620277896
 20
-0.8199999999999987
 30
0.0
 11
1.102216155863611E-17
 21
0.1800055586036752
 31
0.0
210
0.0
220
0.0
230
1.0
 40
0.7071067811865442
 41
0.0
 42
6.283185307179586
  0
ENDBLK
  5
8C
330
89
100
AcDbEntity
  8
0
100
AcDbBlockEnd
  0
BLOCK
  5
BB
330
B9
100
AcDbEntity
  8
0
100
AcDbBlockBegin
  2
3_123342_0_in_052011_4
 70
     2
 10
0.0
 20
0.0
 30
0.0
  3
3_123342_0_in_052011_4
  1

  0
ATTDEF
  5
BD
330
B9
100
AcDbEntity
  8
AM_6
100
AcDbText
 10
6.57377298912247
 20
0.0669999999999999
 30
0.0
 40
0.5
  1
Set Screw Insert Inch Bore
100
AcDbAttributeDefinition
  3

  2
NN
 70
     8
280
     0
  0
ATTDEF
  5
BE
330
B9
100
AcDbEntity
  8
AM_6
100
AcDbText
 10
6.57377298912247
 20
-0.4330000000000001
 30
0.0
 40
0.5
  1
SC Normal Duty Bearing Inserts
100
AcDbAttributeDefinition
  3

  2
NT
 70
     8
280
     0
  0
ATTDEF
  5
BF
330
B9
100
AcDbEntity
  8
AM_6
100
AcDbText
 10
6.57377298912247
 20
-0.933
 30
0.0
 40
0.5
  1
123342
100
AcDbAttributeDefinition
  3

  2
NB
 70
     8
280
     0
  0
ATTDEF
  5
C0
330
B9
100
AcDbEntity
  8
AM_6
100
AcDbText
 10
6.57377298912247
 20
-1.433
 30
0.0
 40
0.5
  1
$PN.
100
AcDbAttributeDefinition
  3

  2
NBSYN
 70
     8
280
     0
  0
ATTDEF
  5
C1
330
B9
100
AcDbEntity
  8
AM_6
100
AcDbText
 10
6.57377298912247
 20
-1.933
 30
0.0
 40
0.5
  1
123342
100
AcDbAttributeDefinition
  3

  2
LINA
 70
     8
280
     0
  0
ATTDEF
  5
C2
330
B9
100
AcDbEntity
  8
AM_6
100
AcDbText
 10
6.57377298912247
 20
-2.433
 30
0.0
 40
0.5
  1
208
100
AcDbAttributeDefinition
  3

  2
SERIES
 70
     8
280
     0
  0
ATTDEF
  5
C3
330
B9
100
AcDbEntity
  8
AM_6
100
AcDbText
 10
6.57377298912247
 20
-2.933
 30
0.0
 40
0.5
  1
1-1/2
100
AcDbAttributeDefinition
  3

  2
SS
 70
     8
280
     0
  0
ATTDEF
  5
C4
330
B9
100
AcDbEntity
  8
AM_6
100
AcDbText
 10
6.57377298912247
 20
-3.433
 30
0.0
 40
0.5
  1
123342
100
AcDbAttributeDefinition
  3

  2
PN
 70
     8
280
     0
  0
ATTDEF
  5
C5
330
B9
100
AcDbEntity
  8
AM_6
100
AcDbText
 10
6.57377298912247
 20
-3.933
 30
0.0
 40
0.5
  1
INS-SC-108
100
AcDbAttributeDefinition
  3

  2
DESCRIPTION
 70
     8
280
     0
  0
ATTDEF
  5
C6
330
B9
100
AcDbEntity
  8
AM_6
100
AcDbText
 10
6.57377298912247
 20
-4.433
 30
0.0
 40
0.5
  1
1.94
100
AcDbAttributeDefinition
  3

  2
A
 70
     8
280
     0
  0
ATTDEF
  5
C7
330
B9
100
AcDbEntity
  8
AM_6
100
AcDbText
 10
6.57377298912247
 20
-4.933
 30
0.0
 40
0.5
  1
0.87
100
AcDbAttributeDefinition
  3

  2
C
 70
     8
280
     0
  0
ATTDEF
  5
C8
330
B9
100
AcDbEntity
  8
AM_6
100
AcDbText
 10
6.57377298912247
 20
-5.433
 30
0.0
 40
0.5
  1
3.1496
100
AcDbAttributeDefinition
  3

  2
D
 70
     8
280
     0
  0
ATTDEF
  5
C9
330
B9
100
AcDbEntity
  8
AM_6
100
AcDbText
 10
6.57377298912247
 20
-5.933
 30
0.0
 40
0.5
  1
0.22
100
AcDbAttributeDefinition
  3

  2
J
 70
     8
280
     0
  0
ATTDEF
  5
CA
330
B9
100
AcDbEntity
  8
AM_6
100
AcDbText
 10
6.57377298912247
 20
-6.433
 30
0.0
 40
0.5
  1
2.05
100
AcDbAttributeDefinition
  3

  2
L
 70
     8
280
     0
  0
ATTDEF
  5
CB
330
B9
100
AcDbEntity
  8
AM_6
100
AcDbText
 10
6.57377298912247
 20
-6.933
 30
0.0
 40
0.5
  1
5/16 - 24
100
AcDbAttributeDefinition
  3

  2
N
 70
     8
280
     0
  0
ATTDEF
  5
CC
330
B9
100
AcDbEntity
  8
AM_6
100
AcDbText
 10
6.57377298912247
 20
-7.433
 30
0.0
 40
0.5
  1
0.75
100
AcDbAttributeDefinition
  3

  2
W
 70
     8
280
     0
  0
ATTDEF
  5
CD
330
B9
100
AcDbEntity
  8
AM_6
100
AcDbText
 10
6.57377298912247
 20
-7.933
 30
0.0
 40
0.5
  1
1.19
100
AcDbAttributeDefinition
  3

  2
Y
 70
     8
280
     0
  0
ATTDEF
  5
CE
330
B9
100
AcDbEntity
  8
AM_6
100
AcDbText
 10
6.57377298912247
 20
-8.433
 30
0.0
 40
0.5
  1
baldor
100
AcDbAttributeDefinition
  3

  2
COMPANY
 70
     8
280
     0
  0
ELLIPSE
  5
CF
330
B9
100
AcDbEntity
  8
AM_9
100
AcDbEllipse
 10
0.3131784787147334
 20
-1.5925
 30
0.0
 11
-2.318256390785933E-17
 21
-0.1261999999999996
 31
0.0
210
0.0
220
0.0
230
1.0
 40
0.90630778703665
 41
4.298859327436036
 42
5.125918633333344
  0
LINE
  5
D0
330
B9
100
AcDbEntity
  8
AM_9
100
AcDbLine
 10
0.3169462361317632
 20
-1.7187
 30
0.0
 11
0.4249514101428962
 21
-1.7187
 31
0.0
  0
LINE
  5
D1
330
B9
100
AcDbEntity
  8
AM_9
100
AcDbLine
 10
0.4249514101428962
 20
-1.4663
 30
0.0
 11
0.3169462361317634
 21
-1.4663
 31
0.0
  0
LWPOLYLINE
  5
D2
330
B9
100
AcDbEntity
  8
AM_9
100
AcDbPolyline
 90
        9
 70
     0
 43
0.0
 10
0.3169761758742798
 20
-1.466300000751211
 10
0.3198323840155771
 20
-1.466352895304604
 10
0.3387068273165262
 20
-1.468636663384805
 10
0.3565886605014179
 20
-1.474356706834039
 10
0.3731693866350651
 20
-1.483301569920873
 10
0.3881357785666051
 20
-1.495368211297657
 10
0.4010254421736237
 20
-1.510122039392004
 10
0.4104883875938772
 20
-1.52520861341875
 10
0.4179135543687512
 20
-1.541787292695408
  0
LWPOLYLINE
  5
D3
330
B9
100
AcDbEntity
  8
AM_9
100
AcDbPolyline
 90
        9
 70
     0
 43
0.0
 10
0.3169512166299282
 20
-1.718699999248789
 10
0.3140858014288528
 20
-1.718647104695396
 10
0.2948912241434361
 20
-1.716363336615195
 10
0.2762274339952405
 20
-1.710643293165961
 10
0.2584988087507346
 20
-1.701698430079126
 10
0.2421232087366615
 20
-1.689631788702342
 10
0.2277303721045557
 20
-1.674877960607996
 10
0.2169844875942628
 20
-1.65979138658125
 10
0.2084434030607156
 20
-1.643212707304592
  0
ELLIPSE
  5
D4
330
B9
100
AcDbEntity
  8
AM_9
100
AcDbEllipse
 10
0.3131784787147341
 20
-1.5925
 30
0.0
 11
-2.318256390785933E-17
 21
-0.1261999999999996
 31
0.0
210
0.0
220
0.0
230
1.0
 40
0.9063077870366482
 41
1.157266673846243
 42
1.984325979743555
  0
LINE
  5
D5
330
B9
100
AcDbEntity
  8
AM_9
100
AcDbLine
 10
0.7410434121440937
 20
-1.541787292695408
 30
0.0
 11
0.7410434121440937
 21
-1.643212707304592
 31
0.0
  0
LINE
  5
D6
330
B9
100
AcDbEntity
  8
AM_9
100
AcDbLine
 10
0.7499999999999999
 20
-1.7187
 30
0.0
 11
1.005520699443008
 21
-1.7187
 31
0.0
  0
LINE
  5
D7
330
B9
100
AcDbEntity
  8
AM_9
100
AcDbLine
 10
1.005520699443008
 20
-1.4663
 30
0.0
 11
0.7499999999999999
 21
-1.4663
 31
0.0
  0
LINE
  5
D8
330
B9
100
AcDbEntity
  8
AM_9
100
AcDbLine
 10
1.005520699443008
 20
-1.7187
 30
0.0
 11
1.025
 21
-1.738179300556992
 31
0.0
  0
LINE
  5
D9
330
B9
100
AcDbEntity
  8
AM_9
100
AcDbLine
 10
1.025
 20
-1.446820699443008
 30
0.0
 11
1.005520699443008
 21
-1.4663
 31
0.0
  0
LINE
  5
DA
330
B9
100
AcDbEntity
  8
AM_9
100
AcDbLine
 10
1.005520699443008
 20
-1.4663
 30
0.0
 11
1.005520699443008
 21
-1.7187
 31
0.0
  0
LWPOLYLINE
  5
DB
330
B9
100
AcDbEntity
  8
AM_9
100
AcDbPolyline
 90
        8
 70
     0
 43
0.0
 10
0.7410434121440937
 20
-1.541787292695408
 10
0.7409938344370808
 20
-1.542391931338684
 10
0.7397651288962925
 20
-1.5609175998177
 10
0.739062103298001
 20
-1.580531688976184
 10
0.7389816630236826
 20
-1.598811796620746
 10
0.739432059681394
 20
-1.616903128959483
 10
0.7401183999637203
 20
-1.630378479075244
 10
0.7410434121440937
 20
-1.643212707304592
  0
LWPOLYLINE
  5
DC
330
B9
100
AcDbEntity
  8
AM_9
100
AcDbPolyline
 90
        8
 70
     0
 43
0.0
 10
0.7410434121440937
 20
-1.643212707304592
 10
0.7425359058596941
 20
-1.661681005275122
 10
0.7443107834530255
 20
-1.678668337366208
 10
0.746073051208968
 20
-1.692756858819033
 10
0.747721053447456
 20
-1.70436247703575
 10
0.7489834252561899
 20
-1.712510879958839
 10
0.7497858276986533
 20
-1.717420884634054
 10
0.749999999999921
 20
-1.718699999999531
  0
LWPOLYLINE
  5
DD
330
B9
100
AcDbEntity
  8
AM_9
100
AcDbPolyline
 90
        7
 70
     0
 43
0.0
 10
0.4179135543687512
 20
-1.541787292695408
 10
0.4222929617361942
 20
-1.553144434979349
 10
0.4268872097935249
 20
-1.57197979683812
 10
0.428565725416829
 20
-1.591509552820846
 10
0.4274323748434468
 20
-1.609390188805335
 10
0.4238417094153903
 20
-1.626789537954506
 10
0.4179135543687512
 20
-1.643212707304593
  0
LWPOLYLINE
  5
DE
330
B9
100
AcDbEntity
  8
AM_9
100
AcDbPolyline
 90
        8
 70
     0
 43
0.0
 10
0.4179135543687511
 20
-1.643212707304593
 10
0.4093173001558713
 20
-1.661930085679183
 10
0.3981239430251104
 20
-1.678668337366208
 10
0.3845545465559058
 20
-1.692932112712426
 10
0.3689496311774119
 20
-1.70436247703575
 10
0.3516435818704594
 20
-1.712595058776646
 10
0.3331163979199486
 20
-1.717420884634054
 10
0.3169512166299282
 20
-1.718699999248789
  0
LWPOLYLINE
  5
DF
330
B9
100
AcDbEntity
  8
AM_9
100
AcDbPolyline
 90
        7
 70
     0
 43
0.0
 10
0.208443403060716
 20
-1.643212707304592
 10
0.2011954790814452
 20
-1.625683254331999
 10
0.1969212055275624
 20
-1.60649365735655
 10
0.196090473099342
 20
-1.588421198709736
 10
0.198390900211755
 20
-1.569911079205569
 10
0.2024945178026709
 20
-1.555492973259614
 10
0.208443403060716
 20
-1.541787292695408
  0
LWPOLYLINE
  5
E0
330
B9
100
AcDbEntity
  8
AM_9
100
AcDbPolyline
 90
        8
 70
     0
 43
0.0
 10
0.208443403060716
 20
-1.541787292695408
 10
0.2183227015300803
 20
-1.523069914320818
 10
0.2309947159704411
 20
-1.506331662633792
 10
0.2460736863740686
 20
-1.492067887287574
 10
0.2630515125723649
 20
-1.48063752296425
 10
0.281434700510607
 20
-1.472404941223354
 10
0.3006299684396839
 20
-1.467579115365946
 10
0.3169761758742798
 20
-1.466300000751211
  0
LINE
  5
E1
330
B9
100
AcDbEntity
  8
AM_9
100
AcDbLine
 10
0.7499999999999999
 20
-1.929
 30
0.0
 11
0.7499999999999999
 21
-1.7187
 31
0.0
  0
LINE
  5
E2
330
B9
100
AcDbEntity
  8
AM_9
100
AcDbLine
 10
0.7499999999999999
 20
-1.4663
 30
0.0
 11
0.7499999999999999
 21
-0.0710000000000003
 31
0.0
  0
LINE
  5
E3
330
B9
100
AcDbEntity
  8
AM_9
100
AcDbLine
 10
-0.7499999999999999
 20
-0.0710000000000003
 30
0.0
 11
-0.7499999999999999
 21
-1.929
 31
0.0
  0
LWPOLYLINE
  5
E4
330
B9
100
AcDbEntity
  8
AM_9
100
AcDbPolyline
 90
        9
 70
     0
 43
0.0
 10
0.749999999999921
 20
-1.466300000000469
 10
0.7499945343723353
 20
-1.466332486002235
 10
0.749610356223451
 20
-1.468636663384805
 10
0.7487045626459768
 20
-1.474241968023717
 10
0.7473271419744808
 20
-1.483301569920874
 10
0.7456852867651423
 20
-1.495170729489979
 10
0.7438815015806834
 20
-1.510122039392004
 10
0.7423786533288749
 20
-1.525027747048185
 10
0.7410434121440937
 20
-1.541787292695408
  0
LINE
  5
E5
330
B9
100
AcDbEntity
  8
AM_9
100
AcDbLine
 10
0.7499999999999999
 20
-0.0710000000000003
 30
0.0
 11
0.7909999999999999
 21
-0.0300000000000001
 31
0.0
  0
LINE
  5
E6
330
B9
100
AcDbEntity
  8
AM_9
100
AcDbLine
 10
-0.7909999999999999
 20
-0.0300000000000001
 30
0.0
 11
-0.7499999999999999
 21
-0.0710000000000003
 31
0.0
  0
LINE
  5
E7
330
B9
100
AcDbEntity
  8
AM_9
100
AcDbLine
 10
-0.7499999999999999
 20
-1.929
 30
0.0
 11
-0.7909999999999999
 21
-1.97
 31
0.0
  0
LINE
  5
E8
330
B9
100
AcDbEntity
  8
AM_9
100
AcDbLine
 10
0.7909999999999999
 20
-1.97
 30
0.0
 11
0.7499999999999999
 21
-1.929
 31
0.0
  0
LINE
  5
E9
330
B9
100
AcDbEntity
  8
AM_9
100
AcDbLine
 10
1.024999999999999
 20
-0.345
 30
0.0
 11
1.024999999999999
 21
-0.071
 31
0.0
  0
LINE
  5
EA
330
B9
100
AcDbEntity
  8
AM_9
100
AcDbLine
 10
-1.024999999999999
 20
-0.071
 30
0.0
 11
-1.024999999999999
 21
-0.345
 31
0.0
  0
LINE
  5
EB
330
B9
100
AcDbEntity
  8
AM_9
100
AcDbLine
 10
-1.025
 20
-0.071
 30
0.0
 11
1.025
 21
-0.071
 31
0.0
  0
LINE
  5
EC
330
B9
100
AcDbEntity
  8
AM_9
100
AcDbLine
 10
-0.9839999999999998
 20
-0.0300000000000001
 30
0.0
 11
-1.025
 21
-0.071
 31
0.0
  0
LINE
  5
ED
330
B9
100
AcDbEntity
  8
AM_9
100
AcDbLine
 10
1.025
 20
-0.071
 30
0.0
 11
0.9839999999999998
 21
-0.0300000000000001
 31
0.0
  0
LWPOLYLINE
  5
EE
330
B9
100
AcDbEntity
  8
AM_9
100
AcDbPolyline
 90
       39
 70
     0
 43
0.0
 10
0.4275995592815832
 20
-1.446969182160046
 10
0.4079416321390921
 20
-1.449869529786388
 10
0.3888273561044444
 20
-1.45631210391323
 10
0.3709328640766226
 20
-1.466019026759298
 10
0.3545664435697721
 20
-1.478645010942042
 10
0.3394588325960993
 20
-1.494670816651587
 10
0.3268253747343177
 20
-1.51301202940888
 10
0.3164402744665056
 20
-1.534554915199175
 10
0.3094183209518493
 20
-1.557566345533344
 10
0.3058891372281863
 20
-1.582620005062046
 10
0.3063154425723863
 20
-1.607942102625426
 10
0.3108673430249875
 20
-1.633326335373057
 10
0.3194041100468916
 20
-1.657544008287236
 10
0.3316540082437868
 20
-1.679691930300161
 10
0.3472786967924644
 20
-1.699257845704104
 10
0.3651185513906368
 20
-1.714945089601883
 10
0.3851318632332873
 20
-1.726994059403087
 10
0.4052517827064921
 20
-1.734441817296262
 10
0.4260691366329378
 20
-1.737938398147037
 10
0.4456876159574323
 20
-1.737411022878218
 10
0.4647598716088672
 20
-1.733262093573019
 10
0.4825260512471
 20
-1.725724458091265
 10
0.4988414148782703
 20
-1.715088270177697
 10
0.5138745125014911
 20
-1.701094147713977
 10
0.5267109313504469
 20
-1.684568207726003
 10
0.5377089073993994
 20
-1.664691462682139
 10
0.5458349712973882
 20
-1.643029617607815
 10
0.5511468475489524
 20
-1.618825343587778
 10
0.5530681263403717
 20
-1.593920702969192
 10
0.5514387787574461
 20
-1.568254038307866
 10
0.5462147143115421
 20
-1.543270068718217
 10
0.5374083028097668
 20
-1.51966707959229
 10
0.5252064905605082
 20
-1.49819944572992
 10
0.5102386877062806
 20
-1.480087821995101
 10
0.4925661359141443
 20
-1.46533366723437
 10
0.4738021334105186
 20
-1.455111824110064
 10
0.4535199767323222
 20
-1.448828445017633
 10
0.4406498318819032
 20
-1.447090999557303
 10
0.4275995528559907
 20
-1.44696917500646
  0
LINE
  5
EF
330
B9
100
AcDbEntity
  8
AM_9
100
AcDbLine
 10
1.025
 20
-1.34
 30
0.0
 11
1.025
 21
-1.215
 31
0.0
  0
LINE
  5
F0
330
B9
100
AcDbEntity
  8
AM_9
100
AcDbLine
 10
-1.025
 20
-1.215
 30
0.0
 11
-1.025
 21
-1.34
 31
0.0
  0
LINE
  5
F1
330
B9
100
AcDbEntity
  8
AM_9
100
AcDbLine
 10
1.020398004032455
 20
-1.490079823747265
 30
0.0
 11
1.019556206657229
 21
-1.500110303513284
 31
0.0
  0
LINE
  5
F2
330
B9
100
AcDbEntity
  8
AM_9
100
AcDbLine
 10
1.501466666666667
 20
-1.044
 30
0.0
 11
1.501466666666667
 21
-0.956
 31
0.0
  0
LINE
  5
F3
330
B9
100
AcDbEntity
  8
AM_9
100
AcDbLine
 10
-1.501466666666667
 20
-0.956
 30
0.0
 11
-1.501466666666667
 21
-1.044
 31
0.0
  0
LINE
  5
F4
330
B9
100
AcDbEntity
  8
AM_9
100
AcDbLine
 10
-1.480022851174941
 20
-1.215
 30
0.0
 11
1.480022851174941
 21
-1.215
 31
0.0
  0
ARC
  5
F5
330
B9
100
AcDbEntity
  8
AM_9
100
AcDbCircle
 10
1.480022851174941
 20
-1.171
 30
0.0
 40
0.0439999999999994
100
AcDbArc
 50
270.0
 51
345.2014078426529
  0
ARC
  5
F6
330
B9
100
AcDbEntity
  8
AM_9
100
AcDbCircle
 10
-1.480022851174941
 20
-1.171
 30
0.0
 40
0.0439999999999995
100
AcDbArc
 50
194.7985921573471
 51
270.0
  0
LINE
  5
F7
330
B9
100
AcDbEntity
  8
AM_9
100
AcDbLine
 10
-1.48002285117494
 20
-0.345
 30
0.0
 11
1.48002285117494
 21
-0.345
 31
0.0
  0
ARC
  5
F8
330
B9
100
AcDbEntity
  8
AM_9
100
AcDbCircle
 10
1.48002285117494
 20
-0.3889999999999997
 30
0.0
 40
0.0439999999999998
100
AcDbArc
 50
14.79859014623456
 51
90.0
  0
ARC
  5
F9
330
B9
100
AcDbEntity
  8
AM_9
100
AcDbCircle
 10
-1.48002285117494
 20
-0.3889999999999997
 30
0.0
 40
0.0439999999999997
100
AcDbArc
 50
90.0
 51
165.2014098537655
  0
LINE
  5
FA
330
B9
100
AcDbEntity
  8
AM_9
100
AcDbLine
 10
-1.522563356434588
 20
-1.182238568068983
 30
0.0
 11
1.522563356434738
 21
-1.182238568068983
 31
0.0
  0
LINE
  5
FB
330
B9
100
AcDbEntity
  8
AM_9
100
AcDbLine
 10
-1.552513780937075
 20
-1.044
 30
0.0
 11
1.552513780937226
 21
-1.044
 31
0.0
  0
ARC
  5
FC
330
B9
100
AcDbEntity
  8
AM_9
100
AcDbCircle
 10
0.0000000000000433
 20
-0.7800000000000102
 30
0.0
 40
1.574799999999956
100
AcDbArc
 50
345.2014078426524
 51
350.3493485931006
  0
ARC
  5
FD
330
B9
100
AcDbEntity
  8
AM_9
100
AcDbCircle
 10
0.0000000001421316
 20
-0.7799999999692397
 30
0.0
 40
1.574800000145129
100
AcDbArc
 50
189.6506514071368
 51
194.7985921571102
  0
LINE
  5
FE
330
B9
100
AcDbEntity
  8
AM_9
100
AcDbLine
 10
-1.522563356829226
 20
-0.3777614334242111
 30
0.0
 11
1.522563356829217
 21
-0.3777614334242111
 31
0.0
  0
ARC
  5
FF
330
B9
100
AcDbEntity
  8
AM_9
100
AcDbCircle
 10
-0.0000000000000486
 20
-0.7800000000000042
 30
0.0
 40
1.574800000000048
100
AcDbArc
 50
353.5832052965278
 51
14.79859210115671
  0
ARC
  5
100
330
B9
100
AcDbEntity
  8
AM_9
100
AcDbCircle
 10
0.0000000000017026
 20
-0.7800000000001241
 30
0.0
 40
1.574800000001686
100
AcDbArc
 50
165.2014078988546
 51
186.4167947034611
  0
LINE
  5
101
330
B9
100
AcDbEntity
  8
AM_9
100
AcDbLine
 10
-1.564934196699665
 20
-0.9559999999999997
 30
0.0
 11
1.564934196699657
 21
-0.9559999999999997
 31
0.0
  0
LINE
  5
103
330
B9
100
AcDbEntity
  8
AM_5
100
AcDbLine
 10
0.7499999999999999
 20
-1.43625
 30
0.0
 11
1.025
 21
-1.43625
 31
0.0
  0
LINE
  5
104
330
B9
100
AcDbEntity
  8
AM_5
100
AcDbLine
 10
0.7499999999999999
 20
-1.74875
 30
0.0
 11
1.025
 21
-1.74875
 31
0.0
  0
ELLIPSE
  5
105
330
B9
100
AcDbEntity
  8
AM_9
100
AcDbEllipse
 10
0.4249514101428953
 20
-1.592499999999994
 30
0.0
 11
-2.318256390785819E-17
 21
-0.1261999999999934
 31
0.0
210
0.0
220
0.0
230
1.0
 40
0.906307787036651
 41
0.0
 42
6.283185307179586
  0
CIRCLE
  5
106
330
B9
100
AcDbEntity
  8
AM_9
100
AcDbCircle
 10
-0.0000000000000001
 20
-0.5599999999999999
 30
0.0
 40
0.0250757575757546
  0
CIRCLE
  5
107
330
B9
100
AcDbEntity
  8
AM_9
100
AcDbCircle
 10
-0.0000000000000004
 20
-0.5599999999999996
 30
0.0
 40
0.1041666666666622
  0
LINE
  5
10A
330
B9
100
AcDbEntity
  8
AM_7
100
AcDbLine
 10
0.0
 20
-2.067
 30
0.0
 11
0.0
 21
0.0669999999999999
 31
0.0
  0
LINE
  5
10B
330
B9
100
AcDbEntity
  8
AM_7
100
AcDbLine
 10
1.051799563807954
 20
-1.5925
 30
0.0
 11
0.694764547779148
 21
-1.5925
 31
0.0
  0
LINE
  5
10C
330
B9
100
AcDbEntity
  8
AM_7
100
AcDbLine
 10
-0.1093749999999956
 20
-0.5599999999999996
 30
0.0
 11
0.1093749999999949
 21
-0.5599999999999996
 31
0.0
  0
LWPOLYLINE
  5
10D
330
B9
100
AcDbEntity
  8
AM_4
100
AcDbPolyline
 90
        7
 70
     0
 43
0.0
 10
1.020247733536849
 20
-1.491798129483285
 10
1.021576275573361
 20
-1.47747941160593
 10
1.022843693607953
 20
-1.465287298560126
 10
1.023980451456635
 20
-1.455250559862791
 10
1.024747249072286
 20
-1.448865721994033
 10
1.024999351497016
 20
-1.446825910905282
 10
1.024999999999993
 20
-1.446820699443061
  0
LINE
  5
10E
330
B9
100
AcDbEntity
  8
AM_4
100
AcDbLine
 10
1.025
 20
-1.929
 30
0.0
 11
1.025
 21
-1.738179300556992
 31
0.0
  0
LINE
  5
10F
330
B9
100
AcDbEntity
  8
AM_4
100
AcDbLine
 10
1.025
 20
-1.446820699443008
 30
0.0
 11
1.025
 21
-1.34
 31
0.0
  0
LINE
  5
110
330
B9
100
AcDbEntity
  8
AM_4
100
AcDbLine
 10
-1.025
 20
-1.34
 30
0.0
 11
-1.025
 21
-1.929
 31
0.0
  0
LWPOLYLINE
  5
111
330
B9
100
AcDbEntity
  8
AM_4
100
AcDbPolyline
 90
       16
 70
     0
 43
0.0
 10
1.024999999999973
 20
-1.738179300556775
 10
1.024976298469001
 20
-1.737988714169983
 10
1.024619710174366
 20
-1.73509156004937
 10
1.023844026620378
 20
-1.72858300020446
 10
1.022764687047735
 20
-1.718986294323919
 10
1.021442965051538
 20
-1.706163843129555
 10
1.020001469124752
 20
-1.690321653916198
 10
1.018581090681412
 20
-1.671720545703804
 10
1.017319320525189
 20
-1.650441516500823
 10
1.016384016862419
 20
-1.627109575487129
 10
1.015906997823399
 20
-1.602391669819047
 10
1.015972636360615
 20
-1.576715523547702
 10
1.016586324885621
 20
-1.551700393719963
 10
1.01771488263933
 20
-1.527143039481923
 10
1.018896003512407
 20
-1.508802141726206
 10
1.020247733536849
 20
-1.491798129483285
  0
LINE
  5
112
330
B9
100
AcDbEntity
  8
AM_4
100
AcDbLine
 10
-0.9839999999999998
 20
-1.97
 30
0.0
 11
0.9839999999999998
 21
-1.97
 31
0.0
  0
LINE
  5
113
330
B9
100
AcDbEntity
  8
AM_4
100
AcDbLine
 10
-1.025
 20
-1.929
 30
0.0
 11
1.025
 21
-1.929
 31
0.0
  0
LINE
  5
114
330
B9
100
AcDbEntity
  8
AM_4
100
AcDbLine
 10
0.9839999999999998
 20
-1.97
 30
0.0
 11
1.025
 21
-1.929
 31
0.0
  0
LINE
  5
115
330
B9
100
AcDbEntity
  8
AM_4
100
AcDbLine
 10
-1.025
 20
-1.929
 30
0.0
 11
-0.9839999999999998
 21
-1.97
 31
0.0
  0
ENDBLK
  5
BC
330
B9
100
AcDbEntity
  8
0
100
AcDbBlockEnd
  0
BLOCK
  5
118
330
116
100
AcDbEntity
  8
0
100
AcDbBlockBegin
  2
4_052011h_0_in_052011_4
 70
     2
 10
0.0
 20
0.0
 30
0.0
  3
4_052011h_0_in_052011_4
  1

  0
ATTDEF
  5
11A
330
116
100
AcDbEntity
  8
AM_6
100
AcDbText
 10
7.065
 20
0.0000000000000002
 30
0.0
 40
0.5
  1
F2B-SC -Inch - housing
100
AcDbAttributeDefinition
  3

  2
NN
 70
     8
280
     0
  0
ATTDEF
  5
11B
330
116
100
AcDbEntity
  8
AM_6
100
AcDbText
 10
7.065
 20
-0.4999999999999998
 30
0.0
 40
0.5
  1
SC 2 Bolt Flange Bearings -(Normal Duty)
100
AcDbAttributeDefinition
  3

  2
NT
 70
     8
280
     0
  0
ATTDEF
  5
11C
330
116
100
AcDbEntity
  8
AM_6
100
AcDbText
 10
7.065
 20
-0.9999999999999998
 30
0.0
 40
0.5
  1
052011h
100
AcDbAttributeDefinition
  3

  2
NB
 70
     8
280
     0
  0
ATTDEF
  5
11D
330
116
100
AcDbEntity
  8
AM_6
100
AcDbText
 10
7.065
 20
-1.5
 30
0.0
 40
0.5
  1
$PN.h
100
AcDbAttributeDefinition
  3

  2
NBSYN
 70
     8
280
     0
  0
ATTDEF
  5
11E
330
116
100
AcDbEntity
  8
AM_6
100
AcDbText
 10
7.065
 20
-2.0
 30
0.0
 40
0.5
  1
052011
100
AcDbAttributeDefinition
  3

  2
LINA
 70
     8
280
     0
  0
ATTDEF
  5
11F
330
116
100
AcDbEntity
  8
AM_6
100
AcDbText
 10
7.065
 20
-2.5
 30
0.0
 40
0.5
  1
208
100
AcDbAttributeDefinition
  3

  2
SERIES
 70
     8
280
     0
  0
ATTDEF
  5
120
330
116
100
AcDbEntity
  8
AM_6
100
AcDbText
 10
7.065
 20
-3.0
 30
0.0
 40
0.5
  1
1-1/2
100
AcDbAttributeDefinition
  3

  2
SS
 70
     8
280
     0
  0
ATTDEF
  5
121
330
116
100
AcDbEntity
  8
AM_6
100
AcDbText
 10
7.065
 20
-3.5
 30
0.0
 40
0.5
  1
052011
100
AcDbAttributeDefinition
  3

  2
PN
 70
     8
280
     0
  0
ATTDEF
  5
122
330
116
100
AcDbEntity
  8
AM_6
100
AcDbText
 10
7.065
 20
-4.0
 30
0.0
 40
0.5
  1
F2B-SC-108-NL
100
AcDbAttributeDefinition
  3

  2
DESCRIPTION
 70
     8
280
     0
  0
ATTDEF
  5
123
330
116
100
AcDbEntity
  8
AM_6
100
AcDbText
 10
7.065
 20
-4.5
 30
0.0
 40
0.5
  1
4.1
100
AcDbAttributeDefinition
  3

  2
W
 70
     8
280
     0
  0
ATTDEF
  5
124
330
116
100
AcDbEntity
  8
AM_6
100
AcDbText
 10
7.065
 20
-5.0
 30
0.0
 40
0.5
  1
NO-LUBE
100
AcDbAttributeDefinition
  3

  2
LF
 70
     8
280
     0
  0
ATTDEF
  5
125
330
116
100
AcDbEntity
  8
AM_6
100
AcDbText
 10
7.065
 20
-5.5
 30
0.0
 40
0.5
  1
2
100
AcDbAttributeDefinition
  3

  2
LF1
 70
     8
280
     0
  0
ATTDEF
  5
126
330
116
100
AcDbEntity
  8
AM_6
100
AcDbText
 10
7.065
 20
-6.0
 30
0.0
 40
0.5
  1
1.94
100
AcDbAttributeDefinition
  3

  2
A
 70
     8
280
     0
  0
ATTDEF
  5
127
330
116
100
AcDbEntity
  8
AM_6
100
AcDbText
 10
7.065
 20
-6.5
 30
0.0
 40
0.5
  1
6.75
100
AcDbAttributeDefinition
  3

  2
B
 70
     8
280
     0
  0
ATTDEF
  5
128
330
116
100
AcDbEntity
  8
AM_6
100
AcDbText
 10
7.065
 20
-7.0
 30
0.0
 40
0.5
  1
1.97
100
AcDbAttributeDefinition
  3

  2
C
 70
     8
280
     0
  0
ATTDEF
  5
129
330
116
100
AcDbEntity
  8
AM_6
100
AcDbText
 10
7.065
 20
-7.5
 30
0.0
 40
0.5
  1
5.66
100
AcDbAttributeDefinition
  3

  2
D
 70
     8
280
     0
  0
ATTDEF
  5
12A
330
116
100
AcDbEntity
  8
AM_6
100
AcDbText
 10
7.065
 20
-8.0
 30
0.0
 40
0.5
  1
1/2
100
AcDbAttributeDefinition
  3

  2
F
 70
     8
280
     0
  0
ATTDEF
  5
12B
330
116
100
AcDbEntity
  8
AM_6
100
AcDbText
 10
7.065
 20
-8.5
 30
0.0
 40
0.5
  1
0.56
100
AcDbAttributeDefinition
  3

  2
H
 70
     8
280
     0
  0
ATTDEF
  5
12C
330
116
100
AcDbEntity
  8
AM_6
100
AcDbText
 10
7.065
 20
-9.0
 30
0.0
 40
0.5
  1
0.63
100
AcDbAttributeDefinition
  3

  2
J
 70
     8
280
     0
  0
ATTDEF
  5
12D
330
116
100
AcDbEntity
  8
AM_6
100
AcDbText
 10
7.065
 20
-9.5
 30
0.0
 40
0.5
  1
2.05
100
AcDbAttributeDefinition
  3

  2
L
 70
     8
280
     0
  0
ATTDEF
  5
12E
330
116
100
AcDbEntity
  8
AM_6
100
AcDbText
 10
7.065
 20
-10.0
 30
0.0
 40
0.5
  1
4.13
100
AcDbAttributeDefinition
  3

  2
M
 70
     8
280
     0
  0
ATTDEF
  5
12F
330
116
100
AcDbEntity
  8
AM_6
100
AcDbText
 10
7.065
 20
-10.5
 30
0.0
 40
0.5
  1
1.83
100
AcDbAttributeDefinition
  3

  2
N
 70
     8
280
     0
  0
ATTDEF
  5
130
330
116
100
AcDbEntity
  8
AM_6
100
AcDbText
 10
7.065
 20
-11.0
 30
0.0
 40
0.5
  1
4005
100
AcDbAttributeDefinition
  3

  2
CAPS
 70
     8
280
     0
  0
ATTDEF
  5
131
330
116
100
AcDbEntity
  8
AM_6
100
AcDbText
 10
7.065
 20
-11.5
 30
0.0
 40
0.5
  1
7332
100
AcDbAttributeDefinition
  3

  2
CAPD
 70
     8
280
     0
  0
ATTDEF
  5
132
330
116
100
AcDbEntity
  8
AM_6
100
AcDbText
 10
7.065
 20
-12.0
 30
0.0
 40
0.5
  1
baldor
100
AcDbAttributeDefinition
  3

  2
COMPANY
 70
     8
280
     0
  0
LINE
  5
133
330
116
100
AcDbEntity
  8
AM_9
100
AcDbLine
 10
-0.5449999999999999
 20
-0.8709999999999997
 30
0.0
 11
-0.5449999999999999
 21
-0.2369499999999999
 31
0.0
  0
LINE
  5
134
330
116
100
AcDbEntity
  8
AM_9
100
AcDbLine
 10
0.5449999999999999
 20
-0.8709999999999997
 30
0.0
 11
0.5449999999999999
 21
-0.2369499999999999
 31
0.0
  0
LINE
  5
135
330
116
100
AcDbEntity
  8
AM_9
100
AcDbLine
 10
1.5748
 20
-1.21505
 30
0.0
 11
1.5748
 21
-0.2369500000000002
 31
0.0
  0
LINE
  5
136
330
116
100
AcDbEntity
  8
AM_9
100
AcDbLine
 10
-1.5748
 20
-0.2369500000000002
 30
0.0
 11
-1.5748
 21
-1.21505
 31
0.0
  0
LINE
  5
137
330
116
100
AcDbEntity
  8
AM_9
100
AcDbLine
 10
0.5449999999999999
 20
-0.8709999999999997
 30
0.0
 11
-0.5449999999999999
 21
-0.8709999999999997
 31
0.0
  0
LINE
  5
138
330
116
100
AcDbEntity
  8
AM_9
100
AcDbLine
 10
1.575921773636195
 20
-0.6886512849865043
 30
0.0
 11
1.434528774993033
 21
-0.6885713807818171
 31
0.0
  0
LINE
  5
139
330
116
100
AcDbEntity
  8
AM_9
100
AcDbLine
 10
1.434528774993033
 20
-0.9885714763610396
 30
0.0
 11
1.575921773636195
 21
-0.9884915721563524
 31
0.0
  0
LWPOLYLINE
  5
13A
330
116
100
AcDbEntity
  8
AM_9
100
AcDbPolyline
 90
       38
 70
     0
 43
0.0
 10
1.575921773636195
 20
-0.6886512849865043
 10
1.566682268408654
 20
-0.6892165550442453
 10
1.55751275899777
 20
-0.6909185058724665
 10
1.548483030906862
 20
-0.6937441845976992
 10
1.539661805818999
 20
-0.6976720860986527
 10
1.531116218583502
 20
-0.7026723166731732
 10
1.5229113062792
 20
-0.7087068215473667
 10
1.51510951324299
 20
-0.7157296744954069
 10
1.507770215830728
 20
-0.7236874273658449
 10
1.500949270527311
 20
-0.7325195168543138
 10
1.494698588845098
 20
-0.742158725426845
 10
1.489065742245955
 20
-0.7525316928858884
 10
1.484093600093707
 20
-0.7635594746857116
 10
1.479820003392394
 20
-0.775158142748061
 10
1.476277476793382
 20
-0.7872394242055153
 10
1.473492981063124
 20
-0.7997113732113058
 10
1.471487707895454
 20
-0.8124790707027298
 10
1.470276918629993
 20
-0.8254453467925311
 10
1.469869828104146
 20
-0.8385115202904146
 10
1.470269534522624
 20
-0.8515781497264903
 10
1.471472995878232
 20
-0.864545790160903
 10
1.473471053103384
 20
-0.8773157500198715
 10
1.476248499776137
 20
-0.8897908421981564
 10
1.479784197850243
 20
-0.9018761237116143
 10
1.484051238528446
 20
-0.9134796182706354
 10
1.489017147054674
 20
-0.924513016275244
 10
1.494644129866545
 20
-0.9348923469044771
 10
1.500889362227196
 20
-0.944538617185035
 10
1.507705314147388
 20
-0.9533784131755054
 10
1.515040112117424
 20
-0.9613444586907862
 10
1.52283793389588
 20
-0.9683761273144763
 10
1.531039433350568
 20
-0.9744199038025118
 10
1.539582192118438
 20
-0.9794297913664866
 10
1.548401194647006
 20
-0.9833676617369862
 10
1.557429323001973
 20
-0.9862035453427398
 10
1.566597867675222
 20
-0.9879158593971544
 10
1.575837050505672
 20
-0.9884915721563524
 10
1.575921773636195
 20
-0.9884915721563524
  0
LWPOLYLINE
  5
13B
330
116
100
AcDbEntity
  8
AM_9
100
AcDbPolyline
 90
       19
 70
     0
 43
0.0
 10
1.575921773636195
 20
-0.9884915721563524
 10
1.585160956466645
 20
-0.9879158593971544
 10
1.594329501139894
 20
-0.9862035453427398
 10
1.60335762949486
 20
-0.9833676617369863
 10
1.612176632023429
 20
-0.9794297913664868
 10
1.620719390791299
 20
-0.974419903802512
 10
1.628920890245987
 20
-0.9683761273144766
 10
1.636718712024443
 20
-0.9613444586907867
 10
1.644053509994479
 20
-0.9533784131755059
 10
1.650869461914671
 20
-0.9445386171850354
 10
1.657114694275322
 20
-0.9348923469044775
 10
1.662741677087194
 20
-0.9245130162752445
 10
1.667707585613421
 20
-0.913479618270636
 10
1.671974626291624
 20
-0.9018761237116149
 10
1.67551032436573
 20
-0.889790842198157
 10
1.678287771038483
 20
-0.877315750019872
 10
1.680285828263635
 20
-0.8645457901609036
 10
1.681489289619243
 20
-0.851578149726491
 10
1.681889004501589
 20
-0.8385714285714283
  0
LINE
  5
13C
330
116
100
AcDbEntity
  8
AM_9
100
AcDbLine
 10
-1.7248
 20
-0.2369499999999999
 30
0.0
 11
1.7248
 21
-0.2369499999999999
 31
0.0
  0
LINE
  5
13D
330
116
100
AcDbEntity
  8
AM_9
100
AcDbLine
 10
1.7248
 20
-0.2369499999999999
 30
0.0
 11
1.7248
 21
-0.03
 31
0.0
  0
LINE
  5
13E
330
116
100
AcDbEntity
  8
AM_9
100
AcDbLine
 10
-1.7248
 20
-0.03
 30
0.0
 11
-1.7248
 21
-0.2369499999999999
 31
0.0
  0
LINE
  5
13F
330
116
100
AcDbEntity
  8
AM_9
100
AcDbLine
 10
-1.724800000000002
 20
-1.21505
 30
0.0
 11
1.724800000000001
 21
-1.21505
 31
0.0
  0
LINE
  5
140
330
116
100
AcDbEntity
  8
AM_9
100
AcDbLine
 10
1.724800000000001
 20
-1.34
 30
0.0
 11
1.724800000000001
 21
-1.21505
 31
0.0
  0
LINE
  5
141
330
116
100
AcDbEntity
  8
AM_9
100
AcDbLine
 10
-1.724800000000001
 20
-1.21505
 30
0.0
 11
-1.724800000000001
 21
-1.34
 31
0.0
  0
LWPOLYLINE
  5
142
330
116
100
AcDbEntity
  8
AM_9
100
AcDbPolyline
 90
       19
 70
     0
 43
0.0
 10
1.681889004501589
 20
-0.8385714285714283
 10
1.681485605997219
 20
-0.8255050260612196
 10
1.680278480590307
 20
-0.812538066763823
 10
1.678276815234081
 20
-0.799769237069156
 10
1.675495843810542
 20
-0.7872957154812251
 10
1.671956731191418
 20
-0.7752124330310327
 10
1.667686412160715
 20
-0.7636113507941101
 10
1.662717386424747
 20
-0.7525807600112056
 10
1.657087471269744
 20
-0.7422046101386295
 10
1.650839513749472
 20
-0.732561869942203
 10
1.644021064593279
 20
-0.7237259264972663
 10
1.636684016316335
 20
-0.7157640266687243
 10
1.628884208286261
 20
-0.7087367653217984
 10
1.620681001751817
 20
-0.7026976241585154
 10
1.612136828067962
 20
-0.697692564689661
 10
1.603316713555543
 20
-0.6937596784399305
 10
1.594287784611731
 20
-0.6909288970484262
 10
1.585118756837604
 20
-0.6892217644708099
 10
1.575921773636195
 20
-0.6886512849865043
  0
LWPOLYLINE
  5
143
330
116
100
AcDbEntity
  8
AM_9
100
AcDbPolyline
 90
       10
 70
     0
 43
0.0
 10
1.775567036745335
 20
-1.284
 10
1.775030082218712
 20
-1.293048326668316
 10
1.773374432692041
 20
-1.302096653336631
 10
1.77074665535374
 20
-1.310384694455049
 10
1.767083933144962
 20
-1.31815691365826
 10
1.762631761444586
 20
-1.324874956462535
 10
1.757323488967326
 20
-1.330630969670215
 10
1.75141093718939
 20
-1.33509749126823
 10
1.744888829492411
 20
-1.338225166655029
 10
1.734666124440053
 20
-1.34
  0
LINE
  5
144
330
116
100
AcDbEntity
  8
AM_9
100
AcDbLine
 10
1.741862609496003
 20
-0.5040000000000001
 30
0.0
 11
1.251699733991644
 21
-0.504
 31
0.0
  0
LINE
  5
145
330
116
100
AcDbEntity
  8
AM_9
100
AcDbLine
 10
1.741862609496003
 20
-0.5040000000000001
 30
0.0
 11
1.741862609496002
 21
-0.0300000000000001
 31
0.0
  0
LINE
  5
146
330
116
100
AcDbEntity
  8
AM_9
100
AcDbLine
 10
1.775567036745335
 20
-1.284
 30
0.0
 11
1.775567036745335
 21
-0.0299999999999999
 31
0.0
  0
LINE
  5
147
330
116
100
AcDbEntity
  8
AM_9
100
AcDbLine
 10
1.063172588557247
 20
-1.284
 30
0.0
 11
1.888405534826497
 21
-1.284
 31
0.0
  0
LINE
  5
148
330
116
100
AcDbEntity
  8
AM_9
100
AcDbLine
 10
0.899234938068645
 20
-0.0299999999999999
 30
0.0
 11
0.899234938068645
 21
0.0000000000000001
 31
0.0
  0
LINE
  5
149
330
116
100
AcDbEntity
  8
AM_9
100
AcDbLine
 10
-0.8992349807569151
 20
-0.0299999999999999
 30
0.0
 11
-0.8992349807569151
 21
0.0000000000000001
 31
0.0
  0
LINE
  5
14A
330
116
100
AcDbEntity
  8
AM_9
100
AcDbLine
 10
-1.121311360953298
 20
-0.0299999999999999
 30
0.0
 11
1.121311360953305
 21
-0.0299999999999999
 31
0.0
  0
LINE
  5
14B
330
116
100
AcDbEntity
  8
AM_9
100
AcDbLine
 10
0.25
 20
-0.5599999999999998
 30
0.0
 11
0.25
 21
0.0000000000000002
 31
0.0
  0
LINE
  5
14C
330
116
100
AcDbEntity
  8
AM_9
100
AcDbLine
 10
-0.25
 20
0.0000000000000002
 30
0.0
 11
-0.25
 21
-0.5599999999999998
 31
0.0
  0
ELLIPSE
  5
14D
330
116
100
AcDbEntity
  8
AM_9
100
AcDbEllipse
 10
1.434486323184128
 20
-0.8385714285714346
 30
0.0
 11
9.184854654370320E-18
 21
0.1500000597848322
 31
0.0
210
0.0
220
0.0
230
1.0
 40
0.7076712259398908
 41
0.0
 42
6.283185307179586
  0
LINE
  5
14E
330
116
100
AcDbEntity
  8
AM_4
100
AcDbLine
 10
1.888405534826497
 20
-1.34
 30
0.0
 11
1.888405534826497
 21
-0.0299999999999999
 31
0.0
  0
LINE
  5
14F
330
116
100
AcDbEntity
  8
AM_4
100
AcDbLine
 10
1.855601494319391
 20
-1.34
 30
0.0
 11
1.855601494319391
 21
-0.0299999999999999
 31
0.0
  0
LINE
  5
150
330
116
100
AcDbEntity
  8
AM_4
100
AcDbLine
 10
1.296044328140436
 20
-1.34
 30
0.0
 11
1.296044328140436
 21
-0.0299999999999998
 31
0.0
  0
LINE
  5
151
330
116
100
AcDbEntity
  8
AM_4
100
AcDbLine
 10
1.145194881487306
 20
-1.34
 30
0.0
 11
1.145194881487306
 21
-0.5039999999999999
 31
0.0
  0
LWPOLYLINE
  5
152
330
116
100
AcDbEntity
  8
AM_4
100
AcDbPolyline
 90
       11
 70
     0
 43
0.0
 10
1.022324692668467
 20
-1.34
 10
1.026004051608299
 20
-1.339772730984502
 10
1.032905348890925
 20
-1.338091300352446
 10
1.039699994006908
 20
-1.334686883243119
 10
1.045762669391425
 20
-1.329872707915507
 10
1.051312403632687
 20
-1.323465226305871
 10
1.055747057690344
 20
-1.316205440345707
 10
1.059332061737307
 20
-1.307714867432507
 10
1.061676490398661
 20
-1.299023230836109
 10
1.062967030935994
 20
-1.289613390351817
 10
1.063172588557247
 20
-1.284
  0
LINE
  5
153
330
116
100
AcDbEntity
  8
AM_4
100
AcDbLine
 10
-2.009
 20
-1.34
 30
0.0
 11
2.009
 21
-1.34
 31
0.0
  0
ARC
  5
154
330
116
100
AcDbEntity
  8
AM_4
100
AcDbCircle
 10
2.009000000000001
 20
-1.284000000000001
 30
0.0
 40
0.0559999999999992
100
AcDbArc
 50
270.0
 51
0.0
  0
ARC
  5
155
330
116
100
AcDbEntity
  8
AM_4
100
AcDbCircle
 10
-2.009000000000001
 20
-1.284000000000001
 30
0.0
 40
0.0559999999999987
100
AcDbArc
 50
180.0
 51
270.0
  0
LINE
  5
156
330
116
100
AcDbEntity
  8
AM_4
100
AcDbLine
 10
-1.121311360953298
 20
-0.0299999999999999
 30
0.0
 11
-2.064999999999996
 21
-0.03
 31
0.0
  0
LINE
  5
157
330
116
100
AcDbEntity
  8
AM_4
100
AcDbLine
 10
1.888405534826497
 20
-1.284
 30
0.0
 11
2.065
 21
-1.284
 31
0.0
  0
LINE
  5
158
330
116
100
AcDbEntity
  8
AM_4
100
AcDbLine
 10
1.063172588557246
 20
-0.5039999999999999
 30
0.0
 11
1.063172588557247
 21
-1.284
 31
0.0
  0
LINE
  5
159
330
116
100
AcDbEntity
  8
AM_4
100
AcDbLine
 10
2.065
 20
-1.284
 30
0.0
 11
2.065
 21
-0.03
 31
0.0
  0
LINE
  5
15A
330
116
100
AcDbEntity
  8
AM_4
100
AcDbLine
 10
-2.064999999999996
 20
-0.03
 30
0.0
 11
-2.064999999999996
 21
-1.284
 31
0.0
  0
LINE
  5
15B
330
116
100
AcDbEntity
  8
AM_4
100
AcDbLine
 10
-2.064999999999996
 20
-1.284
 30
0.0
 11
1.063172588557247
 21
-1.284
 31
0.0
  0
LINE
  5
15C
330
116
100
AcDbEntity
  8
AM_4
100
AcDbLine
 10
1.138443993117183
 20
-0.0299999999999999
 30
0.0
 11
1.138443993117183
 21
0.0000000000000001
 31
0.0
  0
LINE
  5
15D
330
116
100
AcDbEntity
  8
AM_4
100
AcDbLine
 10
1.138443993117183
 20
0.0000000000000001
 30
0.0
 11
-1.138443993117177
 21
0.0000000000000001
 31
0.0
  0
LINE
  5
15E
330
116
100
AcDbEntity
  8
AM_4
100
AcDbLine
 10
-1.138443993117177
 20
0.0000000000000001
 30
0.0
 11
-1.138443993117177
 21
-0.0299999999999999
 31
0.0
  0
LINE
  5
15F
330
116
100
AcDbEntity
  8
AM_4
100
AcDbLine
 10
-0.8151798664614933
 20
-0.5039999999999999
 30
0.0
 11
-0.8151798664614933
 21
-0.5599999999999999
 31
0.0
  0
LINE
  5
160
330
116
100
AcDbEntity
  8
AM_4
100
AcDbLine
 10
0.815179866461493
 20
-0.5599999999999999
 30
0.0
 11
0.815179866461493
 21
-0.5039999999999999
 31
0.0
  0
LINE
  5
161
330
116
100
AcDbEntity
  8
AM_4
100
AcDbLine
 10
-0.5273955011538315
 20
-0.5039999999999998
 30
0.0
 11
-0.5273955011538315
 21
-0.5599999999999998
 31
0.0
  0
LINE
  5
162
330
116
100
AcDbEntity
  8
AM_4
100
AcDbLine
 10
0.5273955011538312
 20
-0.5039999999999998
 30
0.0
 11
0.5273955011538312
 21
-0.5599999999999998
 31
0.0
  0
LINE
  5
163
330
116
100
AcDbEntity
  8
AM_4
100
AcDbLine
 10
-1.121311360953298
 20
0.0000000000000001
 30
0.0
 11
-1.121311360953298
 21
-0.0299999999999999
 31
0.0
  0
LINE
  5
164
330
116
100
AcDbEntity
  8
AM_4
100
AcDbLine
 10
-1.741862609496003
 20
-0.5039999999999999
 30
0.0
 11
-1.741862609496
 21
-0.03
 31
0.0
  0
LINE
  5
165
330
116
100
AcDbEntity
  8
AM_4
100
AcDbLine
 10
-0.4774574161785892
 20
-0.5039999999999998
 30
0.0
 11
-1.741862609496003
 21
-0.5039999999999999
 31
0.0
  0
LINE
  5
166
330
116
100
AcDbEntity
  8
AM_4
100
AcDbLine
 10
-0.4774574161785889
 20
-0.5599999999999998
 30
0.0
 11
-0.4774574161785892
 21
-0.5039999999999998
 31
0.0
  0
LINE
  5
167
330
116
100
AcDbEntity
  8
AM_4
100
AcDbLine
 10
0.815179866461493
 20
-0.5599999999999999
 30
0.0
 11
-0.8151798664614933
 21
-0.5599999999999999
 31
0.0
  0
LINE
  5
168
330
116
100
AcDbEntity
  8
AM_4
100
AcDbLine
 10
2.065
 20
-0.03
 30
0.0
 11
1.121311360953305
 21
-0.0299999999999999
 31
0.0
  0
LINE
  5
169
330
116
100
AcDbEntity
  8
AM_4
100
AcDbLine
 10
1.121311360953305
 20
-0.0299999999999999
 30
0.0
 11
1.121311360953305
 21
0.0000000000000001
 31
0.0
  0
LINE
  5
16A
330
116
100
AcDbEntity
  8
AM_4
100
AcDbLine
 10
0.4774574161785892
 20
-0.5039999999999998
 30
0.0
 11
0.4774574161785877
 21
-0.5599999999999998
 31
0.0
  0
LINE
  5
16B
330
116
100
AcDbEntity
  8
AM_4
100
AcDbLine
 10
1.251699733991644
 20
-0.5039999999999999
 30
0.0
 11
0.4774574161785892
 21
-0.5039999999999998
 31
0.0
  0
LINE
  5
16C
330
116
100
AcDbEntity
  8
AM_4
100
AcDbLine
 10
1.251699733991644
 20
-0.0299999999999998
 30
0.0
 11
1.251699733991644
 21
-0.5039999999999999
 31
0.0
  0
LINE
  5
16D
330
116
100
AcDbEntity
  8
AM_4
100
AcDbLine
 10
-0.4597167661865964
 20
-0.5599999999999998
 30
0.0
 11
-0.4597167661865964
 21
0.0000000000000002
 31
0.0
  0
LINE
  5
16E
330
116
100
AcDbEntity
  8
AM_4
100
AcDbLine
 10
0.4597167661865963
 20
-0.5599999999999998
 30
0.0
 11
0.4597167661865963
 21
0.0000000000000002
 31
0.0
  0
ENDBLK
  5
119
330
116
100
AcDbEntity
  8
0
100
AcDbBlockEnd
  0
ENDSEC
  0
SECTION
  2
ENTITIES
  0
INSERT
  5
6F
330
1F
100
AcDbEntity
  8
0
100
AcDbBlockReference
  2
1_052011_4
 10
0.0
 20
0.0
 30
0.0
  0
POINT
  5
170
330
1F
100
AcDbEntity
  8
ConnectionPoints
100
AcDbPoint
 10
0.0
 20
-0.03
 30
0.0
  0
POINT
  5
171
330
1F
100
AcDbEntity
  8
ConnectionPoints
100
AcDbPoint
 10
0.0
 20
-1.97
 30
0.0000000000000001
  0
POINT
  5
172
330
1F
100
AcDbEntity
  8
ConnectionPoints
100
AcDbPoint
 10
1.552202067656195
 20
-0.82
 30
1.552202067656195
  0
POINT
  5
173
330
1F
100
AcDbEntity
  8
ConnectionPoints
100
AcDbPoint
 10
0.0
 20
-1.97
 30
0.0000000000000001
  0
ENDSEC
  0
SECTION
  2
OBJECTS
  0
DICTIONARY
  5
C
330
0
100
AcDbDictionary
281
     1
  3
ACAD_DETAILVIEWSTYLE
350
17B
  3
ACAD_GROUP
350
D
  3
ACAD_LAYOUT
350
1A
  3
ACAD_MATERIAL
350
43
  3
ACAD_MLEADERSTYLE
350
6B
  3
ACAD_MLINESTYLE
350
17
  3
ACAD_PLOTSETTINGS
350
19
  3
ACAD_PLOTSTYLENAME
350
E
  3
ACAD_SCALELIST
350
47
  3
ACAD_SECTIONVIEWSTYLE
350
17C
  3
ACAD_TABLESTYLE
350
69
  3
ACAD_VISUALSTYLE
350
2A
  3
ACDB_RECOMPOSE_DATA
350
178
  3
AcDbVariableDictionary
350
174
  0
SUN
  5
6D
330
29
100
AcDbSun
 90
        1
290
     0
 63
     7
421
 16777215
 40
1.0
291
     1
 91
  2455826
 92
 54000000
292
     0
 70
     2
 71
   256
280
     1
  0
DICTIONARY
  5
17B
102
{ACAD_REACTORS
330
C
102
}
330
C
100
AcDbDictionary
281
     1
  0
DICTIONARY
  5
D
102
{ACAD_REACTORS
330
C
102
}
330
C
100
AcDbDictionary
281
     1
  0
DICTIONARY
  5
1A
102
{ACAD_REACTORS
330
C
102
}
330
C
100
AcDbDictionary
281
     1
  3
Layout1
350
1E
  3
Layout2
350
26
  3
Model
350
22
  0
DICTIONARY
  5
43
102
{ACAD_REACTORS
330
C
102
}
330
C
100
AcDbDictionary
281
     1
  3
ByBlock
350
45
  3
ByLayer
350
44
  3
Global
350
46
  0
DICTIONARY
  5
6B
102
{ACAD_REACTORS
330
C
102
}
330
C
100
AcDbDictionary
281
     1
  3
Standard
350
6C
  0
DICTIONARY
  5
17
102
{ACAD_REACTORS
330
C
102
}
330
C
100
AcDbDictionary
281
     1
  3
Standard
350
18
  0
DICTIONARY
  5
19
102
{ACAD_REACTORS
330
C
102
}
330
C
100
AcDbDictionary
281
     1
  0
ACDBDICTIONARYWDFLT
  5
E
102
{ACAD_REACTORS
330
C
102
}
330
C
100
AcDbDictionary
281
     1
  3
Normal
350
F
100
AcDbDictionaryWithDefault
340
F
  0
DICTIONARY
  5
47
102
{ACAD_REACTORS
330
C
102
}
330
C
100
AcDbDictionary
281
     1
  3
A0
350
48
  3
A1
350
49
  3
A2
350
4A
  3
A3
350
4B
  3
A4
350
4C
  3
A5
350
4D
  3
A6
350
4E
  3
A7
350
4F
  3
A8
350
50
  3
A9
350
51
  3
B0
350
52
  3
B1
350
53
  3
B2
350
54
  3
B3
350
55
  3
B4
350
56
  3
B5
350
57
  3
B6
350
58
  3
B7
350
59
  3
B8
350
5A
  3
B9
350
5B
  3
C0
350
5C
  3
C1
350
5D
  3
C2
350
5E
  3
C3
350
5F
  3
C4
350
60
  3
C5
350
61
  3
C6
350
62
  3
C7
350
63
  3
C8
350
64
  3
C9
350
65
  3
D0
350
66
  3
D1
350
67
  3
D2
350
68
  0
DICTIONARY
  5
17C
102
{ACAD_REACTORS
330
C
102
}
330
C
100
AcDbDictionary
281
     1
  0
DICTIONARY
  5
69
102
{ACAD_REACTORS
330
C
102
}
330
C
100
AcDbDictionary
281
     1
  3
Standard
350
6A
  0
DICTIONARY
  5
2A
102
{ACAD_REACTORS
330
C
102
}
330
C
100
AcDbDictionary
281
     1
  3
2dWireframe
350
2F
  3
Basic
350
32
  3
Brighten
350
36
  3
ColorChange
350
3A
  3
Conceptual
350
34
  3
Dim
350
35
  3
EdgeColorOff
350
3D
  3
Facepattern
350
39
  3
Flat
350
2B
  3
FlatWithEdges
350
2C
  3
Gouraud
350
2D
  3
GouraudWithEdges
350
2E
  3
Hidden
350
31
  3
JitterOff
350
3B
  3
Linepattern
350
38
  3
OverhangOff
350
3C
  3
Realistic
350
33
  3
Shaded
350
42
  3
Shaded with edges
350
41
  3
Shades of Gray
350
3E
  3
Sketchy
350
3F
  3
Thicken
350
37
  3
Wireframe
350
30
  3
X-Ray
350
40
  0
XRECORD
  5
178
102
{ACAD_REACTORS
330
C
102
}
330
C
100
AcDbXrecord
280
     1
 90
        1
330
6A
  0
DICTIONARY
  5
174
102
{ACAD_REACTORS
330
C
102
}
330
C
100
AcDbDictionary
281
     1
  3
CANNOSCALE
350
175
  3
CMLEADERSTYLE
350
17A
  3
CTABLESTYLE
350
179
  0
LAYOUT
  5
1E
102
{ACAD_REACTORS
330
1A
102
}
330
1A
100
AcDbPlotSettings
  1

  2
none_device
  4

  6

 40
0.0
 41
0.0
 42
0.0
 43
0.0
 44
0.0
 45
0.0
 46
0.0
 47
0.0
 48
0.0
 49
0.0
140
0.0
141
0.0
142
1.0
143
1.0
 70
   688
 72
     0
 73
     0
 74
     5
  7

 75
    16
 76
     0
 77
     2
 78
   300
147
1.0
148
0.0
149
0.0
100
AcDbLayout
  1
Layout1
 70
     1
 71
     1
 10
0.0
 20
0.0
 11
12.0
 21
9.0
 12
0.0
 22
0.0
 32
0.0
 14
1.000000000000000E+20
 24
1.000000000000000E+20
 34
1.000000000000000E+20
 15
-1.000000000000000E+20
 25
-1.000000000000000E+20
 35
-1.000000000000000E+20
146
0.0
 13
0.0
 23
0.0
 33
0.0
 16
1.0
 26
0.0
 36
0.0
 17
0.0
 27
1.0
 37
0.0
 76
     0
330
1B
  0
LAYOUT
  5
26
102
{ACAD_REACTORS
330
1A
102
}
330
1A
100
AcDbPlotSettings
  1

  2
none_device
  4

  6

 40
0.0
 41
0.0
 42
0.0
 43
0.0
 44
0.0
 45
0.0
 46
0.0
 47
0.0
 48
0.0
 49
0.0
140
0.0
141
0.0
142
1.0
143
1.0
 70
   688
 72
     0
 73
     0
 74
     5
  7

 75
    16
 76
     0
 77
     2
 78
   300
147
1.0
148
0.0
149
0.0
100
AcDbLayout
  1
Layout2
 70
     1
 71
     2
 10
0.0
 20
0.0
 11
0.0
 21
0.0
 12
0.0
 22
0.0
 32
0.0
 14
0.0
 24
0.0
 34
0.0
 15
0.0
 25
0.0
 35
0.0
146
0.0
 13
0.0
 23
0.0
 33
0.0
 16
1.0
 26
0.0
 36
0.0
 17
0.0
 27
1.0
 37
0.0
 76
     0
330
23
  0
LAYOUT
  5
22
102
{ACAD_REACTORS
330
1A
102
}
330
1A
100
AcDbPlotSettings
  1

  2
none_device
  4
Letter_(8.50_x_11.00_Inches)
  6

 40
6.35
 41
6.35
 42
6.35000508
 43
6.35000508
 44
215.9
 45
279.4
 46
0.0
 47
0.0
 48
0.0
 49
0.0
140
0.0
141
0.0
142
1.0
143
1.0
 70
  1712
 72
     0
 73
     0
 74
     0
  7

 75
     0
 76
     0
 77
     2
 78
   300
147
1.0
148
0.0
149
0.0
100
AcDbLayout
  1
Model
 70
     1
 71
     0
 10
0.0
 20
0.0
 11
12.0
 21
9.0
 12
0.0
 22
0.0
 32
0.0
 14
1.000000000000000E+20
 24
1.000000000000000E+20
 34
1.000000000000000E+20
 15
-1.000000000000000E+20
 25
-1.000000000000000E+20
 35
-1.000000000000000E+20
146
0.0
 13
0.0
 23
0.0
 33
0.0
 16
1.0
 26
0.0
 36
0.0
 17
0.0
 27
1.0
 37
0.0
 76
     0
330
1F
331
29
  0
MATERIAL
  5
45
102
{ACAD_REACTORS
330
43
102
}
330
43
100
AcDbMaterial
  1
ByBlock
 72
     1
 94
      127
  0
MATERIAL
  5
44
102
{ACAD_REACTORS
330
43
102
}
330
43
100
AcDbMaterial
  1
ByLayer
 72
     1
 94
      127
  0
MATERIAL
  5
46
102
{ACAD_REACTORS
330
43
102
}
330
43
100
AcDbMaterial
  1
Global
 72
     1
 94
      127
  0
MLEADERSTYLE
  5
6C
102
{ACAD_REACTORS
330
6B
102
}
330
6B
100
AcDbMLeaderStyle
179
     2
170
     2
171
     1
172
     0
 90
        2
 40
0.0
 41
0.0
173
     1
 91
-1056964608
340
14
 92
       -2
290
     1
 42
0.09
291
     1
 43
0.36
  3
Standard
341
0
 44
0.18
300

342
11
174
     1
178
     6
175
     1
176
     0
 93
-1056964608
 45
0.18
292
     0
297
     0
 46
0.18
343
0
 94
-1056964608
 47
1.0
 49
1.0
140
1.0
293
     1
141
0.0
294
     1
177
     0
142
1.0
295
     0
296
     0
143
0.125
271
     0
272
     9
273
     9
298
     0
  0
MLINESTYLE
  5
18
102
{ACAD_REACTORS
330
17
102
}
330
17
100
AcDbMlineStyle
  2
Standard
 70
     0
  3

 62
   256
 51
90.0
 52
90.0
 71
     2
 49
0.5
 62
   256
  6
BYLAYER
 49
-0.5
 62
   256
  6
BYLAYER
  0
ACDBPLACEHOLDER
  5
F
102
{ACAD_REACTORS
330
E
102
}
330
E
  0
SCALE
  5
48
102
{ACAD_REACTORS
330
47
102
}
330
47
100
AcDbScale
 70
     0
300
1:1
140
1.0
141
1.0
290
     1
  0
SCALE
  5
49
102
{ACAD_REACTORS
330
47
102
}
330
47
100
AcDbScale
 70
     0
300
1:2
140
1.0
141
2.0
290
     0
  0
SCALE
  5
4A
102
{ACAD_REACTORS
330
47
102
}
330
47
100
AcDbScale
 70
     0
300
1:4
140
1.0
141
4.0
290
     0
  0
SCALE
  5
4B
102
{ACAD_REACTORS
330
47
102
}
330
47
100
AcDbScale
 70
     0
300
1:5
140
1.0
141
5.0
290
     0
  0
SCALE
  5
4C
102
{ACAD_REACTORS
330
47
102
}
330
47
100
AcDbScale
 70
     0
300
1:8
140
1.0
141
8.0
290
     0
  0
SCALE
  5
4D
102
{ACAD_REACTORS
330
47
102
}
330
47
100
AcDbScale
 70
     0
300
1:10
140
1.0
141
10.0
290
     0
  0
SCALE
  5
4E
102
{ACAD_REACTORS
330
47
102
}
330
47
100
AcDbScale
 70
     0
300
1:16
140
1.0
141
16.0
290
     0
  0
SCALE
  5
4F
102
{ACAD_REACTORS
330
47
102
}
330
47
100
AcDbScale
 70
     0
300
1:20
140
1.0
141
20.0
290
     0
  0
SCALE
  5
50
102
{ACAD_REACTORS
330
47
102
}
330
47
100
AcDbScale
 70
     0
300
1:30
140
1.0
141
30.0
290
     0
  0
SCALE
  5
51
102
{ACAD_REACTORS
330
47
102
}
330
47
100
AcDbScale
 70
     0
300
1:40
140
1.0
141
40.0
290
     0
  0
SCALE
  5
52
102
{ACAD_REACTORS
330
47
102
}
330
47
100
AcDbScale
 70
     0
300
1:50
140
1.0
141
50.0
290
     0
  0
SCALE
  5
53
102
{ACAD_REACTORS
330
47
102
}
330
47
100
AcDbScale
 70
     0
300
1:100
140
1.0
141
100.0
290
     0
  0
SCALE
  5
54
102
{ACAD_REACTORS
330
47
102
}
330
47
100
AcDbScale
 70
     0
300
2:1
140
2.0
141
1.0
290
     0
  0
SCALE
  5
55
102
{ACAD_REACTORS
330
47
102
}
330
47
100
AcDbScale
 70
     0
300
4:1
140
4.0
141
1.0
290
     0
  0
SCALE
  5
56
102
{ACAD_REACTORS
330
47
102
}
330
47
100
AcDbScale
 70
     0
300
8:1
140
8.0
141
1.0
290
     0
  0
SCALE
  5
57
102
{ACAD_REACTORS
330
47
102
}
330
47
100
AcDbScale
 70
     0
300
10:1
140
10.0
141
1.0
290
     0
  0
SCALE
  5
58
102
{ACAD_REACTORS
330
47
102
}
330
47
100
AcDbScale
 70
     0
300
100:1
140
100.0
141
1.0
290
     0
  0
SCALE
  5
59
102
{ACAD_REACTORS
330
47
102
}
330
47
100
AcDbScale
 70
     0
300
1/128" = 1'-0"
140
0.0078125
141
12.0
290
     0
  0
SCALE
  5
5A
102
{ACAD_REACTORS
330
47
102
}
330
47
100
AcDbScale
 70
     0
300
1/64" = 1'-0"
140
0.015625
141
12.0
290
     0
  0
SCALE
  5
5B
102
{ACAD_REACTORS
330
47
102
}
330
47
100
AcDbScale
 70
     0
300
1/32" = 1'-0"
140
0.03125
141
12.0
290
     0
  0
SCALE
  5
5C
102
{ACAD_REACTORS
330
47
102
}
330
47
100
AcDbScale
 70
     0
300
1/16" = 1'-0"
140
0.0625
141
12.0
290
     0
  0
SCALE
  5
5D
102
{ACAD_REACTORS
330
47
102
}
330
47
100
AcDbScale
 70
     0
300
3/32" = 1'-0"
140
0.09375
141
12.0
290
     0
  0
SCALE
  5
5E
102
{ACAD_REACTORS
330
47
102
}
330
47
100
AcDbScale
 70
     0
300
1/8" = 1'-0"
140
0.125
141
12.0
290
     0
  0
SCALE
  5
5F
102
{ACAD_REACTORS
330
47
102
}
330
47
100
AcDbScale
 70
     0
300
3/16" = 1'-0"
140
0.1875
141
12.0
290
     0
  0
SCALE
  5
60
102
{ACAD_REACTORS
330
47
102
}
330
47
100
AcDbScale
 70
     0
300
1/4" = 1'-0"
140
0.25
141
12.0
290
     0
  0
SCALE
  5
61
102
{ACAD_REACTORS
330
47
102
}
330
47
100
AcDbScale
 70
     0
300
3/8" = 1'-0"
140
0.375
141
12.0
290
     0
  0
SCALE
  5
62
102
{ACAD_REACTORS
330
47
102
}
330
47
100
AcDbScale
 70
     0
300
1/2" = 1'-0"
140
0.5
141
12.0
290
     0
  0
SCALE
  5
63
102
{ACAD_REACTORS
330
47
102
}
330
47
100
AcDbScale
 70
     0
300
3/4" = 1'-0"
140
0.75
141
12.0
290
     0
  0
SCALE
  5
64
102
{ACAD_REACTORS
330
47
102
}
330
47
100
AcDbScale
 70
     0
300
1" = 1'-0"
140
1.0
141
12.0
290
     0
  0
SCALE
  5
65
102
{ACAD_REACTORS
330
47
102
}
330
47
100
AcDbScale
 70
     0
300
1-1/2" = 1'-0"
140
1.5
141
12.0
290
     0
  0
SCALE
  5
66
102
{ACAD_REACTORS
330
47
102
}
330
47
100
AcDbScale
 70
     0
300
3" = 1'-0"
140
3.0
141
12.0
290
     0
  0
SCALE
  5
67
102
{ACAD_REACTORS
330
47
102
}
330
47
100
AcDbScale
 70
     0
300
6" = 1'-0"
140
6.0
141
12.0
290
     0
  0
SCALE
  5
68
102
{ACAD_REACTORS
330
47
102
}
330
47
100
AcDbScale
 70
     0
300
1'-0" = 1'-0"
140
12.0
141
12.0
290
     0
  0
TABLESTYLE
  5
6A
102
{ACAD_REACTORS
330
69
102
}
102
{ACAD_XDICTIONARY
360
176
102
}
330
69
100
AcDbTableStyle
  3
Standard
 70
     0
 71
     0
 40
0.06
 41
0.06
280
     0
281
     0
  7
Standard
140
0.18
170
     2
 62
     0
 63
   257
283
     0
 90
        4
 91
        0
  1

274
    -2
284
     1
 64
     0
275
    -2
285
     1
 65
     0
276
    -2
286
     1
 66
     0
277
    -2
287
     1
 67
     0
278
    -2
288
     1
 68
     0
279
    -2
289
     1
 69
     0
  7
Standard
140
0.25
170
     5
 62
     0
 63
   257
283
     0
 90
        4
 91
        0
  1

274
    -2
284
     1
 64
     0
275
    -2
285
     1
 65
     0
276
    -2
286
     1
 66
     0
277
    -2
287
     1
 67
     0
278
    -2
288
     1
 68
     0
279
    -2
289
     1
 69
     0
  7
Standard
140
0.18
170
     5
 62
     0
 63
   257
283
     0
 90
        4
 91
        0
  1

274
    -2
284
     1
 64
     0
275
    -2
285
     1
 65
     0
276
    -2
286
     1
 66
     0
277
    -2
287
     1
 67
     0
278
    -2
288
     1
 68
     0
279
    -2
289
     1
 69
     0
  0
VISUALSTYLE
  5
2F
102
{ACAD_REACTORS
330
2A
102
}
330
2A
100
AcDbVisualStyle
  2
2dWireframe
 70
     4
177
     3
291
     0
 70
    58
 90
        0
176
     1
 90
        2
176
     1
 90
        0
176
     1
 90
        0
176
     1
 40
0.6
176
     1
 40
30.0
176
     1
 62
     7
420
 16777215
176
     1
 90
        1
176
     1
 90
        4
176
     1
 62
     7
176
     1
 62
   257
176
     1
 90
        1
176
     1
 90
        1
176
     1
 40
1.0
176
     1
 90
        0
176
     1
 62
   257
176
     1
 40
1.0
176
     1
 90
        1
176
     1
 90
        6
176
     1
 90
        2
176
     1
 62
     7
176
     1
 90
        5
176
     1
 90
        0
176
     1
 90
        0
176
     1
290
     0
176
     1
 90
        1
176
     1
 40
0.0
176
     1
 90
        0
176
     1
290
     1
176
     1
290
     1
176
     1
290
     0
176
     1
290
     0
176
     1
290
     0
176
     1
290
     0
176
     1
290
     0
176
     1
290
     0
176
     1
290
     0
176
     1
 90
       50
176
     1
 40
0.0
176
     1
 40
1.0
176
     1
 90
        0
176
     1
 62
    18
420
        0
176
     1
 90
       50
176
     1
 90
        3
176
     1
 62
     5
420
      255
176
     1
290
     0
176
     1
 90
       50
176
     1
 90
       50
176
     1
 90
       50
176
     1
290
     0
176
     1
 90
       50
176
     1
 62
   256
176
     0
 40
1.0
176
     0
 90
        2
176
     1
  1
strokes_ogs.tif
176
     1
290
     0
176
     1
 40
1.0
176
     1
 40
1.0
176
     1
  0
VISUALSTYLE
  5
32
102
{ACAD_REACTORS
330
2A
102
}
330
2A
100
AcDbVisualStyle
  2
Basic
 70
     7
177
     3
291
     1
 70
    58
 90
        1
176
     1
 90
        0
176
     1
 90
        1
176
     1
 90
        0
176
     1
 40
0.6
176
     1
 40
30.0
176
     1
 62
     7
420
 16777215
176
     1
 90
        0
176
     1
 90
        4
176
     1
 62
     7
176
     1
 62
   257
176
     1
 90
        1
176
     1
 90
        1
176
     1
 40
1.0
176
     1
 90
        8
176
     1
 62
     7
176
     1
 40
1.0
176
     1
 90
        1
176
     1
 90
        6
176
     1
 90
        2
176
     1
 62
     7
176
     1
 90
        5
176
     1
 90
        0
176
     1
 90
        0
176
     1
290
     0
176
     1
 90
        1
176
     1
 40
0.0
176
     1
 90
        0
176
     1
290
     0
176
     1
290
     1
176
     1
290
     1
176
     1
290
     0
176
     1
290
     0
176
     1
290
     0
176
     1
290
     0
176
     1
290
     0
176
     1
290
     0
176
     1
 90
       50
176
     1
 40
0.0
176
     1
 40
1.0
176
     1
 90
        0
176
     1
 62
    18
420
        0
176
     1
 90
       50
176
     1
 90
        3
176
     1
 62
     5
420
      255
176
     1
290
     0
176
     1
 90
       50
176
     1
 90
       50
176
     1
 90
       50
176
     1
290
     0
176
     1
 90
       50
176
     1
 62
   256
176
     0
 40
1.0
176
     0
 90
        2
176
     1
  1
strokes_ogs.tif
176
     1
290
     0
176
     1
 40
1.0
176
     1
 40
1.0
176
     1
  0
VISUALSTYLE
  5
36
102
{ACAD_REACTORS
330
2A
102
}
330
2A
100
AcDbVisualStyle
  2
Brighten
 70
    12
177
     3
291
     1
 70
    58
 90
        2
176
     1
 90
        2
176
     1
 90
        0
176
     1
 90
        0
176
     1
 40
0.6
176
     1
 40
30.0
176
     1
 62
     7
420
 16777215
176
     1
 90
        1
176
     1
 90
        4
176
     1
 62
     7
176
     1
 62
   257
176
     1
 90
        1
176
     1
 90
        1
176
     1
 40
1.0
176
     1
 90
        8
176
     1
 62
     7
176
     1
 40
1.0
176
     1
 90
        1
176
     1
 90
        6
176
     1
 90
        2
176
     1
 62
     7
176
     1
 90
        5
176
     1
 90
        0
176
     1
 90
        0
176
     1
290
     0
176
     1
 90
        1
176
     1
 40
50.0
176
     1
 90
        0
176
     1
290
     0
176
     1
290
     1
176
     1
290
     1
176
     1
290
     0
176
     1
290
     0
176
     1
290
     0
176
     1
290
     0
176
     1
290
     0
176
     1
290
     0
176
     1
 90
       50
176
     1
 40
0.0
176
     1
 40
1.0
176
     1
 90
        0
176
     1
 62
    18
420
        0
176
     1
 90
       50
176
     1
 90
        3
176
     1
 62
     5
420
      255
176
     1
290
     0
176
     1
 90
       50
176
     1
 90
       50
176
     1
 90
       50
176
     1
290
     0
176
     1
 90
       50
176
     1
 62
   256
176
     0
 40
1.0
176
     0
 90
        2
176
     1
  1
strokes_ogs.tif
176
     1
290
     0
176
     1
 40
1.0
176
     1
 40
1.0
176
     1
  0
VISUALSTYLE
  5
3A
102
{ACAD_REACTORS
330
2A
102
}
330
2A
100
AcDbVisualStyle
  2
ColorChange
 70
    16
177
     3
291
     1
 70
    58
 90
        2
176
     1
 90
        2
176
     1
 90
        3
176
     1
 90
        0
176
     1
 40
0.6
176
     1
 40
30.0
176
     1
 62
     8
420
  8421504
176
     1
 90
        1
176
     1
 90
        4
176
     1
 62
     7
176
     1
 62
   257
176
     1
 90
        1
176
     1
 90
        1
176
     1
 40
1.0
176
     1
 90
        8
176
     1
 62
     8
420
  8421504
176
     1
 40
1.0
176
     1
 90
        1
176
     1
 90
        6
176
     1
 90
        2
176
     1
 62
     7
176
     1
 90
        5
176
     1
 90
        0
176
     1
 90
        0
176
     1
290
     0
176
     1
 90
        1
176
     1
 40
0.0
176
     1
 90
        0
176
     1
290
     0
176
     1
290
     1
176
     1
290
     1
176
     1
290
     0
176
     1
290
     0
176
     1
290
     0
176
     1
290
     0
176
     1
290
     0
176
     1
290
     0
176
     1
 90
       50
176
     1
 40
0.0
176
     1
 40
1.0
176
     1
 90
        0
176
     1
 62
    18
420
        0
176
     1
 90
       50
176
     1
 90
        3
176
     1
 62
     5
420
      255
176
     1
290
     0
176
     1
 90
       50
176
     1
 90
       50
176
     1
 90
       50
176
     1
290
     0
176
     1
 90
       50
176
     1
 62
   256
176
     0
 40
1.0
176
     0
 90
        2
176
     1
  1
strokes_ogs.tif
176
     1
290
     0
176
     1
 40
1.0
176
     1
 40
1.0
176
     1
  0
VISUALSTYLE
  5
34
102
{ACAD_REACTORS
330
2A
102
}
330
2A
100
AcDbVisualStyle
  2
Conceptual
 70
     9
177
     3
291
     0
 70
    58
 90
        3
176
     1
 90
        2
176
     1
 90
        0
176
     1
 90
        0
176
     1
 40
0.6
176
     1
 40
30.0
176
     1
 62
     7
420
 16777215
176
     1
 90
        2
176
     1
 90
        2
176
     1
 62
     7
176
     1
 62
   257
176
     1
 90
        1
176
     1
 90
        1
176
     1
 40
179.0
176
     1
 90
        8
176
     1
 62
     7
176
     1
 40
1.0
176
     1
 90
        1
176
     1
 90
        6
176
     1
 90
        2
176
     1
 62
     7
176
     1
 90
        3
176
     1
 90
        0
176
     1
 90
        0
176
     1
290
     0
176
     1
 90
        1
176
     1
 40
0.0
176
     1
 90
        0
176
     1
290
     0
176
     1
290
     1
176
     1
290
     1
176
     1
290
     0
176
     1
290
     0
176
     1
290
     0
176
     1
290
     0
176
     1
290
     0
176
     1
290
     0
176
     1
 90
       50
176
     1
 40
0.0
176
     1
 40
1.0
176
     1
 90
        0
176
     1
 62
    18
420
        0
176
     1
 90
       50
176
     1
 90
        3
176
     1
 62
     5
420
      255
176
     1
290
     0
176
     1
 90
       50
176
     1
 90
       50
176
     1
 90
       50
176
     1
290
     0
176
     1
 90
       50
176
     1
 62
   256
176
     0
 40
1.0
176
     0
 90
        2
176
     1
  1
strokes_ogs.tif
176
     1
290
     0
176
     1
 40
1.0
176
     1
 40
1.0
176
     1
  0
VISUALSTYLE
  5
35
102
{ACAD_REACTORS
330
2A
102
}
330
2A
100
AcDbVisualStyle
  2
Dim
 70
    11
177
     3
291
     1
 70
    58
 90
        2
176
     1
 90
        2
176
     1
 90
        0
176
     1
 90
        0
176
     1
 40
0.6
176
     1
 40
30.0
176
     1
 62
     7
420
 16777215
176
     1
 90
        1
176
     1
 90
        4
176
     1
 62
     7
176
     1
 62
   257
176
     1
 90
        1
176
     1
 90
        1
176
     1
 40
1.0
176
     1
 90
        8
176
     1
 62
     7
176
     1
 40
1.0
176
     1
 90
        1
176
     1
 90
        6
176
     1
 90
        2
176
     1
 62
     7
176
     1
 90
        5
176
     1
 90
        0
176
     1
 90
        0
176
     1
290
     0
176
     1
 90
        1
176
     1
 40
-50.0
176
     1
 90
        0
176
     1
290
     0
176
     1
290
     1
176
     1
290
     1
176
     1
290
     0
176
     1
290
     0
176
     1
290
     0
176
     1
290
     0
176
     1
290
     0
176
     1
290
     0
176
     1
 90
       50
176
     1
 40
0.0
176
     1
 40
1.0
176
     1
 90
        0
176
     1
 62
    18
420
        0
176
     1
 90
       50
176
     1
 90
        3
176
     1
 62
     5
420
      255
176
     1
290
     0
176
     1
 90
       50
176
     1
 90
       50
176
     1
 90
       50
176
     1
290
     0
176
     1
 90
       50
176
     1
 62
   256
176
     0
 40
1.0
176
     0
 90
        2
176
     1
  1
strokes_ogs.tif
176
     1
290
     0
176
     1
 40
1.0
176
     1
 40
1.0
176
     1
  0
VISUALSTYLE
  5
3D
102
{ACAD_REACTORS
330
2A
102
}
330
2A
100
AcDbVisualStyle
  2
EdgeColorOff
 70
    22
177
     3
291
     1
 70
    58
 90
        2
176
     0
 90
        2
176
     0
 90
        0
176
     0
 90
        0
176
     0
 40
0.6
176
     0
 40
30.0
176
     0
 62
     7
420
 16777215
176
     0
 90
        1
176
     0
 90
        4
176
     0
 62
     7
176
     0
 62
   257
176
     0
 90
        1
176
     0
 90
        1
176
     0
 40
1.0
176
     0
 90
        8
176
     2
 62
     7
176
     0
 40
1.0
176
     0
 90
        1
176
     0
 90
        6
176
     0
 90
        2
176
     0
 62
     7
176
     0
 90
        5
176
     0
 90
        0
176
     0
 90
        0
176
     0
290
     0
176
     0
 90
        1
176
     0
 40
0.0
176
     0
 90
        0
176
     0
290
     0
176
     0
290
     1
176
     0
290
     1
176
     0
290
     0
176
     0
290
     0
176
     0
290
     0
176
     0
290
     0
176
     0
290
     0
176
     0
290
     0
176
     0
 90
       50
176
     0
 40
0.0
176
     0
 40
1.0
176
     0
 90
        0
176
     0
 62
    18
420
        0
176
     0
 90
       50
176
     0
 90
        3
176
     0
 62
     5
420
      255
176
     0
290
     0
176
     0
 90
       50
176
     0
 90
       50
176
     0
 90
       50
176
     0
290
     0
176
     0
 90
       50
176
     0
 62
   256
176
     0
 40
1.0
176
     0
 90
        2
176
     0
  1
strokes_ogs.tif
176
     0
290
     0
176
     0
 40
1.0
176
     0
 40
1.0
176
     0
  0
VISUALSTYLE
  5
39
102
{ACAD_REACTORS
330
2A
102
}
330
2A
100
AcDbVisualStyle
  2
Facepattern
 70
    15
177
     3
291
     1
 70
    58
 90
        2
176
     1
 90
        2
176
     1
 90
        0
176
     1
 90
        0
176
     1
 40
0.6
176
     1
 40
30.0
176
     1
 62
     7
420
 16777215
176
     1
 90
        1
176
     1
 90
        4
176
     1
 62
     7
176
     1
 62
   257
176
     1
 90
        1
176
     1
 90
        1
176
     1
 40
1.0
176
     1
 90
        8
176
     1
 62
     7
176
     1
 40
1.0
176
     1
 90
        1
176
     1
 90
        6
176
     1
 90
        2
176
     1
 62
     7
176
     1
 90
        5
176
     1
 90
        0
176
     1
 90
        0
176
     1
290
     0
176
     1
 90
        1
176
     1
 40
0.0
176
     1
 90
        0
176
     1
290
     0
176
     1
290
     1
176
     1
290
     1
176
     1
290
     0
176
     1
290
     0
176
     1
290
     0
176
     1
290
     0
176
     1
290
     0
176
     1
290
     0
176
     1
 90
       50
176
     1
 40
0.0
176
     1
 40
1.0
176
     1
 90
        0
176
     1
 62
    18
420
        0
176
     1
 90
       50
176
     1
 90
        3
176
     1
 62
     5
420
      255
176
     1
290
     0
176
     1
 90
       50
176
     1
 90
       50
176
     1
 90
       50
176
     1
290
     0
176
     1
 90
       50
176
     1
 62
   256
176
     0
 40
1.0
176
     0
 90
        2
176
     1
  1
strokes_ogs.tif
176
     1
290
     0
176
     1
 40
1.0
176
     1
 40
1.0
176
     1
  0
VISUALSTYLE
  5
2B
102
{ACAD_REACTORS
330
2A
102
}
330
2A
100
AcDbVisualStyle
  2
Flat
 70
     0
177
     3
291
     1
 70
    58
 90
        2
176
     1
 90
        1
176
     1
 90
        1
176
     1
 90
        2
176
     1
 40
0.6
176
     1
 40
30.0
176
     1
 62
     7
420
 16777215
176
     1
 90
        0
176
     1
 90
        0
176
     1
 62
     7
176
     1
 62
   257
176
     1
 90
        1
176
     1
 90
        1
176
     1
 40
1.0
176
     1
 90
        8
176
     1
 62
     7
176
     1
 40
1.0
176
     1
 90
        1
176
     1
 90
        6
176
     1
 90
        2
176
     1
 62
     7
176
     1
 90
        5
176
     1
 90
        0
176
     1
 90
        0
176
     1
290
     0
176
     1
 90
       13
176
     1
 40
0.0
176
     1
 90
        0
176
     1
290
     0
176
     1
290
     1
176
     1
290
     1
176
     1
290
     0
176
     1
290
     0
176
     1
290
     0
176
     1
290
     0
176
     1
290
     0
176
     1
290
     0
176
     1
 90
       50
176
     1
 40
0.0
176
     1
 40
1.0
176
     1
 90
        0
176
     1
 62
    18
420
        0
176
     1
 90
       50
176
     1
 90
        3
176
     1
 62
     5
420
      255
176
     1
290
     0
176
     1
 90
       50
176
     1
 90
       50
176
     1
 90
       50
176
     1
290
     0
176
     1
 90
       50
176
     1
 62
   256
176
     0
 40
1.0
176
     0
 90
        2
176
     1
  1
strokes_ogs.tif
176
     1
290
     0
176
     1
 40
1.0
176
     1
 40
1.0
176
     1
  0
VISUALSTYLE
  5
2C
102
{ACAD_REACTORS
330
2A
102
}
330
2A
100
AcDbVisualStyle
  2
FlatWithEdges
 70
     1
177
     3
291
     1
 70
    58
 90
        2
176
     1
 90
        1
176
     1
 90
        1
176
     1
 90
        2
176
     1
 40
0.6
176
     1
 40
30.0
176
     1
 62
     7
420
 16777215
176
     1
 90
        1
176
     1
 90
        0
176
     1
 62
     7
176
     1
 62
   257
176
     1
 90
        1
176
     1
 90
        1
176
     1
 40
1.0
176
     1
 90
        0
176
     1
 62
   257
176
     1
 40
1.0
176
     1
 90
        1
176
     1
 90
        6
176
     1
 90
        2
176
     1
 62
     7
176
     1
 90
        5
176
     1
 90
        0
176
     1
 90
        0
176
     1
290
     0
176
     1
 90
       13
176
     1
 40
0.0
176
     1
 90
        0
176
     1
290
     0
176
     1
290
     1
176
     1
290
     1
176
     1
290
     0
176
     1
290
     0
176
     1
290
     0
176
     1
290
     0
176
     1
290
     0
176
     1
290
     0
176
     1
 90
       50
176
     1
 40
0.0
176
     1
 40
1.0
176
     1
 90
        0
176
     1
 62
    18
420
        0
176
     1
 90
       50
176
     1
 90
        3
176
     1
 62
     5
420
      255
176
     1
290
     0
176
     1
 90
       50
176
     1
 90
       50
176
     1
 90
       50
176
     1
290
     0
176
     1
 90
       50
176
     1
 62
   256
176
     0
 40
1.0
176
     0
 90
        2
176
     1
  1
strokes_ogs.tif
176
     1
290
     0
176
     1
 40
1.0
176
     1
 40
1.0
176
     1
  0
VISUALSTYLE
  5
2D
102
{ACAD_REACTORS
330
2A
102
}
330
2A
100
AcDbVisualStyle
  2
Gouraud
 70
     2
177
     3
291
     1
 70
    58
 90
        2
176
     1
 90
        2
176
     1
 90
        1
176
     1
 90
        2
176
     1
 40
0.6
176
     1
 40
30.0
176
     1
 62
     7
420
 16777215
176
     1
 90
        0
176
     1
 90
        0
176
     1
 62
     7
176
     1
 62
   257
176
     1
 90
        1
176
     1
 90
        1
176
     1
 40
1.0
176
     1
 90
        0
176
     1
 62
     7
176
     1
 40
1.0
176
     1
 90
        1
176
     1
 90
        6
176
     1
 90
        2
176
     1
 62
     7
176
     1
 90
        5
176
     1
 90
        0
176
     1
 90
        0
176
     1
290
     0
176
     1
 90
       13
176
     1
 40
0.0
176
     1
 90
        0
176
     1
290
     0
176
     1
290
     1
176
     1
290
     1
176
     1
290
     0
176
     1
290
     0
176
     1
290
     0
176
     1
290
     0
176
     1
290
     0
176
     1
290
     0
176
     1
 90
       50
176
     1
 40
0.0
176
     1
 40
1.0
176
     1
 90
        0
176
     1
 62
    18
420
        0
176
     1
 90
       50
176
     1
 90
        3
176
     1
 62
     5
420
      255
176
     1
290
     0
176
     1
 90
       50
176
     1
 90
       50
176
     1
 90
       50
176
     1
290
     0
176
     1
 90
       50
176
     1
 62
   256
176
     0
 40
1.0
176
     0
 90
        2
176
     1
  1
strokes_ogs.tif
176
     1
290
     0
176
     1
 40
1.0
176
     1
 40
1.0
176
     1
  0
VISUALSTYLE
  5
2E
102
{ACAD_REACTORS
330
2A
102
}
330
2A
100
AcDbVisualStyle
  2
GouraudWithEdges
 70
     3
177
     3
291
     1
 70
    58
 90
        2
176
     1
 90
        2
176
     1
 90
        1
176
     1
 90
        2
176
     1
 40
0.6
176
     1
 40
30.0
176
     1
 62
     7
420
 16777215
176
     1
 90
        1
176
     1
 90
        0
176
     1
 62
     7
176
     1
 62
   257
176
     1
 90
        1
176
     1
 90
        1
176
     1
 40
1.0
176
     1
 90
        0
176
     1
 62
   257
176
     1
 40
1.0
176
     1
 90
        1
176
     1
 90
        6
176
     1
 90
        2
176
     1
 62
     7
176
     1
 90
        5
176
     1
 90
        0
176
     1
 90
        0
176
     1
290
     0
176
     1
 90
       13
176
     1
 40
0.0
176
     1
 90
        0
176
     1
290
     0
176
     1
290
     1
176
     1
290
     1
176
     1
290
     0
176
     1
290
     0
176
     1
290
     0
176
     1
290
     0
176
     1
290
     0
176
     1
290
     0
176
     1
 90
       50
176
     1
 40
0.0
176
     1
 40
1.0
176
     1
 90
        0
176
     1
 62
    18
420
        0
176
     1
 90
       50
176
     1
 90
        3
176
     1
 62
     5
420
      255
176
     1
290
     0
176
     1
 90
       50
176
     1
 90
       50
176
     1
 90
       50
176
     1
290
     0
176
     1
 90
       50
176
     1
 62
   256
176
     0
 40
1.0
176
     0
 90
        2
176
     1
  1
strokes_ogs.tif
176
     1
290
     0
176
     1
 40
1.0
176
     1
 40
1.0
176
     1
  0
VISUALSTYLE
  5
31
102
{ACAD_REACTORS
330
2A
102
}
330
2A
100
AcDbVisualStyle
  2
Hidden
 70
     6
177
     3
291
     0
 70
    58
 90
        1
176
     1
 90
        2
176
     1
 90
        2
176
     1
 90
        0
176
     1
 40
0.6
176
     1
 40
30.0
176
     1
 62
     7
420
 16777215
176
     1
 90
        2
176
     1
 90
        2
176
     1
 62
     7
176
     1
 62
   257
176
     1
 90
        2
176
     1
 90
        1
176
     1
 40
40.0
176
     1
 90
        0
176
     1
 62
   257
176
     1
 40
1.0
176
     1
 90
        1
176
     1
 90
        6
176
     1
 90
        2
176
     1
 62
     7
176
     1
 90
        3
176
     1
 90
        0
176
     1
 90
        0
176
     1
290
     0
176
     1
 90
        1
176
     1
 40
0.0
176
     1
 90
        0
176
     1
290
     0
176
     1
290
     1
176
     1
290
     1
176
     1
290
     0
176
     1
290
     0
176
     1
290
     0
176
     1
290
     0
176
     1
290
     0
176
     1
290
     0
176
     1
 90
       50
176
     1
 40
0.0
176
     1
 40
1.0
176
     1
 90
        0
176
     1
 62
    18
420
        0
176
     1
 90
       50
176
     1
 90
        3
176
     1
 62
     5
420
      255
176
     1
290
     0
176
     1
 90
       50
176
     1
 90
       50
176
     1
 90
       50
176
     1
290
     0
176
     1
 90
       50
176
     1
 62
   256
176
     0
 40
1.0
176
     0
 90
        2
176
     1
  1
strokes_ogs.tif
176
     1
290
     0
176
     1
 40
1.0
176
     1
 40
1.0
176
     1
  0
VISUALSTYLE
  5
3B
102
{ACAD_REACTORS
330
2A
102
}
330
2A
100
AcDbVisualStyle
  2
JitterOff
 70
    20
177
     3
291
     1
 70
    58
 90
        2
176
     0
 90
        2
176
     0
 90
        0
176
     0
 90
        0
176
     0
 40
0.6
176
     0
 40
30.0
176
     0
 62
     7
420
 16777215
176
     0
 90
        1
176
     0
 90
        4
176
     0
 62
     7
176
     0
 62
   257
176
     0
 90
        1
176
     0
 90
        1
176
     0
 40
1.0
176
     0
 90
       10
176
     2
 62
     7
176
     0
 40
1.0
176
     0
 90
        1
176
     0
 90
        6
176
     0
 90
        2
176
     0
 62
     7
176
     0
 90
        5
176
     0
 90
        0
176
     0
 90
        0
176
     0
290
     0
176
     0
 90
        1
176
     0
 40
0.0
176
     0
 90
        0
176
     0
290
     0
176
     0
290
     1
176
     0
290
     1
176
     0
290
     0
176
     0
290
     0
176
     0
290
     0
176
     0
290
     0
176
     0
290
     0
176
     0
290
     0
176
     0
 90
       50
176
     0
 40
0.0
176
     0
 40
1.0
176
     0
 90
        0
176
     0
 62
    18
420
        0
176
     0
 90
       50
176
     0
 90
        3
176
     0
 62
     5
420
      255
176
     0
290
     0
176
     0
 90
       50
176
     0
 90
       50
176
     0
 90
       50
176
     0
290
     0
176
     0
 90
       50
176
     0
 62
   256
176
     0
 40
1.0
176
     0
 90
        2
176
     0
  1
strokes_ogs.tif
176
     0
290
     0
176
     0
 40
1.0
176
     0
 40
1.0
176
     0
  0
VISUALSTYLE
  5
38
102
{ACAD_REACTORS
330
2A
102
}
330
2A
100
AcDbVisualStyle
  2
Linepattern
 70
    14
177
     3
291
     1
 70
    58
 90
        2
176
     1
 90
        2
176
     1
 90
        0
176
     1
 90
        0
176
     1
 40
0.6
176
     1
 40
30.0
176
     1
 62
     7
420
 16777215
176
     1
 90
        1
176
     1
 90
        4
176
     1
 62
     7
176
     1
 62
   257
176
     1
 90
        7
176
     1
 90
        7
176
     1
 40
1.0
176
     1
 90
        8
176
     1
 62
     7
176
     1
 40
1.0
176
     1
 90
        1
176
     1
 90
        6
176
     1
 90
        2
176
     1
 62
     7
176
     1
 90
        5
176
     1
 90
        0
176
     1
 90
        0
176
     1
290
     0
176
     1
 90
        1
176
     1
 40
0.0
176
     1
 90
        0
176
     1
290
     0
176
     1
290
     1
176
     1
290
     1
176
     1
290
     0
176
     1
290
     0
176
     1
290
     0
176
     1
290
     0
176
     1
290
     0
176
     1
290
     0
176
     1
 90
       50
176
     1
 40
0.0
176
     1
 40
1.0
176
     1
 90
        0
176
     1
 62
    18
420
        0
176
     1
 90
       50
176
     1
 90
        3
176
     1
 62
     5
420
      255
176
     1
290
     0
176
     1
 90
       50
176
     1
 90
       50
176
     1
 90
       50
176
     1
290
     0
176
     1
 90
       50
176
     1
 62
   256
176
     0
 40
1.0
176
     0
 90
        2
176
     1
  1
strokes_ogs.tif
176
     1
290
     0
176
     1
 40
1.0
176
     1
 40
1.0
176
     1
  0
VISUALSTYLE
  5
3C
102
{ACAD_REACTORS
330
2A
102
}
330
2A
100
AcDbVisualStyle
  2
OverhangOff
 70
    21
177
     3
291
     1
 70
    58
 90
        2
176
     0
 90
        2
176
     0
 90
        0
176
     0
 90
        0
176
     0
 40
0.6
176
     0
 40
30.0
176
     0
 62
     7
420
 16777215
176
     0
 90
        1
176
     0
 90
        4
176
     0
 62
     7
176
     0
 62
   257
176
     0
 90
        1
176
     0
 90
        1
176
     0
 40
1.0
176
     0
 90
        9
176
     2
 62
     7
176
     0
 40
1.0
176
     0
 90
        1
176
     0
 90
        6
176
     0
 90
        2
176
     0
 62
     7
176
     0
 90
        5
176
     0
 90
        0
176
     0
 90
        0
176
     0
290
     0
176
     0
 90
        1
176
     0
 40
0.0
176
     0
 90
        0
176
     0
290
     0
176
     0
290
     1
176
     0
290
     1
176
     0
290
     0
176
     0
290
     0
176
     0
290
     0
176
     0
290
     0
176
     0
290
     0
176
     0
290
     0
176
     0
 90
       50
176
     0
 40
0.0
176
     0
 40
1.0
176
     0
 90
        0
176
     0
 62
    18
420
        0
176
     0
 90
       50
176
     0
 90
        3
176
     0
 62
     5
420
      255
176
     0
290
     0
176
     0
 90
       50
176
     0
 90
       50
176
     0
 90
       50
176
     0
290
     0
176
     0
 90
       50
176
     0
 62
   256
176
     0
 40
1.0
176
     0
 90
        2
176
     0
  1
strokes_ogs.tif
176
     0
290
     0
176
     0
 40
1.0
176
     0
 40
1.0
176
     0
  0
VISUALSTYLE
  5
33
102
{ACAD_REACTORS
330
2A
102
}
330
2A
100
AcDbVisualStyle
  2
Realistic
 70
     8
177
     3
291
     0
 70
    58
 90
        2
176
     1
 90
        3
176
     1
 90
        0
176
     1
 90
        2
176
     1
 40
0.6
176
     1
 40
30.0
176
     1
 62
     7
420
 16777215
176
     1
 90
        0
176
     1
 90
        0
176
     1
 62
     7
176
     1
 62
   257
176
     1
 90
        1
176
     1
 90
        1
176
     1
 40
1.0
176
     1
 90
        8
176
     1
 62
   257
176
     1
 40
1.0
176
     1
 90
        1
176
     1
 90
        6
176
     1
 90
        2
176
     1
 62
     7
176
     1
 90
        3
176
     1
 90
        0
176
     1
 90
        0
176
     1
290
     0
176
     1
 90
       13
176
     1
 40
0.0
176
     1
 90
        0
176
     1
290
     0
176
     1
290
     1
176
     1
290
     1
176
     1
290
     0
176
     1
290
     0
176
     1
290
     0
176
     1
290
     0
176
     1
290
     0
176
     1
290
     0
176
     1
 90
       50
176
     1
 40
0.0
176
     1
 40
1.0
176
     1
 90
        0
176
     1
 62
    18
420
        0
176
     1
 90
       50
176
     1
 90
        3
176
     1
 62
     5
420
      255
176
     1
290
     0
176
     1
 90
       50
176
     1
 90
       50
176
     1
 90
       50
176
     1
290
     0
176
     1
 90
       50
176
     1
 62
   256
176
     0
 40
1.0
176
     0
 90
        2
176
     1
  1
strokes_ogs.tif
176
     1
290
     0
176
     1
 40
1.0
176
     1
 40
1.0
176
     1
  0
VISUALSTYLE
  5
42
102
{ACAD_REACTORS
330
2A
102
}
330
2A
100
AcDbVisualStyle
  2
Shaded
 70
    27
177
     3
291
     0
 70
    58
 90
        2
176
     1
 90
        2
176
     1
 90
        1
176
     1
 90
        2
176
     1
 40
0.6
176
     1
 40
30.0
176
     1
 62
     7
420
 16777215
176
     1
 90
        0
176
     1
 90
        4
176
     1
 62
     7
176
     1
 62
   257
176
     1
 90
        1
176
     1
 90
        1
176
     1
 40
1.0
176
     1
 90
        8
176
     1
 62
   257
176
     1
 40
1.0
176
     1
 90
        1
176
     1
 90
        6
176
     1
 90
        2
176
     1
 62
     8
420
  7895160
176
     1
 90
        3
176
     1
 90
        0
176
     1
 90
        0
176
     1
290
     0
176
     1
 90
        5
176
     1
 40
0.0
176
     1
 90
        0
176
     1
290
     0
176
     1
290
     1
176
     1
290
     1
176
     1
290
     0
176
     1
290
     0
176
     1
290
     0
176
     1
290
     0
176
     1
290
     0
176
     1
290
     0
176
     1
 90
       50
176
     1
 40
0.0
176
     1
 40
1.0
176
     1
 90
        0
176
     1
 62
    18
420
        0
176
     1
 90
       50
176
     1
 90
        3
176
     1
 62
     5
420
      255
176
     1
290
     0
176
     1
 90
       50
176
     1
 90
       50
176
     1
 90
       50
176
     1
290
     0
176
     1
 90
       50
176
     1
 62
   256
176
     0
 40
1.0
176
     0
 90
        2
176
     1
  1
strokes_ogs.tif
176
     1
290
     0
176
     1
 40
1.0
176
     1
 40
1.0
176
     1
  0
VISUALSTYLE
  5
41
102
{ACAD_REACTORS
330
2A
102
}
330
2A
100
AcDbVisualStyle
  2
Shaded with edges
 70
    26
177
     3
291
     0
 70
    58
 90
        2
176
     1
 90
        2
176
     1
 90
        1
176
     1
 90
        2
176
     1
 40
0.6
176
     1
 40
30.0
176
     1
 62
     7
420
 16777215
176
     1
 90
        1
176
     1
 90
       10
176
     1
 62
     7
176
     1
 62
   257
176
     1
 90
        2
176
     1
 90
        1
176
     1
 40
1.0
176
     1
 90
        8
176
     1
 62
   257
176
     1
 40
1.0
176
     1
 90
        1
176
     1
 90
        6
176
     1
 90
        2
176
     1
 62
     7
176
     1
 90
        3
176
     1
 90
        0
176
     1
 90
        0
176
     1
290
     0
176
     1
 90
        5
176
     1
 40
0.0
176
     1
 90
        0
176
     1
290
     0
176
     1
290
     1
176
     1
290
     1
176
     1
290
     0
176
     1
290
     0
176
     1
290
     0
176
     1
290
     0
176
     1
290
     0
176
     1
290
     0
176
     1
 90
       50
176
     1
 40
0.0
176
     1
 40
1.0
176
     1
 90
        0
176
     1
 62
    18
420
        0
176
     1
 90
       50
176
     1
 90
        3
176
     1
 62
     5
420
      255
176
     1
290
     0
176
     1
 90
       50
176
     1
 90
       50
176
     1
 90
       50
176
     1
290
     0
176
     1
 90
       50
176
     1
 62
   256
176
     0
 40
1.0
176
     0
 90
        2
176
     1
  1
strokes_ogs.tif
176
     1
290
     0
176
     1
 40
1.0
176
     1
 40
1.0
176
     1
  0
VISUALSTYLE
  5
3E
102
{ACAD_REACTORS
330
2A
102
}
330
2A
100
AcDbVisualStyle
  2
Shades of Gray
 70
    23
177
     3
291
     0
 70
    58
 90
        2
176
     1
 90
        2
176
     1
 90
        3
176
     1
 90
        0
176
     1
 40
0.6
176
     1
 40
30.0
176
     1
 62
     7
420
 16777215
176
     1
 90
        2
176
     1
 90
        2
176
     1
 62
     7
176
     1
 62
     7
176
     1
 90
        1
176
     1
 90
        1
176
     1
 40
40.0
176
     1
 90
        8
176
     1
 62
     7
176
     1
 40
1.0
176
     1
 90
        1
176
     1
 90
        6
176
     1
 90
        2
176
     1
 62
     7
176
     1
 90
        3
176
     1
 90
        0
176
     1
 90
        0
176
     1
290
     0
176
     1
 90
        1
176
     1
 40
0.0
176
     1
 90
        0
176
     1
290
     0
176
     1
290
     1
176
     1
290
     1
176
     1
290
     0
176
     1
290
     0
176
     1
290
     0
176
     1
290
     0
176
     1
290
     0
176
     1
290
     0
176
     1
 90
       50
176
     1
 40
0.0
176
     1
 40
1.0
176
     1
 90
        0
176
     1
 62
    18
420
        0
176
     1
 90
       50
176
     1
 90
        3
176
     1
 62
     5
420
      255
176
     1
290
     0
176
     1
 90
       50
176
     1
 90
       50
176
     1
 90
       50
176
     1
290
     0
176
     1
 90
       50
176
     1
 62
   256
176
     0
 40
1.0
176
     0
 90
        2
176
     1
  1
strokes_ogs.tif
176
     1
290
     0
176
     1
 40
1.0
176
     1
 40
1.0
176
     1
  0
VISUALSTYLE
  5
3F
102
{ACAD_REACTORS
330
2A
102
}
330
2A
100
AcDbVisualStyle
  2
Sketchy
 70
    24
177
     3
291
     0
 70
    58
 90
        1
176
     1
 90
        2
176
     1
 90
        2
176
     1
 90
        0
176
     1
 40
0.6
176
     1
 40
30.0
176
     1
 62
     7
420
 16777215
176
     1
 90
        2
176
     1
 90
        2
176
     1
 62
     7
176
     1
 62
     7
176
     1
 90
        1
176
     1
 90
        1
176
     1
 40
40.0
176
     1
 90
       11
176
     1
 62
     7
176
     1
 40
1.0
176
     1
 90
        1
176
     1
 90
        6
176
     1
 90
        2
176
     1
 62
     7
176
     1
 90
        6
176
     1
 90
        0
176
     1
 90
        0
176
     1
290
     0
176
     1
 90
        1
176
     1
 40
0.0
176
     1
 90
        0
176
     1
290
     0
176
     1
290
     1
176
     1
290
     1
176
     1
290
     0
176
     1
290
     0
176
     1
290
     0
176
     1
290
     0
176
     1
290
     0
176
     1
290
     0
176
     1
 90
       50
176
     1
 40
0.0
176
     1
 40
1.0
176
     1
 90
        0
176
     1
 62
    18
420
        0
176
     1
 90
       50
176
     1
 90
        3
176
     1
 62
     5
420
      255
176
     1
290
     0
176
     1
 90
       50
176
     1
 90
       50
176
     1
 90
       50
176
     1
290
     0
176
     1
 90
       50
176
     1
 62
   256
176
     0
 40
1.0
176
     0
 90
        2
176
     1
  1
strokes_ogs.tif
176
     1
290
     0
176
     1
 40
1.0
176
     1
 40
1.0
176
     1
  0
VISUALSTYLE
  5
37
102
{ACAD_REACTORS
330
2A
102
}
330
2A
100
AcDbVisualStyle
  2
Thicken
 70
    13
177
     3
291
     1
 70
    58
 90
        2
176
     1
 90
        2
176
     1
 90
        0
176
     1
 90
        0
176
     1
 40
0.6
176
     1
 40
30.0
176
     1
 62
     7
420
 16777215
176
     1
 90
        1
176
     1
 90
        4
176
     1
 62
     7
176
     1
 62
   257
176
     1
 90
        1
176
     1
 90
        1
176
     1
 40
1.0
176
     1
 90
       12
176
     1
 62
     7
176
     1
 40
1.0
176
     1
 90
        1
176
     1
 90
        6
176
     1
 90
        2
176
     1
 62
     7
176
     1
 90
        5
176
     1
 90
        0
176
     1
 90
        0
176
     1
290
     0
176
     1
 90
        1
176
     1
 40
0.0
176
     1
 90
        0
176
     1
290
     0
176
     1
290
     1
176
     1
290
     1
176
     1
290
     0
176
     1
290
     0
176
     1
290
     0
176
     1
290
     0
176
     1
290
     0
176
     1
290
     0
176
     1
 90
       50
176
     1
 40
0.0
176
     1
 40
1.0
176
     1
 90
        0
176
     1
 62
    18
420
        0
176
     1
 90
       50
176
     1
 90
        3
176
     1
 62
     5
420
      255
176
     1
290
     0
176
     1
 90
       50
176
     1
 90
       50
176
     1
 90
       50
176
     1
290
     0
176
     1
 90
       50
176
     1
 62
   256
176
     0
 40
1.0
176
     0
 90
        2
176
     1
  1
strokes_ogs.tif
176
     1
290
     0
176
     1
 40
1.0
176
     1
 40
1.0
176
     1
  0
VISUALSTYLE
  5
30
102
{ACAD_REACTORS
330
2A
102
}
330
2A
100
AcDbVisualStyle
  2
Wireframe
 70
     5
177
     3
291
     0
 70
    58
 90
        0
176
     1
 90
        2
176
     1
 90
        0
176
     1
 90
        0
176
     1
 40
0.6
176
     1
 40
30.0
176
     1
 62
     7
420
 16777215
176
     1
 90
        1
176
     1
 90
        4
176
     1
 62
     7
176
     1
 62
   257
176
     1
 90
        1
176
     1
 90
        1
176
     1
 40
1.0
176
     1
 90
        0
176
     1
 62
   257
176
     1
 40
1.0
176
     1
 90
        1
176
     1
 90
        6
176
     1
 90
        2
176
     1
 62
     7
176
     1
 90
        3
176
     1
 90
        0
176
     1
 90
        0
176
     1
290
     0
176
     1
 90
        1
176
     1
 40
0.0
176
     1
 90
        0
176
     1
290
     0
176
     1
290
     1
176
     1
290
     1
176
     1
290
     0
176
     1
290
     0
176
     1
290
     0
176
     1
290
     0
176
     1
290
     0
176
     1
290
     0
176
     1
 90
       50
176
     1
 40
0.0
176
     1
 40
1.0
176
     1
 90
        0
176
     1
 62
    18
420
        0
176
     1
 90
       50
176
     1
 90
        3
176
     1
 62
     5
420
      255
176
     1
290
     0
176
     1
 90
       50
176
     1
 90
       50
176
     1
 90
       50
176
     1
290
     0
176
     1
 90
       50
176
     1
 62
   256
176
     0
 40
1.0
176
     0
 90
        2
176
     1
  1
strokes_ogs.tif
176
     1
290
     0
176
     1
 40
1.0
176
     1
 40
1.0
176
     1
  0
VISUALSTYLE
  5
40
102
{ACAD_REACTORS
330
2A
102
}
330
2A
100
AcDbVisualStyle
  2
X-Ray
 70
    25
177
     3
291
     0
 70
    58
 90
        2
176
     1
 90
        2
176
     1
 90
        1
176
     1
 90
        1
176
     1
 40
0.5
176
     1
 40
30.0
176
     1
 62
     7
420
 16777215
176
     1
 90
        1
176
     1
 90
        0
176
     1
 62
     7
176
     1
 62
   257
176
     1
 90
        1
176
     1
 90
        1
176
     1
 40
1.0
176
     1
 90
        8
176
     1
 62
     7
176
     1
 40
1.0
176
     1
 90
        1
176
     1
 90
        6
176
     1
 90
        2
176
     1
 62
     7
176
     1
 90
        3
176
     1
 90
        0
176
     1
 90
        0
176
     1
290
     0
176
     1
 90
       13
176
     1
 40
0.0
176
     1
 90
        0
176
     1
290
     0
176
     1
290
     1
176
     1
290
     1
176
     1
290
     0
176
     1
290
     0
176
     1
290
     0
176
     1
290
     0
176
     1
290
     0
176
     1
290
     0
176
     1
 90
       50
176
     1
 40
0.0
176
     1
 40
1.0
176
     1
 90
        0
176
     1
 62
    18
420
        0
176
     1
 90
       50
176
     1
 90
        3
176
     1
 62
     5
420
      255
176
     1
290
     0
176
     1
 90
       50
176
     1
 90
       50
176
     1
 90
       50
176
     1
290
     0
176
     1
 90
       50
176
     1
 62
   256
176
     0
 40
1.0
176
     0
 90
        2
176
     1
  1
strokes_ogs.tif
176
     1
290
     0
176
     1
 40
1.0
176
     1
 40
1.0
176
     1
  0
DICTIONARYVAR
  5
175
102
{ACAD_REACTORS
330
174
102
}
330
174
100
DictionaryVariables
280
     0
  1
1:1
  0
DICTIONARYVAR
  5
17A
102
{ACAD_REACTORS
330
174
102
}
330
174
100
DictionaryVariables
280
     0
  1
Standard
  0
DICTIONARYVAR
  5
179
102
{ACAD_REACTORS
330
174
102
}
330
174
100
DictionaryVariables
280
     0
  1
Standard
  0
DICTIONARY
  5
176
330
6A
100
AcDbDictionary
280
     1
281
     1
  3
ACAD_ROUNDTRIP_2008_TABLESTYLE_CELLSTYLEMAP
360
177
  0
CELLSTYLEMAP
  5
177
102
{ACAD_REACTORS
330
176
102
}
330
176
100
AcDbCellStyleMap
 90
        3
300
CELLSTYLE
  1
TABLEFORMAT_BEGIN
 90
        5
170
     1
 91
        0
 92
    32768
 62
   257
 93
        1
300
CONTENTFORMAT
  1
CONTENTFORMAT_BEGIN
 90
        0
 91
        0
 92
        4
 93
        0
300

 40
0.0
140
1.0
 94
        5
 62
     0
340
11
144
0.25
309
CONTENTFORMAT_END
171
     1
301
MARGIN
  1
CELLMARGIN_BEGIN
 40
0.06
 40
0.06
 40
0.06
 40
0.06
 40
0.06
 40
0.06
309
CELLMARGIN_END
 94
        6
 95
        1
302
GRIDFORMAT
  1
GRIDFORMAT_BEGIN
 90
        0
 91
        1
 62
     0
 92
       -2
340
14
 93
        0
 40
0.045
309
GRIDFORMAT_END
 95
        2
302
GRIDFORMAT
  1
GRIDFORMAT_BEGIN
 90
        0
 91
        1
 62
     0
 92
       -2
340
14
 93
        0
 40
0.045
309
GRIDFORMAT_END
 95
        4
302
GRIDFORMAT
  1
GRIDFORMAT_BEGIN
 90
        0
 91
        1
 62
     0
 92
       -2
340
14
 93
        0
 40
0.045
309
GRIDFORMAT_END
 95
        8
302
GRIDFORMAT
  1
GRIDFORMAT_BEGIN
 90
        0
 91
        1
 62
     0
 92
       -2
340
14
 93
        0
 40
0.045
309
GRIDFORMAT_END
 95
       16
302
GRIDFORMAT
  1
GRIDFORMAT_BEGIN
 90
        0
 91
        1
 62
     0
 92
       -2
340
14
 93
        0
 40
0.045
309
GRIDFORMAT_END
 95
       32
302
GRIDFORMAT
  1
GRIDFORMAT_BEGIN
 90
        0
 91
        1
 62
     0
 92
       -2
340
14
 93
        0
 40
0.045
309
GRIDFORMAT_END
309
TABLEFORMAT_END
  1
CELLSTYLE_BEGIN
 90
        1
 91
        1
300
_TITLE
309
CELLSTYLE_END
300
CELLSTYLE
  1
TABLEFORMAT_BEGIN
 90
        5
170
     1
 91
        0
 92
        0
 62
   257
 93
        1
300
CONTENTFORMAT
  1
CONTENTFORMAT_BEGIN
 90
        0
 91
        0
 92
        4
 93
        0
300

 40
0.0
140
1.0
 94
        5
 62
     0
340
11
144
0.18
309
CONTENTFORMAT_END
171
     1
301
MARGIN
  1
CELLMARGIN_BEGIN
 40
0.06
 40
0.06
 40
0.06
 40
0.06
 40
0.06
 40
0.06
309
CELLMARGIN_END
 94
        6
 95
        1
302
GRIDFORMAT
  1
GRIDFORMAT_BEGIN
 90
        0
 91
        1
 62
     0
 92
       -2
340
14
 93
        0
 40
0.045
309
GRIDFORMAT_END
 95
        2
302
GRIDFORMAT
  1
GRIDFORMAT_BEGIN
 90
        0
 91
        1
 62
     0
 92
       -2
340
14
 93
        0
 40
0.045
309
GRIDFORMAT_END
 95
        4
302
GRIDFORMAT
  1
GRIDFORMAT_BEGIN
 90
        0
 91
        1
 62
     0
 92
       -2
340
14
 93
        0
 40
0.045
309
GRIDFORMAT_END
 95
        8
302
GRIDFORMAT
  1
GRIDFORMAT_BEGIN
 90
        0
 91
        1
 62
     0
 92
       -2
340
14
 93
        0
 40
0.045
309
GRIDFORMAT_END
 95
       16
302
GRIDFORMAT
  1
GRIDFORMAT_BEGIN
 90
        0
 91
        1
 62
     0
 92
       -2
340
14
 93
        0
 40
0.045
309
GRIDFORMAT_END
 95
       32
302
GRIDFORMAT
  1
GRIDFORMAT_BEGIN
 90
        0
 91
        1
 62
     0
 92
       -2
340
14
 93
        0
 40
0.045
309
GRIDFORMAT_END
309
TABLEFORMAT_END
  1
CELLSTYLE_BEGIN
 90
        2
 91
        1
300
_HEADER
309
CELLSTYLE_END
300
CELLSTYLE
  1
TABLEFORMAT_BEGIN
 90
        5
170
     1
 91
        0
 92
        0
 62
   257
 93
        1
300
CONTENTFORMAT
  1
CONTENTFORMAT_BEGIN
 90
        0
 91
        0
 92
        4
 93
        0
300

 40
0.0
140
1.0
 94
        2
 62
     0
340
11
144
0.18
309
CONTENTFORMAT_END
171
     1
301
MARGIN
  1
CELLMARGIN_BEGIN
 40
0.06
 40
0.06
 40
0.06
 40
0.06
 40
0.06
 40
0.06
309
CELLMARGIN_END
 94
        6
 95
        1
302
GRIDFORMAT
  1
GRIDFORMAT_BEGIN
 90
        0
 91
        1
 62
     0
 92
       -2
340
14
 93
        0
 40
0.045
309
GRIDFORMAT_END
 95
        2
302
GRIDFORMAT
  1
GRIDFORMAT_BEGIN
 90
        0
 91
        1
 62
     0
 92
       -2
340
14
 93
        0
 40
0.045
309
GRIDFORMAT_END
 95
        4
302
GRIDFORMAT
  1
GRIDFORMAT_BEGIN
 90
        0
 91
        1
 62
     0
 92
       -2
340
14
 93
        0
 40
0.045
309
GRIDFORMAT_END
 95
        8
302
GRIDFORMAT
  1
GRIDFORMAT_BEGIN
 90
        0
 91
        1
 62
     0
 92
       -2
340
14
 93
        0
 40
0.045
309
GRIDFORMAT_END
 95
       16
302
GRIDFORMAT
  1
GRIDFORMAT_BEGIN
 90
        0
 91
        1
 62
     0
 92
       -2
340
14
 93
        0
 40
0.045
309
GRIDFORMAT_END
 95
       32
302
GRIDFORMAT
  1
GRIDFORMAT_BEGIN
 90
        0
 91
        1
 62
     0
 92
       -2
340
14
 93
        0
 40
0.045
309
GRIDFORMAT_END
309
TABLEFORMAT_END
  1
CELLSTYLE_BEGIN
 90
        3
 91
        2
300
_DATA
309
CELLSTYLE_END
  0
ENDSEC
  0
EOF