0
SECTION
  2
HEADER
  9
$ACADVER
  1
AC1027
  9
$ACADMAINTVER
 70
     8
  9
$DWGCODEPAGE
  3
ANSI_1252
  9
$REQUIREDVERSIONS
160
                 0
  9
$COMMENTS
  1
File was created by Cadenas
  9
$CUSTOMPROPERTYTAG
  1
NN
  9
$CUSTOMPROPERTY
  1
Set Screw Medium Duty Four-Bolt Flange Inch Bore
  9
$CUSTOMPROPERTYTAG
  1
NT
  9
$CUSTOMPROPERTY
  1
SC 4 Bolt Flange Bearings -(Medium Duty)
  9
$CUSTOMPROPERTYTAG
  1
NB
  9
$CUSTOMPROPERTY
  1
052002
  9
$CUSTOMPROPERTYTAG
  1
NBSYN
  9
$CUSTOMPROPERTY
  1
$PN.
  9
$CUSTOMPROPERTYTAG
  1
LINA
  9
$CUSTOMPROPERTY
  1
052002
  9
$CUSTOMPROPERTYTAG
  1
SERIES
  9
$CUSTOMPROPERTY
  1
214
  9
$CUSTOMPROPERTYTAG
  1
SS
  9
$CUSTOMPROPERTY
  1
2-7/16
  9
$CUSTOMPROPERTYTAG
  1
PN
  9
$CUSTOMPROPERTY
  1
052002
  9
$CUSTOMPROPERTYTAG
  1
DESCRIPTION
  9
$CUSTOMPROPERTY
  1
F4B-SCM-207-NL
  9
$CUSTOMPROPERTYTAG
  1
WEIGHT
  9
$CUSTOMPROPERTY
  1
16.2
  9
$CUSTOMPROPERTYTAG
  1
A
  9
$CUSTOMPROPERTY
  1
2.54
  9
$CUSTOMPROPERTYTAG
  1
B
  9
$CUSTOMPROPERTY
  1
7.38
  9
$CUSTOMPROPERTYTAG
  1
C
  9
$CUSTOMPROPERTY
  1
2.78
  9
$CUSTOMPROPERTYTAG
  1
D
  9
$CUSTOMPROPERTY
  1
5.88
  9
$CUSTOMPROPERTYTAG
  1
F
  9
$CUSTOMPROPERTY
  1
5/8
  9
$CUSTOMPROPERTYTAG
  1
H
  9
$CUSTOMPROPERTY
  1
0.69
  9
$CUSTOMPROPERTYTAG
  1
J
  9
$CUSTOMPROPERTY
  1
0.60
  9
$CUSTOMPROPERTYTAG
  1
L
  9
$CUSTOMPROPERTY
  1
3.31
  9
$CUSTOMPROPERTYTAG
  1
N
  9
$CUSTOMPROPERTY
  1
3.69
  9
$CUSTOMPROPERTYTAG
  1
COMPANY
  9
$CUSTOMPROPERTY
  1
baldor
  9
$INSBASE
 10
0.0
 20
0.0
 30
0.0
  9
$EXTMIN
 10
1.000000000000000E+20
 20
1.000000000000000E+20
 30
1.000000000000000E+20
  9
$EXTMAX
 10
-1.000000000000000E+20
 20
-1.000000000000000E+20
 30
-1.000000000000000E+20
  9
$LIMMIN
 10
0.0
 20
0.0
  9
$LIMMAX
 10
12.0
 20
9.0
  9
$ORTHOMODE
 70
     0
  9
$REGENMODE
 70
     1
  9
$FILLMODE
 70
     1
  9
$QTEXTMODE
 70
     0
  9
$MIRRTEXT
 70
     1
  9
$LTSCALE
 40
1.0
  9
$ATTMODE
 70
     1
  9
$TEXTSIZE
 40
0.2
  9
$TRACEWID
 40
0.05
  9
$TEXTSTYLE
  7
Standard
  9
$CLAYER
  8
0
  9
$CELTYPE
  6
ByLayer
  9
$CECOLOR
 62
   256
  9
$CELTSCALE
 40
1.0
  9
$DISPSILH
 70
     0
  9
$DIMSCALE
 40
1.0
  9
$DIMASZ
 40
0.18
  9
$DIMEXO
 40
0.0625
  9
$DIMDLI
 40
0.38
  9
$DIMRND
 40
0.0
  9
$DIMDLE
 40
0.0
  9
$DIMEXE
 40
0.18
  9
$DIMTP
 40
0.0
  9
$DIMTM
 40
0.0
  9
$DIMTXT
 40
0.18
  9
$DIMCEN
 40
0.09
  9
$DIMTSZ
 40
0.0
  9
$DIMTOL
 70
     0
  9
$DIMLIM
 70
     0
  9
$DIMTIH
 70
     1
  9
$DIMTOH
 70
     1
  9
$DIMSE1
 70
     0
  9
$DIMSE2
 70
     0
  9
$DIMTAD
 70
     0
  9
$DIMZIN
 70
     0
  9
$DIMBLK
  1

  9
$DIMASO
 70
     1
  9
$DIMSHO
 70
     1
  9
$DIMPOST
  1

  9
$DIMAPOST
  1

  9
$DIMALT
 70
     0
  9
$DIMALTD
 70
     2
  9
$DIMALTF
 40
25.4
  9
$DIMLFAC
 40
1.0
  9
$DIMTOFL
 70
     0
  9
$DIMTVP
 40
0.0
  9
$DIMTIX
 70
     0
  9
$DIMSOXD
 70
     0
  9
$DIMSAH
 70
     0
  9
$DIMBLK1
  1

  9
$DIMBLK2
  1

  9
$DIMSTYLE
  2
Standard
  9
$DIMCLRD
 70
     0
  9
$DIMCLRE
 70
     0
  9
$DIMCLRT
 70
     0
  9
$DIMTFAC
 40
1.0
  9
$DIMGAP
 40
0.09
  9
$DIMJUST
 70
     0
  9
$DIMSD1
 70
     0
  9
$DIMSD2
 70
     0
  9
$DIMTOLJ
 70
     1
  9
$DIMTZIN
 70
     0
  9
$DIMALTZ
 70
     0
  9
$DIMALTTZ
 70
     0
  9
$DIMUPT
 70
     0
  9
$DIMDEC
 70
     4
  9
$DIMTDEC
 70
     4
  9
$DIMALTU
 70
     2
  9
$DIMALTTD
 70
     2
  9
$DIMTXSTY
  7
Standard
  9
$DIMAUNIT
 70
     0
  9
$DIMADEC
 70
     0
  9
$DIMALTRND
 40
0.0
  9
$DIMAZIN
 70
     0
  9
$DIMDSEP
 70
    46
  9
$DIMATFIT
 70
     3
  9
$DIMFRAC
 70
     0
  9
$DIMLDRBLK
  1

  9
$DIMLUNIT
 70
     2
  9
$DIMLWD
 70
    -2
  9
$DIMLWE
 70
    -2
  9
$DIMTMOVE
 70
     0
  9
$DIMFXL
 40
1.0
  9
$DIMFXLON
 70
     0
  9
$DIMJOGANG
 40
0.7853981633974483
  9
$DIMTFILL
 70
     0
  9
$DIMTFILLCLR
 70
     0
  9
$DIMARCSYM
 70
     0
  9
$DIMLTYPE
  6

  9
$DIMLTEX1
  6

  9
$DIMLTEX2
  6

  9
$DIMTXTDIRECTION
 70
     0
  9
$LUNITS
 70
     2
  9
$LUPREC
 70
     4
  9
$SKETCHINC
 40
0.1
  9
$FILLETRAD
 40
0.5
  9
$AUNITS
 70
     0
  9
$AUPREC
 70
     0
  9
$MENU
  1
.
  9
$ELEVATION
 40
0.0
  9
$PELEVATION
 40
0.0
  9
$THICKNESS
 40
0.0
  9
$LIMCHECK
 70
     0
  9
$CHAMFERA
 40
0.0
  9
$CHAMFERB
 40
0.0
  9
$CHAMFERC
 40
0.0
  9
$CHAMFERD
 40
0.0
  9
$SKPOLY
 70
     0
  9
$TDCREATE
 40
2458169.009574826
  9
$TDUCREATE
 40
2458168.96790816
  9
$TDUPDATE
 40
2458169.009575012
  9
$TDUUPDATE
 40
2458168.967908345
  9
$TDINDWG
 40
0.0000000116
  9
$TDUSRTIMER
 40
0.0000000116
  9
$USRTIMER
 70
     1
  9
$ANGBASE
 50
0.0
  9
$ANGDIR
 70
     0
  9
$PDMODE
 70
     0
  9
$PDSIZE
 40
0.0
  9
$PLINEWID
 40
0.0
  9
$SPLFRAME
 70
     0
  9
$SPLINETYPE
 70
     6
  9
$SPLINESEGS
 70
     8
  9
$HANDSEED
  5
170
  9
$SURFTAB1
 70
     6
  9
$SURFTAB2
 70
     6
  9
$SURFTYPE
 70
     6
  9
$SURFU
 70
     6
  9
$SURFV
 70
     6
  9
$UCSBASE
  2

  9
$UCSNAME
  2

  9
$UCSORG
 10
0.0
 20
0.0
 30
0.0
  9
$UCSXDIR
 10
1.0
 20
0.0
 30
0.0
  9
$UCSYDIR
 10
0.0
 20
1.0
 30
0.0
  9
$UCSORTHOREF
  2

  9
$UCSORTHOVIEW
 70
     0
  9
$UCSORGTOP
 10
0.0
 20
0.0
 30
0.0
  9
$UCSORGBOTTOM
 10
0.0
 20
0.0
 30
0.0
  9
$UCSORGLEFT
 10
0.0
 20
0.0
 30
0.0
  9
$UCSORGRIGHT
 10
0.0
 20
0.0
 30
0.0
  9
$UCSORGFRONT
 10
0.0
 20
0.0
 30
0.0
  9
$UCSORGBACK
 10
0.0
 20
0.0
 30
0.0
  9
$PUCSBASE
  2

  9
$PUCSNAME
  2

  9
$PUCSORG
 10
0.0
 20
0.0
 30
0.0
  9
$PUCSXDIR
 10
1.0
 20
0.0
 30
0.0
  9
$PUCSYDIR
 10
0.0
 20
1.0
 30
0.0
  9
$PUCSORTHOREF
  2

  9
$PUCSORTHOVIEW
 70
     0
  9
$PUCSORGTOP
 10
0.0
 20
0.0
 30
0.0
  9
$PUCSORGBOTTOM
 10
0.0
 20
0.0
 30
0.0
  9
$PUCSORGLEFT
 10
0.0
 20
0.0
 30
0.0
  9
$PUCSORGRIGHT
 10
0.0
 20
0.0
 30
0.0
  9
$PUCSORGFRONT
 10
0.0
 20
0.0
 30
0.0
  9
$PUCSORGBACK
 10
0.0
 20
0.0
 30
0.0
  9
$USERI1
 70
     0
  9
$USERI2
 70
     0
  9
$USERI3
 70
     0
  9
$USERI4
 70
     0
  9
$USERI5
 70
     0
  9
$USERR1
 40
0.0
  9
$USERR2
 40
0.0
  9
$USERR3
 40
0.0
  9
$USERR4
 40
0.0
  9
$USERR5
 40
0.0
  9
$WORLDVIEW
 70
     1
  9
$SHADEDGE
 70
     3
  9
$SHADEDIF
 70
    70
  9
$TILEMODE
 70
     1
  9
$MAXACTVP
 70
    64
  9
$PINSBASE
 10
0.0
 20
0.0
 30
0.0
  9
$PLIMCHECK
 70
     0
  9
$PEXTMIN
 10
1.000000000000000E+20
 20
1.000000000000000E+20
 30
1.000000000000000E+20
  9
$PEXTMAX
 10
-1.000000000000000E+20
 20
-1.000000000000000E+20
 30
-1.000000000000000E+20
  9
$PLIMMIN
 10
0.0
 20
0.0
  9
$PLIMMAX
 10
12.0
 20
9.0
  9
$UNITMODE
 70
     0
  9
$VISRETAIN
 70
     1
  9
$PLINEGEN
 70
     0
  9
$PSLTSCALE
 70
     1
  9
$TREEDEPTH
 70
  3020
  9
$CMLSTYLE
  2
Standard
  9
$CMLJUST
 70
     0
  9
$CMLSCALE
 40
1.0
  9
$PROXYGRAPHICS
 70
     1
  9
$MEASUREMENT
 70
     0
  9
$CELWEIGHT
370
    -1
  9
$ENDCAPS
280
     0
  9
$JOINSTYLE
280
     0
  9
$LWDISPLAY
290
     0
  9
$INSUNITS
 70
     1
  9
$HYPERLINKBASE
  1

  9
$STYLESHEET
  1

  9
$XEDIT
290
     1
  9
$CEPSNTYPE
380
     0
  9
$PSTYLEMODE
290
     1
  9
$FINGERPRINTGUID
  2
{174031BC-11F4-4063-A481-DA773B367FA4}
  9
$VERSIONGUID
  2
{FAEB1C32-E019-11D5-929B-00C0DF256EC4}
  9
$EXTNAMES
290
     1
  9
$PSVPSCALE
 40
0.0
  9
$OLESTARTUP
290
     0
  9
$SORTENTS
280
   127
  9
$INDEXCTL
280
     0
  9
$HIDETEXT
280
     1
  9
$XCLIPFRAME
280
     2
  9
$HALOGAP
280
     0
  9
$OBSCOLOR
 70
   257
  9
$OBSLTYPE
280
     0
  9
$INTERSECTIONDISPLAY
280
     0
  9
$INTERSECTIONCOLOR
 70
   257
  9
$DIMASSOC
280
     2
  9
$PROJECTNAME
  1

  9
$CAMERADISPLAY
290
     0
  9
$LENSLENGTH
 40
50.0
  9
$CAMERAHEIGHT
 40
0.0
  9
$STEPSPERSEC
 40
2.0
  9
$STEPSIZE
 40
6.0
  9
$3DDWFPREC
 40
2.0
  9
$PSOLWIDTH
 40
0.25
  9
$PSOLHEIGHT
 40
4.0
  9
$LOFTANG1
 40
1.570796326794897
  9
$LOFTANG2
 40
1.570796326794897
  9
$LOFTMAG1
 40
0.0
  9
$LOFTMAG2
 40
0.0
  9
$LOFTPARAM
 70
     7
  9
$LOFTNORMALS
280
     1
  9
$LATITUDE
 40
37.795
  9
$LONGITUDE
 40
-122.394
  9
$NORTHDIRECTION
 40
0.0
  9
$TIMEZONE
 70
 -8000
  9
$LIGHTGLYPHDISPLAY
280
     1
  9
$TILEMODELIGHTSYNCH
280
     1
  9
$CMATERIAL
347
44
  9
$SOLIDHIST
280
     0
  9
$SHOWHIST
280
     1
  9
$DWFFRAME
280
     2
  9
$DGNFRAME
280
     2
  9
$REALWORLDSCALE
290
     1
  9
$INTERFERECOLOR
 62
   256
  9
$CSHADOW
280
     0
  9
$SHADOWPLANELOCATION
 40
0.0
  0
ENDSEC
  0
SECTION
  2
CLASSES
  0
CLASS
  1
ACDBDICTIONARYWDFLT
  2
AcDbDictionaryWithDefault
  3
ObjectDBX Classes
 90
        0
 91
        4
280
     0
281
     0
  0
CLASS
  1
VISUALSTYLE
  2
AcDbVisualStyle
  3
ObjectDBX Classes
 90
     4095
 91
        4
280
     0
281
     0
  0
CLASS
  1
MATERIAL
  2
AcDbMaterial
  3
ObjectDBX Classes
 90
     1153
 91
        4
280
     0
281
     0
  0
CLASS
  1
SCALE
  2
AcDbScale
  3
ObjectDBX Classes
 90
     1153
 91
        4
280
     0
281
     0
  0
CLASS
  1
TABLESTYLE
  2
AcDbTableStyle
  3
ObjectDBX Classes
 90
     4095
 91
        4
280
     0
281
     0
  0
CLASS
  1
MLEADERSTYLE
  2
AcDbMLeaderStyle
  3
ACDB_MLEADERSTYLE_CLASS
 90
     4095
 91
        4
280
     0
281
     0
  0
CLASS
  1
SUN
  2
AcDbSun
  3
SCENEOE
 90
     1153
 91
        4
280
     0
281
     0
  0
CLASS
  1
DICTIONARYVAR
  2
AcDbDictionaryVar
  3
ObjectDBX Classes
 90
        0
 91
        4
280
     0
281
     0
  0
CLASS
  1
CELLSTYLEMAP
  2
AcDbCellStyleMap
  3
ObjectDBX Classes
 90
     1152
 91
        4
280
     0
281
     0
  0
ENDSEC
  0
SECTION
  2
TABLES
  0
TABLE
  2
VPORT
  5
8
330
0
100
AcDbSymbolTable
 70
     1
  0
VPORT
  5
29
330
8
100
AcDbSymbolTableRecord
100
AcDbViewportTableRecord
  2
*Active
 70
     0
 10
0.0
 20
0.0
 11
1.0
 21
1.0
 12
0.0
 22
-1.399
 13
0.0
 23
0.0
 14
0.5
 24
0.5
 15
0.5
 25
0.5
 16
0.0
 26
0.0
 36
1.0
 17
0.0
 27
0.0
 37
0.0
 40
3.07632
 41
2.446949602122015
 42
50.0
 43
0.0
 44
0.0
 50
0.0
 51
0.0
 71
     0
 72
   100
 73
     1
 74
     3
 75
     0
 76
     0
 77
     0
 78
     0
281
     0
 65
     1
110
0.0
120
0.0
130
0.0
111
1.0
121
0.0
131
0.0
112
0.0
122
1.0
132
0.0
 79
     0
146
0.0
348
2F
 60
     3
 61
     5
292
     1
282
     1
141
0.0
142
0.0
 63
   250
361
6D
  0
ENDTAB
  0
TABLE
  2
LTYPE
  5
5
330
0
100
AcDbSymbolTable
 70
     3
  0
LTYPE
  5
14
330
5
100
AcDbSymbolTableRecord
100
AcDbLinetypeTableRecord
  2
ByBlock
 70
     0
  3

 72
    65
 73
     0
 40
0.0
  0
LTYPE
  5
15
330
5
100
AcDbSymbolTableRecord
100
AcDbLinetypeTableRecord
  2
ByLayer
 70
     0
  3

 72
    65
 73
     0
 40
0.0
  0
LTYPE
  5
16
330
5
100
AcDbSymbolTableRecord
100
AcDbLinetypeTableRecord
  2
Continuous
 70
     0
  3
Solid line
 72
    65
 73
     0
 40
0.0
  0
LTYPE
  5
92
330
5
100
AcDbSymbolTableRecord
100
AcDbLinetypeTableRecord
  2
Dashed
 70
     0
  3

 72
    65
 73
     2
 40
2.0
 49
1.0
 74
     0
 49
-1.0
 74
     0
  0
LTYPE
  5
FB
330
5
100
AcDbSymbolTableRecord
100
AcDbLinetypeTableRecord
  2
Center
 70
     0
  3

 72
    65
 73
     4
 40
1.5
 49
0.45
 74
     0
 49
-0.5
 74
     0
 49
0.05
 74
     0
 49
-0.5
 74
     0
  0
ENDTAB
  0
TABLE
  2
LAYER
  5
2
330
0
100
AcDbSymbolTable
 70
     7
  0
LAYER
  5
10
330
2
100
AcDbSymbolTableRecord
100
AcDbLayerTableRecord
  2
0
 70
     0
 62
     7
  6
Continuous
370
    -3
390
F
347
46
348
0
  0
LAYER
  5
72
330
2
100
AcDbSymbolTableRecord
100
AcDbLayerTableRecord
  2
AM_6
 70
     0
 62
    -2
  6
Continuous
370
    35
390
F
347
46
348
0
  0
LAYER
  5
93
330
2
100
AcDbSymbolTableRecord
100
AcDbLayerTableRecord
  2
AM_9
 70
     0
 62
     6
  6
Dashed
370
    25
390
F
347
46
348
0
  0
LAYER
  5
96
330
2
100
AcDbSymbolTableRecord
100
AcDbLayerTableRecord
  2
AM_4
 70
     0
 62
     7
  6
Continuous
370
    50
390
F
347
46
348
0
  0
LAYER
  5
A1
330
2
100
AcDbSymbolTableRecord
100
AcDbLayerTableRecord
  2
AM_5
 70
     0
 62
     3
  6
Continuous
370
    25
390
F
347
46
348
0
  0
LAYER
  5
FC
330
2
100
AcDbSymbolTableRecord
100
AcDbLayerTableRecord
  2
AM_7
 70
     0
 62
     7
  6
Center
370
    25
390
F
347
46
348
0
  0
LAYER
  5
162
330
2
100
AcDbSymbolTableRecord
100
AcDbLayerTableRecord
  2
ConnectionPoints
 70
     0
 62
     7
  6
Continuous
370
    50
390
F
347
46
348
0
  0
ENDTAB
  0
TABLE
  2
STYLE
  5
3
330
0
100
AcDbSymbolTable
 70
     1
  0
STYLE
  5
11
330
3
100
AcDbSymbolTableRecord
100
AcDbTextStyleTableRecord
  2
Standard
 70
     0
 40
0.0
 41
1.0
 50
0.0
 71
     0
 42
0.2
  3
txt
  4

  0
ENDTAB
  0
TABLE
  2
VIEW
  5
6
330
0
100
AcDbSymbolTable
 70
     0
  0
ENDTAB
  0
TABLE
  2
UCS
  5
7
330
0
100
AcDbSymbolTable
 70
     0
  0
ENDTAB
  0
TABLE
  2
APPID
  5
9
330
0
100
AcDbSymbolTable
 70
     1
  0
APPID
  5
12
330
9
100
AcDbSymbolTableRecord
100
AcDbRegAppTableRecord
  2
ACAD
 70
     0
  0
ENDTAB
  0
TABLE
  2
DIMSTYLE
  5
A
330
0
100
AcDbSymbolTable
 70
     1
100
AcDbDimStyleTable
  0
DIMSTYLE
105
27
330
A
100
AcDbSymbolTableRecord
100
AcDbDimStyleTableRecord
  2
Standard
 70
     0
178
     0
340
11
  0
ENDTAB
  0
TABLE
  2
BLOCK_RECORD
  5
1
330
0
100
AcDbSymbolTable
 70
     5
  0
BLOCK_RECORD
  5
1F
330
1
100
AcDbSymbolTableRecord
100
AcDbBlockTableRecord
  2
*Model_Space
340
22
 70
     0
280
     1
281
     0
  0
BLOCK_RECORD
  5
1B
330
1
100
AcDbSymbolTableRecord
100
AcDbBlockTableRecord
  2
*Paper_Space
340
1E
 70
     0
280
     1
281
     0
  0
BLOCK_RECORD
  5
23
330
1
100
AcDbSymbolTableRecord
100
AcDbBlockTableRecord
  2
*Paper_Space0
340
26
 70
     0
280
     1
281
     0
  0
BLOCK_RECORD
  5
6E
330
1
100
AcDbSymbolTableRecord
100
AcDbBlockTableRecord
  2
1_052002_4
340
0
102
{BLKREFS
331
6F
102
}
 70
     0
280
     1
281
     0
  0
BLOCK_RECORD
  5
87
330
1
100
AcDbSymbolTableRecord
100
AcDbBlockTableRecord
  2
2_430026_0_in_052002_4
340
0
102
{BLKREFS
331
88
102
}
 70
     0
280
     1
281
     0
  0
BLOCK_RECORD
  5
A4
330
1
100
AcDbSymbolTableRecord
100
AcDbBlockTableRecord
  2
3_123361_0_in_052002_4
340
0
102
{BLKREFS
331
A5
102
}
 70
     0
280
     1
281
     0
  0
BLOCK_RECORD
  5
10D
330
1
100
AcDbSymbolTableRecord
100
AcDbBlockTableRecord
  2
4_052002H_0_in_052002_4
340
0
102
{BLKREFS
331
10E
102
}
 70
     0
280
     1
281
     0
  0
ENDTAB
  0
ENDSEC
  0
SECTION
  2
BLOCKS
  0
BLOCK
  5
20
330
1F
100
AcDbEntity
  8
0
100
AcDbBlockBegin
  2
*Model_Space
 70
     0
 10
0.0
 20
0.0
 30
0.0
  3
*Model_Space
  1

  0
ENDBLK
  5
21
330
1F
100
AcDbEntity
  8
0
100
AcDbBlockEnd
  0
BLOCK
  5
1C
330
1B
100
AcDbEntity
 67
     1
  8
0
100
AcDbBlockBegin
  2
*Paper_Space
 70
     0
 10
0.0
 20
0.0
 30
0.0
  3
*Paper_Space
  1

  0
ENDBLK
  5
1D
330
1B
100
AcDbEntity
 67
     1
  8
0
100
AcDbBlockEnd
  0
BLOCK
  5
24
330
23
100
AcDbEntity
  8
0
100
AcDbBlockBegin
  2
*Paper_Space0
 70
     0
 10
0.0
 20
0.0
 30
0.0
  3
*Paper_Space0
  1

  0
ENDBLK
  5
25
330
23
100
AcDbEntity
  8
0
100
AcDbBlockEnd
  0
BLOCK
  5
70
330
6E
100
AcDbEntity
  8
0
100
AcDbBlockBegin
  2
1_052002_4
 70
     2
 10
0.0
 20
0.0
 30
0.0
  3
1_052002_4
  1

  0
ATTDEF
  5
73
330
6E
100
AcDbEntity
  8
AM_6
100
AcDbText
 10
8.69
 20
0.109
 30
0.0
 40
0.5
  1
Set Screw Medium Duty Four-Bolt Flange Inch Bore
100
AcDbAttributeDefinition
  3

  2
NN
 70
     8
280
     0
  0
ATTDEF
  5
74
330
6E
100
AcDbEntity
  8
AM_6
100
AcDbText
 10
8.69
 20
-0.391
 30
0.0
 40
0.5
  1
SC 4 Bolt Flange Bearings -(Medium Duty)
100
AcDbAttributeDefinition
  3

  2
NT
 70
     8
280
     0
  0
ATTDEF
  5
75
330
6E
100
AcDbEntity
  8
AM_6
100
AcDbText
 10
8.69
 20
-0.891
 30
0.0
 40
0.5
  1
052002
100
AcDbAttributeDefinition
  3

  2
NB
 70
     8
280
     0
  0
ATTDEF
  5
76
330
6E
100
AcDbEntity
  8
AM_6
100
AcDbText
 10
8.69
 20
-1.391
 30
0.0
 40
0.5
  1
$PN.
100
AcDbAttributeDefinition
  3

  2
NBSYN
 70
     8
280
     0
  0
ATTDEF
  5
77
330
6E
100
AcDbEntity
  8
AM_6
100
AcDbText
 10
8.69
 20
-1.891
 30
0.0
 40
0.5
  1
052002
100
AcDbAttributeDefinition
  3

  2
LINA
 70
     8
280
     0
  0
ATTDEF
  5
78
330
6E
100
AcDbEntity
  8
AM_6
100
AcDbText
 10
8.69
 20
-2.391
 30
0.0
 40
0.5
  1
214
100
AcDbAttributeDefinition
  3

  2
SERIES
 70
     8
280
     0
  0
ATTDEF
  5
79
330
6E
100
AcDbEntity
  8
AM_6
100
AcDbText
 10
8.69
 20
-2.891
 30
0.0
 40
0.5
  1
2-7/16
100
AcDbAttributeDefinition
  3

  2
SS
 70
     8
280
     0
  0
ATTDEF
  5
7A
330
6E
100
AcDbEntity
  8
AM_6
100
AcDbText
 10
8.69
 20
-3.391
 30
0.0
 40
0.5
  1
052002
100
AcDbAttributeDefinition
  3

  2
PN
 70
     8
280
     0
  0
ATTDEF
  5
7B
330
6E
100
AcDbEntity
  8
AM_6
100
AcDbText
 10
8.69
 20
-3.891
 30
0.0
 40
0.5
  1
F4B-SCM-207-NL
100
AcDbAttributeDefinition
  3

  2
DESCRIPTION
 70
     8
280
     0
  0
ATTDEF
  5
7C
330
6E
100
AcDbEntity
  8
AM_6
100
AcDbText
 10
8.69
 20
-4.391
 30
0.0
 40
0.5
  1
16.2
100
AcDbAttributeDefinition
  3

  2
WEIGHT
 70
     8
280
     0
  0
ATTDEF
  5
7D
330
6E
100
AcDbEntity
  8
AM_6
100
AcDbText
 10
8.69
 20
-4.891
 30
0.0
 40
0.5
  1
2.54
100
AcDbAttributeDefinition
  3

  2
A
 70
     8
280
     0
  0
ATTDEF
  5
7E
330
6E
100
AcDbEntity
  8
AM_6
100
AcDbText
 10
8.69
 20
-5.391
 30
0.0
 40
0.5
  1
7.38
100
AcDbAttributeDefinition
  3

  2
B
 70
     8
280
     0
  0
ATTDEF
  5
7F
330
6E
100
AcDbEntity
  8
AM_6
100
AcDbText
 10
8.69
 20
-5.891
 30
0.0
 40
0.5
  1
2.78
100
AcDbAttributeDefinition
  3

  2
C
 70
     8
280
     0
  0
ATTDEF
  5
80
330
6E
100
AcDbEntity
  8
AM_6
100
AcDbText
 10
8.69
 20
-6.391
 30
0.0
 40
0.5
  1
5.88
100
AcDbAttributeDefinition
  3

  2
D
 70
     8
280
     0
  0
ATTDEF
  5
81
330
6E
100
AcDbEntity
  8
AM_6
100
AcDbText
 10
8.69
 20
-6.891
 30
0.0
 40
0.5
  1
5/8
100
AcDbAttributeDefinition
  3

  2
F
 70
     8
280
     0
  0
ATTDEF
  5
82
330
6E
100
AcDbEntity
  8
AM_6
100
AcDbText
 10
8.69
 20
-7.391
 30
0.0
 40
0.5
  1
0.69
100
AcDbAttributeDefinition
  3

  2
H
 70
     8
280
     0
  0
ATTDEF
  5
83
330
6E
100
AcDbEntity
  8
AM_6
100
AcDbText
 10
8.69
 20
-7.891
 30
0.0
 40
0.5
  1
0.60
100
AcDbAttributeDefinition
  3

  2
J
 70
     8
280
     0
  0
ATTDEF
  5
84
330
6E
100
AcDbEntity
  8
AM_6
100
AcDbText
 10
8.69
 20
-8.391
 30
0.0
 40
0.5
  1
3.31
100
AcDbAttributeDefinition
  3

  2
L
 70
     8
280
     0
  0
ATTDEF
  5
85
330
6E
100
AcDbEntity
  8
AM_6
100
AcDbText
 10
8.69
 20
-8.891
 30
0.0
 40
0.5
  1
3.69
100
AcDbAttributeDefinition
  3

  2
N
 70
     8
280
     0
  0
ATTDEF
  5
86
330
6E
100
AcDbEntity
  8
AM_6
100
AcDbText
 10
8.69
 20
-9.391
 30
0.0
 40
0.5
  1
baldor
100
AcDbAttributeDefinition
  3

  2
COMPANY
 70
     8
280
     0
  0
INSERT
  5
88
330
6E
100
AcDbEntity
  8
0
100
AcDbBlockReference
  2
2_430026_0_in_052002_4
 10
0.0
 20
0.0
 30
0.0
  0
INSERT
  5
A5
330
6E
100
AcDbEntity
  8
0
100
AcDbBlockReference
  2
3_123361_0_in_052002_4
 10
0.0
 20
0.0
 30
0.0
  0
INSERT
  5
10E
330
6E
100
AcDbEntity
  8
0
100
AcDbBlockReference
  2
4_052002H_0_in_052002_4
 10
0.0
 20
0.0
 30
0.0
  0
ENDBLK
  5
71
330
6E
100
AcDbEntity
  8
0
100
AcDbBlockEnd
  0
BLOCK
  5
89
330
87
100
AcDbEntity
  8
0
100
AcDbBlockBegin
  2
2_430026_0_in_052002_4
 70
     2
 10
0.0
 20
0.0
 30
0.0
  3
2_430026_0_in_052002_4
  1

  0
ATTDEF
  5
8B
330
87
100
AcDbEntity
  8
AM_6
100
AcDbText
 10
5.199381471828121
 20
-1.135618528171878
 30
0.0
 40
0.5
  1
430026 Plug
100
AcDbAttributeDefinition
  3

  2
NN
 70
     8
280
     0
  0
ATTDEF
  5
8C
330
87
100
AcDbEntity
  8
AM_6
100
AcDbText
 10
5.199381471828121
 20
-1.635618528171878
 30
0.0
 40
0.5
  1
Plug
100
AcDbAttributeDefinition
  3

  2
NT
 70
     8
280
     0
  0
ATTDEF
  5
8D
330
87
100
AcDbEntity
  8
AM_6
100
AcDbText
 10
5.199381471828121
 20
-2.135618528171878
 30
0.0
 40
0.5
  1
430026
100
AcDbAttributeDefinition
  3

  2
NB
 70
     8
280
     0
  0
ATTDEF
  5
8E
330
87
100
AcDbEntity
  8
AM_6
100
AcDbText
 10
5.199381471828121
 20
-2.635618528171878
 30
0.0
 40
0.5
  1
$PN.
100
AcDbAttributeDefinition
  3

  2
NBSYN
 70
     8
280
     0
  0
ATTDEF
  5
8F
330
87
100
AcDbEntity
  8
AM_6
100
AcDbText
 10
5.199381471828121
 20
-3.135618528171878
 30
0.0
 40
0.5
  1
430026
100
AcDbAttributeDefinition
  3

  2
LINA
 70
     8
280
     0
  0
ATTDEF
  5
90
330
87
100
AcDbEntity
  8
AM_6
100
AcDbText
 10
5.199381471828121
 20
-3.635618528171878
 30
0.0
 40
0.5
  1
430026
100
AcDbAttributeDefinition
  3

  2
PN
 70
     8
280
     0
  0
ATTDEF
  5
91
330
87
100
AcDbEntity
  8
AM_6
100
AcDbText
 10
5.199381471828121
 20
-4.135618528171878
 30
0.0
 40
0.5
  1
baldor
100
AcDbAttributeDefinition
  3

  2
COMPANY
 70
     8
280
     0
  0
CIRCLE
  5
94
330
87
100
AcDbEntity
  8
AM_9
100
AcDbCircle
 10
0.0
 20
-1.335
 30
0.0
 40
0.1702494517657397
  0
CIRCLE
  5
95
330
87
100
AcDbEntity
  8
AM_9
100
AcDbCircle
 10
0.0
 20
-1.335
 30
0.0
 40
0.1908735385412944
  0
CIRCLE
  5
97
330
87
100
AcDbEntity
  8
AM_4
100
AcDbCircle
 10
0.0
 20
-1.335
 30
0.0
 40
0.0710018603583624
  0
CIRCLE
  5
98
330
87
100
AcDbEntity
  8
AM_4
100
AcDbCircle
 10
0.0
 20
-1.335
 30
0.0
 40
0.1993814718281216
  0
CIRCLE
  5
99
330
87
100
AcDbEntity
  8
AM_4
100
AcDbCircle
 10
0.0
 20
-1.335
 30
0.0
 40
0.1800055586036764
  0
LINE
  5
9A
330
87
100
AcDbEntity
  8
AM_4
100
AcDbLine
 10
-0.09375
 20
-1.280873412263472
 30
0.0
 11
0.0
 21
-1.226746824526945
 31
0.0
  0
LINE
  5
9B
330
87
100
AcDbEntity
  8
AM_4
100
AcDbLine
 10
0.0
 20
-1.443253175473054
 30
0.0
 11
-0.09375
 21
-1.389126587736527
 31
0.0
  0
LINE
  5
9C
330
87
100
AcDbEntity
  8
AM_4
100
AcDbLine
 10
0.0
 20
-1.226746824526945
 30
0.0
 11
0.09375
 21
-1.280873412263472
 31
0.0
  0
LINE
  5
9D
330
87
100
AcDbEntity
  8
AM_4
100
AcDbLine
 10
0.09375
 20
-1.280873412263472
 30
0.0
 11
0.09375
 21
-1.389126587736527
 31
0.0
  0
LINE
  5
9E
330
87
100
AcDbEntity
  8
AM_4
100
AcDbLine
 10
0.09375
 20
-1.389126587736527
 30
0.0
 11
0.0
 21
-1.443253175473054
 31
0.0
  0
LINE
  5
9F
330
87
100
AcDbEntity
  8
AM_4
100
AcDbLine
 10
-0.09375
 20
-1.389126587736527
 30
0.0
 11
-0.09375
 21
-1.280873412263472
 31
0.0
  0
CIRCLE
  5
A0
330
87
100
AcDbEntity
  8
AM_4
100
AcDbCircle
 10
0.0
 20
-1.335
 30
0.0
 40
0.109
  0
ARC
  5
A2
330
87
100
AcDbEntity
  8
AM_5
100
AcDbCircle
 10
0.0000000000000001
 20
-1.335
 30
0.0
 40
0.1817549999999999
100
AcDbArc
 50
75.00000000000001
 51
15.00000000000004
  0
CIRCLE
  5
A3
330
87
100
AcDbEntity
  8
AM_4
100
AcDbCircle
 10
0.0
 20
-1.335
 30
0.0
 40
0.09375
  0
ENDBLK
  5
8A
330
87
100
AcDbEntity
  8
0
100
AcDbBlockEnd
  0
BLOCK
  5
A6
330
A4
100
AcDbEntity
  8
0
100
AcDbBlockBegin
  2
3_123361_0_in_052002_4
 70
     2
 10
0.0
 20
0.0
 30
0.0
  3
3_123361_0_in_052002_4
  1

  0
ATTDEF
  5
A8
330
A4
100
AcDbEntity
  8
AM_6
100
AcDbText
 10
7.46048984515693
 20
-0.2399999999999998
 30
0.0
 40
0.5
  1
Set Screw Medium Duty Insert Inch Bore
100
AcDbAttributeDefinition
  3

  2
NN
 70
     8
280
     0
  0
ATTDEF
  5
A9
330
A4
100
AcDbEntity
  8
AM_6
100
AcDbText
 10
7.46048984515693
 20
-0.7399999999999998
 30
0.0
 40
0.5
  1
SC Medium Duty Bearing Inserts (Standard Insert)
100
AcDbAttributeDefinition
  3

  2
NT
 70
     8
280
     0
  0
ATTDEF
  5
AA
330
A4
100
AcDbEntity
  8
AM_6
100
AcDbText
 10
7.46048984515693
 20
-1.24
 30
0.0
 40
0.5
  1
123361
100
AcDbAttributeDefinition
  3

  2
NB
 70
     8
280
     0
  0
ATTDEF
  5
AB
330
A4
100
AcDbEntity
  8
AM_6
100
AcDbText
 10
7.46048984515693
 20
-1.74
 30
0.0
 40
0.5
  1
$PN.
100
AcDbAttributeDefinition
  3

  2
NBSYN
 70
     8
280
     0
  0
ATTDEF
  5
AC
330
A4
100
AcDbEntity
  8
AM_6
100
AcDbText
 10
7.46048984515693
 20
-2.24
 30
0.0
 40
0.5
  1
123361
100
AcDbAttributeDefinition
  3

  2
LINA
 70
     8
280
     0
  0
ATTDEF
  5
AD
330
A4
100
AcDbEntity
  8
AM_6
100
AcDbText
 10
7.46048984515693
 20
-2.74
 30
0.0
 40
0.5
  1
214
100
AcDbAttributeDefinition
  3

  2
SERIES
 70
     8
280
     0
  0
ATTDEF
  5
AE
330
A4
100
AcDbEntity
  8
AM_6
100
AcDbText
 10
7.46048984515693
 20
-3.24
 30
0.0
 40
0.5
  1
2-7/16
100
AcDbAttributeDefinition
  3

  2
SS
 70
     8
280
     0
  0
ATTDEF
  5
AF
330
A4
100
AcDbEntity
  8
AM_6
100
AcDbText
 10
7.46048984515693
 20
-3.74
 30
0.0
 40
0.5
  1
123361
100
AcDbAttributeDefinition
  3

  2
PN
 70
     8
280
     0
  0
ATTDEF
  5
B0
330
A4
100
AcDbEntity
  8
AM_6
100
AcDbText
 10
7.46048984515693
 20
-4.24
 30
0.0
 40
0.5
  1
INS-SCM-207
100
AcDbAttributeDefinition
  3

  2
DESCRIPTION
 70
     8
280
     0
  0
ATTDEF
  5
B1
330
A4
100
AcDbEntity
  8
AM_6
100
AcDbText
 10
7.46048984515693
 20
-4.74
 30
0.0
 40
0.5
  1
4.39
100
AcDbAttributeDefinition
  3

  2
WEIGHT
 70
     8
280
     0
  0
ATTDEF
  5
B2
330
A4
100
AcDbEntity
  8
AM_6
100
AcDbText
 10
7.46048984515693
 20
-5.24
 30
0.0
 40
0.5
  1
2.54
100
AcDbAttributeDefinition
  3

  2
A
 70
     8
280
     0
  0
ATTDEF
  5
B3
330
A4
100
AcDbEntity
  8
AM_6
100
AcDbText
 10
7.46048984515693
 20
-5.74
 30
0.0
 40
0.5
  1
1.10
100
AcDbAttributeDefinition
  3

  2
C
 70
     8
280
     0
  0
ATTDEF
  5
B4
330
A4
100
AcDbEntity
  8
AM_6
100
AcDbText
 10
7.46048984515693
 20
-6.24
 30
0.0
 40
0.5
  1
4.9213
100
AcDbAttributeDefinition
  3

  2
D
 70
     8
280
     0
  0
ATTDEF
  5
B5
330
A4
100
AcDbEntity
  8
AM_6
100
AcDbText
 10
7.46048984515693
 20
-6.74
 30
0.0
 40
0.5
  1
0.26
100
AcDbAttributeDefinition
  3

  2
J
 70
     8
280
     0
  0
ATTDEF
  5
B6
330
A4
100
AcDbEntity
  8
AM_6
100
AcDbText
 10
7.46048984515693
 20
-7.24
 30
0.0
 40
0.5
  1
3.31
100
AcDbAttributeDefinition
  3

  2
L
 70
     8
280
     0
  0
ATTDEF
  5
B7
330
A4
100
AcDbEntity
  8
AM_6
100
AcDbText
 10
7.46048984515693
 20
-7.74
 30
0.0
 40
0.5
  1
3/8 - 24
100
AcDbAttributeDefinition
  3

  2
N
 70
     8
280
     0
  0
ATTDEF
  5
B8
330
A4
100
AcDbEntity
  8
AM_6
100
AcDbText
 10
7.46048984515693
 20
-8.24
 30
0.0
 40
0.5
  1
1.06
100
AcDbAttributeDefinition
  3

  2
W
 70
     8
280
     0
  0
ATTDEF
  5
B9
330
A4
100
AcDbEntity
  8
AM_6
100
AcDbText
 10
7.46048984515693
 20
-8.74
 30
0.0
 40
0.5
  1
1.48
100
AcDbAttributeDefinition
  3

  2
Y
 70
     8
280
     0
  0
ATTDEF
  5
BA
330
A4
100
AcDbEntity
  8
AM_6
100
AcDbText
 10
7.46048984515693
 20
-9.24
 30
0.0
 40
0.5
  1
baldor
100
AcDbAttributeDefinition
  3

  2
COMPANY
 70
     8
280
     0
  0
LINE
  5
BB
330
A4
100
AcDbEntity
  8
AM_9
100
AcDbLine
 10
-2.582525
 20
-1.015000000000003
 30
0.0
 11
-2.582525
 21
-1.064999999999997
 31
0.0
  0
ARC
  5
BC
330
A4
100
AcDbEntity
  8
AM_9
100
AcDbCircle
 10
-2.482525
 20
-1.065
 30
0.0
 40
0.0999999999999992
100
AcDbArc
 50
180.0
 51
270.0
  0
ARC
  5
BD
330
A4
100
AcDbEntity
  8
AM_9
100
AcDbCircle
 10
-2.482525
 20
-1.014999999999999
 30
0.0
 40
0.0999999999999992
100
AcDbArc
 50
90.0
 51
180.0
  0
LINE
  5
BE
330
A4
100
AcDbEntity
  8
AM_9
100
AcDbLine
 10
-2.482524999999999
 20
-0.9149999999999999
 30
0.0
 11
-2.482524999999999
 21
-1.165
 31
0.0
  0
LINE
  5
BF
330
A4
100
AcDbEntity
  8
AM_9
100
AcDbLine
 10
-2.482524999999999
 20
-1.165
 30
0.0
 11
-2.456943919282653
 21
-1.165
 31
0.0
  0
LINE
  5
C0
330
A4
100
AcDbEntity
  8
AM_9
100
AcDbLine
 10
-2.430388593042393
 20
-0.9149999999999999
 30
0.0
 11
-2.482524999999999
 21
-0.9149999999999999
 31
0.0
  0
ELLIPSE
  5
C1
330
A4
100
AcDbEntity
  8
AM_9
100
AcDbEllipse
 10
1.10165386977549
 20
-2.315
 30
0.0
 11
-2.822504710334859E-17
 21
-0.1536499999999998
 31
0.0
210
0.0
220
0.0
230
1.0
 40
0.4226182617406981
 41
0.6129292351929116
 42
2.528663418396883
  0
ELLIPSE
  5
C2
330
A4
100
AcDbEntity
  8
AM_9
100
AcDbEllipse
 10
1.10165386977549
 20
-2.315
 30
0.0
 11
-2.822504710334859E-17
 21
-0.1536499999999998
 31
0.0
210
0.0
220
0.0
230
1.0
 40
0.4226182617407024
 41
3.754521888782703
 42
5.670256071986674
  0
LINE
  5
C3
330
A4
100
AcDbEntity
  8
AM_9
100
AcDbLine
 10
1.104504652568998
 20
-2.46865
 30
0.0
 11
1.480040923590909
 21
-2.46865
 31
0.0
  0
LINE
  5
C4
330
A4
100
AcDbEntity
  8
AM_9
100
AcDbLine
 10
1.480040923590909
 20
-2.16135
 30
0.0
 11
1.104504652568998
 21
-2.16135
 31
0.0
  0
LWPOLYLINE
  5
C5
330
A4
100
AcDbEntity
  8
AM_9
100
AcDbPolyline
 90
        5
 70
     0
 43
0.0
 10
1.104568158106384
 20
-2.46864999944026
 10
1.108402677054361
 20
-2.468376704660941
 10
1.118597888520633
 20
-2.464785857893447
 10
1.128224907516516
 20
-2.456845658456518
 10
1.139008933869857
 20
-2.440680543546118
  0
LWPOLYLINE
  5
C6
330
A4
100
AcDbEntity
  8
AM_9
100
AcDbPolyline
 90
        5
 70
     0
 43
0.0
 10
1.104557072667538
 20
-2.16135000055974
 10
1.100660155140159
 20
-2.161623295339059
 10
1.089655241338464
 20
-2.165214142106554
 10
1.078304894413904
 20
-2.173154341543482
 10
1.064298805681123
 20
-2.189319456453881
  0
ELLIPSE
  5
C7
330
A4
100
AcDbEntity
  8
AM_9
100
AcDbEllipse
 10
1.480040923590909
 20
-2.314999999999999
 30
0.0
 11
-2.822504710334875E-17
 21
-0.1536500000000007
 31
0.0
210
0.0
220
0.0
230
1.0
 40
0.4226182617406971
 41
2.643761381472615
 42
5.921683126381012
  0
LINE
  5
C8
330
A4
100
AcDbEntity
  8
AM_9
100
AcDbLine
 10
1.449761097820504
 20
-2.45092226453218
 30
0.0
 11
1.463727322328528
 21
-2.468342149013876
 31
0.0
  0
LINE
  5
C9
330
A4
100
AcDbEntity
  8
AM_9
100
AcDbLine
 10
1.46387985682096
 20
-2.161467596759858
 30
0.0
 11
1.449761097820504
 21
-2.17907773546782
 31
0.0
  0
LWPOLYLINE
  5
CA
330
A4
100
AcDbEntity
  8
AM_9
100
AcDbPolyline
 90
        4
 70
     0
 43
0.0
 10
1.451682899430201
 20
-2.179966161034531
 10
1.4517909271792
 20
-2.179795371939659
 10
1.463316769183352
 20
-2.162177398024246
 10
1.463923348134369
 20
-2.161413350958971
  0
LWPOLYLINE
  5
CB
330
A4
100
AcDbEntity
  8
AM_9
100
AcDbPolyline
 90
        4
 70
     0
 43
0.0
 10
1.463923348134369
 20
-2.161413350958971
 10
1.475211561836431
 20
-2.149751313517305
 10
1.487527264518352
 20
-2.142031991035062
 10
1.503164888374964
 20
-2.139579862005423
  0
LWPOLYLINE
  5
CC
330
A4
100
AcDbEntity
  8
AM_9
100
AcDbPolyline
 90
       13
 70
     0
 43
0.0
 10
-0.0883896117988564
 20
-2.189319456453882
 10
-0.1137880529722057
 20
-2.208629311502996
 10
-0.1294495239190357
 20
-2.225589358071347
 10
-0.1423829562472354
 20
-2.24471375013107
 10
-0.1530676452109166
 20
-2.268164543265045
 10
-0.1594221273841016
 20
-2.29315099208392
 10
-0.161104599758005
 20
-2.317205719181791
 10
-0.1586649522749053
 20
-2.341194716126048
 10
-0.1524068372441456
 20
-2.363689342708794
 10
-0.1426161058883539
 20
-2.384874367351785
 10
-0.1291587759019757
 20
-2.40477315416718
 10
-0.1127576155370383
 20
-2.422322918248964
 10
-0.0883896117988564
 20
-2.440680543546117
  0
LWPOLYLINE
  5
CD
330
A4
100
AcDbEntity
  8
AM_9
100
AcDbPolyline
 90
       14
 70
     0
 43
0.0
 10
0.0883896117988564
 20
-2.440680543546117
 10
0.0914172865964729
 20
-2.438774282484056
 10
0.1135523890030766
 20
-2.421564975016053
 10
0.1322939695999422
 20
-2.400728115754272
 10
0.1462040959870163
 20
-2.378058030213322
 10
0.1558166288944042
 20
-2.353247312240909
 10
0.1604154649175771
 20
-2.329016951457738
 10
0.1607338138908365
 20
-2.304351282068292
 10
0.1569855153583818
 20
-2.281213469396727
 10
0.1495048441144926
 20
-2.259009780719591
 10
0.1383937548451181
 20
-2.238122567483536
 10
0.1241416627127875
 20
-2.219246779879472
 10
0.1073686045046197
 20
-2.202972774736798
 10
0.0883896117988564
 20
-2.189319456453882
  0
LWPOLYLINE
  5
CE
330
A4
100
AcDbEntity
  8
AM_9
100
AcDbPolyline
 90
       13
 70
     0
 43
0.0
 10
1.139008933869857
 20
-2.440680543546118
 10
1.149049475433014
 20
-2.417869126875847
 10
1.154811842189324
 20
-2.396971109322984
 10
1.159092101905674
 20
-2.373259827549733
 10
1.161671687845781
 20
-2.349232070484082
 10
1.162876758316122
 20
-2.324091875574103
 10
1.162728720575964
 20
-2.300315684548772
 10
1.161367269134186
 20
-2.2769637462593
 10
1.158844771677277
 20
-2.255041605813399
 10
1.155191123922292
 20
-2.234707685339628
 10
1.151539815964336
 20
-2.220143040498235
 10
1.147234124997034
 20
-2.207020394557647
 10
1.139008933869857
 20
-2.189319456453881
  0
LWPOLYLINE
  5
CF
330
A4
100
AcDbEntity
  8
AM_9
100
AcDbPolyline
 90
        5
 70
     0
 43
0.0
 10
1.133315792705269
 20
-2.179631209286867
 10
1.131007954812656
 20
-2.176469125415998
 10
1.121655564710486
 20
-2.167201071871243
 10
1.111651491057162
 20
-2.162296558997238
 10
1.104557072667538
 20
-2.16135000055974
  0
LINE
  5
D0
330
A4
100
AcDbEntity
  8
AM_9
100
AcDbLine
 10
1.139008933869857
 20
-2.189319456453881
 30
0.0
 11
1.133315792705269
 21
-2.179631209286867
 31
0.0
  0
LWPOLYLINE
  5
D1
330
A4
100
AcDbEntity
  8
AM_9
100
AcDbPolyline
 90
       14
 70
     0
 43
0.0
 10
1.064298805681123
 20
-2.189319456453881
 10
1.05323773257785
 20
-2.205801728059748
 10
1.043477864469592
 20
-2.225886647476096
 10
1.035800451514073
 20
-2.248274068622533
 10
1.030260984241225
 20
-2.272934097592358
 10
1.02739782262219
 20
-2.297164924620001
 10
1.026858651532433
 20
-2.321954754268472
 10
1.028566221675725
 20
-2.345227884063715
 10
1.032293924829267
 20
-2.367658912882743
 10
1.037907885522201
 20
-2.388756155557568
 10
1.045089038714947
 20
-2.407921233582267
 10
1.054048517472088
 20
-2.42560547969616
 10
1.064029572464817
 20
-2.440340578226318
 10
1.064298805681123
 20
-2.440680543546118
  0
LWPOLYLINE
  5
D2
330
A4
100
AcDbEntity
  8
AM_9
100
AcDbPolyline
 90
        5
 70
     0
 43
0.0
 10
1.064298805681123
 20
-2.440680543546118
 10
1.074829798492568
 20
-2.453530874584001
 10
1.086157649850591
 20
-2.462798928128756
 10
1.097258088221404
 20
-2.467703441002762
 10
1.104568158106384
 20
-2.46864999944026
  0
LINE
  5
D3
330
A4
100
AcDbEntity
  8
AM_9
100
AcDbLine
 10
1.21875
 20
-2.7138
 30
0.0
 11
1.21875
 21
-0.3062000000000001
 31
0.0
  0
LINE
  5
D4
330
A4
100
AcDbEntity
  8
AM_9
100
AcDbLine
 10
-1.21875
 20
-0.3062000000000001
 30
0.0
 11
-1.21875
 21
-2.7138
 31
0.0
  0
LINE
  5
D5
330
A4
100
AcDbEntity
  8
AM_9
100
AcDbLine
 10
-1.21875
 20
-2.7138
 30
0.0
 11
-1.28495
 21
-2.78
 31
0.0
  0
LINE
  5
D6
330
A4
100
AcDbEntity
  8
AM_9
100
AcDbLine
 10
1.28495
 20
-2.78
 30
0.0
 11
1.21875
 21
-2.7138
 31
0.0
  0
LINE
  5
D7
330
A4
100
AcDbEntity
  8
AM_9
100
AcDbLine
 10
1.21875
 20
-0.3062000000000001
 30
0.0
 11
1.28495
 21
-0.2399999999999998
 31
0.0
  0
LINE
  5
D8
330
A4
100
AcDbEntity
  8
AM_9
100
AcDbLine
 10
-1.28495
 20
-0.2399999999999998
 30
0.0
 11
-1.21875
 21
-0.3062000000000001
 31
0.0
  0
LINE
  5
D9
330
A4
100
AcDbEntity
  8
AM_9
100
AcDbLine
 10
-1.5888
 20
-0.2399999999999998
 30
0.0
 11
1.5888
 21
-0.2399999999999998
 31
0.0
  0
LINE
  5
DA
330
A4
100
AcDbEntity
  8
AM_9
100
AcDbLine
 10
-1.5888
 20
-0.2399999999999998
 30
0.0
 11
-1.655
 21
-0.3061999999999998
 31
0.0
  0
LINE
  5
DB
330
A4
100
AcDbEntity
  8
AM_9
100
AcDbLine
 10
1.655
 20
-0.3061999999999998
 30
0.0
 11
1.5888
 21
-0.2399999999999998
 31
0.0
  0
LWPOLYLINE
  5
DC
330
A4
100
AcDbEntity
  8
AM_9
100
AcDbPolyline
 90
        6
 70
     0
 43
0.0
 10
1.503164888374964
 20
-2.139579862005423
 10
1.513826412745494
 20
-2.14300175992104
 10
1.523773305045924
 20
-2.150570859715681
 10
1.53300562682013
 20
-2.162437614699756
 10
1.541113208255716
 20
-2.178010824285433
 10
1.541893135107012
 20
-2.179843222450591
  0
LINE
  5
DD
330
A4
100
AcDbEntity
  8
AM_9
100
AcDbLine
 10
1.655
 20
-2.179999999999999
 30
0.0
 11
1.655
 21
-1.85
 31
0.0
  0
LINE
  5
DE
330
A4
100
AcDbEntity
  8
AM_9
100
AcDbLine
 10
-1.655
 20
-1.85
 30
0.0
 11
-1.655
 21
-2.179999999999999
 31
0.0
  0
LINE
  5
DF
330
A4
100
AcDbEntity
  8
AM_9
100
AcDbLine
 10
0.1052761177622401
 20
-2.178661076697897
 30
0.0
 11
0.1064005625692841
 21
-2.179628420811145
 31
0.0
  0
LWPOLYLINE
  5
E0
330
A4
100
AcDbEntity
  8
AM_9
100
AcDbPolyline
 90
       11
 70
     0
 43
0.0
 10
-0.1054278363983209
 20
-2.178790600926505
 10
-0.1019262818770334
 20
-2.175878383889321
 10
-0.0807720761466795
 20
-2.161297691106817
 10
-0.0553995150667326
 20
-2.149339767641516
 10
-0.0274535498652036
 20
-2.141784302769509
 10
-0.0007162514598639
 20
-2.139396089954388
 10
0.0268472797724288
 20
-2.14167923410882
 10
0.0523014521739095
 20
-2.148230030815761
 10
0.0769976165381197
 20
-2.159171649904325
 10
0.0993646466599871
 20
-2.17384648400099
 10
0.1052761177622401
 20
-2.178661076697897
  0
LINE
  5
E1
330
A4
100
AcDbEntity
  8
AM_9
100
AcDbLine
 10
-0.106534880307241
 20
-2.179745122925712
 30
0.0
 11
-0.1054278363983209
 21
-2.178790600926505
 31
0.0
  0
ARC
  5
E2
330
A4
100
AcDbEntity
  8
AM_9
100
AcDbCircle
 10
0.0
 20
-2.315000000006215
 30
0.0
 40
0.1536500000054608
100
AcDbArc
 50
61.4763691991639
 51
118.5236308008361
  0
LINE
  5
E3
330
A4
100
AcDbEntity
  8
AM_9
100
AcDbLine
 10
-1.655
 20
-0.3061999999999998
 30
0.0
 11
1.655
 21
-0.3061999999999998
 31
0.0
  0
LINE
  5
E4
330
A4
100
AcDbEntity
  8
AM_9
100
AcDbLine
 10
1.655
 20
-0.7499999999999998
 30
0.0
 11
1.655
 21
-0.3061999999999998
 31
0.0
  0
LINE
  5
E5
330
A4
100
AcDbEntity
  8
AM_9
100
AcDbLine
 10
-1.655
 20
-0.3061999999999998
 30
0.0
 11
-1.655
 21
-0.7499999999999998
 31
0.0
  0
LINE
  5
E6
330
A4
100
AcDbEntity
  8
AM_9
100
AcDbLine
 10
2.373983333333333
 20
-1.612
 30
0.0
 11
2.373983333333333
 21
-1.508
 31
0.0
  0
LINE
  5
E7
330
A4
100
AcDbEntity
  8
AM_9
100
AcDbLine
 10
-2.373983333333333
 20
-1.508
 30
0.0
 11
-2.373983333333333
 21
-1.612
 31
0.0
  0
LINE
  5
E8
330
A4
100
AcDbEntity
  8
AM_9
100
AcDbLine
 10
-2.356605784279585
 20
-0.7499999999999998
 30
0.0
 11
2.356605784276493
 21
-0.7499999999999998
 31
0.0
  0
ARC
  5
E9
330
A4
100
AcDbEntity
  8
AM_9
100
AcDbCircle
 10
2.356605784279585
 20
-0.8019999999999996
 30
0.0
 40
0.0519999999999998
100
AcDbArc
 50
11.93224393296568
 51
90.0
  0
ARC
  5
EA
330
A4
100
AcDbEntity
  8
AM_9
100
AcDbCircle
 10
-2.356605784279585
 20
-0.8019999999999996
 30
0.0
 40
0.0519999999999998
100
AcDbArc
 50
90.0
 51
168.0677560670343
  0
LINE
  5
EB
330
A4
100
AcDbEntity
  8
AM_9
100
AcDbLine
 10
-2.356605785054446
 20
-1.85
 30
0.0
 11
2.356605785051353
 21
-1.85
 31
0.0
  0
ARC
  5
EC
330
A4
100
AcDbEntity
  8
AM_9
100
AcDbCircle
 10
2.356605784279585
 20
-1.798
 30
0.0
 40
0.0520000000000003
100
AcDbArc
 50
270.0
 51
348.0677560670335
  0
ARC
  5
ED
330
A4
100
AcDbEntity
  8
AM_9
100
AcDbCircle
 10
-2.356605784279585
 20
-1.798
 30
0.0
 40
0.0520000000000005
100
AcDbArc
 50
191.9322439329665
 51
270.0
  0
LINE
  5
EE
330
A4
100
AcDbEntity
  8
AM_9
100
AcDbLine
 10
-2.407482209157645
 20
-1.8087512507006
 30
0.0
 11
2.407482209157422
 21
-1.8087512507006
 31
0.0
  0
LINE
  5
EF
330
A4
100
AcDbEntity
  8
AM_9
100
AcDbLine
 10
-2.440789712879829
 20
-1.612
 30
0.0
 11
2.440789712879606
 21
-1.612
 31
0.0
  0
ARC
  5
F0
330
A4
100
AcDbEntity
  8
AM_9
100
AcDbCircle
 10
-0.0000000002647145
 20
-1.299999999955233
 30
0.0
 40
2.460650000268032
100
AcDbArc
 50
348.0677560672877
 51
352.7155291891169
  0
ARC
  5
F1
330
A4
100
AcDbEntity
  8
AM_9
100
AcDbCircle
 10
0.0000000002637504
 20
-1.299999999955396
 30
0.0
 40
2.460650000267055
100
AcDbArc
 50
187.2844708108822
 51
191.9322439327132
  0
LINE
  5
F2
330
A4
100
AcDbEntity
  8
AM_9
100
AcDbLine
 10
0.1003543721020654
 20
-1.508
 30
0.0
 11
2.451843066450217
 21
-1.508
 31
0.0
  0
LINE
  5
F3
330
A4
100
AcDbEntity
  8
AM_9
100
AcDbLine
 10
-0.0991159488091995
 20
-1.508
 30
0.0
 11
0.0991159488091995
 21
-1.508
 31
0.0
  0
LINE
  5
F4
330
A4
100
AcDbEntity
  8
AM_9
100
AcDbLine
 10
-2.451843066450216
 20
-1.508
 30
0.0
 11
-0.1003543721020654
 21
-1.508
 31
0.0
  0
LINE
  5
F5
330
A4
100
AcDbEntity
  8
AM_9
100
AcDbLine
 10
-2.407482209157645
 20
-0.7912487492993998
 30
0.0
 11
2.407482209157645
 21
-0.7912487492993998
 31
0.0
  0
ARC
  5
F6
330
A4
100
AcDbEntity
  8
AM_9
100
AcDbCircle
 10
0.0000000000000009
 20
-1.3
 30
0.0
 40
2.460649999999999
100
AcDbArc
 50
355.1509720763079
 51
11.93224393296577
  0
ARC
  5
F7
330
A4
100
AcDbEntity
  8
AM_9
100
AcDbCircle
 10
-0.0000000000006111
 20
-1.299999999999894
 30
0.0
 40
2.46064999999938
100
AcDbArc
 50
168.0677560670337
 51
171.0081371282305
  0
ARC
  5
F8
330
A4
100
AcDbEntity
  8
AM_9
100
AcDbCircle
 10
-0.0000000000002847
 20
-1.300000000000005
 30
0.0
 40
2.460649999999716
100
AcDbArc
 50
176.8477120028232
 51
184.8490279236926
  0
LINE
  5
F9
330
A4
100
AcDbEntity
  8
AM_9
100
AcDbLine
 10
-2.430344301225914
 20
-0.9150000000024575
 30
0.0
 11
-2.456943919279315
 21
-1.164999999968458
 31
0.0
  0
LINE
  5
FA
330
A4
100
AcDbEntity
  8
AM_9
100
AcDbLine
 10
-2.434449823600905
 20
-0.9534086944816804
 30
0.0
 11
-2.434120880198651
 21
-0.9503289171520314
 31
0.0
  0
LINE
  5
FD
330
A4
100
AcDbEntity
  8
AM_7
100
AcDbLine
 10
-2.628901249999999
 20
-1.04
 30
0.0
 11
-1.60862375
 21
-1.04
 31
0.0
  0
LINE
  5
FE
330
A4
100
AcDbEntity
  8
AM_7
100
AcDbLine
 10
-0.1613325
 20
-2.315
 30
0.0
 11
0.1613324999999999
 21
-2.315
 31
0.0
  0
ELLIPSE
  5
FF
330
A4
100
AcDbEntity
  8
AM_4
100
AcDbEllipse
 10
1.480040923590909
 20
-2.315
 30
0.0
 11
-2.822504710334859E-17
 21
-0.1536499999999998
 31
0.0
210
0.0
220
0.0
230
1.0
 40
0.4226182617407009
 41
5.921683126381012
 42
8.926946688652208
  0
LWPOLYLINE
  5
100
330
A4
100
AcDbEntity
  8
AM_4
100
AcDbPolyline
 90
       13
 70
     0
 43
0.0
 10
1.463916568648263
 20
-2.468578191059821
 10
1.459397199578253
 20
-2.462519130691933
 10
1.449191903758485
 20
-2.445318794980665
 10
1.440225131977563
 20
-2.424938585452926
 10
1.432488503393646
 20
-2.400760394591002
 10
1.42668554076275
 20
-2.374401348055706
 10
1.422933374862512
 20
-2.345306044038663
 10
1.421632611439999
 20
-2.315396015007813
 10
1.422928413064914
 20
-2.284762882368308
 10
1.42679377165642
 20
-2.254981940625409
 10
1.433128069693218
 20
-2.226905227303388
 10
1.441647285841046
 20
-2.201395298589966
 10
1.451682899430201
 20
-2.179966161034531
  0
LINE
  5
101
330
A4
100
AcDbEntity
  8
AM_4
100
AcDbLine
 10
-1.5888
 20
-2.78
 30
0.0
 11
1.5888
 21
-2.78
 31
0.0
  0
LINE
  5
102
330
A4
100
AcDbEntity
  8
AM_4
100
AcDbLine
 10
1.5888
 20
-2.78
 30
0.0
 11
1.655
 21
-2.7138
 31
0.0
  0
LINE
  5
103
330
A4
100
AcDbEntity
  8
AM_4
100
AcDbLine
 10
-1.655
 20
-2.7138
 30
0.0
 11
-1.5888
 21
-2.78
 31
0.0
  0
LINE
  5
104
330
A4
100
AcDbEntity
  8
AM_4
100
AcDbLine
 10
-1.655
 20
-2.7138
 30
0.0
 11
1.655
 21
-2.7138
 31
0.0
  0
LWPOLYLINE
  5
105
330
A4
100
AcDbEntity
  8
AM_4
100
AcDbPolyline
 90
       19
 70
     0
 43
0.0
 10
1.541893135107012
 20
-2.179843222450591
 10
1.548209035763513
 20
-2.19760572578286
 10
1.553932667030009
 20
-2.220093461697799
 10
1.558421345330746
 20
-2.246148876482563
 10
1.561371033152233
 20
-2.273986574995567
 10
1.562796023726802
 20
-2.303998767388478
 10
1.562572204296894
 20
-2.334311683420201
 10
1.560638476635761
 20
-2.364577636241555
 10
1.556994126339019
 20
-2.393429005722139
 10
1.55165759189759
 20
-2.419811835238336
 10
1.544643080626267
 20
-2.443119693609372
 10
1.536269067151048
 20
-2.461965245234846
 10
1.526471297199842
 20
-2.476504635370565
 10
1.515979421302919
 20
-2.485741231342048
 10
1.504603818944036
 20
-2.490215865183841
 10
1.49317110303963
 20
-2.489794588544777
 10
1.481548251295559
 20
-2.484862585708881
 10
1.470211833848138
 20
-2.475654241154435
 10
1.463916568648263
 20
-2.468578191059821
  0
LINE
  5
106
330
A4
100
AcDbEntity
  8
AM_4
100
AcDbLine
 10
1.655
 20
-2.7138
 30
0.0
 11
1.655
 21
-2.179999999999999
 31
0.0
  0
LINE
  5
107
330
A4
100
AcDbEntity
  8
AM_4
100
AcDbLine
 10
-1.655
 20
-2.179999999999999
 30
0.0
 11
-1.655
 21
-2.7138
 31
0.0
  0
LWPOLYLINE
  5
108
330
A4
100
AcDbEntity
  8
AM_4
100
AcDbPolyline
 90
       30
 70
     0
 43
0.0
 10
0.1064005625692841
 20
-2.179628420811145
 10
0.1196061473209125
 20
-2.192401072181449
 10
0.1369137296563235
 20
-2.214343644289994
 10
0.1508458022217853
 20
-2.239429640883456
 10
0.1607581834264157
 20
-2.266971497686775
 10
0.1662170813873601
 20
-2.296553709843291
 10
0.1667707771550194
 20
-2.326711909562919
 10
0.1621903424082344
 20
-2.357392569539478
 10
0.1527412282488436
 20
-2.386250077076132
 10
0.1380920866737367
 20
-2.413864896244325
 10
0.1197743304517548
 20
-2.437417564194987
 10
0.0969176589909207
 20
-2.45802035257302
 10
0.0725952482732301
 20
-2.473146490442901
 10
0.0451149732963149
 20
-2.484074876513963
 10
0.0184456699680045
 20
-2.489530700917602
 10
-0.0096141749252098
 20
-2.490314179055401
 10
-0.0356953692211559
 20
-2.486546138834548
 10
-0.0615003661924162
 20
-2.478263128751739
 10
-0.085055625552951
 20
-2.466127419924003
 10
-0.1069100637419529
 20
-2.44992758422619
 10
-0.1260936173889473
 20
-2.430201310308555
 10
-0.1422927376168537
 20
-2.407061370559944
 10
-0.1548423387011068
 20
-2.381062426666647
 10
-0.1632552516097046
 20
-2.352620408865093
 10
-0.1669738500372474
 20
-2.322906540816328
 10
-0.1657187329604343
 20
-2.292142000069064
 10
-0.1594587916473046
 20
-2.262414632415783
 10
-0.1479444776364193
 20
-2.233350922221697
 10
-0.1356263850218234
 20
-2.212439217808996
 10
-0.1202287550370992
 20
-2.193075098007991
  0
LINE
  5
109
330
A4
100
AcDbEntity
  8
AM_4
100
AcDbLine
 10
-0.1202287550370992
 20
-2.193075098007991
 30
0.0
 11
-0.106534880307241
 21
-2.179745122925712
 31
0.0
  0
ARC
  5
10A
330
A4
100
AcDbEntity
  8
AM_4
100
AcDbCircle
 10
0.0
 20
-2.315
 30
0.0
 40
0.1536499999999998
100
AcDbArc
 50
118.5236308019428
 51
61.47636919805712
  0
ARC
  5
10B
330
A4
100
AcDbEntity
  8
AM_5
100
AcDbCircle
 10
-0.0000000000000007
 20
-2.315
 30
0.0
 40
0.1874999999999998
100
AcDbArc
 50
74.99999999999976
 51
14.99999999999975
  0
ARC
  5
10C
330
A4
100
AcDbEntity
  8
AM_5
100
AcDbCircle
 10
0.0
 20
-2.405
 30
0.0
 40
0.1875
100
AcDbArc
 50
75.00000000000001
 51
14.99999999999997
  0
ENDBLK
  5
A7
330
A4
100
AcDbEntity
  8
0
100
AcDbBlockEnd
  0
BLOCK
  5
10F
330
10D
100
AcDbEntity
  8
0
100
AcDbBlockBegin
  2
4_052002H_0_in_052002_4
 70
     2
 10
0.0
 20
0.0
 30
0.0
  3
4_052002H_0_in_052002_4
  1

  0
ATTDEF
  5
111
330
10D
100
AcDbEntity
  8
AM_6
100
AcDbText
 10
8.69
 20
0.109
 30
0.0
 40
0.5
  1
F4B-SCM -I-Housing
100
AcDbAttributeDefinition
  3

  2
NN
 70
     8
280
     0
  0
ATTDEF
  5
112
330
10D
100
AcDbEntity
  8
AM_6
100
AcDbText
 10
8.69
 20
-0.391
 30
0.0
 40
0.5
  1
SC 4 Bolt Flange Bearings -(Medium Duty)
100
AcDbAttributeDefinition
  3

  2
NT
 70
     8
280
     0
  0
ATTDEF
  5
113
330
10D
100
AcDbEntity
  8
AM_6
100
AcDbText
 10
8.69
 20
-0.891
 30
0.0
 40
0.5
  1
052002H
100
AcDbAttributeDefinition
  3

  2
NB
 70
     8
280
     0
  0
ATTDEF
  5
114
330
10D
100
AcDbEntity
  8
AM_6
100
AcDbText
 10
8.69
 20
-1.391
 30
0.0
 40
0.5
  1
$PN.H
100
AcDbAttributeDefinition
  3

  2
NBSYN
 70
     8
280
     0
  0
ATTDEF
  5
115
330
10D
100
AcDbEntity
  8
AM_6
100
AcDbText
 10
8.69
 20
-1.891
 30
0.0
 40
0.5
  1
052002
100
AcDbAttributeDefinition
  3

  2
LINA
 70
     8
280
     0
  0
ATTDEF
  5
116
330
10D
100
AcDbEntity
  8
AM_6
100
AcDbText
 10
8.69
 20
-2.391
 30
0.0
 40
0.5
  1
214
100
AcDbAttributeDefinition
  3

  2
SERIES
 70
     8
280
     0
  0
ATTDEF
  5
117
330
10D
100
AcDbEntity
  8
AM_6
100
AcDbText
 10
8.69
 20
-2.891
 30
0.0
 40
0.5
  1
2-7/16
100
AcDbAttributeDefinition
  3

  2
SS
 70
     8
280
     0
  0
ATTDEF
  5
118
330
10D
100
AcDbEntity
  8
AM_6
100
AcDbText
 10
8.69
 20
-3.391
 30
0.0
 40
0.5
  1
052002
100
AcDbAttributeDefinition
  3

  2
PN
 70
     8
280
     0
  0
ATTDEF
  5
119
330
10D
100
AcDbEntity
  8
AM_6
100
AcDbText
 10
8.69
 20
-3.891
 30
0.0
 40
0.5
  1
F4B-SCM-207-NL
100
AcDbAttributeDefinition
  3

  2
DESCRIPTION
 70
     8
280
     0
  0
ATTDEF
  5
11A
330
10D
100
AcDbEntity
  8
AM_6
100
AcDbText
 10
8.69
 20
-4.391
 30
0.0
 40
0.5
  1
2
100
AcDbAttributeDefinition
  3

  2
LF1
 70
     8
280
     0
  0
ATTDEF
  5
11B
330
10D
100
AcDbEntity
  8
AM_6
100
AcDbText
 10
8.69
 20
-4.891
 30
0.0
 40
0.5
  1
2.54
100
AcDbAttributeDefinition
  3

  2
A
 70
     8
280
     0
  0
ATTDEF
  5
11C
330
10D
100
AcDbEntity
  8
AM_6
100
AcDbText
 10
8.69
 20
-5.391
 30
0.0
 40
0.5
  1
7.38
100
AcDbAttributeDefinition
  3

  2
B
 70
     8
280
     0
  0
ATTDEF
  5
11D
330
10D
100
AcDbEntity
  8
AM_6
100
AcDbText
 10
8.69
 20
-5.891
 30
0.0
 40
0.5
  1
2.78
100
AcDbAttributeDefinition
  3

  2
C
 70
     8
280
     0
  0
ATTDEF
  5
11E
330
10D
100
AcDbEntity
  8
AM_6
100
AcDbText
 10
8.69
 20
-6.391
 30
0.0
 40
0.5
  1
5.88
100
AcDbAttributeDefinition
  3

  2
D
 70
     8
280
     0
  0
ATTDEF
  5
11F
330
10D
100
AcDbEntity
  8
AM_6
100
AcDbText
 10
8.69
 20
-6.891
 30
0.0
 40
0.5
  1
5/8
100
AcDbAttributeDefinition
  3

  2
F
 70
     8
280
     0
  0
ATTDEF
  5
120
330
10D
100
AcDbEntity
  8
AM_6
100
AcDbText
 10
8.69
 20
-7.391
 30
0.0
 40
0.5
  1
0.69
100
AcDbAttributeDefinition
  3

  2
H
 70
     8
280
     0
  0
ATTDEF
  5
121
330
10D
100
AcDbEntity
  8
AM_6
100
AcDbText
 10
8.69
 20
-7.891
 30
0.0
 40
0.5
  1
0.6
100
AcDbAttributeDefinition
  3

  2
J
 70
     8
280
     0
  0
ATTDEF
  5
122
330
10D
100
AcDbEntity
  8
AM_6
100
AcDbText
 10
8.69
 20
-8.391
 30
0.0
 40
0.5
  1
3.31
100
AcDbAttributeDefinition
  3

  2
L
 70
     8
280
     0
  0
ATTDEF
  5
123
330
10D
100
AcDbEntity
  8
AM_6
100
AcDbText
 10
8.69
 20
-8.891
 30
0.0
 40
0.5
  1
3.69
100
AcDbAttributeDefinition
  3

  2
N
 70
     8
280
     0
  0
ATTDEF
  5
124
330
10D
100
AcDbEntity
  8
AM_6
100
AcDbText
 10
8.69
 20
-9.391
 30
0.0
 40
0.5
  1
baldor
100
AcDbAttributeDefinition
  3

  2
COMPANY
 70
     8
280
     0
  0
LINE
  5
125
330
10D
100
AcDbEntity
  8
AM_9
100
AcDbLine
 10
-2.276858320828286
 20
-1.308
 30
0.0
 11
-2.276858320828286
 21
-0.2760000000000001
 31
0.0
  0
LINE
  5
126
330
10D
100
AcDbEntity
  8
AM_9
100
AcDbLine
 10
-2.137626454738994
 20
-1.308
 30
0.0
 11
-2.582525
 21
-1.308
 31
0.0
  0
LINE
  5
127
330
10D
100
AcDbEntity
  8
AM_9
100
AcDbLine
 10
-2.582525
 20
-1.064999999999997
 30
0.0
 11
-2.582525
 21
-1.308
 31
0.0
  0
LINE
  5
128
330
10D
100
AcDbEntity
  8
AM_9
100
AcDbLine
 10
-2.582525
 20
-0.2760000000000001
 30
0.0
 11
-2.582525
 21
-1.015000000000003
 31
0.0
  0
LINE
  5
129
330
10D
100
AcDbEntity
  8
AM_9
100
AcDbLine
 10
2.582525
 20
-1.308
 30
0.0
 11
2.137626454738994
 21
-1.308
 31
0.0
  0
LINE
  5
12A
330
10D
100
AcDbEntity
  8
AM_9
100
AcDbLine
 10
2.276858320828286
 20
-1.308
 30
0.0
 11
2.276858320828286
 21
-0.2760000000000001
 31
0.0
  0
LINE
  5
12B
330
10D
100
AcDbEntity
  8
AM_9
100
AcDbLine
 10
2.582525
 20
-1.308
 30
0.0
 11
2.582525
 21
-0.2760000000000001
 31
0.0
  0
LINE
  5
12C
330
10D
100
AcDbEntity
  8
AM_9
100
AcDbLine
 10
-2.137626454738994
 20
-1.308
 30
0.0
 11
-2.137626454738994
 21
-0.2760000000000002
 31
0.0
  0
LINE
  5
12D
330
10D
100
AcDbEntity
  8
AM_9
100
AcDbLine
 10
2.137626454738994
 20
-0.2760000000000002
 30
0.0
 11
2.137626454738994
 21
-1.308
 31
0.0
  0
LINE
  5
12E
330
10D
100
AcDbEntity
  8
AM_9
100
AcDbLine
 10
2.46065
 20
-2.042
 30
0.0
 11
2.46065
 21
-1.308
 31
0.0
  0
LINE
  5
12F
330
10D
100
AcDbEntity
  8
AM_9
100
AcDbLine
 10
-2.46065
 20
-1.308
 30
0.0
 11
-2.46065
 21
-2.042
 31
0.0
  0
LINE
  5
130
330
10D
100
AcDbEntity
  8
AM_9
100
AcDbLine
 10
3.590385078242115
 20
-0.6209999999999998
 30
0.0
 11
3.590385078242115
 21
-0.6899999999999997
 31
0.0
  0
LINE
  5
131
330
10D
100
AcDbEntity
  8
AM_9
100
AcDbLine
 10
-3.590385078242115
 20
-0.6209999999999998
 30
0.0
 11
-3.590385078242115
 21
-0.6899999999999997
 31
0.0
  0
LINE
  5
132
330
10D
100
AcDbEntity
  8
AM_9
100
AcDbLine
 10
-3.69
 20
-0.6209999999999998
 30
0.0
 11
-2.901257258744304
 21
-0.6209999999999998
 31
0.0
  0
LINE
  5
133
330
10D
100
AcDbEntity
  8
AM_9
100
AcDbLine
 10
-2.623149999999999
 20
-0.276
 30
0.0
 11
2.623149999999999
 21
-0.276
 31
0.0
  0
LINE
  5
134
330
10D
100
AcDbEntity
  8
AM_9
100
AcDbLine
 10
2.623149999999999
 20
-0.276
 30
0.0
 11
2.623149999999999
 21
0.0
 31
0.0
  0
LINE
  5
135
330
10D
100
AcDbEntity
  8
AM_9
100
AcDbLine
 10
-2.623149999999999
 20
0.0
 30
0.0
 11
-2.623149999999999
 21
-0.276
 31
0.0
  0
LINE
  5
136
330
10D
100
AcDbEntity
  8
AM_9
100
AcDbLine
 10
-2.623149999999999
 20
-2.042
 30
0.0
 11
2.623149999999999
 21
-2.042
 31
0.0
  0
LINE
  5
137
330
10D
100
AcDbEntity
  8
AM_9
100
AcDbLine
 10
2.623149999999999
 20
-2.18
 30
0.0
 11
2.623149999999999
 21
-2.042
 31
0.0
  0
LINE
  5
138
330
10D
100
AcDbEntity
  8
AM_9
100
AcDbLine
 10
-2.623149999999999
 20
-2.042
 30
0.0
 11
-2.623149999999999
 21
-2.18
 31
0.0
  0
LINE
  5
139
330
10D
100
AcDbEntity
  8
AM_9
100
AcDbLine
 10
2.901257258744318
 20
-0.6209999999999999
 30
0.0
 11
3.69
 21
-0.6209999999999998
 31
0.0
  0
LINE
  5
13A
330
10D
100
AcDbEntity
  8
AM_9
100
AcDbLine
 10
-2.900740926635342
 20
-0.6209999999999998
 30
0.0
 11
-2.897731420716909
 21
-0.6899999999999998
 31
0.0
  0
LINE
  5
13B
330
10D
100
AcDbEntity
  8
AM_9
100
AcDbLine
 10
2.89773142071691
 20
-0.6899999999999998
 30
0.0
 11
2.900740926635343
 21
-0.6209999999999998
 31
0.0
  0
LINE
  5
13C
330
10D
100
AcDbEntity
  8
AM_9
100
AcDbLine
 10
3.203044724770642
 20
-0.6899999999999998
 30
0.0
 11
3.207990252293578
 21
-0.6209999999999998
 31
0.0
  0
LINE
  5
13D
330
10D
100
AcDbEntity
  8
AM_9
100
AcDbLine
 10
-3.207990252293578
 20
-0.6209999999999998
 30
0.0
 11
-3.203044724770642
 21
-0.689999999999999
 31
0.0
  0
LINE
  5
13E
330
10D
100
AcDbEntity
  8
AM_9
100
AcDbLine
 10
0.5
 20
-2.0639363644183
 30
0.0
 11
-0.5
 21
-2.0639363644183
 31
0.0
  0
LINE
  5
13F
330
10D
100
AcDbEntity
  8
AM_9
100
AcDbLine
 10
3.2525
 20
-0.6899999999999997
 30
0.0
 11
3.2525
 21
0.0000000000000002
 31
0.0
  0
LINE
  5
140
330
10D
100
AcDbEntity
  8
AM_9
100
AcDbLine
 10
2.6275
 20
0.0000000000000002
 30
0.0
 11
2.6275
 21
-0.6899999999999997
 31
0.0
  0
LINE
  5
141
330
10D
100
AcDbEntity
  8
AM_9
100
AcDbLine
 10
-2.6275
 20
-0.6899999999999997
 30
0.0
 11
-2.6275
 21
0.0000000000000002
 31
0.0
  0
LINE
  5
142
330
10D
100
AcDbEntity
  8
AM_9
100
AcDbLine
 10
-3.2525
 20
0.0000000000000002
 30
0.0
 11
-3.2525
 21
-0.6899999999999997
 31
0.0
  0
LINE
  5
143
330
10D
100
AcDbEntity
  8
AM_7
100
AcDbLine
 10
-0.21
 20
-1.335
 30
0.0
 11
0.21
 21
-1.335
 31
0.0
  0
LINE
  5
144
330
10D
100
AcDbEntity
  8
AM_7
100
AcDbLine
 10
2.94
 20
0.0344999999999998
 30
0.0
 11
2.94
 21
-0.7245
 31
0.0
  0
LINE
  5
145
330
10D
100
AcDbEntity
  8
AM_7
100
AcDbLine
 10
-2.94
 20
0.0344999999999998
 30
0.0
 11
-2.94
 21
-0.7245
 31
0.0
  0
LINE
  5
146
330
10D
100
AcDbEntity
  8
AM_7
100
AcDbLine
 10
0.0
 20
-2.907
 30
0.0
 11
0.0
 21
0.109
 31
0.0
  0
LINE
  5
147
330
10D
100
AcDbEntity
  8
AM_4
100
AcDbLine
 10
-2.979888624855891
 20
-2.18
 30
0.0
 11
2.97988862485589
 21
-2.18
 31
0.0
  0
ARC
  5
148
330
10D
100
AcDbEntity
  8
AM_4
100
AcDbCircle
 10
2.979888624855891
 20
-2.055
 30
0.0
 40
0.1249999999999996
100
AcDbArc
 50
270.0
 51
355.9003750430878
  0
ARC
  5
149
330
10D
100
AcDbEntity
  8
AM_4
100
AcDbCircle
 10
-2.979888624855891
 20
-2.055
 30
0.0
 40
0.1249999999999993
100
AcDbArc
 50
184.0996249569122
 51
270.0
  0
LINE
  5
14A
330
10D
100
AcDbEntity
  8
AM_4
100
AcDbLine
 10
0.5
 20
-2.0639363644183
 30
0.0
 11
3.104568781220018
 21
-2.0639363644183
 31
0.0
  0
LINE
  5
14B
330
10D
100
AcDbEntity
  8
AM_4
100
AcDbLine
 10
3.104568781220018
 20
-2.0639363644183
 30
0.0
 11
3.203044724770642
 21
-0.6899999999999998
 31
0.0
  0
LINE
  5
14C
330
10D
100
AcDbEntity
  8
AM_4
100
AcDbLine
 10
-3.203044724770642
 20
-0.689999999999999
 30
0.0
 11
-3.104568781220018
 21
-2.0639363644183
 31
0.0
  0
LINE
  5
14D
330
10D
100
AcDbEntity
  8
AM_4
100
AcDbLine
 10
-3.104568781220018
 20
-2.0639363644183
 30
0.0
 11
-0.5
 21
-2.0639363644183
 31
0.0
  0
CIRCLE
  5
14E
330
10D
100
AcDbEntity
  8
AM_4
100
AcDbCircle
 10
0.0
 20
-1.335
 30
0.0
 40
0.2
  0
LINE
  5
14F
330
10D
100
AcDbEntity
  8
AM_4
100
AcDbLine
 10
-0.5
 20
-0.6209999999999998
 30
0.0
 11
-0.5
 21
-2.109999999999999
 31
0.0
  0
LINE
  5
150
330
10D
100
AcDbEntity
  8
AM_4
100
AcDbLine
 10
0.5000000000000002
 20
-2.109999999999999
 30
0.0
 11
0.5000000000000002
 21
-0.6209999999999998
 31
0.0
  0
ARC
  5
151
330
10D
100
AcDbEntity
  8
AM_4
100
AcDbCircle
 10
-0.4310000000000009
 20
-2.11
 30
0.0
 40
0.0689999999999991
100
AcDbArc
 50
180.0
 51
270.0
  0
LINE
  5
152
330
10D
100
AcDbEntity
  8
AM_4
100
AcDbLine
 10
-0.4310000000000002
 20
-2.178999999999999
 30
0.0
 11
0.431
 21
-2.179
 31
0.0
  0
ARC
  5
153
330
10D
100
AcDbEntity
  8
AM_4
100
AcDbCircle
 10
0.4309999999999997
 20
-2.109999999999999
 30
0.0
 40
0.0690000000000008
100
AcDbArc
 50
270.0
 51
0.0
  0
LINE
  5
154
330
10D
100
AcDbEntity
  8
AM_4
100
AcDbLine
 10
1.370001290274337
 20
-0.6209999999999998
 30
0.0
 11
1.364788673117931
 21
-0.6899999999999997
 31
0.0
  0
LINE
  5
155
330
10D
100
AcDbEntity
  8
AM_4
100
AcDbLine
 10
-1.36478867311793
 20
-0.6899999999999997
 30
0.0
 11
-1.370001290274336
 21
-0.6209999999999996
 31
0.0
  0
LINE
  5
156
330
10D
100
AcDbEntity
  8
AM_4
100
AcDbLine
 10
2.564499999999999
 20
-0.6209999999999996
 30
0.0
 11
2.564499999999999
 21
-0.6899999999999996
 31
0.0
  0
LINE
  5
157
330
10D
100
AcDbEntity
  8
AM_4
100
AcDbLine
 10
-2.564499999999999
 20
-0.6209999999999996
 30
0.0
 11
-2.564499999999999
 21
-0.6899999999999996
 31
0.0
  0
LINE
  5
158
330
10D
100
AcDbEntity
  8
AM_4
100
AcDbLine
 10
2.901257258744318
 20
-0.6209999999999996
 30
0.0
 11
-2.901257258744304
 21
-0.6209999999999996
 31
0.0
  0
LINE
  5
159
330
10D
100
AcDbEntity
  8
AM_4
100
AcDbLine
 10
-2.901257258744304
 20
-0.6209999999999996
 30
0.0
 11
-2.901257258744304
 21
-0.6899999999999996
 31
0.0
  0
LINE
  5
15A
330
10D
100
AcDbEntity
  8
AM_4
100
AcDbLine
 10
2.901257258744318
 20
-0.6899999999999996
 30
0.0
 11
2.901257258744318
 21
-0.6209999999999996
 31
0.0
  0
LINE
  5
15B
330
10D
100
AcDbEntity
  8
AM_4
100
AcDbLine
 10
2.94
 20
-0.6899999999999996
 30
0.0
 11
2.94
 21
0.0000000000000002
 31
0.0
  0
LINE
  5
15C
330
10D
100
AcDbEntity
  8
AM_4
100
AcDbLine
 10
3.69
 20
-0.6899999999999997
 30
0.0
 11
1.364788673117931
 21
-0.6899999999999997
 31
0.0
  0
LINE
  5
15D
330
10D
100
AcDbEntity
  8
AM_4
100
AcDbLine
 10
3.69
 20
-0.6899999999999997
 30
0.0
 11
3.69
 21
0.0000000000000002
 31
0.0
  0
LINE
  5
15E
330
10D
100
AcDbEntity
  8
AM_4
100
AcDbLine
 10
3.69
 20
0.0000000000000002
 30
0.0
 11
-3.69
 21
0.0000000000000002
 31
0.0
  0
LINE
  5
15F
330
10D
100
AcDbEntity
  8
AM_4
100
AcDbLine
 10
-3.69
 20
-0.6899999999999997
 30
0.0
 11
-3.69
 21
0.0000000000000002
 31
0.0
  0
LINE
  5
160
330
10D
100
AcDbEntity
  8
AM_4
100
AcDbLine
 10
-1.36478867311793
 20
-0.6899999999999997
 30
0.0
 11
-3.69
 21
-0.6899999999999997
 31
0.0
  0
LINE
  5
161
330
10D
100
AcDbEntity
  8
AM_4
100
AcDbLine
 10
-2.94
 20
-0.6899999999999996
 30
0.0
 11
-2.94
 21
0.0000000000000002
 31
0.0
  0
ENDBLK
  5
110
330
10D
100
AcDbEntity
  8
0
100
AcDbBlockEnd
  0
ENDSEC
  0
SECTION
  2
ENTITIES
  0
INSERT
  5
6F
330
1F
100
AcDbEntity
  8
0
100
AcDbBlockReference
  2
1_052002_4
 10
0.0
 20
0.0
 30
0.0
  0
POINT
  5
163
330
1F
100
AcDbEntity
  8
ConnectionPoints
100
AcDbPoint
 10
0.0
 20
-0.2399999999999998
 30
0.0
  0
POINT
  5
164
330
1F
100
AcDbEntity
  8
ConnectionPoints
100
AcDbPoint
 10
0.0
 20
-2.78
 30
0.0000000000000002
  0
POINT
  5
165
330
1F
100
AcDbEntity
  8
ConnectionPoints
100
AcDbPoint
 10
0.0
 20
-1.335
 30
3.315
  0
POINT
  5
166
330
1F
100
AcDbEntity
  8
ConnectionPoints
100
AcDbPoint
 10
0.0
 20
-2.78
 30
0.0000000000000002
  0
ENDSEC
  0
SECTION
  2
OBJECTS
  0
DICTIONARY
  5
C
330
0
100
AcDbDictionary
281
     1
  3
ACAD_DETAILVIEWSTYLE
350
16E
  3
ACAD_GROUP
350
D
  3
ACAD_LAYOUT
350
1A
  3
ACAD_MATERIAL
350
43
  3
ACAD_MLEADERSTYLE
350
6B
  3
ACAD_MLINESTYLE
350
17
  3
ACAD_PLOTSETTINGS
350
19
  3
ACAD_PLOTSTYLENAME
350
E
  3
ACAD_SCALELIST
350
47
  3
ACAD_SECTIONVIEWSTYLE
350
16F
  3
ACAD_TABLESTYLE
350
69
  3
ACAD_VISUALSTYLE
350
2A
  3
ACDB_RECOMPOSE_DATA
350
16B
  3
AcDbVariableDictionary
350
167
  0
SUN
  5
6D
330
29
100
AcDbSun
 90
        1
290
     0
 63
     7
421
 16777215
 40
1.0
291
     1
 91
  2455826
 92
 54000000
292
     0
 70
     2
 71
   256
280
     1
  0
DICTIONARY
  5
16E
102
{ACAD_REACTORS
330
C
102
}
330
C
100
AcDbDictionary
281
     1
  0
DICTIONARY
  5
D
102
{ACAD_REACTORS
330
C
102
}
330
C
100
AcDbDictionary
281
     1
  0
DICTIONARY
  5
1A
102
{ACAD_REACTORS
330
C
102
}
330
C
100
AcDbDictionary
281
     1
  3
Layout1
350
1E
  3
Layout2
350
26
  3
Model
350
22
  0
DICTIONARY
  5
43
102
{ACAD_REACTORS
330
C
102
}
330
C
100
AcDbDictionary
281
     1
  3
ByBlock
350
45
  3
ByLayer
350
44
  3
Global
350
46
  0
DICTIONARY
  5
6B
102
{ACAD_REACTORS
330
C
102
}
330
C
100
AcDbDictionary
281
     1
  3
Standard
350
6C
  0
DICTIONARY
  5
17
102
{ACAD_REACTORS
330
C
102
}
330
C
100
AcDbDictionary
281
     1
  3
Standard
350
18
  0
DICTIONARY
  5
19
102
{ACAD_REACTORS
330
C
102
}
330
C
100
AcDbDictionary
281
     1
  0
ACDBDICTIONARYWDFLT
  5
E
102
{ACAD_REACTORS
330
C
102
}
330
C
100
AcDbDictionary
281
     1
  3
Normal
350
F
100
AcDbDictionaryWithDefault
340
F
  0
DICTIONARY
  5
47
102
{ACAD_REACTORS
330
C
102
}
330
C
100
AcDbDictionary
281
     1
  3
A0
350
48
  3
A1
350
49
  3
A2
350
4A
  3
A3
350
4B
  3
A4
350
4C
  3
A5
350
4D
  3
A6
350
4E
  3
A7
350
4F
  3
A8
350
50
  3
A9
350
51
  3
B0
350
52
  3
B1
350
53
  3
B2
350
54
  3
B3
350
55
  3
B4
350
56
  3
B5
350
57
  3
B6
350
58
  3
B7
350
59
  3
B8
350
5A
  3
B9
350
5B
  3
C0
350
5C
  3
C1
350
5D
  3
C2
350
5E
  3
C3
350
5F
  3
C4
350
60
  3
C5
350
61
  3
C6
350
62
  3
C7
350
63
  3
C8
350
64
  3
C9
350
65
  3
D0
350
66
  3
D1
350
67
  3
D2
350
68
  0
DICTIONARY
  5
16F
102
{ACAD_REACTORS
330
C
102
}
330
C
100
AcDbDictionary
281
     1
  0
DICTIONARY
  5
69
102
{ACAD_REACTORS
330
C
102
}
330
C
100
AcDbDictionary
281
     1
  3
Standard
350
6A
  0
DICTIONARY
  5
2A
102
{ACAD_REACTORS
330
C
102
}
330
C
100
AcDbDictionary
281
     1
  3
2dWireframe
350
2F
  3
Basic
350
32
  3
Brighten
350
36
  3
ColorChange
350
3A
  3
Conceptual
350
34
  3
Dim
350
35
  3
EdgeColorOff
350
3D
  3
Facepattern
350
39
  3
Flat
350
2B
  3
FlatWithEdges
350
2C
  3
Gouraud
350
2D
  3
GouraudWithEdges
350
2E
  3
Hidden
350
31
  3
JitterOff
350
3B
  3
Linepattern
350
38
  3
OverhangOff
350
3C
  3
Realistic
350
33
  3
Shaded
350
42
  3
Shaded with edges
350
41
  3
Shades of Gray
350
3E
  3
Sketchy
350
3F
  3
Thicken
350
37
  3
Wireframe
350
30
  3
X-Ray
350
40
  0
XRECORD
  5
16B
102
{ACAD_REACTORS
330
C
102
}
330
C
100
AcDbXrecord
280
     1
 90
        1
330
6A
  0
DICTIONARY
  5
167
102
{ACAD_REACTORS
330
C
102
}
330
C
100
AcDbDictionary
281
     1
  3
CANNOSCALE
350
168
  3
CMLEADERSTYLE
350
16D
  3
CTABLESTYLE
350
16C
  0
LAYOUT
  5
1E
102
{ACAD_REACTORS
330
1A
102
}
330
1A
100
AcDbPlotSettings
  1

  2
none_device
  4

  6

 40
0.0
 41
0.0
 42
0.0
 43
0.0
 44
0.0
 45
0.0
 46
0.0
 47
0.0
 48
0.0
 49
0.0
140
0.0
141
0.0
142
1.0
143
1.0
 70
   688
 72
     0
 73
     0
 74
     5
  7

 75
    16
 76
     0
 77
     2
 78
   300
147
1.0
148
0.0
149
0.0
100
AcDbLayout
  1
Layout1
 70
     1
 71
     1
 10
0.0
 20
0.0
 11
12.0
 21
9.0
 12
0.0
 22
0.0
 32
0.0
 14
1.000000000000000E+20
 24
1.000000000000000E+20
 34
1.000000000000000E+20
 15
-1.000000000000000E+20
 25
-1.000000000000000E+20
 35
-1.000000000000000E+20
146
0.0
 13
0.0
 23
0.0
 33
0.0
 16
1.0
 26
0.0
 36
0.0
 17
0.0
 27
1.0
 37
0.0
 76
     0
330
1B
  0
LAYOUT
  5
26
102
{ACAD_REACTORS
330
1A
102
}
330
1A
100
AcDbPlotSettings
  1

  2
none_device
  4

  6

 40
0.0
 41
0.0
 42
0.0
 43
0.0
 44
0.0
 45
0.0
 46
0.0
 47
0.0
 48
0.0
 49
0.0
140
0.0
141
0.0
142
1.0
143
1.0
 70
   688
 72
     0
 73
     0
 74
     5
  7

 75
    16
 76
     0
 77
     2
 78
   300
147
1.0
148
0.0
149
0.0
100
AcDbLayout
  1
Layout2
 70
     1
 71
     2
 10
0.0
 20
0.0
 11
0.0
 21
0.0
 12
0.0
 22
0.0
 32
0.0
 14
0.0
 24
0.0
 34
0.0
 15
0.0
 25
0.0
 35
0.0
146
0.0
 13
0.0
 23
0.0
 33
0.0
 16
1.0
 26
0.0
 36
0.0
 17
0.0
 27
1.0
 37
0.0
 76
     0
330
23
  0
LAYOUT
  5
22
102
{ACAD_REACTORS
330
1A
102
}
330
1A
100
AcDbPlotSettings
  1

  2
none_device
  4
Letter_(8.50_x_11.00_Inches)
  6

 40
6.35
 41
6.35
 42
6.35000508
 43
6.35000508
 44
215.9
 45
279.4
 46
0.0
 47
0.0
 48
0.0
 49
0.0
140
0.0
141
0.0
142
1.0
143
1.0
 70
  1712
 72
     0
 73
     0
 74
     0
  7

 75
     0
 76
     0
 77
     2
 78
   300
147
1.0
148
0.0
149
0.0
100
AcDbLayout
  1
Model
 70
     1
 71
     0
 10
0.0
 20
0.0
 11
12.0
 21
9.0
 12
0.0
 22
0.0
 32
0.0
 14
1.000000000000000E+20
 24
1.000000000000000E+20
 34
1.000000000000000E+20
 15
-1.000000000000000E+20
 25
-1.000000000000000E+20
 35
-1.000000000000000E+20
146
0.0
 13
0.0
 23
0.0
 33
0.0
 16
1.0
 26
0.0
 36
0.0
 17
0.0
 27
1.0
 37
0.0
 76
     0
330
1F
331
29
  0
MATERIAL
  5
45
102
{ACAD_REACTORS
330
43
102
}
330
43
100
AcDbMaterial
  1
ByBlock
 72
     1
 94
      127
  0
MATERIAL
  5
44
102
{ACAD_REACTORS
330
43
102
}
330
43
100
AcDbMaterial
  1
ByLayer
 72
     1
 94
      127
  0
MATERIAL
  5
46
102
{ACAD_REACTORS
330
43
102
}
330
43
100
AcDbMaterial
  1
Global
 72
     1
 94
      127
  0
MLEADERSTYLE
  5
6C
102
{ACAD_REACTORS
330
6B
102
}
330
6B
100
AcDbMLeaderStyle
179
     2
170
     2
171
     1
172
     0
 90
        2
 40
0.0
 41
0.0
173
     1
 91
-1056964608
340
14
 92
       -2
290
     1
 42
0.09
291
     1
 43
0.36
  3
Standard
341
0
 44
0.18
300

342
11
174
     1
178
     6
175
     1
176
     0
 93
-1056964608
 45
0.18
292
     0
297
     0
 46
0.18
343
0
 94
-1056964608
 47
1.0
 49
1.0
140
1.0
293
     1
141
0.0
294
     1
177
     0
142
1.0
295
     0
296
     0
143
0.125
271
     0
272
     9
273
     9
298
     0
  0
MLINESTYLE
  5
18
102
{ACAD_REACTORS
330
17
102
}
330
17
100
AcDbMlineStyle
  2
Standard
 70
     0
  3

 62
   256
 51
90.0
 52
90.0
 71
     2
 49
0.5
 62
   256
  6
BYLAYER
 49
-0.5
 62
   256
  6
BYLAYER
  0
ACDBPLACEHOLDER
  5
F
102
{ACAD_REACTORS
330
E
102
}
330
E
  0
SCALE
  5
48
102
{ACAD_REACTORS
330
47
102
}
330
47
100
AcDbScale
 70
     0
300
1:1
140
1.0
141
1.0
290
     1
  0
SCALE
  5
49
102
{ACAD_REACTORS
330
47
102
}
330
47
100
AcDbScale
 70
     0
300
1:2
140
1.0
141
2.0
290
     0
  0
SCALE
  5
4A
102
{ACAD_REACTORS
330
47
102
}
330
47
100
AcDbScale
 70
     0
300
1:4
140
1.0
141
4.0
290
     0
  0
SCALE
  5
4B
102
{ACAD_REACTORS
330
47
102
}
330
47
100
AcDbScale
 70
     0
300
1:5
140
1.0
141
5.0
290
     0
  0
SCALE
  5
4C
102
{ACAD_REACTORS
330
47
102
}
330
47
100
AcDbScale
 70
     0
300
1:8
140
1.0
141
8.0
290
     0
  0
SCALE
  5
4D
102
{ACAD_REACTORS
330
47
102
}
330
47
100
AcDbScale
 70
     0
300
1:10
140
1.0
141
10.0
290
     0
  0
SCALE
  5
4E
102
{ACAD_REACTORS
330
47
102
}
330
47
100
AcDbScale
 70
     0
300
1:16
140
1.0
141
16.0
290
     0
  0
SCALE
  5
4F
102
{ACAD_REACTORS
330
47
102
}
330
47
100
AcDbScale
 70
     0
300
1:20
140
1.0
141
20.0
290
     0
  0
SCALE
  5
50
102
{ACAD_REACTORS
330
47
102
}
330
47
100
AcDbScale
 70
     0
300
1:30
140
1.0
141
30.0
290
     0
  0
SCALE
  5
51
102
{ACAD_REACTORS
330
47
102
}
330
47
100
AcDbScale
 70
     0
300
1:40
140
1.0
141
40.0
290
     0
  0
SCALE
  5
52
102
{ACAD_REACTORS
330
47
102
}
330
47
100
AcDbScale
 70
     0
300
1:50
140
1.0
141
50.0
290
     0
  0
SCALE
  5
53
102
{ACAD_REACTORS
330
47
102
}
330
47
100
AcDbScale
 70
     0
300
1:100
140
1.0
141
100.0
290
     0
  0
SCALE
  5
54
102
{ACAD_REACTORS
330
47
102
}
330
47
100
AcDbScale
 70
     0
300
2:1
140
2.0
141
1.0
290
     0
  0
SCALE
  5
55
102
{ACAD_REACTORS
330
47
102
}
330
47
100
AcDbScale
 70
     0
300
4:1
140
4.0
141
1.0
290
     0
  0
SCALE
  5
56
102
{ACAD_REACTORS
330
47
102
}
330
47
100
AcDbScale
 70
     0
300
8:1
140
8.0
141
1.0
290
     0
  0
SCALE
  5
57
102
{ACAD_REACTORS
330
47
102
}
330
47
100
AcDbScale
 70
     0
300
10:1
140
10.0
141
1.0
290
     0
  0
SCALE
  5
58
102
{ACAD_REACTORS
330
47
102
}
330
47
100
AcDbScale
 70
     0
300
100:1
140
100.0
141
1.0
290
     0
  0
SCALE
  5
59
102
{ACAD_REACTORS
330
47
102
}
330
47
100
AcDbScale
 70
     0
300
1/128" = 1'-0"
140
0.0078125
141
12.0
290
     0
  0
SCALE
  5
5A
102
{ACAD_REACTORS
330
47
102
}
330
47
100
AcDbScale
 70
     0
300
1/64" = 1'-0"
140
0.015625
141
12.0
290
     0
  0
SCALE
  5
5B
102
{ACAD_REACTORS
330
47
102
}
330
47
100
AcDbScale
 70
     0
300
1/32" = 1'-0"
140
0.03125
141
12.0
290
     0
  0
SCALE
  5
5C
102
{ACAD_REACTORS
330
47
102
}
330
47
100
AcDbScale
 70
     0
300
1/16" = 1'-0"
140
0.0625
141
12.0
290
     0
  0
SCALE
  5
5D
102
{ACAD_REACTORS
330
47
102
}
330
47
100
AcDbScale
 70
     0
300
3/32" = 1'-0"
140
0.09375
141
12.0
290
     0
  0
SCALE
  5
5E
102
{ACAD_REACTORS
330
47
102
}
330
47
100
AcDbScale
 70
     0
300
1/8" = 1'-0"
140
0.125
141
12.0
290
     0
  0
SCALE
  5
5F
102
{ACAD_REACTORS
330
47
102
}
330
47
100
AcDbScale
 70
     0
300
3/16" = 1'-0"
140
0.1875
141
12.0
290
     0
  0
SCALE
  5
60
102
{ACAD_REACTORS
330
47
102
}
330
47
100
AcDbScale
 70
     0
300
1/4" = 1'-0"
140
0.25
141
12.0
290
     0
  0
SCALE
  5
61
102
{ACAD_REACTORS
330
47
102
}
330
47
100
AcDbScale
 70
     0
300
3/8" = 1'-0"
140
0.375
141
12.0
290
     0
  0
SCALE
  5
62
102
{ACAD_REACTORS
330
47
102
}
330
47
100
AcDbScale
 70
     0
300
1/2" = 1'-0"
140
0.5
141
12.0
290
     0
  0
SCALE
  5
63
102
{ACAD_REACTORS
330
47
102
}
330
47
100
AcDbScale
 70
     0
300
3/4" = 1'-0"
140
0.75
141
12.0
290
     0
  0
SCALE
  5
64
102
{ACAD_REACTORS
330
47
102
}
330
47
100
AcDbScale
 70
     0
300
1" = 1'-0"
140
1.0
141
12.0
290
     0
  0
SCALE
  5
65
102
{ACAD_REACTORS
330
47
102
}
330
47
100
AcDbScale
 70
     0
300
1-1/2" = 1'-0"
140
1.5
141
12.0
290
     0
  0
SCALE
  5
66
102
{ACAD_REACTORS
330
47
102
}
330
47
100
AcDbScale
 70
     0
300
3" = 1'-0"
140
3.0
141
12.0
290
     0
  0
SCALE
  5
67
102
{ACAD_REACTORS
330
47
102
}
330
47
100
AcDbScale
 70
     0
300
6" = 1'-0"
140
6.0
141
12.0
290
     0
  0
SCALE
  5
68
102
{ACAD_REACTORS
330
47
102
}
330
47
100
AcDbScale
 70
     0
300
1'-0" = 1'-0"
140
12.0
141
12.0
290
     0
  0
TABLESTYLE
  5
6A
102
{ACAD_REACTORS
330
69
102
}
102
{ACAD_XDICTIONARY
360
169
102
}
330
69
100
AcDbTableStyle
  3
Standard
 70
     0
 71
     0
 40
0.06
 41
0.06
280
     0
281
     0
  7
Standard
140
0.18
170
     2
 62
     0
 63
   257
283
     0
 90
        4
 91
        0
  1

274
    -2
284
     1
 64
     0
275
    -2
285
     1
 65
     0
276
    -2
286
     1
 66
     0
277
    -2
287
     1
 67
     0
278
    -2
288
     1
 68
     0
279
    -2
289
     1
 69
     0
  7
Standard
140
0.25
170
     5
 62
     0
 63
   257
283
     0
 90
        4
 91
        0
  1

274
    -2
284
     1
 64
     0
275
    -2
285
     1
 65
     0
276
    -2
286
     1
 66
     0
277
    -2
287
     1
 67
     0
278
    -2
288
     1
 68
     0
279
    -2
289
     1
 69
     0
  7
Standard
140
0.18
170
     5
 62
     0
 63
   257
283
     0
 90
        4
 91
        0
  1

274
    -2
284
     1
 64
     0
275
    -2
285
     1
 65
     0
276
    -2
286
     1
 66
     0
277
    -2
287
     1
 67
     0
278
    -2
288
     1
 68
     0
279
    -2
289
     1
 69
     0
  0
VISUALSTYLE
  5
2F
102
{ACAD_REACTORS
330
2A
102
}
330
2A
100
AcDbVisualStyle
  2
2dWireframe
 70
     4
177
     3
291
     0
 70
    58
 90
        0
176
     1
 90
        2
176
     1
 90
        0
176
     1
 90
        0
176
     1
 40
0.6
176
     1
 40
30.0
176
     1
 62
     7
420
 16777215
176
     1
 90
        1
176
     1
 90
        4
176
     1
 62
     7
176
     1
 62
   257
176
     1
 90
        1
176
     1
 90
        1
176
     1
 40
1.0
176
     1
 90
        0
176
     1
 62
   257
176
     1
 40
1.0
176
     1
 90
        1
176
     1
 90
        6
176
     1
 90
        2
176
     1
 62
     7
176
     1
 90
        5
176
     1
 90
        0
176
     1
 90
        0
176
     1
290
     0
176
     1
 90
        1
176
     1
 40
0.0
176
     1
 90
        0
176
     1
290
     1
176
     1
290
     1
176
     1
290
     0
176
     1
290
     0
176
     1
290
     0
176
     1
290
     0
176
     1
290
     0
176
     1
290
     0
176
     1
290
     0
176
     1
 90
       50
176
     1
 40
0.0
176
     1
 40
1.0
176
     1
 90
        0
176
     1
 62
    18
420
        0
176
     1
 90
       50
176
     1
 90
        3
176
     1
 62
     5
420
      255
176
     1
290
     0
176
     1
 90
       50
176
     1
 90
       50
176
     1
 90
       50
176
     1
290
     0
176
     1
 90
       50
176
     1
 62
   256
176
     0
 40
1.0
176
     0
 90
        2
176
     1
  1
strokes_ogs.tif
176
     1
290
     0
176
     1
 40
1.0
176
     1
 40
1.0
176
     1
  0
VISUALSTYLE
  5
32
102
{ACAD_REACTORS
330
2A
102
}
330
2A
100
AcDbVisualStyle
  2
Basic
 70
     7
177
     3
291
     1
 70
    58
 90
        1
176
     1
 90
        0
176
     1
 90
        1
176
     1
 90
        0
176
     1
 40
0.6
176
     1
 40
30.0
176
     1
 62
     7
420
 16777215
176
     1
 90
        0
176
     1
 90
        4
176
     1
 62
     7
176
     1
 62
   257
176
     1
 90
        1
176
     1
 90
        1
176
     1
 40
1.0
176
     1
 90
        8
176
     1
 62
     7
176
     1
 40
1.0
176
     1
 90
        1
176
     1
 90
        6
176
     1
 90
        2
176
     1
 62
     7
176
     1
 90
        5
176
     1
 90
        0
176
     1
 90
        0
176
     1
290
     0
176
     1
 90
        1
176
     1
 40
0.0
176
     1
 90
        0
176
     1
290
     0
176
     1
290
     1
176
     1
290
     1
176
     1
290
     0
176
     1
290
     0
176
     1
290
     0
176
     1
290
     0
176
     1
290
     0
176
     1
290
     0
176
     1
 90
       50
176
     1
 40
0.0
176
     1
 40
1.0
176
     1
 90
        0
176
     1
 62
    18
420
        0
176
     1
 90
       50
176
     1
 90
        3
176
     1
 62
     5
420
      255
176
     1
290
     0
176
     1
 90
       50
176
     1
 90
       50
176
     1
 90
       50
176
     1
290
     0
176
     1
 90
       50
176
     1
 62
   256
176
     0
 40
1.0
176
     0
 90
        2
176
     1
  1
strokes_ogs.tif
176
     1
290
     0
176
     1
 40
1.0
176
     1
 40
1.0
176
     1
  0
VISUALSTYLE
  5
36
102
{ACAD_REACTORS
330
2A
102
}
330
2A
100
AcDbVisualStyle
  2
Brighten
 70
    12
177
     3
291
     1
 70
    58
 90
        2
176
     1
 90
        2
176
     1
 90
        0
176
     1
 90
        0
176
     1
 40
0.6
176
     1
 40
30.0
176
     1
 62
     7
420
 16777215
176
     1
 90
        1
176
     1
 90
        4
176
     1
 62
     7
176
     1
 62
   257
176
     1
 90
        1
176
     1
 90
        1
176
     1
 40
1.0
176
     1
 90
        8
176
     1
 62
     7
176
     1
 40
1.0
176
     1
 90
        1
176
     1
 90
        6
176
     1
 90
        2
176
     1
 62
     7
176
     1
 90
        5
176
     1
 90
        0
176
     1
 90
        0
176
     1
290
     0
176
     1
 90
        1
176
     1
 40
50.0
176
     1
 90
        0
176
     1
290
     0
176
     1
290
     1
176
     1
290
     1
176
     1
290
     0
176
     1
290
     0
176
     1
290
     0
176
     1
290
     0
176
     1
290
     0
176
     1
290
     0
176
     1
 90
       50
176
     1
 40
0.0
176
     1
 40
1.0
176
     1
 90
        0
176
     1
 62
    18
420
        0
176
     1
 90
       50
176
     1
 90
        3
176
     1
 62
     5
420
      255
176
     1
290
     0
176
     1
 90
       50
176
     1
 90
       50
176
     1
 90
       50
176
     1
290
     0
176
     1
 90
       50
176
     1
 62
   256
176
     0
 40
1.0
176
     0
 90
        2
176
     1
  1
strokes_ogs.tif
176
     1
290
     0
176
     1
 40
1.0
176
     1
 40
1.0
176
     1
  0
VISUALSTYLE
  5
3A
102
{ACAD_REACTORS
330
2A
102
}
330
2A
100
AcDbVisualStyle
  2
ColorChange
 70
    16
177
     3
291
     1
 70
    58
 90
        2
176
     1
 90
        2
176
     1
 90
        3
176
     1
 90
        0
176
     1
 40
0.6
176
     1
 40
30.0
176
     1
 62
     8
420
  8421504
176
     1
 90
        1
176
     1
 90
        4
176
     1
 62
     7
176
     1
 62
   257
176
     1
 90
        1
176
     1
 90
        1
176
     1
 40
1.0
176
     1
 90
        8
176
     1
 62
     8
420
  8421504
176
     1
 40
1.0
176
     1
 90
        1
176
     1
 90
        6
176
     1
 90
        2
176
     1
 62
     7
176
     1
 90
        5
176
     1
 90
        0
176
     1
 90
        0
176
     1
290
     0
176
     1
 90
        1
176
     1
 40
0.0
176
     1
 90
        0
176
     1
290
     0
176
     1
290
     1
176
     1
290
     1
176
     1
290
     0
176
     1
290
     0
176
     1
290
     0
176
     1
290
     0
176
     1
290
     0
176
     1
290
     0
176
     1
 90
       50
176
     1
 40
0.0
176
     1
 40
1.0
176
     1
 90
        0
176
     1
 62
    18
420
        0
176
     1
 90
       50
176
     1
 90
        3
176
     1
 62
     5
420
      255
176
     1
290
     0
176
     1
 90
       50
176
     1
 90
       50
176
     1
 90
       50
176
     1
290
     0
176
     1
 90
       50
176
     1
 62
   256
176
     0
 40
1.0
176
     0
 90
        2
176
     1
  1
strokes_ogs.tif
176
     1
290
     0
176
     1
 40
1.0
176
     1
 40
1.0
176
     1
  0
VISUALSTYLE
  5
34
102
{ACAD_REACTORS
330
2A
102
}
330
2A
100
AcDbVisualStyle
  2
Conceptual
 70
     9
177
     3
291
     0
 70
    58
 90
        3
176
     1
 90
        2
176
     1
 90
        0
176
     1
 90
        0
176
     1
 40
0.6
176
     1
 40
30.0
176
     1
 62
     7
420
 16777215
176
     1
 90
        2
176
     1
 90
        2
176
     1
 62
     7
176
     1
 62
   257
176
     1
 90
        1
176
     1
 90
        1
176
     1
 40
179.0
176
     1
 90
        8
176
     1
 62
     7
176
     1
 40
1.0
176
     1
 90
        1
176
     1
 90
        6
176
     1
 90
        2
176
     1
 62
     7
176
     1
 90
        3
176
     1
 90
        0
176
     1
 90
        0
176
     1
290
     0
176
     1
 90
        1
176
     1
 40
0.0
176
     1
 90
        0
176
     1
290
     0
176
     1
290
     1
176
     1
290
     1
176
     1
290
     0
176
     1
290
     0
176
     1
290
     0
176
     1
290
     0
176
     1
290
     0
176
     1
290
     0
176
     1
 90
       50
176
     1
 40
0.0
176
     1
 40
1.0
176
     1
 90
        0
176
     1
 62
    18
420
        0
176
     1
 90
       50
176
     1
 90
        3
176
     1
 62
     5
420
      255
176
     1
290
     0
176
     1
 90
       50
176
     1
 90
       50
176
     1
 90
       50
176
     1
290
     0
176
     1
 90
       50
176
     1
 62
   256
176
     0
 40
1.0
176
     0
 90
        2
176
     1
  1
strokes_ogs.tif
176
     1
290
     0
176
     1
 40
1.0
176
     1
 40
1.0
176
     1
  0
VISUALSTYLE
  5
35
102
{ACAD_REACTORS
330
2A
102
}
330
2A
100
AcDbVisualStyle
  2
Dim
 70
    11
177
     3
291
     1
 70
    58
 90
        2
176
     1
 90
        2
176
     1
 90
        0
176
     1
 90
        0
176
     1
 40
0.6
176
     1
 40
30.0
176
     1
 62
     7
420
 16777215
176
     1
 90
        1
176
     1
 90
        4
176
     1
 62
     7
176
     1
 62
   257
176
     1
 90
        1
176
     1
 90
        1
176
     1
 40
1.0
176
     1
 90
        8
176
     1
 62
     7
176
     1
 40
1.0
176
     1
 90
        1
176
     1
 90
        6
176
     1
 90
        2
176
     1
 62
     7
176
     1
 90
        5
176
     1
 90
        0
176
     1
 90
        0
176
     1
290
     0
176
     1
 90
        1
176
     1
 40
-50.0
176
     1
 90
        0
176
     1
290
     0
176
     1
290
     1
176
     1
290
     1
176
     1
290
     0
176
     1
290
     0
176
     1
290
     0
176
     1
290
     0
176
     1
290
     0
176
     1
290
     0
176
     1
 90
       50
176
     1
 40
0.0
176
     1
 40
1.0
176
     1
 90
        0
176
     1
 62
    18
420
        0
176
     1
 90
       50
176
     1
 90
        3
176
     1
 62
     5
420
      255
176
     1
290
     0
176
     1
 90
       50
176
     1
 90
       50
176
     1
 90
       50
176
     1
290
     0
176
     1
 90
       50
176
     1
 62
   256
176
     0
 40
1.0
176
     0
 90
        2
176
     1
  1
strokes_ogs.tif
176
     1
290
     0
176
     1
 40
1.0
176
     1
 40
1.0
176
     1
  0
VISUALSTYLE
  5
3D
102
{ACAD_REACTORS
330
2A
102
}
330
2A
100
AcDbVisualStyle
  2
EdgeColorOff
 70
    22
177
     3
291
     1
 70
    58
 90
        2
176
     0
 90
        2
176
     0
 90
        0
176
     0
 90
        0
176
     0
 40
0.6
176
     0
 40
30.0
176
     0
 62
     7
420
 16777215
176
     0
 90
        1
176
     0
 90
        4
176
     0
 62
     7
176
     0
 62
   257
176
     0
 90
        1
176
     0
 90
        1
176
     0
 40
1.0
176
     0
 90
        8
176
     2
 62
     7
176
     0
 40
1.0
176
     0
 90
        1
176
     0
 90
        6
176
     0
 90
        2
176
     0
 62
     7
176
     0
 90
        5
176
     0
 90
        0
176
     0
 90
        0
176
     0
290
     0
176
     0
 90
        1
176
     0
 40
0.0
176
     0
 90
        0
176
     0
290
     0
176
     0
290
     1
176
     0
290
     1
176
     0
290
     0
176
     0
290
     0
176
     0
290
     0
176
     0
290
     0
176
     0
290
     0
176
     0
290
     0
176
     0
 90
       50
176
     0
 40
0.0
176
     0
 40
1.0
176
     0
 90
        0
176
     0
 62
    18
420
        0
176
     0
 90
       50
176
     0
 90
        3
176
     0
 62
     5
420
      255
176
     0
290
     0
176
     0
 90
       50
176
     0
 90
       50
176
     0
 90
       50
176
     0
290
     0
176
     0
 90
       50
176
     0
 62
   256
176
     0
 40
1.0
176
     0
 90
        2
176
     0
  1
strokes_ogs.tif
176
     0
290
     0
176
     0
 40
1.0
176
     0
 40
1.0
176
     0
  0
VISUALSTYLE
  5
39
102
{ACAD_REACTORS
330
2A
102
}
330
2A
100
AcDbVisualStyle
  2
Facepattern
 70
    15
177
     3
291
     1
 70
    58
 90
        2
176
     1
 90
        2
176
     1
 90
        0
176
     1
 90
        0
176
     1
 40
0.6
176
     1
 40
30.0
176
     1
 62
     7
420
 16777215
176
     1
 90
        1
176
     1
 90
        4
176
     1
 62
     7
176
     1
 62
   257
176
     1
 90
        1
176
     1
 90
        1
176
     1
 40
1.0
176
     1
 90
        8
176
     1
 62
     7
176
     1
 40
1.0
176
     1
 90
        1
176
     1
 90
        6
176
     1
 90
        2
176
     1
 62
     7
176
     1
 90
        5
176
     1
 90
        0
176
     1
 90
        0
176
     1
290
     0
176
     1
 90
        1
176
     1
 40
0.0
176
     1
 90
        0
176
     1
290
     0
176
     1
290
     1
176
     1
290
     1
176
     1
290
     0
176
     1
290
     0
176
     1
290
     0
176
     1
290
     0
176
     1
290
     0
176
     1
290
     0
176
     1
 90
       50
176
     1
 40
0.0
176
     1
 40
1.0
176
     1
 90
        0
176
     1
 62
    18
420
        0
176
     1
 90
       50
176
     1
 90
        3
176
     1
 62
     5
420
      255
176
     1
290
     0
176
     1
 90
       50
176
     1
 90
       50
176
     1
 90
       50
176
     1
290
     0
176
     1
 90
       50
176
     1
 62
   256
176
     0
 40
1.0
176
     0
 90
        2
176
     1
  1
strokes_ogs.tif
176
     1
290
     0
176
     1
 40
1.0
176
     1
 40
1.0
176
     1
  0
VISUALSTYLE
  5
2B
102
{ACAD_REACTORS
330
2A
102
}
330
2A
100
AcDbVisualStyle
  2
Flat
 70
     0
177
     3
291
     1
 70
    58
 90
        2
176
     1
 90
        1
176
     1
 90
        1
176
     1
 90
        2
176
     1
 40
0.6
176
     1
 40
30.0
176
     1
 62
     7
420
 16777215
176
     1
 90
        0
176
     1
 90
        0
176
     1
 62
     7
176
     1
 62
   257
176
     1
 90
        1
176
     1
 90
        1
176
     1
 40
1.0
176
     1
 90
        8
176
     1
 62
     7
176
     1
 40
1.0
176
     1
 90
        1
176
     1
 90
        6
176
     1
 90
        2
176
     1
 62
     7
176
     1
 90
        5
176
     1
 90
        0
176
     1
 90
        0
176
     1
290
     0
176
     1
 90
       13
176
     1
 40
0.0
176
     1
 90
        0
176
     1
290
     0
176
     1
290
     1
176
     1
290
     1
176
     1
290
     0
176
     1
290
     0
176
     1
290
     0
176
     1
290
     0
176
     1
290
     0
176
     1
290
     0
176
     1
 90
       50
176
     1
 40
0.0
176
     1
 40
1.0
176
     1
 90
        0
176
     1
 62
    18
420
        0
176
     1
 90
       50
176
     1
 90
        3
176
     1
 62
     5
420
      255
176
     1
290
     0
176
     1
 90
       50
176
     1
 90
       50
176
     1
 90
       50
176
     1
290
     0
176
     1
 90
       50
176
     1
 62
   256
176
     0
 40
1.0
176
     0
 90
        2
176
     1
  1
strokes_ogs.tif
176
     1
290
     0
176
     1
 40
1.0
176
     1
 40
1.0
176
     1
  0
VISUALSTYLE
  5
2C
102
{ACAD_REACTORS
330
2A
102
}
330
2A
100
AcDbVisualStyle
  2
FlatWithEdges
 70
     1
177
     3
291
     1
 70
    58
 90
        2
176
     1
 90
        1
176
     1
 90
        1
176
     1
 90
        2
176
     1
 40
0.6
176
     1
 40
30.0
176
     1
 62
     7
420
 16777215
176
     1
 90
        1
176
     1
 90
        0
176
     1
 62
     7
176
     1
 62
   257
176
     1
 90
        1
176
     1
 90
        1
176
     1
 40
1.0
176
     1
 90
        0
176
     1
 62
   257
176
     1
 40
1.0
176
     1
 90
        1
176
     1
 90
        6
176
     1
 90
        2
176
     1
 62
     7
176
     1
 90
        5
176
     1
 90
        0
176
     1
 90
        0
176
     1
290
     0
176
     1
 90
       13
176
     1
 40
0.0
176
     1
 90
        0
176
     1
290
     0
176
     1
290
     1
176
     1
290
     1
176
     1
290
     0
176
     1
290
     0
176
     1
290
     0
176
     1
290
     0
176
     1
290
     0
176
     1
290
     0
176
     1
 90
       50
176
     1
 40
0.0
176
     1
 40
1.0
176
     1
 90
        0
176
     1
 62
    18
420
        0
176
     1
 90
       50
176
     1
 90
        3
176
     1
 62
     5
420
      255
176
     1
290
     0
176
     1
 90
       50
176
     1
 90
       50
176
     1
 90
       50
176
     1
290
     0
176
     1
 90
       50
176
     1
 62
   256
176
     0
 40
1.0
176
     0
 90
        2
176
     1
  1
strokes_ogs.tif
176
     1
290
     0
176
     1
 40
1.0
176
     1
 40
1.0
176
     1
  0
VISUALSTYLE
  5
2D
102
{ACAD_REACTORS
330
2A
102
}
330
2A
100
AcDbVisualStyle
  2
Gouraud
 70
     2
177
     3
291
     1
 70
    58
 90
        2
176
     1
 90
        2
176
     1
 90
        1
176
     1
 90
        2
176
     1
 40
0.6
176
     1
 40
30.0
176
     1
 62
     7
420
 16777215
176
     1
 90
        0
176
     1
 90
        0
176
     1
 62
     7
176
     1
 62
   257
176
     1
 90
        1
176
     1
 90
        1
176
     1
 40
1.0
176
     1
 90
        0
176
     1
 62
     7
176
     1
 40
1.0
176
     1
 90
        1
176
     1
 90
        6
176
     1
 90
        2
176
     1
 62
     7
176
     1
 90
        5
176
     1
 90
        0
176
     1
 90
        0
176
     1
290
     0
176
     1
 90
       13
176
     1
 40
0.0
176
     1
 90
        0
176
     1
290
     0
176
     1
290
     1
176
     1
290
     1
176
     1
290
     0
176
     1
290
     0
176
     1
290
     0
176
     1
290
     0
176
     1
290
     0
176
     1
290
     0
176
     1
 90
       50
176
     1
 40
0.0
176
     1
 40
1.0
176
     1
 90
        0
176
     1
 62
    18
420
        0
176
     1
 90
       50
176
     1
 90
        3
176
     1
 62
     5
420
      255
176
     1
290
     0
176
     1
 90
       50
176
     1
 90
       50
176
     1
 90
       50
176
     1
290
     0
176
     1
 90
       50
176
     1
 62
   256
176
     0
 40
1.0
176
     0
 90
        2
176
     1
  1
strokes_ogs.tif
176
     1
290
     0
176
     1
 40
1.0
176
     1
 40
1.0
176
     1
  0
VISUALSTYLE
  5
2E
102
{ACAD_REACTORS
330
2A
102
}
330
2A
100
AcDbVisualStyle
  2
GouraudWithEdges
 70
     3
177
     3
291
     1
 70
    58
 90
        2
176
     1
 90
        2
176
     1
 90
        1
176
     1
 90
        2
176
     1
 40
0.6
176
     1
 40
30.0
176
     1
 62
     7
420
 16777215
176
     1
 90
        1
176
     1
 90
        0
176
     1
 62
     7
176
     1
 62
   257
176
     1
 90
        1
176
     1
 90
        1
176
     1
 40
1.0
176
     1
 90
        0
176
     1
 62
   257
176
     1
 40
1.0
176
     1
 90
        1
176
     1
 90
        6
176
     1
 90
        2
176
     1
 62
     7
176
     1
 90
        5
176
     1
 90
        0
176
     1
 90
        0
176
     1
290
     0
176
     1
 90
       13
176
     1
 40
0.0
176
     1
 90
        0
176
     1
290
     0
176
     1
290
     1
176
     1
290
     1
176
     1
290
     0
176
     1
290
     0
176
     1
290
     0
176
     1
290
     0
176
     1
290
     0
176
     1
290
     0
176
     1
 90
       50
176
     1
 40
0.0
176
     1
 40
1.0
176
     1
 90
        0
176
     1
 62
    18
420
        0
176
     1
 90
       50
176
     1
 90
        3
176
     1
 62
     5
420
      255
176
     1
290
     0
176
     1
 90
       50
176
     1
 90
       50
176
     1
 90
       50
176
     1
290
     0
176
     1
 90
       50
176
     1
 62
   256
176
     0
 40
1.0
176
     0
 90
        2
176
     1
  1
strokes_ogs.tif
176
     1
290
     0
176
     1
 40
1.0
176
     1
 40
1.0
176
     1
  0
VISUALSTYLE
  5
31
102
{ACAD_REACTORS
330
2A
102
}
330
2A
100
AcDbVisualStyle
  2
Hidden
 70
     6
177
     3
291
     0
 70
    58
 90
        1
176
     1
 90
        2
176
     1
 90
        2
176
     1
 90
        0
176
     1
 40
0.6
176
     1
 40
30.0
176
     1
 62
     7
420
 16777215
176
     1
 90
        2
176
     1
 90
        2
176
     1
 62
     7
176
     1
 62
   257
176
     1
 90
        2
176
     1
 90
        1
176
     1
 40
40.0
176
     1
 90
        0
176
     1
 62
   257
176
     1
 40
1.0
176
     1
 90
        1
176
     1
 90
        6
176
     1
 90
        2
176
     1
 62
     7
176
     1
 90
        3
176
     1
 90
        0
176
     1
 90
        0
176
     1
290
     0
176
     1
 90
        1
176
     1
 40
0.0
176
     1
 90
        0
176
     1
290
     0
176
     1
290
     1
176
     1
290
     1
176
     1
290
     0
176
     1
290
     0
176
     1
290
     0
176
     1
290
     0
176
     1
290
     0
176
     1
290
     0
176
     1
 90
       50
176
     1
 40
0.0
176
     1
 40
1.0
176
     1
 90
        0
176
     1
 62
    18
420
        0
176
     1
 90
       50
176
     1
 90
        3
176
     1
 62
     5
420
      255
176
     1
290
     0
176
     1
 90
       50
176
     1
 90
       50
176
     1
 90
       50
176
     1
290
     0
176
     1
 90
       50
176
     1
 62
   256
176
     0
 40
1.0
176
     0
 90
        2
176
     1
  1
strokes_ogs.tif
176
     1
290
     0
176
     1
 40
1.0
176
     1
 40
1.0
176
     1
  0
VISUALSTYLE
  5
3B
102
{ACAD_REACTORS
330
2A
102
}
330
2A
100
AcDbVisualStyle
  2
JitterOff
 70
    20
177
     3
291
     1
 70
    58
 90
        2
176
     0
 90
        2
176
     0
 90
        0
176
     0
 90
        0
176
     0
 40
0.6
176
     0
 40
30.0
176
     0
 62
     7
420
 16777215
176
     0
 90
        1
176
     0
 90
        4
176
     0
 62
     7
176
     0
 62
   257
176
     0
 90
        1
176
     0
 90
        1
176
     0
 40
1.0
176
     0
 90
       10
176
     2
 62
     7
176
     0
 40
1.0
176
     0
 90
        1
176
     0
 90
        6
176
     0
 90
        2
176
     0
 62
     7
176
     0
 90
        5
176
     0
 90
        0
176
     0
 90
        0
176
     0
290
     0
176
     0
 90
        1
176
     0
 40
0.0
176
     0
 90
        0
176
     0
290
     0
176
     0
290
     1
176
     0
290
     1
176
     0
290
     0
176
     0
290
     0
176
     0
290
     0
176
     0
290
     0
176
     0
290
     0
176
     0
290
     0
176
     0
 90
       50
176
     0
 40
0.0
176
     0
 40
1.0
176
     0
 90
        0
176
     0
 62
    18
420
        0
176
     0
 90
       50
176
     0
 90
        3
176
     0
 62
     5
420
      255
176
     0
290
     0
176
     0
 90
       50
176
     0
 90
       50
176
     0
 90
       50
176
     0
290
     0
176
     0
 90
       50
176
     0
 62
   256
176
     0
 40
1.0
176
     0
 90
        2
176
     0
  1
strokes_ogs.tif
176
     0
290
     0
176
     0
 40
1.0
176
     0
 40
1.0
176
     0
  0
VISUALSTYLE
  5
38
102
{ACAD_REACTORS
330
2A
102
}
330
2A
100
AcDbVisualStyle
  2
Linepattern
 70
    14
177
     3
291
     1
 70
    58
 90
        2
176
     1
 90
        2
176
     1
 90
        0
176
     1
 90
        0
176
     1
 40
0.6
176
     1
 40
30.0
176
     1
 62
     7
420
 16777215
176
     1
 90
        1
176
     1
 90
        4
176
     1
 62
     7
176
     1
 62
   257
176
     1
 90
        7
176
     1
 90
        7
176
     1
 40
1.0
176
     1
 90
        8
176
     1
 62
     7
176
     1
 40
1.0
176
     1
 90
        1
176
     1
 90
        6
176
     1
 90
        2
176
     1
 62
     7
176
     1
 90
        5
176
     1
 90
        0
176
     1
 90
        0
176
     1
290
     0
176
     1
 90
        1
176
     1
 40
0.0
176
     1
 90
        0
176
     1
290
     0
176
     1
290
     1
176
     1
290
     1
176
     1
290
     0
176
     1
290
     0
176
     1
290
     0
176
     1
290
     0
176
     1
290
     0
176
     1
290
     0
176
     1
 90
       50
176
     1
 40
0.0
176
     1
 40
1.0
176
     1
 90
        0
176
     1
 62
    18
420
        0
176
     1
 90
       50
176
     1
 90
        3
176
     1
 62
     5
420
      255
176
     1
290
     0
176
     1
 90
       50
176
     1
 90
       50
176
     1
 90
       50
176
     1
290
     0
176
     1
 90
       50
176
     1
 62
   256
176
     0
 40
1.0
176
     0
 90
        2
176
     1
  1
strokes_ogs.tif
176
     1
290
     0
176
     1
 40
1.0
176
     1
 40
1.0
176
     1
  0
VISUALSTYLE
  5
3C
102
{ACAD_REACTORS
330
2A
102
}
330
2A
100
AcDbVisualStyle
  2
OverhangOff
 70
    21
177
     3
291
     1
 70
    58
 90
        2
176
     0
 90
        2
176
     0
 90
        0
176
     0
 90
        0
176
     0
 40
0.6
176
     0
 40
30.0
176
     0
 62
     7
420
 16777215
176
     0
 90
        1
176
     0
 90
        4
176
     0
 62
     7
176
     0
 62
   257
176
     0
 90
        1
176
     0
 90
        1
176
     0
 40
1.0
176
     0
 90
        9
176
     2
 62
     7
176
     0
 40
1.0
176
     0
 90
        1
176
     0
 90
        6
176
     0
 90
        2
176
     0
 62
     7
176
     0
 90
        5
176
     0
 90
        0
176
     0
 90
        0
176
     0
290
     0
176
     0
 90
        1
176
     0
 40
0.0
176
     0
 90
        0
176
     0
290
     0
176
     0
290
     1
176
     0
290
     1
176
     0
290
     0
176
     0
290
     0
176
     0
290
     0
176
     0
290
     0
176
     0
290
     0
176
     0
290
     0
176
     0
 90
       50
176
     0
 40
0.0
176
     0
 40
1.0
176
     0
 90
        0
176
     0
 62
    18
420
        0
176
     0
 90
       50
176
     0
 90
        3
176
     0
 62
     5
420
      255
176
     0
290
     0
176
     0
 90
       50
176
     0
 90
       50
176
     0
 90
       50
176
     0
290
     0
176
     0
 90
       50
176
     0
 62
   256
176
     0
 40
1.0
176
     0
 90
        2
176
     0
  1
strokes_ogs.tif
176
     0
290
     0
176
     0
 40
1.0
176
     0
 40
1.0
176
     0
  0
VISUALSTYLE
  5
33
102
{ACAD_REACTORS
330
2A
102
}
330
2A
100
AcDbVisualStyle
  2
Realistic
 70
     8
177
     3
291
     0
 70
    58
 90
        2
176
     1
 90
        3
176
     1
 90
        0
176
     1
 90
        2
176
     1
 40
0.6
176
     1
 40
30.0
176
     1
 62
     7
420
 16777215
176
     1
 90
        0
176
     1
 90
        0
176
     1
 62
     7
176
     1
 62
   257
176
     1
 90
        1
176
     1
 90
        1
176
     1
 40
1.0
176
     1
 90
        8
176
     1
 62
   257
176
     1
 40
1.0
176
     1
 90
        1
176
     1
 90
        6
176
     1
 90
        2
176
     1
 62
     7
176
     1
 90
        3
176
     1
 90
        0
176
     1
 90
        0
176
     1
290
     0
176
     1
 90
       13
176
     1
 40
0.0
176
     1
 90
        0
176
     1
290
     0
176
     1
290
     1
176
     1
290
     1
176
     1
290
     0
176
     1
290
     0
176
     1
290
     0
176
     1
290
     0
176
     1
290
     0
176
     1
290
     0
176
     1
 90
       50
176
     1
 40
0.0
176
     1
 40
1.0
176
     1
 90
        0
176
     1
 62
    18
420
        0
176
     1
 90
       50
176
     1
 90
        3
176
     1
 62
     5
420
      255
176
     1
290
     0
176
     1
 90
       50
176
     1
 90
       50
176
     1
 90
       50
176
     1
290
     0
176
     1
 90
       50
176
     1
 62
   256
176
     0
 40
1.0
176
     0
 90
        2
176
     1
  1
strokes_ogs.tif
176
     1
290
     0
176
     1
 40
1.0
176
     1
 40
1.0
176
     1
  0
VISUALSTYLE
  5
42
102
{ACAD_REACTORS
330
2A
102
}
330
2A
100
AcDbVisualStyle
  2
Shaded
 70
    27
177
     3
291
     0
 70
    58
 90
        2
176
     1
 90
        2
176
     1
 90
        1
176
     1
 90
        2
176
     1
 40
0.6
176
     1
 40
30.0
176
     1
 62
     7
420
 16777215
176
     1
 90
        0
176
     1
 90
        4
176
     1
 62
     7
176
     1
 62
   257
176
     1
 90
        1
176
     1
 90
        1
176
     1
 40
1.0
176
     1
 90
        8
176
     1
 62
   257
176
     1
 40
1.0
176
     1
 90
        1
176
     1
 90
        6
176
     1
 90
        2
176
     1
 62
     8
420
  7895160
176
     1
 90
        3
176
     1
 90
        0
176
     1
 90
        0
176
     1
290
     0
176
     1
 90
        5
176
     1
 40
0.0
176
     1
 90
        0
176
     1
290
     0
176
     1
290
     1
176
     1
290
     1
176
     1
290
     0
176
     1
290
     0
176
     1
290
     0
176
     1
290
     0
176
     1
290
     0
176
     1
290
     0
176
     1
 90
       50
176
     1
 40
0.0
176
     1
 40
1.0
176
     1
 90
        0
176
     1
 62
    18
420
        0
176
     1
 90
       50
176
     1
 90
        3
176
     1
 62
     5
420
      255
176
     1
290
     0
176
     1
 90
       50
176
     1
 90
       50
176
     1
 90
       50
176
     1
290
     0
176
     1
 90
       50
176
     1
 62
   256
176
     0
 40
1.0
176
     0
 90
        2
176
     1
  1
strokes_ogs.tif
176
     1
290
     0
176
     1
 40
1.0
176
     1
 40
1.0
176
     1
  0
VISUALSTYLE
  5
41
102
{ACAD_REACTORS
330
2A
102
}
330
2A
100
AcDbVisualStyle
  2
Shaded with edges
 70
    26
177
     3
291
     0
 70
    58
 90
        2
176
     1
 90
        2
176
     1
 90
        1
176
     1
 90
        2
176
     1
 40
0.6
176
     1
 40
30.0
176
     1
 62
     7
420
 16777215
176
     1
 90
        1
176
     1
 90
       10
176
     1
 62
     7
176
     1
 62
   257
176
     1
 90
        2
176
     1
 90
        1
176
     1
 40
1.0
176
     1
 90
        8
176
     1
 62
   257
176
     1
 40
1.0
176
     1
 90
        1
176
     1
 90
        6
176
     1
 90
        2
176
     1
 62
     7
176
     1
 90
        3
176
     1
 90
        0
176
     1
 90
        0
176
     1
290
     0
176
     1
 90
        5
176
     1
 40
0.0
176
     1
 90
        0
176
     1
290
     0
176
     1
290
     1
176
     1
290
     1
176
     1
290
     0
176
     1
290
     0
176
     1
290
     0
176
     1
290
     0
176
     1
290
     0
176
     1
290
     0
176
     1
 90
       50
176
     1
 40
0.0
176
     1
 40
1.0
176
     1
 90
        0
176
     1
 62
    18
420
        0
176
     1
 90
       50
176
     1
 90
        3
176
     1
 62
     5
420
      255
176
     1
290
     0
176
     1
 90
       50
176
     1
 90
       50
176
     1
 90
       50
176
     1
290
     0
176
     1
 90
       50
176
     1
 62
   256
176
     0
 40
1.0
176
     0
 90
        2
176
     1
  1
strokes_ogs.tif
176
     1
290
     0
176
     1
 40
1.0
176
     1
 40
1.0
176
     1
  0
VISUALSTYLE
  5
3E
102
{ACAD_REACTORS
330
2A
102
}
330
2A
100
AcDbVisualStyle
  2
Shades of Gray
 70
    23
177
     3
291
     0
 70
    58
 90
        2
176
     1
 90
        2
176
     1
 90
        3
176
     1
 90
        0
176
     1
 40
0.6
176
     1
 40
30.0
176
     1
 62
     7
420
 16777215
176
     1
 90
        2
176
     1
 90
        2
176
     1
 62
     7
176
     1
 62
     7
176
     1
 90
        1
176
     1
 90
        1
176
     1
 40
40.0
176
     1
 90
        8
176
     1
 62
     7
176
     1
 40
1.0
176
     1
 90
        1
176
     1
 90
        6
176
     1
 90
        2
176
     1
 62
     7
176
     1
 90
        3
176
     1
 90
        0
176
     1
 90
        0
176
     1
290
     0
176
     1
 90
        1
176
     1
 40
0.0
176
     1
 90
        0
176
     1
290
     0
176
     1
290
     1
176
     1
290
     1
176
     1
290
     0
176
     1
290
     0
176
     1
290
     0
176
     1
290
     0
176
     1
290
     0
176
     1
290
     0
176
     1
 90
       50
176
     1
 40
0.0
176
     1
 40
1.0
176
     1
 90
        0
176
     1
 62
    18
420
        0
176
     1
 90
       50
176
     1
 90
        3
176
     1
 62
     5
420
      255
176
     1
290
     0
176
     1
 90
       50
176
     1
 90
       50
176
     1
 90
       50
176
     1
290
     0
176
     1
 90
       50
176
     1
 62
   256
176
     0
 40
1.0
176
     0
 90
        2
176
     1
  1
strokes_ogs.tif
176
     1
290
     0
176
     1
 40
1.0
176
     1
 40
1.0
176
     1
  0
VISUALSTYLE
  5
3F
102
{ACAD_REACTORS
330
2A
102
}
330
2A
100
AcDbVisualStyle
  2
Sketchy
 70
    24
177
     3
291
     0
 70
    58
 90
        1
176
     1
 90
        2
176
     1
 90
        2
176
     1
 90
        0
176
     1
 40
0.6
176
     1
 40
30.0
176
     1
 62
     7
420
 16777215
176
     1
 90
        2
176
     1
 90
        2
176
     1
 62
     7
176
     1
 62
     7
176
     1
 90
        1
176
     1
 90
        1
176
     1
 40
40.0
176
     1
 90
       11
176
     1
 62
     7
176
     1
 40
1.0
176
     1
 90
        1
176
     1
 90
        6
176
     1
 90
        2
176
     1
 62
     7
176
     1
 90
        6
176
     1
 90
        0
176
     1
 90
        0
176
     1
290
     0
176
     1
 90
        1
176
     1
 40
0.0
176
     1
 90
        0
176
     1
290
     0
176
     1
290
     1
176
     1
290
     1
176
     1
290
     0
176
     1
290
     0
176
     1
290
     0
176
     1
290
     0
176
     1
290
     0
176
     1
290
     0
176
     1
 90
       50
176
     1
 40
0.0
176
     1
 40
1.0
176
     1
 90
        0
176
     1
 62
    18
420
        0
176
     1
 90
       50
176
     1
 90
        3
176
     1
 62
     5
420
      255
176
     1
290
     0
176
     1
 90
       50
176
     1
 90
       50
176
     1
 90
       50
176
     1
290
     0
176
     1
 90
       50
176
     1
 62
   256
176
     0
 40
1.0
176
     0
 90
        2
176
     1
  1
strokes_ogs.tif
176
     1
290
     0
176
     1
 40
1.0
176
     1
 40
1.0
176
     1
  0
VISUALSTYLE
  5
37
102
{ACAD_REACTORS
330
2A
102
}
330
2A
100
AcDbVisualStyle
  2
Thicken
 70
    13
177
     3
291
     1
 70
    58
 90
        2
176
     1
 90
        2
176
     1
 90
        0
176
     1
 90
        0
176
     1
 40
0.6
176
     1
 40
30.0
176
     1
 62
     7
420
 16777215
176
     1
 90
        1
176
     1
 90
        4
176
     1
 62
     7
176
     1
 62
   257
176
     1
 90
        1
176
     1
 90
        1
176
     1
 40
1.0
176
     1
 90
       12
176
     1
 62
     7
176
     1
 40
1.0
176
     1
 90
        1
176
     1
 90
        6
176
     1
 90
        2
176
     1
 62
     7
176
     1
 90
        5
176
     1
 90
        0
176
     1
 90
        0
176
     1
290
     0
176
     1
 90
        1
176
     1
 40
0.0
176
     1
 90
        0
176
     1
290
     0
176
     1
290
     1
176
     1
290
     1
176
     1
290
     0
176
     1
290
     0
176
     1
290
     0
176
     1
290
     0
176
     1
290
     0
176
     1
290
     0
176
     1
 90
       50
176
     1
 40
0.0
176
     1
 40
1.0
176
     1
 90
        0
176
     1
 62
    18
420
        0
176
     1
 90
       50
176
     1
 90
        3
176
     1
 62
     5
420
      255
176
     1
290
     0
176
     1
 90
       50
176
     1
 90
       50
176
     1
 90
       50
176
     1
290
     0
176
     1
 90
       50
176
     1
 62
   256
176
     0
 40
1.0
176
     0
 90
        2
176
     1
  1
strokes_ogs.tif
176
     1
290
     0
176
     1
 40
1.0
176
     1
 40
1.0
176
     1
  0
VISUALSTYLE
  5
30
102
{ACAD_REACTORS
330
2A
102
}
330
2A
100
AcDbVisualStyle
  2
Wireframe
 70
     5
177
     3
291
     0
 70
    58
 90
        0
176
     1
 90
        2
176
     1
 90
        0
176
     1
 90
        0
176
     1
 40
0.6
176
     1
 40
30.0
176
     1
 62
     7
420
 16777215
176
     1
 90
        1
176
     1
 90
        4
176
     1
 62
     7
176
     1
 62
   257
176
     1
 90
        1
176
     1
 90
        1
176
     1
 40
1.0
176
     1
 90
        0
176
     1
 62
   257
176
     1
 40
1.0
176
     1
 90
        1
176
     1
 90
        6
176
     1
 90
        2
176
     1
 62
     7
176
     1
 90
        3
176
     1
 90
        0
176
     1
 90
        0
176
     1
290
     0
176
     1
 90
        1
176
     1
 40
0.0
176
     1
 90
        0
176
     1
290
     0
176
     1
290
     1
176
     1
290
     1
176
     1
290
     0
176
     1
290
     0
176
     1
290
     0
176
     1
290
     0
176
     1
290
     0
176
     1
290
     0
176
     1
 90
       50
176
     1
 40
0.0
176
     1
 40
1.0
176
     1
 90
        0
176
     1
 62
    18
420
        0
176
     1
 90
       50
176
     1
 90
        3
176
     1
 62
     5
420
      255
176
     1
290
     0
176
     1
 90
       50
176
     1
 90
       50
176
     1
 90
       50
176
     1
290
     0
176
     1
 90
       50
176
     1
 62
   256
176
     0
 40
1.0
176
     0
 90
        2
176
     1
  1
strokes_ogs.tif
176
     1
290
     0
176
     1
 40
1.0
176
     1
 40
1.0
176
     1
  0
VISUALSTYLE
  5
40
102
{ACAD_REACTORS
330
2A
102
}
330
2A
100
AcDbVisualStyle
  2
X-Ray
 70
    25
177
     3
291
     0
 70
    58
 90
        2
176
     1
 90
        2
176
     1
 90
        1
176
     1
 90
        1
176
     1
 40
0.5
176
     1
 40
30.0
176
     1
 62
     7
420
 16777215
176
     1
 90
        1
176
     1
 90
        0
176
     1
 62
     7
176
     1
 62
   257
176
     1
 90
        1
176
     1
 90
        1
176
     1
 40
1.0
176
     1
 90
        8
176
     1
 62
     7
176
     1
 40
1.0
176
     1
 90
        1
176
     1
 90
        6
176
     1
 90
        2
176
     1
 62
     7
176
     1
 90
        3
176
     1
 90
        0
176
     1
 90
        0
176
     1
290
     0
176
     1
 90
       13
176
     1
 40
0.0
176
     1
 90
        0
176
     1
290
     0
176
     1
290
     1
176
     1
290
     1
176
     1
290
     0
176
     1
290
     0
176
     1
290
     0
176
     1
290
     0
176
     1
290
     0
176
     1
290
     0
176
     1
 90
       50
176
     1
 40
0.0
176
     1
 40
1.0
176
     1
 90
        0
176
     1
 62
    18
420
        0
176
     1
 90
       50
176
     1
 90
        3
176
     1
 62
     5
420
      255
176
     1
290
     0
176
     1
 90
       50
176
     1
 90
       50
176
     1
 90
       50
176
     1
290
     0
176
     1
 90
       50
176
     1
 62
   256
176
     0
 40
1.0
176
     0
 90
        2
176
     1
  1
strokes_ogs.tif
176
     1
290
     0
176
     1
 40
1.0
176
     1
 40
1.0
176
     1
  0
DICTIONARYVAR
  5
168
102
{ACAD_REACTORS
330
167
102
}
330
167
100
DictionaryVariables
280
     0
  1
1:1
  0
DICTIONARYVAR
  5
16D
102
{ACAD_REACTORS
330
167
102
}
330
167
100
DictionaryVariables
280
     0
  1
Standard
  0
DICTIONARYVAR
  5
16C
102
{ACAD_REACTORS
330
167
102
}
330
167
100
DictionaryVariables
280
     0
  1
Standard
  0
DICTIONARY
  5
169
330
6A
100
AcDbDictionary
280
     1
281
     1
  3
ACAD_ROUNDTRIP_2008_TABLESTYLE_CELLSTYLEMAP
360
16A
  0
CELLSTYLEMAP
  5
16A
102
{ACAD_REACTORS
330
169
102
}
330
169
100
AcDbCellStyleMap
 90
        3
300
CELLSTYLE
  1
TABLEFORMAT_BEGIN
 90
        5
170
     1
 91
        0
 92
    32768
 62
   257
 93
        1
300
CONTENTFORMAT
  1
CONTENTFORMAT_BEGIN
 90
        0
 91
        0
 92
        4
 93
        0
300

 40
0.0
140
1.0
 94
        5
 62
     0
340
11
144
0.25
309
CONTENTFORMAT_END
171
     1
301
MARGIN
  1
CELLMARGIN_BEGIN
 40
0.06
 40
0.06
 40
0.06
 40
0.06
 40
0.06
 40
0.06
309
CELLMARGIN_END
 94
        6
 95
        1
302
GRIDFORMAT
  1
GRIDFORMAT_BEGIN
 90
        0
 91
        1
 62
     0
 92
       -2
340
14
 93
        0
 40
0.045
309
GRIDFORMAT_END
 95
        2
302
GRIDFORMAT
  1
GRIDFORMAT_BEGIN
 90
        0
 91
        1
 62
     0
 92
       -2
340
14
 93
        0
 40
0.045
309
GRIDFORMAT_END
 95
        4
302
GRIDFORMAT
  1
GRIDFORMAT_BEGIN
 90
        0
 91
        1
 62
     0
 92
       -2
340
14
 93
        0
 40
0.045
309
GRIDFORMAT_END
 95
        8
302
GRIDFORMAT
  1
GRIDFORMAT_BEGIN
 90
        0
 91
        1
 62
     0
 92
       -2
340
14
 93
        0
 40
0.045
309
GRIDFORMAT_END
 95
       16
302
GRIDFORMAT
  1
GRIDFORMAT_BEGIN
 90
        0
 91
        1
 62
     0
 92
       -2
340
14
 93
        0
 40
0.045
309
GRIDFORMAT_END
 95
       32
302
GRIDFORMAT
  1
GRIDFORMAT_BEGIN
 90
        0
 91
        1
 62
     0
 92
       -2
340
14
 93
        0
 40
0.045
309
GRIDFORMAT_END
309
TABLEFORMAT_END
  1
CELLSTYLE_BEGIN
 90
        1
 91
        1
300
_TITLE
309
CELLSTYLE_END
300
CELLSTYLE
  1
TABLEFORMAT_BEGIN
 90
        5
170
     1
 91
        0
 92
        0
 62
   257
 93
        1
300
CONTENTFORMAT
  1
CONTENTFORMAT_BEGIN
 90
        0
 91
        0
 92
        4
 93
        0
300

 40
0.0
140
1.0
 94
        5
 62
     0
340
11
144
0.18
309
CONTENTFORMAT_END
171
     1
301
MARGIN
  1
CELLMARGIN_BEGIN
 40
0.06
 40
0.06
 40
0.06
 40
0.06
 40
0.06
 40
0.06
309
CELLMARGIN_END
 94
        6
 95
        1
302
GRIDFORMAT
  1
GRIDFORMAT_BEGIN
 90
        0
 91
        1
 62
     0
 92
       -2
340
14
 93
        0
 40
0.045
309
GRIDFORMAT_END
 95
        2
302
GRIDFORMAT
  1
GRIDFORMAT_BEGIN
 90
        0
 91
        1
 62
     0
 92
       -2
340
14
 93
        0
 40
0.045
309
GRIDFORMAT_END
 95
        4
302
GRIDFORMAT
  1
GRIDFORMAT_BEGIN
 90
        0
 91
        1
 62
     0
 92
       -2
340
14
 93
        0
 40
0.045
309
GRIDFORMAT_END
 95
        8
302
GRIDFORMAT
  1
GRIDFORMAT_BEGIN
 90
        0
 91
        1
 62
     0
 92
       -2
340
14
 93
        0
 40
0.045
309
GRIDFORMAT_END
 95
       16
302
GRIDFORMAT
  1
GRIDFORMAT_BEGIN
 90
        0
 91
        1
 62
     0
 92
       -2
340
14
 93
        0
 40
0.045
309
GRIDFORMAT_END
 95
       32
302
GRIDFORMAT
  1
GRIDFORMAT_BEGIN
 90
        0
 91
        1
 62
     0
 92
       -2
340
14
 93
        0
 40
0.045
309
GRIDFORMAT_END
309
TABLEFORMAT_END
  1
CELLSTYLE_BEGIN
 90
        2
 91
        1
300
_HEADER
309
CELLSTYLE_END
300
CELLSTYLE
  1
TABLEFORMAT_BEGIN
 90
        5
170
     1
 91
        0
 92
        0
 62
   257
 93
        1
300
CONTENTFORMAT
  1
CONTENTFORMAT_BEGIN
 90
        0
 91
        0
 92
        4
 93
        0
300

 40
0.0
140
1.0
 94
        2
 62
     0
340
11
144
0.18
309
CONTENTFORMAT_END
171
     1
301
MARGIN
  1
CELLMARGIN_BEGIN
 40
0.06
 40
0.06
 40
0.06
 40
0.06
 40
0.06
 40
0.06
309
CELLMARGIN_END
 94
        6
 95
        1
302
GRIDFORMAT
  1
GRIDFORMAT_BEGIN
 90
        0
 91
        1
 62
     0
 92
       -2
340
14
 93
        0
 40
0.045
309
GRIDFORMAT_END
 95
        2
302
GRIDFORMAT
  1
GRIDFORMAT_BEGIN
 90
        0
 91
        1
 62
     0
 92
       -2
340
14
 93
        0
 40
0.045
309
GRIDFORMAT_END
 95
        4
302
GRIDFORMAT
  1
GRIDFORMAT_BEGIN
 90
        0
 91
        1
 62
     0
 92
       -2
340
14
 93
        0
 40
0.045
309
GRIDFORMAT_END
 95
        8
302
GRIDFORMAT
  1
GRIDFORMAT_BEGIN
 90
        0
 91
        1
 62
     0
 92
       -2
340
14
 93
        0
 40
0.045
309
GRIDFORMAT_END
 95
       16
302
GRIDFORMAT
  1
GRIDFORMAT_BEGIN
 90
        0
 91
        1
 62
     0
 92
       -2
340
14
 93
        0
 40
0.045
309
GRIDFORMAT_END
 95
       32
302
GRIDFORMAT
  1
GRIDFORMAT_BEGIN
 90
        0
 91
        1
 62
     0
 92
       -2
340
14
 93
        0
 40
0.045
309
GRIDFORMAT_END
309
TABLEFORMAT_END
  1
CELLSTYLE_BEGIN
 90
        3
 91
        2
300
_DATA
309
CELLSTYLE_END
  0
ENDSEC
  0
EOF