0
SECTION
  2
HEADER
  9
$ACADVER
  1
AC1027
  9
$ACADMAINTVER
 70
     8
  9
$DWGCODEPAGE
  3
ANSI_1252
  9
$REQUIREDVERSIONS
160
                 0
  9
$COMMENTS
  1
File was created by Cadenas
  9
$CUSTOMPROPERTYTAG
  1
NN
  9
$CUSTOMPROPERTY
  1
Set Screw Low Backing Height Two-Bolt Pillow Block Metric Bore
  9
$CUSTOMPROPERTYTAG
  1
NT
  9
$CUSTOMPROPERTY
  1
SC Pillow Block Bearings -(Normal Duty) -Low Backing Height
  9
$CUSTOMPROPERTYTAG
  1
NB
  9
$CUSTOMPROPERTY
  1
051879
  9
$CUSTOMPROPERTYTAG
  1
NBSYN
  9
$CUSTOMPROPERTY
  1
$PN.
  9
$CUSTOMPROPERTYTAG
  1
LINA
  9
$CUSTOMPROPERTY
  1
051879
  9
$CUSTOMPROPERTYTAG
  1
SERIES
  9
$CUSTOMPROPERTY
  1
210
  9
$CUSTOMPROPERTYTAG
  1
SS
  9
$CUSTOMPROPERTY
  1
50
  9
$CUSTOMPROPERTYTAG
  1
PN
  9
$CUSTOMPROPERTY
  1
051879
  9
$CUSTOMPROPERTYTAG
  1
DESCRIPTION
  9
$CUSTOMPROPERTY
  1
P2B-SCB-50M
  9
$CUSTOMPROPERTYTAG
  1
WEIGHT
  9
$CUSTOMPROPERTY
  1
2.6
  9
$CUSTOMPROPERTYTAG
  1
A
  9
$CUSTOMPROPERTY
  1
49.3
  9
$CUSTOMPROPERTYTAG
  1
B
  9
$CUSTOMPROPERTY
  1
206.2
  9
$CUSTOMPROPERTYTAG
  1
C
  9
$CUSTOMPROPERTY
  1
57.2
  9
$CUSTOMPROPERTYTAG
  1
DMIN
  9
$CUSTOMPROPERTY
  1
152.4
  9
$CUSTOMPROPERTYTAG
  1
DMAX
  9
$CUSTOMPROPERTY
  1
169.7
  9
$CUSTOMPROPERTYTAG
  1
F
  9
$CUSTOMPROPERTY
  1
M16
  9
$CUSTOMPROPERTYTAG
  1
G
  9
$CUSTOMPROPERTY
  1
25.9
  9
$CUSTOMPROPERTYTAG
  1
H
  9
$CUSTOMPROPERTY
  1
17.3
  9
$CUSTOMPROPERTYTAG
  1
J
  9
$CUSTOMPROPERTY
  1
113.5
  9
$CUSTOMPROPERTYTAG
  1
L
  9
$CUSTOMPROPERTY
  1
61.7
  9
$CUSTOMPROPERTYTAG
  1
M
  9
$CUSTOMPROPERTY
  1
55.6
  9
$CUSTOMPROPERTYTAG
  1
R
  9
$CUSTOMPROPERTY
  1
19.1
  9
$CUSTOMPROPERTYTAG
  1
S
  9
$CUSTOMPROPERTY
  1
30.2
  9
$CUSTOMPROPERTYTAG
  1
U
  9
$CUSTOMPROPERTY
  1
93.7
  9
$CUSTOMPROPERTYTAG
  1
V
  9
$CUSTOMPROPERTY
  1
187.5
  9
$CUSTOMPROPERTYTAG
  1
W
  9
$CUSTOMPROPERTY
  1
20.6
  9
$CUSTOMPROPERTYTAG
  1
X
  9
$CUSTOMPROPERTY
  1
3.0
  9
$CUSTOMPROPERTYTAG
  1
COMPANY
  9
$CUSTOMPROPERTY
  1
baldor
  9
$INSBASE
 10
0.0
 20
0.0
 30
0.0
  9
$EXTMIN
 10
1.000000000000000E+20
 20
1.000000000000000E+20
 30
1.000000000000000E+20
  9
$EXTMAX
 10
-1.000000000000000E+20
 20
-1.000000000000000E+20
 30
-1.000000000000000E+20
  9
$LIMMIN
 10
0.0
 20
0.0
  9
$LIMMAX
 10
420.0
 20
297.0
  9
$ORTHOMODE
 70
     0
  9
$REGENMODE
 70
     1
  9
$FILLMODE
 70
     1
  9
$QTEXTMODE
 70
     0
  9
$MIRRTEXT
 70
     1
  9
$LTSCALE
 40
1.0
  9
$ATTMODE
 70
     1
  9
$TEXTSIZE
 40
2.5
  9
$TRACEWID
 40
1.0
  9
$TEXTSTYLE
  7
Standard
  9
$CLAYER
  8
0
  9
$CELTYPE
  6
ByLayer
  9
$CECOLOR
 62
   256
  9
$CELTSCALE
 40
1.0
  9
$DISPSILH
 70
     0
  9
$DIMSCALE
 40
1.0
  9
$DIMASZ
 40
2.5
  9
$DIMEXO
 40
0.625
  9
$DIMDLI
 40
3.75
  9
$DIMRND
 40
0.0
  9
$DIMDLE
 40
0.0
  9
$DIMEXE
 40
1.25
  9
$DIMTP
 40
0.0
  9
$DIMTM
 40
0.0
  9
$DIMTXT
 40
2.5
  9
$DIMCEN
 40
2.5
  9
$DIMTSZ
 40
0.0
  9
$DIMTOL
 70
     0
  9
$DIMLIM
 70
     0
  9
$DIMTIH
 70
     0
  9
$DIMTOH
 70
     0
  9
$DIMSE1
 70
     0
  9
$DIMSE2
 70
     0
  9
$DIMTAD
 70
     1
  9
$DIMZIN
 70
     8
  9
$DIMBLK
  1

  9
$DIMASO
 70
     1
  9
$DIMSHO
 70
     1
  9
$DIMPOST
  1

  9
$DIMAPOST
  1

  9
$DIMALT
 70
     0
  9
$DIMALTD
 70
     3
  9
$DIMALTF
 40
0.03937007874016
  9
$DIMLFAC
 40
1.0
  9
$DIMTOFL
 70
     1
  9
$DIMTVP
 40
0.0
  9
$DIMTIX
 70
     0
  9
$DIMSOXD
 70
     0
  9
$DIMSAH
 70
     0
  9
$DIMBLK1
  1

  9
$DIMBLK2
  1

  9
$DIMSTYLE
  2
ISO-25
  9
$DIMCLRD
 70
     0
  9
$DIMCLRE
 70
     0
  9
$DIMCLRT
 70
     0
  9
$DIMTFAC
 40
1.0
  9
$DIMGAP
 40
0.625
  9
$DIMJUST
 70
     0
  9
$DIMSD1
 70
     0
  9
$DIMSD2
 70
     0
  9
$DIMTOLJ
 70
     0
  9
$DIMTZIN
 70
     8
  9
$DIMALTZ
 70
     0
  9
$DIMALTTZ
 70
     0
  9
$DIMUPT
 70
     0
  9
$DIMDEC
 70
     2
  9
$DIMTDEC
 70
     2
  9
$DIMALTU
 70
     2
  9
$DIMALTTD
 70
     3
  9
$DIMTXSTY
  7
Standard
  9
$DIMAUNIT
 70
     0
  9
$DIMADEC
 70
     0
  9
$DIMALTRND
 40
0.0
  9
$DIMAZIN
 70
     0
  9
$DIMDSEP
 70
    44
  9
$DIMATFIT
 70
     3
  9
$DIMFRAC
 70
     0
  9
$DIMLDRBLK
  1

  9
$DIMLUNIT
 70
     2
  9
$DIMLWD
 70
    -2
  9
$DIMLWE
 70
    -2
  9
$DIMTMOVE
 70
     0
  9
$DIMFXL
 40
1.0
  9
$DIMFXLON
 70
     0
  9
$DIMJOGANG
 40
0.7853981633974483
  9
$DIMTFILL
 70
     0
  9
$DIMTFILLCLR
 70
     0
  9
$DIMARCSYM
 70
     0
  9
$DIMLTYPE
  6

  9
$DIMLTEX1
  6

  9
$DIMLTEX2
  6

  9
$DIMTXTDIRECTION
 70
     0
  9
$LUNITS
 70
     2
  9
$LUPREC
 70
     4
  9
$SKETCHINC
 40
1.0
  9
$FILLETRAD
 40
10.0
  9
$AUNITS
 70
     0
  9
$AUPREC
 70
     0
  9
$MENU
  1
.
  9
$ELEVATION
 40
0.0
  9
$PELEVATION
 40
0.0
  9
$THICKNESS
 40
0.0
  9
$LIMCHECK
 70
     0
  9
$CHAMFERA
 40
0.0
  9
$CHAMFERB
 40
0.0
  9
$CHAMFERC
 40
0.0
  9
$CHAMFERD
 40
0.0
  9
$SKPOLY
 70
     0
  9
$TDCREATE
 40
2458168.986992535
  9
$TDUCREATE
 40
2458168.945325868
  9
$TDUPDATE
 40
2458168.98699272
  9
$TDUUPDATE
 40
2458168.945326053
  9
$TDINDWG
 40
0.0000000116
  9
$TDUSRTIMER
 40
0.0000000116
  9
$USRTIMER
 70
     1
  9
$ANGBASE
 50
0.0
  9
$ANGDIR
 70
     0
  9
$PDMODE
 70
     0
  9
$PDSIZE
 40
0.0
  9
$PLINEWID
 40
0.0
  9
$SPLFRAME
 70
     0
  9
$SPLINETYPE
 70
     6
  9
$SPLINESEGS
 70
     8
  9
$HANDSEED
  5
1F2
  9
$SURFTAB1
 70
     6
  9
$SURFTAB2
 70
     6
  9
$SURFTYPE
 70
     6
  9
$SURFU
 70
     6
  9
$SURFV
 70
     6
  9
$UCSBASE
  2

  9
$UCSNAME
  2

  9
$UCSORG
 10
0.0
 20
0.0
 30
0.0
  9
$UCSXDIR
 10
1.0
 20
0.0
 30
0.0
  9
$UCSYDIR
 10
0.0
 20
1.0
 30
0.0
  9
$UCSORTHOREF
  2

  9
$UCSORTHOVIEW
 70
     0
  9
$UCSORGTOP
 10
0.0
 20
0.0
 30
0.0
  9
$UCSORGBOTTOM
 10
0.0
 20
0.0
 30
0.0
  9
$UCSORGLEFT
 10
0.0
 20
0.0
 30
0.0
  9
$UCSORGRIGHT
 10
0.0
 20
0.0
 30
0.0
  9
$UCSORGFRONT
 10
0.0
 20
0.0
 30
0.0
  9
$UCSORGBACK
 10
0.0
 20
0.0
 30
0.0
  9
$PUCSBASE
  2

  9
$PUCSNAME
  2

  9
$PUCSORG
 10
0.0
 20
0.0
 30
0.0
  9
$PUCSXDIR
 10
1.0
 20
0.0
 30
0.0
  9
$PUCSYDIR
 10
0.0
 20
1.0
 30
0.0
  9
$PUCSORTHOREF
  2

  9
$PUCSORTHOVIEW
 70
     0
  9
$PUCSORGTOP
 10
0.0
 20
0.0
 30
0.0
  9
$PUCSORGBOTTOM
 10
0.0
 20
0.0
 30
0.0
  9
$PUCSORGLEFT
 10
0.0
 20
0.0
 30
0.0
  9
$PUCSORGRIGHT
 10
0.0
 20
0.0
 30
0.0
  9
$PUCSORGFRONT
 10
0.0
 20
0.0
 30
0.0
  9
$PUCSORGBACK
 10
0.0
 20
0.0
 30
0.0
  9
$USERI1
 70
     0
  9
$USERI2
 70
     0
  9
$USERI3
 70
     0
  9
$USERI4
 70
     0
  9
$USERI5
 70
     0
  9
$USERR1
 40
0.0
  9
$USERR2
 40
0.0
  9
$USERR3
 40
0.0
  9
$USERR4
 40
0.0
  9
$USERR5
 40
0.0
  9
$WORLDVIEW
 70
     1
  9
$SHADEDGE
 70
     3
  9
$SHADEDIF
 70
    70
  9
$TILEMODE
 70
     1
  9
$MAXACTVP
 70
    64
  9
$PINSBASE
 10
0.0
 20
0.0
 30
0.0
  9
$PLIMCHECK
 70
     0
  9
$PEXTMIN
 10
1.000000000000000E+20
 20
1.000000000000000E+20
 30
1.000000000000000E+20
  9
$PEXTMAX
 10
-1.000000000000000E+20
 20
-1.000000000000000E+20
 30
-1.000000000000000E+20
  9
$PLIMMIN
 10
0.0
 20
0.0
  9
$PLIMMAX
 10
420.0
 20
297.0
  9
$UNITMODE
 70
     0
  9
$VISRETAIN
 70
     1
  9
$PLINEGEN
 70
     0
  9
$PSLTSCALE
 70
     1
  9
$TREEDEPTH
 70
  3020
  9
$CMLSTYLE
  2
Standard
  9
$CMLJUST
 70
     0
  9
$CMLSCALE
 40
20.0
  9
$PROXYGRAPHICS
 70
     1
  9
$MEASUREMENT
 70
     1
  9
$CELWEIGHT
370
    -1
  9
$ENDCAPS
280
     0
  9
$JOINSTYLE
280
     0
  9
$LWDISPLAY
290
     0
  9
$INSUNITS
 70
     4
  9
$HYPERLINKBASE
  1

  9
$STYLESHEET
  1

  9
$XEDIT
290
     1
  9
$CEPSNTYPE
380
     0
  9
$PSTYLEMODE
290
     1
  9
$FINGERPRINTGUID
  2
{30FF9D18-25C5-419D-A4BD-205B70A451D8}
  9
$VERSIONGUID
  2
{FAEB1C32-E019-11D5-929B-00C0DF256EC4}
  9
$EXTNAMES
290
     1
  9
$PSVPSCALE
 40
0.0
  9
$OLESTARTUP
290
     0
  9
$SORTENTS
280
   127
  9
$INDEXCTL
280
     0
  9
$HIDETEXT
280
     1
  9
$XCLIPFRAME
280
     2
  9
$HALOGAP
280
     0
  9
$OBSCOLOR
 70
   257
  9
$OBSLTYPE
280
     0
  9
$INTERSECTIONDISPLAY
280
     0
  9
$INTERSECTIONCOLOR
 70
   257
  9
$DIMASSOC
280
     2
  9
$PROJECTNAME
  1

  9
$CAMERADISPLAY
290
     0
  9
$LENSLENGTH
 40
50.0
  9
$CAMERAHEIGHT
 40
0.0
  9
$STEPSPERSEC
 40
2.0
  9
$STEPSIZE
 40
6.0
  9
$3DDWFPREC
 40
2.0
  9
$PSOLWIDTH
 40
5.0
  9
$PSOLHEIGHT
 40
80.0
  9
$LOFTANG1
 40
1.570796326794897
  9
$LOFTANG2
 40
1.570796326794897
  9
$LOFTMAG1
 40
0.0
  9
$LOFTMAG2
 40
0.0
  9
$LOFTPARAM
 70
     7
  9
$LOFTNORMALS
280
     1
  9
$LATITUDE
 40
37.795
  9
$LONGITUDE
 40
-122.394
  9
$NORTHDIRECTION
 40
0.0
  9
$TIMEZONE
 70
 -8000
  9
$LIGHTGLYPHDISPLAY
280
     1
  9
$TILEMODELIGHTSYNCH
280
     1
  9
$CMATERIAL
347
44
  9
$SOLIDHIST
280
     0
  9
$SHOWHIST
280
     1
  9
$DWFFRAME
280
     2
  9
$DGNFRAME
280
     2
  9
$REALWORLDSCALE
290
     1
  9
$INTERFERECOLOR
 62
   256
  9
$CSHADOW
280
     0
  9
$SHADOWPLANELOCATION
 40
0.0
  0
ENDSEC
  0
SECTION
  2
CLASSES
  0
CLASS
  1
ACDBDICTIONARYWDFLT
  2
AcDbDictionaryWithDefault
  3
ObjectDBX Classes
 90
        0
 91
        4
280
     0
281
     0
  0
CLASS
  1
VISUALSTYLE
  2
AcDbVisualStyle
  3
ObjectDBX Classes
 90
     4095
 91
        4
280
     0
281
     0
  0
CLASS
  1
MATERIAL
  2
AcDbMaterial
  3
ObjectDBX Classes
 90
     1153
 91
        4
280
     0
281
     0
  0
CLASS
  1
SCALE
  2
AcDbScale
  3
ObjectDBX Classes
 90
     1153
 91
        4
280
     0
281
     0
  0
CLASS
  1
TABLESTYLE
  2
AcDbTableStyle
  3
ObjectDBX Classes
 90
     4095
 91
        4
280
     0
281
     0
  0
CLASS
  1
MLEADERSTYLE
  2
AcDbMLeaderStyle
  3
ACDB_MLEADERSTYLE_CLASS
 90
     4095
 91
        4
280
     0
281
     0
  0
CLASS
  1
SUN
  2
AcDbSun
  3
SCENEOE
 90
     1153
 91
        4
280
     0
281
     0
  0
CLASS
  1
DICTIONARYVAR
  2
AcDbDictionaryVar
  3
ObjectDBX Classes
 90
        0
 91
        4
280
     0
281
     0
  0
CLASS
  1
CELLSTYLEMAP
  2
AcDbCellStyleMap
  3
ObjectDBX Classes
 90
     1152
 91
        4
280
     0
281
     0
  0
ENDSEC
  0
SECTION
  2
TABLES
  0
TABLE
  2
VPORT
  5
8
330
0
100
AcDbSymbolTable
 70
     1
  0
VPORT
  5
29
330
8
100
AcDbSymbolTableRecord
100
AcDbViewportTableRecord
  2
*Active
 70
     0
 10
0.0
 20
0.0
 11
1.0
 21
1.0
 12
0.0
 22
-0.6025000000000205
 13
0.0
 23
0.0
 14
10.0
 24
10.0
 15
10.0
 25
10.0
 16
0.0
 26
0.0
 36
1.0
 17
0.0
 27
0.0
 37
0.0
 40
65.40750000000001
 41
3.21559454191033
 42
50.0
 43
0.0
 44
0.0
 50
0.0
 51
0.0
 71
     0
 72
   100
 73
     1
 74
     3
 75
     0
 76
     0
 77
     0
 78
     0
281
     0
 65
     1
110
0.0
120
0.0
130
0.0
111
1.0
121
0.0
131
0.0
112
0.0
122
1.0
132
0.0
 79
     0
146
0.0
348
2F
 60
     3
 61
     5
292
     1
282
     1
141
0.0
142
0.0
 63
   250
361
6D
  0
ENDTAB
  0
TABLE
  2
LTYPE
  5
5
330
0
100
AcDbSymbolTable
 70
     3
  0
LTYPE
  5
14
330
5
100
AcDbSymbolTableRecord
100
AcDbLinetypeTableRecord
  2
ByBlock
 70
     0
  3

 72
    65
 73
     0
 40
0.0
  0
LTYPE
  5
15
330
5
100
AcDbSymbolTableRecord
100
AcDbLinetypeTableRecord
  2
ByLayer
 70
     0
  3

 72
    65
 73
     0
 40
0.0
  0
LTYPE
  5
16
330
5
100
AcDbSymbolTableRecord
100
AcDbLinetypeTableRecord
  2
Continuous
 70
     0
  3
Solid line
 72
    65
 73
     0
 40
0.0
  0
LTYPE
  5
9B
330
5
100
AcDbSymbolTableRecord
100
AcDbLinetypeTableRecord
  2
Dashed
 70
     0
  3

 72
    65
 73
     2
 40
2.0
 49
1.0
 74
     0
 49
-1.0
 74
     0
  0
LTYPE
  5
122
330
5
100
AcDbSymbolTableRecord
100
AcDbLinetypeTableRecord
  2
Center
 70
     0
  3

 72
    65
 73
     4
 40
1.5
 49
0.45
 74
     0
 49
-0.5
 74
     0
 49
0.05
 74
     0
 49
-0.5
 74
     0
  0
ENDTAB
  0
TABLE
  2
LAYER
  5
2
330
0
100
AcDbSymbolTable
 70
     7
  0
LAYER
  5
10
330
2
100
AcDbSymbolTableRecord
100
AcDbLayerTableRecord
  2
0
 70
     0
 62
     7
  6
Continuous
370
    -3
390
F
347
46
348
0
  0
LAYER
  5
72
330
2
100
AcDbSymbolTableRecord
100
AcDbLayerTableRecord
  2
AM_6
 70
     0
 62
    -2
  6
Continuous
370
    35
390
F
347
46
348
0
  0
LAYER
  5
9C
330
2
100
AcDbSymbolTableRecord
100
AcDbLayerTableRecord
  2
AM_9
 70
     0
 62
     6
  6
Dashed
370
    25
390
F
347
46
348
0
  0
LAYER
  5
B9
330
2
100
AcDbSymbolTableRecord
100
AcDbLayerTableRecord
  2
AM_4
 70
     0
 62
     7
  6
Continuous
370
    50
390
F
347
46
348
0
  0
LAYER
  5
123
330
2
100
AcDbSymbolTableRecord
100
AcDbLayerTableRecord
  2
AM_7
 70
     0
 62
     7
  6
Center
370
    25
390
F
347
46
348
0
  0
LAYER
  5
136
330
2
100
AcDbSymbolTableRecord
100
AcDbLayerTableRecord
  2
AM_5
 70
     0
 62
     3
  6
Continuous
370
    25
390
F
347
46
348
0
  0
LAYER
  5
1E5
330
2
100
AcDbSymbolTableRecord
100
AcDbLayerTableRecord
  2
ConnectionPoints
 70
     0
 62
     7
  6
Continuous
370
    50
390
F
347
46
348
0
  0
ENDTAB
  0
TABLE
  2
STYLE
  5
3
330
0
100
AcDbSymbolTable
 70
     1
  0
STYLE
  5
11
330
3
100
AcDbSymbolTableRecord
100
AcDbTextStyleTableRecord
  2
Standard
 70
     0
 40
0.0
 41
1.0
 50
0.0
 71
     0
 42
2.5
  3
txt
  4

  0
ENDTAB
  0
TABLE
  2
VIEW
  5
6
330
0
100
AcDbSymbolTable
 70
     0
  0
ENDTAB
  0
TABLE
  2
UCS
  5
7
330
0
100
AcDbSymbolTable
 70
     0
  0
ENDTAB
  0
TABLE
  2
APPID
  5
9
330
0
100
AcDbSymbolTable
 70
     1
  0
APPID
  5
12
330
9
100
AcDbSymbolTableRecord
100
AcDbRegAppTableRecord
  2
ACAD
 70
     0
  0
ENDTAB
  0
TABLE
  2
DIMSTYLE
  5
A
330
0
100
AcDbSymbolTable
 70
     1
100
AcDbDimStyleTable
  0
DIMSTYLE
105
27
330
A
100
AcDbSymbolTableRecord
100
AcDbDimStyleTableRecord
  2
ISO-25
 70
     0
 41
2.5
 42
0.625
 43
3.75
 44
1.25
 73
     0
 74
     0
 77
     1
 78
     8
140
2.5
141
2.5
143
0.03937007874016
147
0.625
171
     3
172
     1
178
     0
271
     2
272
     2
274
     3
278
    44
283
     0
284
     8
340
11
  0
ENDTAB
  0
TABLE
  2
BLOCK_RECORD
  5
1
330
0
100
AcDbSymbolTable
 70
     5
  0
BLOCK_RECORD
  5
1F
330
1
100
AcDbSymbolTableRecord
100
AcDbBlockTableRecord
  2
*Model_Space
340
22
 70
     0
280
     1
281
     0
  0
BLOCK_RECORD
  5
1B
330
1
100
AcDbSymbolTableRecord
100
AcDbBlockTableRecord
  2
*Paper_Space
340
1E
 70
     0
280
     1
281
     0
  0
BLOCK_RECORD
  5
23
330
1
100
AcDbSymbolTableRecord
100
AcDbBlockTableRecord
  2
*Paper_Space0
340
26
 70
     0
280
     1
281
     0
  0
BLOCK_RECORD
  5
6E
330
1
100
AcDbSymbolTableRecord
100
AcDbBlockTableRecord
  2
1_051879_4
340
0
102
{BLKREFS
331
6F
102
}
 70
     0
280
     1
281
     0
  0
BLOCK_RECORD
  5
8F
330
1
100
AcDbSymbolTableRecord
100
AcDbBlockTableRecord
  2
2_405015E_Metric_0_in_051879_4
340
0
102
{BLKREFS
331
90
102
}
 70
     0
280
     1
281
     0
  0
BLOCK_RECORD
  5
D7
330
1
100
AcDbSymbolTableRecord
100
AcDbBlockTableRecord
  2
3_125814_0_in_051879_4
340
0
102
{BLKREFS
331
D8
102
}
 70
     0
280
     1
281
     0
  0
BLOCK_RECORD
  5
139
330
1
100
AcDbSymbolTableRecord
100
AcDbBlockTableRecord
  2
4_051879H_0_in_051879_4
340
0
102
{BLKREFS
331
13A
102
}
 70
     0
280
     1
281
     0
  0
ENDTAB
  0
ENDSEC
  0
SECTION
  2
BLOCKS
  0
BLOCK
  5
20
330
1F
100
AcDbEntity
  8
0
100
AcDbBlockBegin
  2
*Model_Space
 70
     0
 10
0.0
 20
0.0
 30
0.0
  3
*Model_Space
  1

  0
ENDBLK
  5
21
330
1F
100
AcDbEntity
  8
0
100
AcDbBlockEnd
  0
BLOCK
  5
1C
330
1B
100
AcDbEntity
 67
     1
  8
0
100
AcDbBlockBegin
  2
*Paper_Space
 70
     0
 10
0.0
 20
0.0
 30
0.0
  3
*Paper_Space
  1

  0
ENDBLK
  5
1D
330
1B
100
AcDbEntity
 67
     1
  8
0
100
AcDbBlockEnd
  0
BLOCK
  5
24
330
23
100
AcDbEntity
  8
0
100
AcDbBlockBegin
  2
*Paper_Space0
 70
     0
 10
0.0
 20
0.0
 30
0.0
  3
*Paper_Space0
  1

  0
ENDBLK
  5
25
330
23
100
AcDbEntity
  8
0
100
AcDbBlockEnd
  0
BLOCK
  5
70
330
6E
100
AcDbEntity
  8
0
100
AcDbBlockBegin
  2
1_051879_4
 70
     2
 10
0.0
 20
0.0
 30
0.0
  3
1_051879_4
  1

  0
ATTDEF
  5
73
330
6E
100
AcDbEntity
  8
AM_6
100
AcDbText
 10
108.1
 20
31.46
 30
0.0
 40
0.5
  1
Set Screw Low Backing Height Two-Bolt Pillow Block Metric Bore
100
AcDbAttributeDefinition
  3

  2
NN
 70
     8
280
     0
  0
ATTDEF
  5
74
330
6E
100
AcDbEntity
  8
AM_6
100
AcDbText
 10
108.1
 20
30.96
 30
0.0
 40
0.5
  1
SC Pillow Block Bearings -(Normal Duty) -Low Backing Height
100
AcDbAttributeDefinition
  3

  2
NT
 70
     8
280
     0
  0
ATTDEF
  5
75
330
6E
100
AcDbEntity
  8
AM_6
100
AcDbText
 10
108.1
 20
30.46
 30
0.0
 40
0.5
  1
051879
100
AcDbAttributeDefinition
  3

  2
NB
 70
     8
280
     0
  0
ATTDEF
  5
76
330
6E
100
AcDbEntity
  8
AM_6
100
AcDbText
 10
108.1
 20
29.96
 30
0.0
 40
0.5
  1
$PN.
100
AcDbAttributeDefinition
  3

  2
NBSYN
 70
     8
280
     0
  0
ATTDEF
  5
77
330
6E
100
AcDbEntity
  8
AM_6
100
AcDbText
 10
108.1
 20
29.46
 30
0.0
 40
0.5
  1
051879
100
AcDbAttributeDefinition
  3

  2
LINA
 70
     8
280
     0
  0
ATTDEF
  5
78
330
6E
100
AcDbEntity
  8
AM_6
100
AcDbText
 10
108.1
 20
28.96
 30
0.0
 40
0.5
  1
210
100
AcDbAttributeDefinition
  3

  2
SERIES
 70
     8
280
     0
  0
ATTDEF
  5
79
330
6E
100
AcDbEntity
  8
AM_6
100
AcDbText
 10
108.1
 20
28.46
 30
0.0
 40
0.5
  1
50
100
AcDbAttributeDefinition
  3

  2
SS
 70
     8
280
     0
  0
ATTDEF
  5
7A
330
6E
100
AcDbEntity
  8
AM_6
100
AcDbText
 10
108.1
 20
27.96
 30
0.0
 40
0.5
  1
051879
100
AcDbAttributeDefinition
  3

  2
PN
 70
     8
280
     0
  0
ATTDEF
  5
7B
330
6E
100
AcDbEntity
  8
AM_6
100
AcDbText
 10
108.1
 20
27.46
 30
0.0
 40
0.5
  1
P2B-SCB-50M
100
AcDbAttributeDefinition
  3

  2
DESCRIPTION
 70
     8
280
     0
  0
ATTDEF
  5
7C
330
6E
100
AcDbEntity
  8
AM_6
100
AcDbText
 10
108.1
 20
26.96
 30
0.0
 40
0.5
  1
2.6
100
AcDbAttributeDefinition
  3

  2
WEIGHT
 70
     8
280
     0
  0
ATTDEF
  5
7D
330
6E
100
AcDbEntity
  8
AM_6
100
AcDbText
 10
108.1
 20
26.46
 30
0.0
 40
0.5
  1
49.3
100
AcDbAttributeDefinition
  3

  2
A
 70
     8
280
     0
  0
ATTDEF
  5
7E
330
6E
100
AcDbEntity
  8
AM_6
100
AcDbText
 10
108.1
 20
25.96
 30
0.0
 40
0.5
  1
206.2
100
AcDbAttributeDefinition
  3

  2
B
 70
     8
280
     0
  0
ATTDEF
  5
7F
330
6E
100
AcDbEntity
  8
AM_6
100
AcDbText
 10
108.1
 20
25.46
 30
0.0
 40
0.5
  1
57.2
100
AcDbAttributeDefinition
  3

  2
C
 70
     8
280
     0
  0
ATTDEF
  5
80
330
6E
100
AcDbEntity
  8
AM_6
100
AcDbText
 10
108.1
 20
24.96
 30
0.0
 40
0.5
  1
152.4
100
AcDbAttributeDefinition
  3

  2
DMIN
 70
     8
280
     0
  0
ATTDEF
  5
81
330
6E
100
AcDbEntity
  8
AM_6
100
AcDbText
 10
108.1
 20
24.46
 30
0.0
 40
0.5
  1
169.7
100
AcDbAttributeDefinition
  3

  2
DMAX
 70
     8
280
     0
  0
ATTDEF
  5
82
330
6E
100
AcDbEntity
  8
AM_6
100
AcDbText
 10
108.1
 20
23.96
 30
0.0
 40
0.5
  1
M16
100
AcDbAttributeDefinition
  3

  2
F
 70
     8
280
     0
  0
ATTDEF
  5
83
330
6E
100
AcDbEntity
  8
AM_6
100
AcDbText
 10
108.1
 20
23.46
 30
0.0
 40
0.5
  1
25.9
100
AcDbAttributeDefinition
  3

  2
G
 70
     8
280
     0
  0
ATTDEF
  5
84
330
6E
100
AcDbEntity
  8
AM_6
100
AcDbText
 10
108.1
 20
22.96
 30
0.0
 40
0.5
  1
17.3
100
AcDbAttributeDefinition
  3

  2
H
 70
     8
280
     0
  0
ATTDEF
  5
85
330
6E
100
AcDbEntity
  8
AM_6
100
AcDbText
 10
108.1
 20
22.46
 30
0.0
 40
0.5
  1
113.5
100
AcDbAttributeDefinition
  3

  2
J
 70
     8
280
     0
  0
ATTDEF
  5
86
330
6E
100
AcDbEntity
  8
AM_6
100
AcDbText
 10
108.1
 20
21.96
 30
0.0
 40
0.5
  1
61.7
100
AcDbAttributeDefinition
  3

  2
L
 70
     8
280
     0
  0
ATTDEF
  5
87
330
6E
100
AcDbEntity
  8
AM_6
100
AcDbText
 10
108.1
 20
21.46
 30
0.0
 40
0.5
  1
55.6
100
AcDbAttributeDefinition
  3

  2
M
 70
     8
280
     0
  0
ATTDEF
  5
88
330
6E
100
AcDbEntity
  8
AM_6
100
AcDbText
 10
108.1
 20
20.96
 30
0.0
 40
0.5
  1
19.1
100
AcDbAttributeDefinition
  3

  2
R
 70
     8
280
     0
  0
ATTDEF
  5
89
330
6E
100
AcDbEntity
  8
AM_6
100
AcDbText
 10
108.1
 20
20.46
 30
0.0
 40
0.5
  1
30.2
100
AcDbAttributeDefinition
  3

  2
S
 70
     8
280
     0
  0
ATTDEF
  5
8A
330
6E
100
AcDbEntity
  8
AM_6
100
AcDbText
 10
108.1
 20
19.96
 30
0.0
 40
0.5
  1
93.7
100
AcDbAttributeDefinition
  3

  2
U
 70
     8
280
     0
  0
ATTDEF
  5
8B
330
6E
100
AcDbEntity
  8
AM_6
100
AcDbText
 10
108.1
 20
19.46
 30
0.0
 40
0.5
  1
187.5
100
AcDbAttributeDefinition
  3

  2
V
 70
     8
280
     0
  0
ATTDEF
  5
8C
330
6E
100
AcDbEntity
  8
AM_6
100
AcDbText
 10
108.1
 20
18.96
 30
0.0
 40
0.5
  1
20.6
100
AcDbAttributeDefinition
  3

  2
W
 70
     8
280
     0
  0
ATTDEF
  5
8D
330
6E
100
AcDbEntity
  8
AM_6
100
AcDbText
 10
108.1
 20
18.46
 30
0.0
 40
0.5
  1
3.0
100
AcDbAttributeDefinition
  3

  2
X
 70
     8
280
     0
  0
ATTDEF
  5
8E
330
6E
100
AcDbEntity
  8
AM_6
100
AcDbText
 10
108.1
 20
17.96
 30
0.0
 40
0.5
  1
baldor
100
AcDbAttributeDefinition
  3

  2
COMPANY
 70
     8
280
     0
  0
INSERT
  5
90
330
6E
100
AcDbEntity
  8
0
100
AcDbBlockReference
  2
2_405015E_Metric_0_in_051879_4
 10
0.0
 20
0.0
 30
0.0
  0
INSERT
  5
D8
330
6E
100
AcDbEntity
  8
0
100
AcDbBlockReference
  2
3_125814_0_in_051879_4
 10
0.0
 20
0.0
 30
0.0
  0
INSERT
  5
13A
330
6E
100
AcDbEntity
  8
0
100
AcDbBlockReference
  2
4_051879H_0_in_051879_4
 10
0.0
 20
0.0
 30
0.0
  0
ENDBLK
  5
71
330
6E
100
AcDbEntity
  8
0
100
AcDbBlockEnd
  0
BLOCK
  5
91
330
8F
100
AcDbEntity
  8
0
100
AcDbBlockBegin
  2
2_405015E_Metric_0_in_051879_4
 70
     2
 10
0.0
 20
0.0
 30
0.0
  3
2_405015E_Metric_0_in_051879_4
  1

  0
ATTDEF
  5
93
330
8F
100
AcDbEntity
  8
AM_6
100
AcDbText
 10
54.35035938363977
 20
5.000000000000003
 30
0.0
 40
0.5
  1
405015E -Metric
100
AcDbAttributeDefinition
  3

  2
NN
 70
     8
280
     0
  0
ATTDEF
  5
94
330
8F
100
AcDbEntity
  8
AM_6
100
AcDbText
 10
54.35035938363977
 20
4.500000000000003
 30
0.0
 40
0.5
  1
Grease Fitting
100
AcDbAttributeDefinition
  3

  2
NT
 70
     8
280
     0
  0
ATTDEF
  5
95
330
8F
100
AcDbEntity
  8
AM_6
100
AcDbText
 10
54.35035938363977
 20
4.000000000000003
 30
0.0
 40
0.5
  1
405015E-Metric
100
AcDbAttributeDefinition
  3

  2
NB
 70
     8
280
     0
  0
ATTDEF
  5
96
330
8F
100
AcDbEntity
  8
AM_6
100
AcDbText
 10
54.35035938363977
 20
3.500000000000003
 30
0.0
 40
0.5
  1
$MN.-Metric
100
AcDbAttributeDefinition
  3

  2
NBSYN
 70
     8
280
     0
  0
ATTDEF
  5
97
330
8F
100
AcDbEntity
  8
AM_6
100
AcDbText
 10
54.35035938363977
 20
3.000000000000003
 30
0.0
 40
0.5
  1
405015E
100
AcDbAttributeDefinition
  3

  2
LINA
 70
     8
280
     0
  0
ATTDEF
  5
98
330
8F
100
AcDbEntity
  8
AM_6
100
AcDbText
 10
54.35035938363977
 20
2.500000000000003
 30
0.0
 40
0.5
  1
405015E
100
AcDbAttributeDefinition
  3

  2
MN
 70
     8
280
     0
  0
ATTDEF
  5
99
330
8F
100
AcDbEntity
  8
AM_6
100
AcDbText
 10
54.35035938363977
 20
2.000000000000003
 30
0.0
 40
0.5
  1
1/8 x 27PTF
100
AcDbAttributeDefinition
  3

  2
T
 70
     8
280
     0
  0
ATTDEF
  5
9A
330
8F
100
AcDbEntity
  8
AM_6
100
AcDbText
 10
54.35035938363977
 20
1.500000000000003
 30
0.0
 40
0.5
  1
baldor
100
AcDbAttributeDefinition
  3

  2
COMPANY
 70
     8
280
     0
  0
LWPOLYLINE
  5
9D
330
8F
100
AcDbEntity
  8
AM_9
100
AcDbPolyline
 90
        3
 70
     0
 43
0.0
 10
45.17052007784399
 20
0.0000000000000023
 10
44.55497428141285
 20
-1.24437966340913
 10
44.00334480918008
 20
-2.499999999999997
  0
LWPOLYLINE
  5
9E
330
8F
100
AcDbEntity
  8
AM_9
100
AcDbPolyline
 90
        3
 70
     0
 43
0.0
 10
44.00334480918008
 20
2.500000000000002
 10
44.55233804730126
 20
1.250000000000002
 10
45.17052007784399
 20
0.0000000000000023
  0
ELLIPSE
  5
9F
330
8F
100
AcDbEntity
  8
AM_9
100
AcDbEllipse
 10
36.18194688653445
 20
0.0000000000000022
 30
0.0
 11
2.546036870355444E-16
 21
4.15799375318352
 31
0.0
210
0.0
220
0.0
230
1.0
 40
0.7071067811865476
 41
0.0
 42
6.283185307179586
  0
LWPOLYLINE
  5
A0
330
8F
100
AcDbEntity
  8
AM_9
100
AcDbPolyline
 90
        3
 70
     0
 43
0.0
 10
46.12466515273972
 20
-2.499999999999995
 10
46.59629264077819
 20
-1.249999999999996
 10
46.99873133639512
 20
0.0000000000000025
  0
LWPOLYLINE
  5
A1
330
8F
100
AcDbEntity
  8
AM_9
100
AcDbPolyline
 90
        3
 70
     0
 43
0.0
 10
46.99873133639512
 20
0.0000000000000025
 10
46.59824539227671
 20
1.244379663409137
 10
46.12466515273972
 20
2.500000000000003
  0
LWPOLYLINE
  5
A2
330
8F
100
AcDbEntity
  8
AM_9
100
AcDbPolyline
 90
        3
 70
     0
 43
0.0
 10
43.12927862552468
 20
5.000000000000003
 10
43.52976456964308
 20
3.755620336590869
 10
44.00334480918008
 20
2.500000000000002
  0
LINE
  5
A3
330
8F
100
AcDbEntity
  8
AM_9
100
AcDbLine
 10
46.99873133639512
 20
0.0000000000000025
 30
0.0
 11
45.17052007784399
 21
0.0000000000000023
 31
0.0
  0
LWPOLYLINE
  5
A4
330
8F
100
AcDbEntity
  8
AM_9
100
AcDbPolyline
 90
        3
 70
     0
 43
0.0
 10
44.00334480918008
 20
-2.499999999999997
 10
43.53171732114161
 20
-3.749999999999997
 10
43.12927862552468
 20
-4.999999999999997
  0
LINE
  5
A5
330
8F
100
AcDbEntity
  8
AM_9
100
AcDbLine
 10
46.12466515273972
 20
2.500000000000003
 30
0.0
 11
45.86703236113206
 21
3.108284441446314
 31
0.0
  0
LINE
  5
A6
330
8F
100
AcDbEntity
  8
AM_9
100
AcDbLine
 10
45.87011502493167
 20
-3.101254590063021
 30
0.0
 11
46.12466515273972
 21
-2.499999999999995
 31
0.0
  0
LINE
  5
A7
330
8F
100
AcDbEntity
  8
AM_9
100
AcDbLine
 10
36.50109235662929
 20
-4.755705400136177
 30
0.0
 11
40.83195876138998
 21
-4.947207567024082
 31
0.0
  0
LINE
  5
A8
330
8F
100
AcDbEntity
  8
AM_9
100
AcDbLine
 10
40.83195876138998
 20
4.947207567024088
 30
0.0
 11
36.50109235662929
 21
4.755705400136183
 31
0.0
  0
ELLIPSE
  5
A9
330
8F
100
AcDbEntity
  8
AM_9
100
AcDbEllipse
 10
43.06280297426098
 20
0.0000000000002016
 30
0.0
 11
-9.184850993604448E-16
 21
-4.999999999999618
 31
0.0
210
0.0
220
0.0
230
1.0
 40
0.7071067811865476
 41
0.8982051386271923
 42
2.24338751496254
  0
LINE
  5
AA
330
8F
100
AcDbEntity
  8
AM_9
100
AcDbLine
 10
45.8424920046707
 20
1.989928832732518
 30
0.0
 11
45.57867253278381
 21
2.40658641745395
 31
0.0
  0
LINE
  5
AB
330
8F
100
AcDbEntity
  8
AM_9
100
AcDbLine
 10
45.57867253278381
 20
-2.406586417453944
 30
0.0
 11
45.8424920046707
 21
-1.989928832732512
 31
0.0
  0
ELLIPSE
  5
AC
330
8F
100
AcDbEntity
  8
AM_9
100
AcDbEllipse
 10
44.27111644379205
 20
0.0000000000000304
 30
0.0
 11
-5.479672885901868E-16
 21
-2.982994982562608
 31
0.0
210
0.0
220
0.0
230
1.0
 40
0.7071067811865476
 41
0.3869422381884107
 42
2.754650415401376
  0
ELLIPSE
  5
AD
330
8F
100
AcDbEntity
  8
AM_9
100
AcDbEllipse
 10
43.67827739336375
 20
-0.0000000000084279
 30
0.0
 11
-6.627024103745460E-16
 21
-3.607583894588738
 31
0.0
210
0.0
220
0.0
230
1.0
 40
0.707106781186547
 41
0.6633833151883879
 42
2.478209338404287
  0
LINE
  5
AE
330
8F
100
AcDbEntity
  8
AM_9
100
AcDbLine
 10
45.56202519663377
 20
2.477229919855584
 30
0.0
 11
45.09046354576878
 21
2.748977116714939
 31
0.0
  0
LINE
  5
AF
330
8F
100
AcDbEntity
  8
AM_9
100
AcDbLine
 10
45.09046354576879
 20
-2.748977116714933
 30
0.0
 11
45.56202519663377
 21
-2.477229919855578
 31
0.0
  0
ELLIPSE
  5
B0
330
8F
100
AcDbEntity
  8
AM_9
100
AcDbEllipse
 10
44.84824759675676
 20
0.0000000000000069
 30
0.0
 11
-4.913895281578788E-16
 21
-2.675000000000018
 31
0.0
210
0.0
220
0.0
230
1.0
 40
0.7071067811865489
 41
0.0
 42
3.141592653589793
  0
ELLIPSE
  5
B1
330
8F
100
AcDbEntity
  8
AM_9
100
AcDbEllipse
 10
43.06280297426085
 20
-0.0000000000000198
 30
0.0
 11
-8.725608443924723E-16
 21
-4.749999999999909
 31
0.0
210
0.0
220
0.0
230
1.0
 40
0.7071067811865414
 41
0.8736482899485951
 42
2.267944363641204
  0
LINE
  5
B2
330
8F
100
AcDbEntity
  8
AM_9
100
AcDbLine
 10
44.96492021565256
 20
-2.674999999999997
 30
0.0
 11
45.34322234358736
 21
-2.674999999999997
 31
0.0
  0
LINE
  5
B3
330
8F
100
AcDbEntity
  8
AM_9
100
AcDbLine
 10
45.34322234358736
 20
2.675000000000003
 30
0.0
 11
44.96492021565255
 21
2.675000000000003
 31
0.0
  0
ELLIPSE
  5
B4
330
8F
100
AcDbEntity
  8
AM_9
100
AcDbEllipse
 10
45.34322234358736
 20
0.0000000000000052
 30
0.0
 11
-4.913895281578761E-16
 21
-2.675000000000004
 31
0.0
210
0.0
220
0.0
230
1.0
 40
0.7071067811865475
 41
5.888394187479827
 42
9.81956908046914
  0
ELLIPSE
  5
B5
330
8F
100
AcDbEntity
  8
AM_9
100
AcDbEllipse
 10
46.26246115912989
 20
0.0000000000000266
 30
0.0
 11
-5.832380380939206E-16
 21
-3.174999999999966
 31
0.0
210
0.0
220
0.0
230
1.0
 40
0.7071067811865479
 41
0.4159140521025355
 42
2.725678601487251
  0
ELLIPSE
  5
B6
330
8F
100
AcDbEntity
  8
AM_9
100
AcDbEllipse
 10
40.94148263070109
 20
0.0000000000000191
 30
0.0
 11
-9.184850993605107E-16
 21
-4.999999999999977
 31
0.0
210
0.0
220
0.0
230
1.0
 40
0.7071067811865479
 41
0.0
 42
6.283185307179586
  0
ELLIPSE
  5
B7
330
8F
100
AcDbEntity
  8
AM_9
100
AcDbEllipse
 10
40.9414826307011
 20
0.0000000000000053
 30
0.0
 11
-9.092325864233641E-16
 21
-4.949631665534952
 31
0.0
210
0.0
220
0.0
230
1.0
 40
0.7071067811865491
 41
0.0
 42
6.283185307179586
  0
ELLIPSE
  5
B8
330
8F
100
AcDbEntity
  8
AM_9
100
AcDbEllipse
 10
36.60623620131189
 20
-0.0000000000000009
 30
0.0
 11
-8.740358316248948E-16
 21
-4.758029456511775
 31
0.0
210
0.0
220
0.0
230
1.0
 40
0.7071067811865472
 41
0.0
 42
6.283185307179586
  0
LWPOLYLINE
  5
BA
330
8F
100
AcDbEntity
  8
AM_4
100
AcDbPolyline
 90
        3
 70
     0
 43
0.0
 10
45.86703236113206
 20
3.108284441446314
 10
45.57567191461852
 20
3.750000000000003
 10
44.95748988407581
 20
5.000000000000003
  0
LWPOLYLINE
  5
BB
330
8F
100
AcDbEntity
  8
AM_4
100
AcDbPolyline
 90
        3
 70
     0
 43
0.0
 10
44.95748988407581
 20
-4.999999999999997
 10
45.57303568050694
 20
-3.755620336590863
 10
45.87011502493167
 20
-3.101254590063021
  0
ELLIPSE
  5
BC
330
8F
100
AcDbEntity
  8
AM_4
100
AcDbEllipse
 10
43.06280297426077
 20
0.0000000000000862
 30
0.0
 11
-9.184850993604974E-16
 21
-4.999999999999905
 31
0.0
210
0.0
220
0.0
230
1.0
 40
0.7071067811865482
 41
2.243387514962522
 42
7.181390445806832
  0
ELLIPSE
  5
BD
330
8F
100
AcDbEntity
  8
AM_4
100
AcDbEllipse
 10
43.67827739335734
 20
-0.0000000000000031
 30
0.0
 11
-6.627024103768196E-16
 21
-3.607583894601115
 31
0.0
210
0.0
220
0.0
230
1.0
 40
0.7071067811865476
 41
2.478209338400867
 42
6.946568622368517
  0
LINE
  5
BE
330
8F
100
AcDbEntity
  8
AM_4
100
AcDbLine
 10
45.09046354576878
 20
2.748977116714939
 30
0.0
 11
45.06707719111868
 21
2.762453989376799
 31
0.0
  0
LINE
  5
BF
330
8F
100
AcDbEntity
  8
AM_4
100
AcDbLine
 10
45.06707719111868
 20
-2.762453989376794
 30
0.0
 11
45.09046354576879
 21
-2.748977116714933
 31
0.0
  0
ELLIPSE
  5
C0
330
8F
100
AcDbEntity
  8
AM_4
100
AcDbEllipse
 10
44.27111644379212
 20
0.0000000000000024
 30
0.0
 11
-5.479672885901704E-16
 21
-2.982994982562518
 31
0.0
210
0.0
220
0.0
230
1.0
 40
0.7071067811865475
 41
2.75465041540141
 42
6.670127545367968
  0
ELLIPSE
  5
C1
330
8F
100
AcDbEntity
  8
AM_4
100
AcDbEllipse
 10
43.06280297426074
 20
0.0000000000000029
 30
0.0
 11
-8.725608443924878E-16
 21
-4.749999999999993
 31
0.0
210
0.0
220
0.0
230
1.0
 40
0.7071067811865483
 41
2.267944363641186
 42
7.156833597128193
  0
LINE
  5
C2
330
8F
100
AcDbEntity
  8
AM_4
100
AcDbLine
 10
44.95748988407581
 20
-4.999999999999997
 30
0.0
 11
39.04679572088604
 21
-4.999999999999997
 31
0.0
  0
LWPOLYLINE
  5
C3
330
8F
100
AcDbEntity
  8
AM_4
100
AcDbPolyline
 90
        3
 70
     0
 43
0.0
 10
40.00094079578177
 20
-2.499999999999995
 10
40.47256828382024
 20
-3.749999999999997
 10
40.87500697943717
 20
-4.999999999999997
  0
LWPOLYLINE
  5
C4
330
8F
100
AcDbEntity
  8
AM_4
100
AcDbPolyline
 90
        3
 70
     0
 43
0.0
 10
37.87962045222213
 20
-2.499999999999997
 10
37.40799296418366
 20
-1.249999999999997
 10
37.00555426856673
 20
0.0000000000000028
  0
LWPOLYLINE
  5
C5
330
8F
100
AcDbEntity
  8
AM_4
100
AcDbPolyline
 90
        3
 70
     0
 43
0.0
 10
39.04679572088604
 20
-4.999999999999997
 10
38.43124992445491
 20
-3.755620336590864
 10
37.87962045222213
 20
-2.499999999999997
  0
LWPOLYLINE
  5
C6
330
8F
100
AcDbEntity
  8
AM_4
100
AcDbPolyline
 90
        3
 70
     0
 43
0.0
 10
38.83376552711786
 20
0.0000000000000029
 10
39.449311323549
 20
-1.24437966340913
 10
40.00094079578177
 20
-2.499999999999995
  0
LINE
  5
C7
330
8F
100
AcDbEntity
  8
AM_4
100
AcDbLine
 10
38.83376552711786
 20
0.0000000000000029
 30
0.0
 11
37.00555426856673
 21
0.0000000000000028
 31
0.0
  0
LWPOLYLINE
  5
C8
330
8F
100
AcDbEntity
  8
AM_4
100
AcDbPolyline
 90
        3
 70
     0
 43
0.0
 10
40.00094079578177
 20
2.500000000000003
 10
39.45194755766059
 20
1.250000000000003
 10
38.83376552711786
 20
0.0000000000000029
  0
LWPOLYLINE
  5
C9
330
8F
100
AcDbEntity
  8
AM_4
100
AcDbPolyline
 90
        3
 70
     0
 43
0.0
 10
40.87500697943717
 20
5.000000000000003
 10
40.47452103531876
 20
3.75562033659087
 10
40.00094079578177
 20
2.500000000000003
  0
LINE
  5
CA
330
8F
100
AcDbEntity
  8
AM_4
100
AcDbLine
 10
44.95748988407581
 20
5.000000000000003
 30
0.0
 11
39.04679572088604
 21
5.000000000000003
 31
0.0
  0
LWPOLYLINE
  5
CB
330
8F
100
AcDbEntity
  8
AM_4
100
AcDbPolyline
 90
        3
 70
     0
 43
0.0
 10
37.87962045222213
 20
2.500000000000002
 10
38.42861369034332
 20
3.750000000000002
 10
39.04679572088604
 20
5.000000000000003
  0
LWPOLYLINE
  5
CC
330
8F
100
AcDbEntity
  8
AM_4
100
AcDbPolyline
 90
        3
 70
     0
 43
0.0
 10
37.00555426856673
 20
0.0000000000000028
 10
37.40604021268514
 20
1.244379663409136
 10
37.87962045222213
 20
2.500000000000002
  0
LINE
  5
CD
330
8F
100
AcDbEntity
  8
AM_4
100
AcDbLine
 10
44.84824759675678
 20
-2.674999999999997
 30
0.0
 11
44.96492021565256
 21
-2.674999999999997
 31
0.0
  0
LINE
  5
CE
330
8F
100
AcDbEntity
  8
AM_4
100
AcDbLine
 10
44.96492021565255
 20
2.675000000000003
 30
0.0
 11
44.84824759675678
 21
2.675000000000003
 31
0.0
  0
ELLIPSE
  5
CF
330
8F
100
AcDbEntity
  8
AM_4
100
AcDbEllipse
 10
44.84824759675678
 20
0.0000000000000031
 30
0.0
 11
-4.913895281578752E-16
 21
-2.674999999999998
 31
0.0
210
0.0
220
0.0
230
1.0
 40
0.7071067811865488
 41
3.141592653589793
 42
6.283185307179586
  0
LINE
  5
D0
330
8F
100
AcDbEntity
  8
AM_4
100
AcDbLine
 10
44.61571825140505
 20
-2.469230769230767
 30
0.0
 11
45.39897499364245
 21
-2.930769230769228
 31
0.0
  0
LINE
  5
D1
330
8F
100
AcDbEntity
  8
AM_4
100
AcDbLine
 10
45.39897499364245
 20
2.930769230769234
 30
0.0
 11
44.61571825140505
 21
2.469230769230772
 31
0.0
  0
ELLIPSE
  5
D2
330
8F
100
AcDbEntity
  8
AM_4
100
AcDbEllipse
 10
46.26246115912987
 20
0.000000000000004
 30
0.0
 11
-5.832380380939265E-16
 21
-3.174999999999998
 31
0.0
210
0.0
220
0.0
230
1.0
 40
0.7071067811865475
 41
2.725678601487245
 42
6.699099359282135
  0
ELLIPSE
  5
D3
330
8F
100
AcDbEntity
  8
AM_4
100
AcDbEllipse
 10
45.34322234358738
 20
0.0000000000000031
 30
0.0
 11
-4.913895281578770E-16
 21
-2.675000000000009
 31
0.0
210
0.0
220
0.0
230
1.0
 40
0.7071067811865488
 41
3.536383773289561
 42
5.888394187479818
  0
LINE
  5
D4
330
8F
100
AcDbEntity
  8
AM_4
100
AcDbLine
 10
48.35288721878429
 20
2.165159119691911
 30
0.0
 11
47.16952590603703
 21
2.904323000259531
 31
0.0
  0
LINE
  5
D5
330
8F
100
AcDbEntity
  8
AM_4
100
AcDbLine
 10
47.16952590603703
 20
-2.904323000259525
 30
0.0
 11
48.35288721878429
 21
-2.165159119691905
 31
0.0
  0
ELLIPSE
  5
D6
330
8F
100
AcDbEntity
  8
AM_4
100
AcDbEllipse
 10
47.67667472150295
 20
-0.00000000000001
 30
0.0
 11
-4.348012108217480E-16
 21
-2.366947548329709
 31
0.0
210
0.0
220
0.0
230
1.0
 40
0.707106781186552
 41
0.0
 42
6.283185307179586
  0
ENDBLK
  5
92
330
8F
100
AcDbEntity
  8
0
100
AcDbBlockEnd
  0
BLOCK
  5
D9
330
D7
100
AcDbEntity
  8
0
100
AcDbBlockBegin
  2
3_125814_0_in_051879_4
 70
     2
 10
0.0
 20
0.0
 30
0.0
  3
3_125814_0_in_051879_4
  1

  0
ATTDEF
  5
DB
330
D7
100
AcDbEntity
  8
AM_6
100
AcDbText
 10
49.99121541260941
 20
19.09999999999999
 30
0.0
 40
0.5
  1
Set Screw Insert Metric Bore - Stainless Steel
100
AcDbAttributeDefinition
  3

  2
NN
 70
     8
280
     0
  0
ATTDEF
  5
DC
330
D7
100
AcDbEntity
  8
AM_6
100
AcDbText
 10
49.99121541260941
 20
18.59999999999999
 30
0.0
 40
0.5
  1
SC Bearing Insert -Metric
100
AcDbAttributeDefinition
  3

  2
NT
 70
     8
280
     0
  0
ATTDEF
  5
DD
330
D7
100
AcDbEntity
  8
AM_6
100
AcDbText
 10
49.99121541260941
 20
18.09999999999999
 30
0.0
 40
0.5
  1
125814
100
AcDbAttributeDefinition
  3

  2
NB
 70
     8
280
     0
  0
ATTDEF
  5
DE
330
D7
100
AcDbEntity
  8
AM_6
100
AcDbText
 10
49.99121541260941
 20
17.59999999999999
 30
0.0
 40
0.5
  1
$PN.
100
AcDbAttributeDefinition
  3

  2
NBSYN
 70
     8
280
     0
  0
ATTDEF
  5
DF
330
D7
100
AcDbEntity
  8
AM_6
100
AcDbText
 10
49.99121541260941
 20
17.09999999999999
 30
0.0
 40
0.5
  1
125814
100
AcDbAttributeDefinition
  3

  2
LINA
 70
     8
280
     0
  0
ATTDEF
  5
E0
330
D7
100
AcDbEntity
  8
AM_6
100
AcDbText
 10
49.99121541260941
 20
16.59999999999999
 30
0.0
 40
0.5
  1
210
100
AcDbAttributeDefinition
  3

  2
SERIES
 70
     8
280
     0
  0
ATTDEF
  5
E1
330
D7
100
AcDbEntity
  8
AM_6
100
AcDbText
 10
49.99121541260941
 20
16.09999999999999
 30
0.0
 40
0.5
  1
50
100
AcDbAttributeDefinition
  3

  2
SS
 70
     8
280
     0
  0
ATTDEF
  5
E2
330
D7
100
AcDbEntity
  8
AM_6
100
AcDbText
 10
49.99121541260941
 20
15.59999999999999
 30
0.0
 40
0.5
  1
125814
100
AcDbAttributeDefinition
  3

  2
PN
 70
     8
280
     0
  0
ATTDEF
  5
E3
330
D7
100
AcDbEntity
  8
AM_6
100
AcDbText
 10
49.99121541260941
 20
15.09999999999999
 30
0.0
 40
0.5
  1
INS-SC-50
100
AcDbAttributeDefinition
  3

  2
DESCRIPTION
 70
     8
280
     0
  0
ATTDEF
  5
E4
330
D7
100
AcDbEntity
  8
AM_6
100
AcDbText
 10
49.99121541260941
 20
14.59999999999999
 30
0.0
 40
0.5
  1
0.67
100
AcDbAttributeDefinition
  3

  2
WEIGHT
 70
     8
280
     0
  0
ATTDEF
  5
E5
330
D7
100
AcDbEntity
  8
AM_6
100
AcDbText
 10
49.99121541260941
 20
14.09999999999999
 30
0.0
 40
0.5
  1
49.3
100
AcDbAttributeDefinition
  3

  2
A
 70
     8
280
     0
  0
ATTDEF
  5
E6
330
D7
100
AcDbEntity
  8
AM_6
100
AcDbText
 10
49.99121541260941
 20
13.59999999999999
 30
0.0
 40
0.5
  1
22.1
100
AcDbAttributeDefinition
  3

  2
C
 70
     8
280
     0
  0
ATTDEF
  5
E7
330
D7
100
AcDbEntity
  8
AM_6
100
AcDbText
 10
49.99121541260941
 20
13.09999999999999
 30
0.0
 40
0.5
  1
90
100
AcDbAttributeDefinition
  3

  2
D
 70
     8
280
     0
  0
ATTDEF
  5
E8
330
D7
100
AcDbEntity
  8
AM_6
100
AcDbText
 10
49.99121541260941
 20
12.59999999999999
 30
0.0
 40
0.5
  1
6.4
100
AcDbAttributeDefinition
  3

  2
J
 70
     8
280
     0
  0
ATTDEF
  5
E9
330
D7
100
AcDbEntity
  8
AM_6
100
AcDbText
 10
49.99121541260941
 20
12.09999999999999
 30
0.0
 40
0.5
  1
61.7
100
AcDbAttributeDefinition
  3

  2
L
 70
     8
280
     0
  0
ATTDEF
  5
EA
330
D7
100
AcDbEntity
  8
AM_6
100
AcDbText
 10
49.99121541260941
 20
11.59999999999999
 30
0.0
 40
0.5
  1
M10 x 1.5
100
AcDbAttributeDefinition
  3

  2
N
 70
     8
280
     0
  0
ATTDEF
  5
EB
330
D7
100
AcDbEntity
  8
AM_6
100
AcDbText
 10
49.99121541260941
 20
11.09999999999999
 30
0.0
 40
0.5
  1
19.1
100
AcDbAttributeDefinition
  3

  2
W
 70
     8
280
     0
  0
ATTDEF
  5
EC
330
D7
100
AcDbEntity
  8
AM_6
100
AcDbText
 10
49.99121541260941
 20
10.59999999999999
 30
0.0
 40
0.5
  1
30.2
100
AcDbAttributeDefinition
  3

  2
Y
 70
     8
280
     0
  0
ATTDEF
  5
ED
330
D7
100
AcDbEntity
  8
AM_6
100
AcDbText
 10
49.99121541260941
 20
10.09999999999999
 30
0.0
 40
0.5
  1
baldor
100
AcDbAttributeDefinition
  3

  2
COMPANY
 70
     8
280
     0
  0
LINE
  5
EE
330
D7
100
AcDbEntity
  8
AM_9
100
AcDbLine
 10
-47.5
 20
6.600909090909089
 30
0.0
 11
-47.5
 21
6.199090909090912
 31
0.0
  0
ARC
  5
EF
330
D7
100
AcDbEntity
  8
AM_9
100
AcDbCircle
 10
-45.49090909090908
 20
6.199090909090907
 30
0.0
 40
2.009090909090915
100
AcDbArc
 50
180.0
 51
270.0
  0
ARC
  5
F0
330
D7
100
AcDbEntity
  8
AM_9
100
AcDbCircle
 10
-45.49090909090908
 20
6.600909090909092
 30
0.0
 40
2.009090909090907
100
AcDbArc
 50
90.0
 51
180.0
  0
LINE
  5
F1
330
D7
100
AcDbEntity
  8
AM_9
100
AcDbLine
 10
-45.4909090909091
 20
8.61
 30
0.0
 11
-45.4909090909091
 21
4.19
 31
0.0
  0
LINE
  5
F2
330
D7
100
AcDbEntity
  8
AM_9
100
AcDbLine
 10
-45.4909090909091
 20
4.19
 30
0.0
 11
-44.69126132022674
 21
4.19
 31
0.0
  0
LINE
  5
F3
330
D7
100
AcDbEntity
  8
AM_9
100
AcDbLine
 10
-43.6804835444733
 20
8.61
 30
0.0
 11
-45.4909090909091
 21
8.61
 31
0.0
  0
LINE
  5
F4
330
D7
100
AcDbEntity
  8
AM_9
100
AcDbLine
 10
22.65556916135708
 20
-24.813
 30
0.0
 11
27.58992787792071
 21
-24.813
 31
0.0
  0
LINE
  5
F5
330
D7
100
AcDbEntity
  8
AM_9
100
AcDbLine
 10
27.58992787792071
 20
-16.437
 30
0.0
 11
22.65715160397221
 21
-16.437
 31
0.0
  0
LWPOLYLINE
  5
F6
330
D7
100
AcDbEntity
  8
AM_9
100
AcDbPolyline
 90
        6
 70
     0
 43
0.0
 10
23.57020842185751
 20
-17.19891827264342
 10
23.45962495920939
 20
-16.99241974314841
 10
23.22578699097915
 20
-16.68953044448144
 10
22.96874413759817
 20
-16.50669123079843
 10
22.67755754430895
 20
-16.43726480166354
 10
22.65780285782026
 20
-16.43700000782322
  0
LWPOLYLINE
  5
F7
330
D7
100
AcDbEntity
  8
AM_9
100
AcDbPolyline
 90
       17
 70
     0
 43
0.0
 10
22.65755202915317
 20
-24.81299998639878
 10
22.84697745068978
 20
-24.78800944542597
 10
23.11234352398952
 20
-24.65749039142872
 10
23.35651895568412
 20
-24.41054268300072
 10
23.56302586160189
 20
-24.06604219206332
 10
23.74048193228948
 20
-23.61533308590081
 10
23.88014327542942
 20
-23.08850880320384
 10
23.98820786881822
 20
-22.4751354341345
 10
24.05962370244267
 20
-21.82573974170464
 10
24.09948304212425
 20
-21.12161285746922
 10
24.10623664344415
 20
-20.43163379012983
 10
24.08110167327657
 20
-19.72716476848986
 10
24.02552716100509
 20
-19.07181297927356
 10
23.9354232116977
 20
-18.4420261551753
 10
23.81350703173957
 20
-17.88435631494399
 10
23.65268231650192
 20
-17.38881957971778
 10
23.57020842185751
 20
-17.19891827264342
  0
LWPOLYLINE
  5
F8
330
D7
100
AcDbEntity
  8
AM_9
100
AcDbPolyline
 90
       11
 70
     0
 43
0.0
 10
22.65780285782026
 20
-16.43700000782322
 10
22.38010584017358
 20
-16.48608216281405
 10
22.06491330207809
 20
-16.65281282552977
 10
21.76057494242752
 20
-16.92293255121296
 10
21.46112014395699
 20
-17.30390444502207
 10
21.19182596497463
 20
-17.770266930992
 10
20.95307000863783
 20
-18.3315553590603
 10
20.76789990676854
 20
-18.94567931489345
 10
20.63682826440093
 20
-19.62736792744857
 10
20.58527782097713
 20
-20.11873411007047
 10
20.56758620890206
 20
-20.625
  0
ELLIPSE
  5
F9
330
D7
100
AcDbEntity
  8
AM_9
100
AcDbEllipse
 10
27.58992787792072
 20
-20.62500000000001
 30
0.0
 11
-7.693231192243657E-16
 21
-4.187999999999992
 31
0.0
210
0.0
220
0.0
230
1.0
 40
0.4226182617407004
 41
2.318328592915222
 42
5.845274623746352
  0
LINE
  5
FA
330
D7
100
AcDbEntity
  8
AM_9
100
AcDbLine
 10
26.76459816541529
 20
-24.32979950446319
 30
0.0
 11
26.99778822615284
 21
-24.62065433913907
 31
0.0
  0
LINE
  5
FB
330
D7
100
AcDbEntity
  8
AM_9
100
AcDbLine
 10
27.00123421423372
 20
-16.62504752615317
 30
0.0
 11
26.76459816541529
 21
-16.92020049553681
 31
0.0
  0
LWPOLYLINE
  5
FC
330
D7
100
AcDbEntity
  8
AM_9
100
AcDbPolyline
 90
        3
 70
     0
 43
0.0
 10
26.48588004460053
 20
-17.49534132201708
 10
26.70533761558062
 20
-17.06402966664295
 10
27.00263563136546
 20
-16.62329955850064
  0
LWPOLYLINE
  5
FD
330
D7
100
AcDbEntity
  8
AM_9
100
AcDbPolyline
 90
        6
 70
     0
 43
0.0
 10
27.00263563136546
 20
-16.62329955850064
 10
27.02075216690785
 20
-16.60093860123503
 10
27.33805226275685
 20
-16.28233762980867
 10
27.66290351523769
 20
-16.08826377574736
 10
27.8576382233579
 20
-16.03636909449063
 10
28.04782169889123
 20
-16.03464870573412
  0
LWPOLYLINE
  5
FE
330
D7
100
AcDbEntity
  8
AM_9
100
AcDbPolyline
 90
       11
 70
     0
 43
0.0
 10
20.56758620890206
 20
-20.625
 10
20.60029497019668
 20
-21.3125947545914
 10
20.70047003761933
 20
-22.0001895091828
 10
20.85733960649549
 20
-22.62982636321153
 10
21.07184935399644
 20
-23.2201745295535
 10
21.32466903973899
 20
-23.7271015796819
 10
21.61684182545935
 20
-24.15976548687559
 10
21.92181194018282
 20
-24.48382475567161
 10
22.24314668608925
 20
-24.70550612456223
 10
22.54796384349552
 20
-24.80511834062801
 10
22.65755202915317
 20
-24.81299998639878
  0
LINE
  5
FF
330
D7
100
AcDbEntity
  8
AM_9
100
AcDbLine
 10
25.0
 20
-28.966
 30
0.0
 11
25.0
 21
17.866
 31
0.0
  0
LINE
  5
100
330
D7
100
AcDbEntity
  8
AM_9
100
AcDbLine
 10
-25.0
 20
17.866
 30
0.0
 11
-25.0
 21
-28.966
 31
0.0
  0
LINE
  5
101
330
D7
100
AcDbEntity
  8
AM_9
100
AcDbLine
 10
25.0
 20
17.866
 30
0.0
 11
26.23400000000004
 21
19.09999999999999
 31
0.0
  0
LINE
  5
102
330
D7
100
AcDbEntity
  8
AM_9
100
AcDbLine
 10
-26.23400000000004
 20
19.09999999999999
 30
0.0
 11
-25.0
 21
17.866
 31
0.0
  0
LINE
  5
103
330
D7
100
AcDbEntity
  8
AM_9
100
AcDbLine
 10
-25.0
 20
-28.966
 30
0.0
 11
-26.23400000000004
 21
-30.2
 31
0.0
  0
LINE
  5
104
330
D7
100
AcDbEntity
  8
AM_9
100
AcDbLine
 10
26.23400000000004
 20
-30.2
 30
0.0
 11
25.0
 21
-28.966
 31
0.0
  0
LINE
  5
105
330
D7
100
AcDbEntity
  8
AM_9
100
AcDbLine
 10
-30.70000850825286
 20
18.01599149174713
 30
0.0
 11
-30.84999999999999
 21
17.86599999999999
 31
0.0
  0
LINE
  5
106
330
D7
100
AcDbEntity
  8
AM_9
100
AcDbLine
 10
30.84999999999999
 20
17.86599999999999
 30
0.0
 11
30.70000850825286
 21
18.01599149174713
 31
0.0
  0
LINE
  5
107
330
D7
100
AcDbEntity
  8
AM_9
100
AcDbLine
 10
29.58166504737698
 20
17.86599999999999
 30
0.0
 11
30.84999999999998
 21
17.86599999999999
 31
0.0
  0
LINE
  5
108
330
D7
100
AcDbEntity
  8
AM_9
100
AcDbLine
 10
-30.84999999999999
 20
17.86599999999999
 30
0.0
 11
-29.58166504737698
 21
17.86599999999999
 31
0.0
  0
LINE
  5
109
330
D7
100
AcDbEntity
  8
AM_9
100
AcDbLine
 10
30.84999999999998
 20
11.05
 30
0.0
 11
30.84999999999998
 21
17.86599999999999
 31
0.0
  0
LINE
  5
10A
330
D7
100
AcDbEntity
  8
AM_9
100
AcDbLine
 10
-30.84999999999998
 20
17.86599999999999
 30
0.0
 11
-30.84999999999998
 21
11.05
 31
0.0
  0
LWPOLYLINE
  5
10B
330
D7
100
AcDbEntity
  8
AM_9
100
AcDbPolyline
 90
        5
 70
     0
 43
0.0
 10
-1.182180358364298
 20
-16.20721492779398
 10
-0.7039479753220222
 20
-16.0914773889579
 10
-0.0257048942105141
 20
-16.02919980001387
 10
0.67418001542636
 20
-16.08628276139993
 10
1.200034299792551
 20
-16.212746172872
  0
LWPOLYLINE
  5
10C
330
D7
100
AcDbEntity
  8
AM_9
100
AcDbPolyline
 90
        7
 70
     0
 43
0.0
 10
28.04782169889123
 20
-16.03464870573412
 10
28.32358703901373
 20
-16.12945592890172
 10
28.57630204565344
 20
-16.33645507622363
 10
28.7978824344389
 20
-16.64451807679065
 10
28.98955221925545
 20
-17.04354241904556
 10
29.15770364269838
 20
-17.55029590589654
 10
29.2252860006083
 20
-17.81582211874074
  0
LINE
  5
10D
330
D7
100
AcDbEntity
  8
AM_9
100
AcDbLine
 10
30.84999999999999
 20
-18.03689113066231
 30
0.0
 11
30.84999999999999
 21
-11.05
 31
0.0
  0
LINE
  5
10E
330
D7
100
AcDbEntity
  8
AM_9
100
AcDbLine
 10
-30.84999999999999
 20
-11.05
 30
0.0
 11
-30.84999999999999
 21
-18.03689113066231
 31
0.0
  0
LINE
  5
10F
330
D7
100
AcDbEntity
  8
AM_9
100
AcDbLine
 10
42.78999999999994
 20
-7.233333333333334
 30
0.0
 11
42.78999999999994
 21
-4.286666666666664
 31
0.0
  0
LINE
  5
110
330
D7
100
AcDbEntity
  8
AM_9
100
AcDbLine
 10
-42.78999999999994
 20
-4.286666666666664
 30
0.0
 11
-42.78999999999994
 21
-7.233333333333334
 31
0.0
  0
LINE
  5
111
330
D7
100
AcDbEntity
  8
AM_9
100
AcDbLine
 10
-42.19396883195163
 20
11.05
 30
0.0
 11
42.19396883193355
 21
11.05
 31
0.0
  0
ARC
  5
112
330
D7
100
AcDbEntity
  8
AM_9
100
AcDbCircle
 10
42.19396883195164
 20
10.16600000000002
 30
0.0
 40
0.8839999999999852
100
AcDbArc
 50
21.41247877657207
 51
90.0
  0
ARC
  5
113
330
D7
100
AcDbEntity
  8
AM_9
100
AcDbCircle
 10
-42.19396883195164
 20
10.16600000000002
 30
0.0
 40
0.8839999999999808
100
AcDbArc
 50
90.0
 51
158.587521223428
  0
LINE
  5
114
330
D7
100
AcDbEntity
  8
AM_9
100
AcDbLine
 10
-42.1939688319516
 20
-11.05
 30
0.0
 11
42.19396883193352
 21
-11.05
 31
0.0
  0
ARC
  5
115
330
D7
100
AcDbEntity
  8
AM_9
100
AcDbCircle
 10
42.1939688319516
 20
-10.16599999999998
 30
0.0
 40
0.8840000000000163
100
AcDbArc
 50
270.0
 51
338.587532953115
  0
ARC
  5
116
330
D7
100
AcDbEntity
  8
AM_9
100
AcDbCircle
 10
-42.1939688319516
 20
-10.16599999999998
 30
0.0
 40
0.8840000000000177
100
AcDbArc
 50
201.412467046885
 51
270.0
  0
LINE
  5
117
330
D7
100
AcDbEntity
  8
AM_9
100
AcDbLine
 10
-44.07452820834922
 20
-7.233333333333334
 30
0.0
 11
44.07452820834922
 21
-7.233333333333334
 31
0.0
  0
LINE
  5
118
330
D7
100
AcDbEntity
  8
AM_9
100
AcDbLine
 10
-43.01695196947389
 20
-10.48873015873016
 30
0.0
 11
43.01695196947389
 21
-10.48873015873016
 31
0.0
  0
ARC
  5
119
330
D7
100
AcDbEntity
  8
AM_9
100
AcDbCircle
 10
16.270000000002
 20
-0.0000000000006501
 30
0.0
 40
28.72999999999788
100
AcDbArc
 50
338.5875329531157
 51
345.4177622541455
  0
ARC
  5
11A
330
D7
100
AcDbEntity
  8
AM_9
100
AcDbCircle
 10
-16.26999999999963
 20
0.0000000000001172
 30
0.0
 40
28.73000000000037
100
AcDbArc
 50
194.5822377458548
 51
201.412467046884
  0
LINE
  5
11B
330
D7
100
AcDbEntity
  8
AM_9
100
AcDbLine
 10
-44.67840349067311
 20
-4.286666666666668
 30
0.0
 11
44.67840349067311
 21
-4.286666666666668
 31
0.0
  0
LINE
  5
11C
330
D7
100
AcDbEntity
  8
AM_9
100
AcDbLine
 10
-43.01695190340402
 20
10.48873032721265
 30
0.0
 11
43.01695190340402
 21
10.48873032721265
 31
0.0
  0
LINE
  5
11D
330
D7
100
AcDbEntity
  8
AM_9
100
AcDbLine
 10
-43.85502160168085
 20
7.92961149084186
 30
0.0
 11
-43.8268537830394
 21
8.04078825215126
 31
0.0
  0
ARC
  5
11E
330
D7
100
AcDbEntity
  8
AM_9
100
AcDbCircle
 10
16.27000000000011
 20
-0.0000000000000034
 30
0.0
 40
28.72999999999987
100
AcDbArc
 50
351.4191278814026
 51
21.41246740779767
  0
ARC
  5
11F
330
D7
100
AcDbEntity
  8
AM_9
100
AcDbCircle
 10
-16.27000000000214
 20
0.0000000000007159
 30
0.0
 40
28.72999999999772
100
AcDbArc
 50
158.5875325922022
 51
162.5690897718378
  0
ARC
  5
120
330
D7
100
AcDbEntity
  8
AM_9
100
AcDbCircle
 10
-16.27000000000069
 20
-0.0000000000000089
 30
0.0
 40
28.7299999999993
100
AcDbArc
 50
171.5980643305833
 51
188.5808721185975
  0
LWPOLYLINE
  5
121
330
D7
100
AcDbEntity
  8
AM_9
100
AcDbPolyline
 90
       21
 70
     0
 43
0.0
 10
-43.67950200236578
 20
8.609999998775127
 10
-43.67967644066896
 20
8.609338052510585
 10
-43.69017526377173
 20
8.56944718034878
 10
-43.71514168847242
 20
8.474182902507374
 10
-43.7549130783438
 20
8.32123988471411
 10
-43.80646923999544
 20
8.120760063587396
 10
-43.87016531420234
 20
7.869514943095974
 10
-43.94247516563054
 20
7.579353455026816
 10
-44.02310581973306
 20
7.249339489438863
 10
-44.10759050301345
 20
6.895877713376884
 10
-44.19574071131082
 20
6.518246133976073
 10
-44.28143791212323
 20
6.141962865454917
 10
-44.36588268015878
 20
5.761796013358665
 10
-44.44181258986573
 20
5.411516284960627
 10
-44.51211016323914
 20
5.079654278666001
 10
-44.57008063499973
 20
4.800205001070978
 10
-44.61917225638735
 20
4.559262094806693
 10
-44.65479388383033
 20
4.381860290754208
 10
-44.67951907705797
 20
4.257411613344605
 10
-44.69131903379952
 20
4.197631488729787
 10
-44.69282181627985
 20
4.190000000000478
  0
LINE
  5
124
330
D7
100
AcDbEntity
  8
AM_7
100
AcDbLine
 10
-4.3974
 20
-20.625
 30
0.0
 11
4.3974
 21
-20.625
 31
0.0
  0
LINE
  5
125
330
D7
100
AcDbEntity
  8
AM_7
100
AcDbLine
 10
-48.3325
 20
6.4
 30
0.0
 11
-30.0175
 21
6.4
 31
0.0
  0
ELLIPSE
  5
126
330
D7
100
AcDbEntity
  8
AM_4
100
AcDbEllipse
 10
27.58992787792072
 20
-20.625
 30
0.0
 11
-7.693231192243670E-16
 21
-4.187999999999999
 31
0.0
210
0.0
220
0.0
230
1.0
 40
0.4226182617406988
 41
5.845274623746353
 42
8.601513900094803
  0
LWPOLYLINE
  5
127
330
D7
100
AcDbEntity
  8
AM_4
100
AcDbPolyline
 90
       13
 70
     0
 43
0.0
 10
27.00229952451931
 20
-24.62628111890205
 10
26.89492961066503
 20
-24.48374588481943
 10
26.6254829894983
 20
-24.04132786064409
 10
26.38696549773652
 20
-23.51989177486681
 10
26.17569018168256
 20
-22.89168535262126
 10
26.01588821890095
 20
-22.2076557908734
 10
25.90994783998444
 20
-21.44241432440741
 10
25.87199619928882
 20
-20.65544392240591
 10
25.90663800855349
 20
-19.84442790706694
 10
26.01346575770879
 20
-19.05539975546545
 10
26.18947389340159
 20
-18.31060075036605
 10
26.4260710162266
 20
-17.63375054906496
 10
26.48588004460053
 20
-17.49534132201708
  0
LINE
  5
128
330
D7
100
AcDbEntity
  8
AM_4
100
AcDbLine
 10
-29.61600000000003
 20
19.09999999999999
 30
0.0
 11
29.61600000000003
 21
19.09999999999999
 31
0.0
  0
LINE
  5
129
330
D7
100
AcDbEntity
  8
AM_4
100
AcDbLine
 10
-29.61600000000003
 20
19.09999999999999
 30
0.0
 11
-30.70000850825286
 21
18.01599149174713
 31
0.0
  0
LINE
  5
12A
330
D7
100
AcDbEntity
  8
AM_4
100
AcDbLine
 10
30.70000850825286
 20
18.01599149174713
 30
0.0
 11
29.61600000000003
 21
19.09999999999999
 31
0.0
  0
LINE
  5
12B
330
D7
100
AcDbEntity
  8
AM_4
100
AcDbLine
 10
-29.58166504737698
 20
17.86599999999999
 30
0.0
 11
29.58166504737698
 21
17.86599999999999
 31
0.0
  0
CIRCLE
  5
12C
330
D7
100
AcDbEntity
  8
AM_4
100
AcDbCircle
 10
0.0
 20
-20.625
 30
0.0
 40
4.188
  0
LINE
  5
12D
330
D7
100
AcDbEntity
  8
AM_4
100
AcDbLine
 10
-29.61600000000003
 20
-30.2
 30
0.0
 11
29.61600000000003
 21
-30.2
 31
0.0
  0
LINE
  5
12E
330
D7
100
AcDbEntity
  8
AM_4
100
AcDbLine
 10
29.61600000000003
 20
-30.2
 30
0.0
 11
30.84999999999999
 21
-28.966
 31
0.0
  0
LINE
  5
12F
330
D7
100
AcDbEntity
  8
AM_4
100
AcDbLine
 10
-30.84999999999999
 20
-28.966
 30
0.0
 11
-29.61600000000003
 21
-30.2
 31
0.0
  0
LINE
  5
130
330
D7
100
AcDbEntity
  8
AM_4
100
AcDbLine
 10
-30.84999999999999
 20
-28.966
 30
0.0
 11
30.84999999999999
 21
-28.966
 31
0.0
  0
LWPOLYLINE
  5
131
330
D7
100
AcDbEntity
  8
AM_4
100
AcDbPolyline
 90
       33
 70
     0
 43
0.0
 10
1.200034299792551
 20
-16.212746172872
 10
1.313644317097406
 20
-16.25006423578364
 10
1.934224383981521
 20
-16.52296386224218
 10
2.501646125720236
 20
-16.8913197140958
 10
3.016553812573135
 20
-17.35612748039228
 10
3.467600727859446
 20
-17.9159234097609
 10
3.834118613159161
 20
-18.55609793671989
 10
4.104540449532757
 20
-19.27256427620227
 10
4.260773179943167
 20
-20.04378135489137
 10
4.290668996192643
 20
-20.8399353043724
 10
4.186284705863732
 20
-21.65245788830835
 10
3.952407334048856
 20
-22.42177537383031
 10
3.580299575916934
 20
-23.16092804528336
 10
3.109267352074831
 20
-23.79286546259787
 10
2.515110359810774
 20
-24.34829825135767
 10
1.886183604138849
 20
-24.75262373889301
 10
1.170788597401333
 20
-25.04626746488022
 10
0.490281082658052
 20
-25.19073828142945
 10
-0.2275420114770787
 20
-25.21440634984043
 10
-0.8839667852433523
 20
-25.12216234588479
 10
-1.533851261469407
 20
-24.91687419822411
 10
-2.128941563761965
 20
-24.61487919421092
 10
-2.682290034515382
 20
-24.21209437276094
 10
-3.178223604901302
 20
-23.71355158957308
 10
-3.600163831996991
 20
-23.12857303374455
 10
-3.937978971680052
 20
-22.45759519107972
 10
-4.170797024836602
 20
-21.72197726983376
 10
-4.285165523435874
 20
-20.94127760653459
 10
-4.270331964364702
 20
-20.13023471414373
 10
-4.123364323362291
 20
-19.33957564556776
 10
-3.837497322610756
 20
-18.5632661080969
 10
-3.510641877004804
 20
-17.98007085360681
 10
-3.093601738165689
 20
-17.43962742808609
  0
LWPOLYLINE
  5
132
330
D7
100
AcDbEntity
  8
AM_4
100
AcDbPolyline
 90
        5
 70
     0
 43
0.0
 10
-3.093601738165689
 20
-17.43962742808609
 10
-2.624305047311222
 20
-16.98909365878664
 10
-2.080149998051467
 20
-16.60571016941082
 10
-1.426705657131576
 20
-16.2909096019971
 10
-1.182180358364298
 20
-16.20721492779398
  0
LWPOLYLINE
  5
133
330
D7
100
AcDbEntity
  8
AM_4
100
AcDbPolyline
 90
       18
 70
     0
 43
0.0
 10
29.2252860006083
 20
-17.81582211874074
 10
29.29156913232432
 20
-18.12933784783316
 10
29.39729743661245
 20
-18.81054867933169
 10
29.46620795324636
 20
-19.53762242705152
 10
29.49987624485915
 20
-20.32975585282896
 10
29.49484814671914
 20
-21.12990997088472
 10
29.44949683811546
 20
-21.93163697388806
 10
29.36288236161568
 20
-22.69600163604389
 10
29.23430259201134
 20
-23.39415111936882
 10
29.06218960211855
 20
-24.01014066842958
 10
28.85454545129243
 20
-24.50222042421369
 10
28.60699790742829
 20
-24.87882529436513
 10
28.34275262216102
 20
-25.10910287704195
 10
28.05235182442045
 20
-25.21476361573858
 10
27.76277942003066
 20
-25.19408450150457
 10
27.46583635867595
 20
-25.06007979003914
 10
27.17467688397858
 20
-24.82021815273092
 10
27.00229952451931
 20
-24.62628111890205
  0
LINE
  5
134
330
D7
100
AcDbEntity
  8
AM_4
100
AcDbLine
 10
30.84999999999999
 20
-28.966
 30
0.0
 11
30.84999999999999
 21
-18.03689113066231
 31
0.0
  0
LINE
  5
135
330
D7
100
AcDbEntity
  8
AM_4
100
AcDbLine
 10
-30.84999999999999
 20
-18.03689113066231
 30
0.0
 11
-30.84999999999999
 21
-28.966
 31
0.0
  0
ARC
  5
137
330
D7
100
AcDbEntity
  8
AM_5
100
AcDbCircle
 10
0.0000000000000024
 20
-20.625
 30
0.0
 40
4.999999999999996
100
AcDbArc
 50
75.0
 51
14.99999999999994
  0
ARC
  5
138
330
D7
100
AcDbEntity
  8
AM_5
100
AcDbCircle
 10
-0.0000000000000013
 20
-20.2
 30
0.0
 40
4.999999999999999
100
AcDbArc
 50
75.0
 51
15.00000000000002
  0
ENDBLK
  5
DA
330
D7
100
AcDbEntity
  8
0
100
AcDbBlockEnd
  0
BLOCK
  5
13B
330
139
100
AcDbEntity
  8
0
100
AcDbBlockBegin
  2
4_051879H_0_in_051879_4
 70
     2
 10
0.0
 20
0.0
 30
0.0
  3
4_051879H_0_in_051879_4
  1

  0
ATTDEF
  5
13D
330
139
100
AcDbEntity
  8
AM_6
100
AcDbText
 10
108.1
 20
31.46
 30
0.0
 40
0.5
  1
P2B-SCB -M-Housing
100
AcDbAttributeDefinition
  3

  2
NN
 70
     8
280
     0
  0
ATTDEF
  5
13E
330
139
100
AcDbEntity
  8
AM_6
100
AcDbText
 10
108.1
 20
30.96
 30
0.0
 40
0.5
  1
SC Pillow Block Bearings -(Normal Duty) -Low Backing Height
100
AcDbAttributeDefinition
  3

  2
NT
 70
     8
280
     0
  0
ATTDEF
  5
13F
330
139
100
AcDbEntity
  8
AM_6
100
AcDbText
 10
108.1
 20
30.46
 30
0.0
 40
0.5
  1
051879H
100
AcDbAttributeDefinition
  3

  2
NB
 70
     8
280
     0
  0
ATTDEF
  5
140
330
139
100
AcDbEntity
  8
AM_6
100
AcDbText
 10
108.1
 20
29.96
 30
0.0
 40
0.5
  1
$PN.H
100
AcDbAttributeDefinition
  3

  2
NBSYN
 70
     8
280
     0
  0
ATTDEF
  5
141
330
139
100
AcDbEntity
  8
AM_6
100
AcDbText
 10
108.1
 20
29.46
 30
0.0
 40
0.5
  1
051879
100
AcDbAttributeDefinition
  3

  2
LINA
 70
     8
280
     0
  0
ATTDEF
  5
142
330
139
100
AcDbEntity
  8
AM_6
100
AcDbText
 10
108.1
 20
28.96
 30
0.0
 40
0.5
  1
210
100
AcDbAttributeDefinition
  3

  2
SERIES
 70
     8
280
     0
  0
ATTDEF
  5
143
330
139
100
AcDbEntity
  8
AM_6
100
AcDbText
 10
108.1
 20
28.46
 30
0.0
 40
0.5
  1
50
100
AcDbAttributeDefinition
  3

  2
SS
 70
     8
280
     0
  0
ATTDEF
  5
144
330
139
100
AcDbEntity
  8
AM_6
100
AcDbText
 10
108.1
 20
27.96
 30
0.0
 40
0.5
  1
051879
100
AcDbAttributeDefinition
  3

  2
PN
 70
     8
280
     0
  0
ATTDEF
  5
145
330
139
100
AcDbEntity
  8
AM_6
100
AcDbText
 10
108.1
 20
27.46
 30
0.0
 40
0.5
  1
P2B-SCB-50M
100
AcDbAttributeDefinition
  3

  2
DESCRIPTION
 70
     8
280
     0
  0
ATTDEF
  5
146
330
139
100
AcDbEntity
  8
AM_6
100
AcDbText
 10
108.1
 20
26.96
 30
0.0
 40
0.5
  1
90.0
100
AcDbAttributeDefinition
  3

  2
BOD
 70
     8
280
     0
  0
ATTDEF
  5
147
330
139
100
AcDbEntity
  8
AM_6
100
AcDbText
 10
108.1
 20
26.46
 30
0.0
 40
0.5
  1
49.3
100
AcDbAttributeDefinition
  3

  2
A
 70
     8
280
     0
  0
ATTDEF
  5
148
330
139
100
AcDbEntity
  8
AM_6
100
AcDbText
 10
108.1
 20
25.96
 30
0.0
 40
0.5
  1
206.2
100
AcDbAttributeDefinition
  3

  2
B
 70
     8
280
     0
  0
ATTDEF
  5
149
330
139
100
AcDbEntity
  8
AM_6
100
AcDbText
 10
108.1
 20
25.46
 30
0.0
 40
0.5
  1
57.2
100
AcDbAttributeDefinition
  3

  2
C
 70
     8
280
     0
  0
ATTDEF
  5
14A
330
139
100
AcDbEntity
  8
AM_6
100
AcDbText
 10
108.1
 20
24.96
 30
0.0
 40
0.5
  1
152.4
100
AcDbAttributeDefinition
  3

  2
DMIN
 70
     8
280
     0
  0
ATTDEF
  5
14B
330
139
100
AcDbEntity
  8
AM_6
100
AcDbText
 10
108.1
 20
24.46
 30
0.0
 40
0.5
  1
169.7
100
AcDbAttributeDefinition
  3

  2
DMAX
 70
     8
280
     0
  0
ATTDEF
  5
14C
330
139
100
AcDbEntity
  8
AM_6
100
AcDbText
 10
108.1
 20
23.96
 30
0.0
 40
0.5
  1
M16
100
AcDbAttributeDefinition
  3

  2
F
 70
     8
280
     0
  0
ATTDEF
  5
14D
330
139
100
AcDbEntity
  8
AM_6
100
AcDbText
 10
108.1
 20
23.46
 30
0.0
 40
0.5
  1
16.000
100
AcDbAttributeDefinition
  3

  2
F1
 70
     8
280
     0
  0
ATTDEF
  5
14E
330
139
100
AcDbEntity
  8
AM_6
100
AcDbText
 10
108.1
 20
22.96
 30
0.0
 40
0.5
  1
25.9
100
AcDbAttributeDefinition
  3

  2
G
 70
     8
280
     0
  0
ATTDEF
  5
14F
330
139
100
AcDbEntity
  8
AM_6
100
AcDbText
 10
108.1
 20
22.46
 30
0.0
 40
0.5
  1
17.5
100
AcDbAttributeDefinition
  3

  2
G1
 70
     8
280
     0
  0
ATTDEF
  5
150
330
139
100
AcDbEntity
  8
AM_6
100
AcDbText
 10
108.1
 20
21.96
 30
0.0
 40
0.5
  1
17.3
100
AcDbAttributeDefinition
  3

  2
H
 70
     8
280
     0
  0
ATTDEF
  5
151
330
139
100
AcDbEntity
  8
AM_6
100
AcDbText
 10
108.1
 20
21.46
 30
0.0
 40
0.5
  1
113.5
100
AcDbAttributeDefinition
  3

  2
J
 70
     8
280
     0
  0
ATTDEF
  5
152
330
139
100
AcDbEntity
  8
AM_6
100
AcDbText
 10
108.1
 20
20.96
 30
0.0
 40
0.5
  1
61.7
100
AcDbAttributeDefinition
  3

  2
L
 70
     8
280
     0
  0
ATTDEF
  5
153
330
139
100
AcDbEntity
  8
AM_6
100
AcDbText
 10
108.1
 20
20.46
 30
0.0
 40
0.5
  1
55.6
100
AcDbAttributeDefinition
  3

  2
M
 70
     8
280
     0
  0
ATTDEF
  5
154
330
139
100
AcDbEntity
  8
AM_6
100
AcDbText
 10
108.1
 20
19.96
 30
0.0
 40
0.5
  1
19.1
100
AcDbAttributeDefinition
  3

  2
R
 70
     8
280
     0
  0
ATTDEF
  5
155
330
139
100
AcDbEntity
  8
AM_6
100
AcDbText
 10
108.1
 20
19.46
 30
0.0
 40
0.5
  1
30.2
100
AcDbAttributeDefinition
  3

  2
S
 70
     8
280
     0
  0
ATTDEF
  5
156
330
139
100
AcDbEntity
  8
AM_6
100
AcDbText
 10
108.1
 20
18.96
 30
0.0
 40
0.5
  1
93.7
100
AcDbAttributeDefinition
  3

  2
U
 70
     8
280
     0
  0
ATTDEF
  5
157
330
139
100
AcDbEntity
  8
AM_6
100
AcDbText
 10
108.1
 20
18.46
 30
0.0
 40
0.5
  1
187.5
100
AcDbAttributeDefinition
  3

  2
V
 70
     8
280
     0
  0
ATTDEF
  5
158
330
139
100
AcDbEntity
  8
AM_6
100
AcDbText
 10
108.1
 20
17.96
 30
0.0
 40
0.5
  1
20.6
100
AcDbAttributeDefinition
  3

  2
W
 70
     8
280
     0
  0
ATTDEF
  5
159
330
139
100
AcDbEntity
  8
AM_6
100
AcDbText
 10
108.1
 20
17.46
 30
0.0
 40
0.5
  1
3.0
100
AcDbAttributeDefinition
  3

  2
X
 70
     8
280
     0
  0
ATTDEF
  5
15A
330
139
100
AcDbEntity
  8
AM_6
100
AcDbText
 10
108.1
 20
16.96
 30
0.0
 40
0.5
  1
baldor
100
AcDbAttributeDefinition
  3

  2
COMPANY
 70
     8
280
     0
  0
LINE
  5
15B
330
139
100
AcDbEntity
  8
AM_9
100
AcDbLine
 10
-47.5
 20
-25.60380952380953
 30
0.0
 11
-47.49999999999999
 21
-14.3
 31
0.0
  0
LINE
  5
15C
330
139
100
AcDbEntity
  8
AM_9
100
AcDbLine
 10
-45.77
 20
-23.0677730586969
 30
0.0
 11
-45.77
 21
-14.3
 31
0.0
  0
LINE
  5
15D
330
139
100
AcDbEntity
  8
AM_9
100
AcDbLine
 10
45.77000000000001
 20
14.3
 30
0.0
 11
45.77000000000001
 21
23.0677730586969
 31
0.0
  0
LINE
  5
15E
330
139
100
AcDbEntity
  8
AM_9
100
AcDbLine
 10
-47.5
 20
6.600909090909088
 30
0.0
 11
-47.5
 21
25.60380952380952
 31
0.0
  0
LINE
  5
15F
330
139
100
AcDbEntity
  8
AM_9
100
AcDbLine
 10
-45.77
 20
14.3
 30
0.0
 11
-45.77
 21
23.0677730586969
 31
0.0
  0
LINE
  5
160
330
139
100
AcDbEntity
  8
AM_9
100
AcDbLine
 10
47.5
 20
-25.60380952380953
 30
0.0
 11
47.5
 21
-14.3
 31
0.0
  0
LINE
  5
161
330
139
100
AcDbEntity
  8
AM_9
100
AcDbLine
 10
45.77000000000001
 20
-23.06777305869691
 30
0.0
 11
45.77000000000001
 21
-14.3
 31
0.0
  0
LINE
  5
162
330
139
100
AcDbEntity
  8
AM_9
100
AcDbLine
 10
-90.14
 20
6.96982065766402
 30
0.0
 11
-90.14
 21
14.3
 31
0.0
  0
LINE
  5
163
330
139
100
AcDbEntity
  8
AM_9
100
AcDbLine
 10
-93.60000000000001
 20
-14.3
 30
0.0
 11
-93.60000000000001
 21
14.3
 31
0.0
  0
LINE
  5
164
330
139
100
AcDbEntity
  8
AM_9
100
AcDbLine
 10
-90.14
 20
-14.3
 30
0.0
 11
-90.14
 21
-6.969820657664031
 31
0.0
  0
LINE
  5
165
330
139
100
AcDbEntity
  8
AM_9
100
AcDbLine
 10
-64.79758820826154
 20
-14.3
 30
0.0
 11
-64.79758820826154
 21
14.3
 31
0.0
  0
LINE
  5
166
330
139
100
AcDbEntity
  8
AM_9
100
AcDbLine
 10
90.13999999999999
 20
-14.3
 30
0.0
 11
90.13999999999999
 21
-6.969820657664037
 31
0.0
  0
LINE
  5
167
330
139
100
AcDbEntity
  8
AM_9
100
AcDbLine
 10
93.60000000000001
 20
-14.3
 30
0.0
 11
93.60000000000001
 21
14.3
 31
0.0
  0
LINE
  5
168
330
139
100
AcDbEntity
  8
AM_9
100
AcDbLine
 10
64.79758820826194
 20
-14.3
 30
0.0
 11
64.79758820826194
 21
14.3
 31
0.0
  0
LINE
  5
169
330
139
100
AcDbEntity
  8
AM_9
100
AcDbLine
 10
90.13999999999999
 20
6.969820657664036
 30
0.0
 11
90.13999999999999
 21
14.3
 31
0.0
  0
LINE
  5
16A
330
139
100
AcDbEntity
  8
AM_9
100
AcDbLine
 10
60.32001872798833
 20
-14.3
 30
0.0
 11
60.32001872798833
 21
14.3
 31
0.0
  0
LINE
  5
16B
330
139
100
AcDbEntity
  8
AM_9
100
AcDbLine
 10
-60.32001872798831
 20
-14.3
 30
0.0
 11
-60.32001872798831
 21
14.3
 31
0.0
  0
LINE
  5
16C
330
139
100
AcDbEntity
  8
AM_9
100
AcDbLine
 10
29.99192309797914
 20
-14.3
 30
0.0
 11
29.99192309797914
 21
14.3
 31
0.0
  0
LINE
  5
16D
330
139
100
AcDbEntity
  8
AM_9
100
AcDbLine
 10
-29.99192309797912
 20
-14.3
 30
0.0
 11
-29.99192309797912
 21
14.3
 31
0.0
  0
LINE
  5
16E
330
139
100
AcDbEntity
  8
AM_9
100
AcDbLine
 10
-37.08644944679163
 20
-14.3
 30
0.0
 11
-37.08644944679163
 21
14.3
 31
0.0
  0
LINE
  5
16F
330
139
100
AcDbEntity
  8
AM_9
100
AcDbLine
 10
37.08644944679163
 20
-14.3
 30
0.0
 11
37.08644944679163
 21
14.3
 31
0.0
  0
LINE
  5
170
330
139
100
AcDbEntity
  8
AM_9
100
AcDbLine
 10
93.60000000000001
 20
14.3
 30
0.0
 11
-93.60000000000001
 21
14.3
 31
0.0
  0
LINE
  5
171
330
139
100
AcDbEntity
  8
AM_9
100
AcDbLine
 10
93.60000000000001
 20
-14.3
 30
0.0
 11
-93.60000000000001
 21
-14.3
 31
0.0
  0
LINE
  5
172
330
139
100
AcDbEntity
  8
AM_9
100
AcDbLine
 10
-40.38873605350877
 20
-8.579999999999995
 30
0.0
 11
-40.38873605350877
 21
19.19054054054055
 31
0.0
  0
LINE
  5
173
330
139
100
AcDbEntity
  8
AM_9
100
AcDbLine
 10
-37.41657386773941
 20
-8.579999999999995
 30
0.0
 11
-47.5
 21
-8.579999999999997
 31
0.0
  0
LINE
  5
174
330
139
100
AcDbEntity
  8
AM_9
100
AcDbLine
 10
-47.5
 20
6.199090909090911
 30
0.0
 11
-47.5
 21
-8.579999999999997
 31
0.0
  0
LINE
  5
175
330
139
100
AcDbEntity
  8
AM_9
100
AcDbLine
 10
47.5
 20
-8.579999999999997
 30
0.0
 11
37.41657386773941
 21
-8.579999999999995
 31
0.0
  0
LINE
  5
176
330
139
100
AcDbEntity
  8
AM_9
100
AcDbLine
 10
40.38873605350878
 20
-8.579999999999995
 30
0.0
 11
40.38873605350878
 21
19.19054054054055
 31
0.0
  0
LINE
  5
177
330
139
100
AcDbEntity
  8
AM_9
100
AcDbLine
 10
47.5
 20
-8.579999999999997
 30
0.0
 11
47.5
 21
25.60380952380941
 31
0.0
  0
LINE
  5
178
330
139
100
AcDbEntity
  8
AM_9
100
AcDbLine
 10
37.40594872476836
 20
-2.749999999999998
 30
0.0
 11
40.94118765711389
 21
-2.749999999999997
 31
0.0
  0
LINE
  5
179
330
139
100
AcDbEntity
  8
AM_9
100
AcDbLine
 10
40.94141601012663
 20
2.750000000000003
 30
0.0
 11
37.40594872476836
 21
2.750000000000002
 31
0.0
  0
LWPOLYLINE
  5
17A
330
139
100
AcDbEntity
  8
AM_9
100
AcDbPolyline
 90
       20
 70
     0
 43
0.0
 10
40.94129558273116
 20
-2.749999987277531
 10
41.16496954511402
 20
-2.731676803856015
 10
41.48264442296357
 20
-2.639575653317811
 10
41.782814114339
 20
-2.473248529253402
 10
42.05719456176881
 20
-2.23630374404723
 10
42.29889740641206
 20
-1.936445261212647
 10
42.50140525994451
 20
-1.58095727106999
 10
42.65993887376156
 20
-1.180874015846766
 10
42.76993528593629
 20
-0.7469717691535301
 10
42.82935201543022
 20
-0.2919677451007375
 10
42.83606110838519
 20
0.1709510518783104
 10
42.79068373699035
 20
0.6290473853367872
 10
42.69368900156154
 20
1.068956467230742
 10
42.54811631702956
 20
1.47876945118329
 10
42.35675520007749
 20
1.846660787149126
 10
42.12508229447727
 20
2.162548205065379
 10
41.85824670576925
 20
2.416875077261059
 10
41.56383266804458
 20
2.60304749568438
 10
41.24949440911485
 20
2.714731120224114
 10
40.94137588900796
 20
2.74999999585684
  0
LWPOLYLINE
  5
17B
330
139
100
AcDbEntity
  8
AM_9
100
AcDbPolyline
 90
       11
 70
     0
 43
0.0
 10
40.94137588900796
 20
2.74999999585684
 10
40.92398650711938
 20
2.749888730987534
 10
40.5966636593699
 20
2.706507489964531
 10
40.27661737380456
 20
2.586983074087672
 10
39.97338970190963
 20
2.393675114630803
 10
39.69577658714485
 20
2.13305839759177
 10
39.45241739680392
 20
1.811277593534093
 10
39.25061373260878
 20
1.438450340956707
 10
39.09729557352851
 20
1.024295066769434
 10
38.99672488895497
 20
0.5812080569969786
 10
38.95073419649557
 20
0.0000000000000026
  0
LINE
  5
17C
330
139
100
AcDbEntity
  8
AM_9
100
AcDbLine
 10
30.84999999999999
 20
-22.88000000000001
 30
0.0
 11
-30.84999999999999
 21
-22.88
 31
0.0
  0
LINE
  5
17D
330
139
100
AcDbEntity
  8
AM_9
100
AcDbLine
 10
-37.41657386773941
 20
-8.579999999999995
 30
0.0
 11
-37.41657386773941
 21
19.19054054054054
 31
0.0
  0
LINE
  5
17E
330
139
100
AcDbEntity
  8
AM_9
100
AcDbLine
 10
37.41657386773941
 20
19.19054054054054
 30
0.0
 11
37.41657386773941
 21
-8.579999999999995
 31
0.0
  0
LINE
  5
17F
330
139
100
AcDbEntity
  8
AM_9
100
AcDbLine
 10
45.0
 20
-22.88900062402491
 30
0.0
 11
45.0
 21
-8.579999999999997
 31
0.0
  0
LINE
  5
180
330
139
100
AcDbEntity
  8
AM_9
100
AcDbLine
 10
-45.0
 20
-8.579999999999997
 30
0.0
 11
-45.0
 21
-22.889107681842
 31
0.0
  0
LWPOLYLINE
  5
181
330
139
100
AcDbEntity
  8
AM_9
100
AcDbPolyline
 90
       11
 70
     0
 43
0.0
 10
38.95073419649557
 20
0.0000000000000026
 10
38.97981112945859
 20
-0.4613476255306639
 10
39.06526472526706
 20
-0.9096836732514154
 10
39.2051403607044
 20
-1.331999109287935
 10
39.39423013803177
 20
-1.716800198686302
 10
39.62741361737621
 20
-2.052821115892156
 10
39.89675642203323
 20
-2.331006093662202
 10
40.19459501102919
 20
-2.542682721782897
 10
40.51151545406598
 20
-2.682645963362118
 10
40.83806000422423
 20
-2.745840611064549
 10
40.94129558273116
 20
-2.749999987277531
  0
ELLIPSE
  5
182
330
139
100
AcDbEntity
  8
AM_9
100
AcDbEllipse
 10
37.40594872476839
 20
-0.0000000000000033
 30
0.0
 11
-5.051668046482762E-16
 21
-2.749999999999962
 31
0.0
210
0.0
220
0.0
230
1.0
 40
0.7071067811865476
 41
0.0
 42
6.283185307179586
  0
LINE
  5
183
330
139
100
AcDbEntity
  8
AM_7
100
AcDbLine
 10
92.125
 20
-20.6
 30
0.0
 11
95.275
 21
-20.6
 31
0.0
  0
LINE
  5
184
330
139
100
AcDbEntity
  8
AM_7
100
AcDbLine
 10
93.7
 20
-22.175
 30
0.0
 11
93.7
 21
-19.02500000000001
 31
0.0
  0
LINE
  5
185
330
139
100
AcDbEntity
  8
AM_7
100
AcDbLine
 10
-95.275
 20
-20.6
 30
0.0
 11
-92.125
 21
-20.6
 31
0.0
  0
LINE
  5
186
330
139
100
AcDbEntity
  8
AM_7
100
AcDbLine
 10
-93.7
 20
-22.175
 30
0.0
 11
-93.7
 21
-19.02500000000001
 31
0.0
  0
LINE
  5
187
330
139
100
AcDbEntity
  8
AM_7
100
AcDbLine
 10
0.0
 20
31.46
 30
0.0
 11
0.0
 21
-32.66500000000001
 31
0.0
  0
LINE
  5
188
330
139
100
AcDbEntity
  8
AM_7
100
AcDbLine
 10
-94.03750000000002
 20
-0.0000000000000044
 30
0.0
 11
-67.0125
 21
0.0000000000000018
 31
0.0
  0
LINE
  5
189
330
139
100
AcDbEntity
  8
AM_7
100
AcDbLine
 10
-84.85
 20
-9.187500000000036
 30
0.0
 11
-84.85
 21
9.187500000000025
 31
0.0
  0
LINE
  5
18A
330
139
100
AcDbEntity
  8
AM_7
100
AcDbLine
 10
-76.20000000000005
 20
-9.187500000000043
 30
0.0
 11
-76.20000000000005
 21
9.187500000000046
 31
0.0
  0
LINE
  5
18B
330
139
100
AcDbEntity
  8
AM_7
100
AcDbLine
 10
67.0125
 20
-0.0000000000000053
 30
0.0
 11
94.03750000000002
 21
0.0
 31
0.0
  0
LINE
  5
18C
330
139
100
AcDbEntity
  8
AM_7
100
AcDbLine
 10
76.20000000000005
 20
-9.18750000000005
 30
0.0
 11
76.20000000000005
 21
9.187500000000039
 31
0.0
  0
LINE
  5
18D
330
139
100
AcDbEntity
  8
AM_7
100
AcDbLine
 10
84.85
 20
-9.18750000000003
 30
0.0
 11
84.85
 21
9.18750000000003
 31
0.0
  0
LINE
  5
18E
330
139
100
AcDbEntity
  8
AM_4
100
AcDbLine
 10
97.37999999999998
 20
-28.6
 30
0.0
 11
103.1
 21
-22.88000000000002
 31
0.0
  0
LINE
  5
18F
330
139
100
AcDbEntity
  8
AM_4
100
AcDbLine
 10
103.1
 20
22.88
 30
0.0
 11
97.38
 21
28.6
 31
0.0
  0
LINE
  5
190
330
139
100
AcDbEntity
  8
AM_4
100
AcDbLine
 10
-97.38
 20
28.6
 30
0.0
 11
-103.1
 21
22.88
 31
0.0
  0
LINE
  5
191
330
139
100
AcDbEntity
  8
AM_4
100
AcDbLine
 10
-103.1
 20
-22.87999999999998
 30
0.0
 11
-103.1
 21
22.88
 31
0.0
  0
LINE
  5
192
330
139
100
AcDbEntity
  8
AM_4
100
AcDbLine
 10
-103.1
 20
-22.87999999999998
 30
0.0
 11
-97.38
 21
-28.59999999999998
 31
0.0
  0
LINE
  5
193
330
139
100
AcDbEntity
  8
AM_4
100
AcDbLine
 10
99.63999999999997
 20
-26.34000000000004
 30
0.0
 11
99.63999999999997
 21
-21.00093500816624
 31
0.0
  0
LINE
  5
194
330
139
100
AcDbEntity
  8
AM_4
100
AcDbLine
 10
103.1
 20
-22.88000000000002
 30
0.0
 11
103.1
 21
22.88
 31
0.0
  0
LINE
  5
195
330
139
100
AcDbEntity
  8
AM_4
100
AcDbLine
 10
99.63999999999997
 20
21.00093500816622
 30
0.0
 11
99.63999999999997
 21
26.34000000000001
 31
0.0
  0
LINE
  5
196
330
139
100
AcDbEntity
  8
AM_4
100
AcDbLine
 10
-99.64000000000001
 20
-26.33999999999995
 30
0.0
 11
-99.64000000000001
 21
-21.00093500816619
 31
0.0
  0
LINE
  5
197
330
139
100
AcDbEntity
  8
AM_4
100
AcDbLine
 10
-99.64000000000001
 20
21.00093500816618
 30
0.0
 11
-99.64000000000001
 21
26.33999999999996
 31
0.0
  0
LINE
  5
198
330
139
100
AcDbEntity
  8
AM_4
100
AcDbLine
 10
-80.86842435294778
 20
23.6
 30
0.0
 11
-80.86842435294778
 21
28.6
 31
0.0
  0
LINE
  5
199
330
139
100
AcDbEntity
  8
AM_4
100
AcDbLine
 10
-80.86842435294778
 20
-28.6
 30
0.0
 11
-80.86842435294778
 21
-23.6
 31
0.0
  0
LINE
  5
19A
330
139
100
AcDbEntity
  8
AM_4
100
AcDbLine
 10
80.86842435294781
 20
-28.6
 30
0.0
 11
80.86842435294781
 21
-23.6
 31
0.0
  0
LINE
  5
19B
330
139
100
AcDbEntity
  8
AM_4
100
AcDbLine
 10
80.86842435294781
 20
23.6
 30
0.0
 11
80.86842435294781
 21
28.6
 31
0.0
  0
LINE
  5
19C
330
139
100
AcDbEntity
  8
AM_4
100
AcDbLine
 10
76.2
 20
8.749999999999998
 30
0.0
 11
84.85000000000001
 21
8.750000000000005
 31
0.0
  0
LINE
  5
19D
330
139
100
AcDbEntity
  8
AM_4
100
AcDbLine
 10
92.8
 20
23.59999999999999
 30
0.0
 11
76.2
 21
23.6
 31
0.0
  0
ARC
  5
19E
330
139
100
AcDbEntity
  8
AM_4
100
AcDbCircle
 10
76.2
 20
-0.0000000000000062
 30
0.0
 40
8.750000000000004
100
AcDbArc
 50
90.0
 51
270.0
  0
CIRCLE
  5
19F
330
139
100
AcDbEntity
  8
AM_4
100
AcDbCircle
 10
93.7
 20
-20.6
 30
0.0
 40
1.5
  0
ARC
  5
1A0
330
139
100
AcDbEntity
  8
AM_4
100
AcDbCircle
 10
92.8
 20
13.29999999999999
 30
0.0
 40
10.3
100
AcDbArc
 50
0.0
 51
90.0
  0
ARC
  5
1A1
330
139
100
AcDbEntity
  8
AM_4
100
AcDbCircle
 10
84.85000000000002
 20
-0.0000000000000009
 30
0.0
 40
8.75
100
AcDbArc
 50
270.0
 51
90.0
  0
LINE
  5
1A2
330
139
100
AcDbEntity
  8
AM_4
100
AcDbLine
 10
84.85000000000001
 20
-8.750000000000002
 30
0.0
 11
76.2
 21
-8.750000000000009
 31
0.0
  0
LINE
  5
1A3
330
139
100
AcDbEntity
  8
AM_4
100
AcDbLine
 10
76.2
 20
-23.6
 30
0.0
 11
92.8
 21
-23.6
 31
0.0
  0
ARC
  5
1A4
330
139
100
AcDbEntity
  8
AM_4
100
AcDbCircle
 10
92.79999999999995
 20
-13.29999999999997
 30
0.0
 40
10.30000000000004
100
AcDbArc
 50
270.0
 51
0.0000008537736463
  0
CIRCLE
  5
1A5
330
139
100
AcDbEntity
  8
AM_4
100
AcDbCircle
 10
-93.7
 20
-20.6
 30
0.0
 40
1.5
  0
ARC
  5
1A6
330
139
100
AcDbEntity
  8
AM_4
100
AcDbCircle
 10
-84.85000000000002
 20
-0.0000000000000036
 30
0.0
 40
8.750000000000002
100
AcDbArc
 50
90.0
 51
270.0
  0
LINE
  5
1A7
330
139
100
AcDbEntity
  8
AM_4
100
AcDbLine
 10
-84.85000000000001
 20
8.749999999999998
 30
0.0
 11
-76.2
 21
8.750000000000005
 31
0.0
  0
ARC
  5
1A8
330
139
100
AcDbEntity
  8
AM_4
100
AcDbCircle
 10
-76.2
 20
0.0000000000000027
 30
0.0
 40
8.750000000000004
100
AcDbArc
 50
270.0
 51
90.0
  0
LINE
  5
1A9
330
139
100
AcDbEntity
  8
AM_4
100
AcDbLine
 10
-76.2
 20
-8.750000000000002
 30
0.0
 11
-84.85000000000001
 21
-8.750000000000009
 31
0.0
  0
ARC
  5
1AA
330
139
100
AcDbEntity
  8
AM_4
100
AcDbCircle
 10
-92.79999999999998
 20
-13.29999999999999
 30
0.0
 40
10.30000000000001
100
AcDbArc
 50
180.0
 51
270.0
  0
LINE
  5
1AB
330
139
100
AcDbEntity
  8
AM_4
100
AcDbLine
 10
-92.8
 20
-23.59999999999999
 30
0.0
 11
-76.2
 21
-23.59999999999999
 31
0.0
  0
LINE
  5
1AC
330
139
100
AcDbEntity
  8
AM_4
100
AcDbLine
 10
-76.19999999999999
 20
23.6
 30
0.0
 11
-92.79999999999997
 21
23.6
 31
0.0
  0
ARC
  5
1AD
330
139
100
AcDbEntity
  8
AM_4
100
AcDbCircle
 10
-92.79999999999995
 20
13.29999999999997
 30
0.0
 40
10.30000000000003
100
AcDbArc
 50
90.0
 51
180.0
  0
LWPOLYLINE
  5
1AE
330
139
100
AcDbEntity
  8
AM_4
100
AcDbPolyline
 90
       15
 70
     0
 43
0.0
 10
-54.21337642120756
 20
8.576035424628834
 10
-55.04449289913176
 20
10.45966152918506
 10
-56.03661556013802
 20
12.26368329378789
 10
-57.18219375171602
 20
13.97437102351055
 10
-58.47250893210884
 20
15.57870535178837
 10
-59.89774102368008
 20
17.0644763256596
 10
-61.44704314963421
 20
18.42037633088004
 10
-63.10862418529855
 20
19.63608614969516
 10
-64.86983849570159
 20
20.70235349631811
 10
-66.7172821764909
 20
21.61106343241127
 10
-68.6368950657387
 20
22.3553001266669
 10
-70.61406775026384
 20
22.92939948845931
 10
-72.63375275208759
 20
23.3289922749946
 10
-74.6805790488269
 20
23.5510373438865
 10
-76.2
 20
23.60000000000001
  0
LINE
  5
1AF
330
139
100
AcDbEntity
  8
AM_4
100
AcDbLine
 10
-77.62873035610191
 20
23.6
 30
0.0
 11
-77.62873035610191
 21
28.6
 31
0.0
  0
LWPOLYLINE
  5
1B0
330
139
100
AcDbEntity
  8
AM_4
100
AcDbPolyline
 90
       15
 70
     0
 43
0.0
 10
-76.2
 20
-23.59999999999999
 10
-74.14312447115528
 20
-23.51019487496519
 10
-72.10190300706044
 20
-23.2414629710881
 10
-70.09187053558051
 20
-22.795849500422
 10
-68.12832461751422
 20
-22.17674585054743
 10
-66.22620902291949
 20
-21.38886377406493
 10
-64.4
 20
-20.43819952931275
 10
-62.66359610211532
 20
-19.3319882452202
 10
-61.03021241139768
 20
-18.07864885760788
 10
-59.51227996399749
 20
-16.68772003600252
 10
-58.12135114239213
 20
-15.16978758860233
 10
-56.86801175477981
 20
-13.53640389788469
 10
-55.76180047068726
 20
-11.80000000000001
 10
-54.81113622593507
 20
-9.973790977080515
 10
-54.21337642120756
 20
-8.576035424628815
  0
LINE
  5
1B1
330
139
100
AcDbEntity
  8
AM_4
100
AcDbLine
 10
-77.62873035610191
 20
-28.6
 30
0.0
 11
-77.62873035610191
 21
-23.6
 31
0.0
  0
LWPOLYLINE
  5
1B2
330
139
100
AcDbEntity
  8
AM_4
100
AcDbPolyline
 90
       15
 70
     0
 43
0.0
 10
76.2
 20
23.6
 10
74.14312447115528
 20
23.51019487496519
 10
72.10190300706046
 20
23.24146297108811
 10
70.09187053558053
 20
22.79584950042201
 10
68.12832461751422
 20
22.17674585054744
 10
66.2262090229195
 20
21.38886377406494
 10
64.4
 20
20.43819952931276
 10
62.66359610211532
 20
19.33198824522022
 10
61.03021241139768
 20
18.0786488576079
 10
59.51227996399749
 20
16.68772003600254
 10
58.12135114239213
 20
15.16978758860235
 10
56.86801175477981
 20
13.53640389788471
 10
55.76180047068726
 20
11.80000000000003
 10
54.81113622593507
 20
9.973790977080538
 10
54.21337642120755
 20
8.576035424628799
  0
LINE
  5
1B3
330
139
100
AcDbEntity
  8
AM_4
100
AcDbLine
 10
77.62873035610191
 20
23.6
 30
0.0
 11
77.62873035610191
 21
28.6
 31
0.0
  0
LWPOLYLINE
  5
1B4
330
139
100
AcDbEntity
  8
AM_4
100
AcDbPolyline
 90
       15
 70
     0
 43
0.0
 10
54.21337642120755
 20
-8.576035424628794
 10
55.04449289913175
 20
-10.45966152918502
 10
56.036615560138
 20
-12.26368329378785
 10
57.182193751716
 20
-13.97437102351051
 10
58.47250893210882
 20
-15.57870535178834
 10
59.89774102368006
 20
-17.06447632565957
 10
61.4470431496342
 20
-18.42037633088002
 10
63.10862418529853
 20
-19.63608614969515
 10
64.86983849570156
 20
-20.7023534963181
 10
66.71728217649088
 20
-21.61106343241125
 10
68.63689506573868
 20
-22.35530012666688
 10
70.61406775026381
 20
-22.9293994884593
 10
72.63375275208756
 20
-23.32899227499459
 10
74.68057904882689
 20
-23.5510373438865
 10
76.2
 20
-23.6
  0
LINE
  5
1B5
330
139
100
AcDbEntity
  8
AM_4
100
AcDbLine
 10
77.62873035610191
 20
-28.6
 30
0.0
 11
77.62873035610191
 21
-23.6
 31
0.0
  0
LINE
  5
1B6
330
139
100
AcDbEntity
  8
AM_4
100
AcDbLine
 10
44.77619047619048
 20
22.88000000000001
 30
0.0
 11
-44.77619047619048
 21
22.88000000000001
 31
0.0
  0
LWPOLYLINE
  5
1B7
330
139
100
AcDbEntity
  8
AM_4
100
AcDbPolyline
 90
        7
 70
     0
 43
0.0
 10
-46.95676640709996
 20
23.97156354616594
 10
-46.66080238523828
 20
23.63724493695492
 10
-46.29896369476764
 20
23.34542513518575
 10
-45.97824032731986
 20
23.15958889600293
 10
-45.61831673464512
 20
23.01345014974256
 10
-45.21721820360548
 20
22.91594180652011
 10
-44.77619047619048
 20
22.88000000000001
  0
LINE
  5
1B8
330
139
100
AcDbEntity
  8
AM_4
100
AcDbLine
 10
-40.38873605350879
 20
19.19054054054056
 30
0.0
 11
-40.38873605350879
 21
22.88000000000001
 31
0.0
  0
LWPOLYLINE
  5
1B9
330
139
100
AcDbEntity
  8
AM_4
100
AcDbPolyline
 90
        8
 70
     0
 43
0.0
 10
-47.5
 20
22.90675675675677
 10
-47.31924815935792
 20
22.29136654613986
 10
-46.77836826807989
 20
21.68065982660851
 10
-45.88147674873075
 20
21.07928444505316
 10
-44.63539948733065
 20
20.49181723124783
 10
-43.04961988424088
 20
19.92272916541197
 10
-41.13620667976085
 20
19.37635135135137
 10
-40.38873605350878
 20
19.19054054054055
  0
LINE
  5
1BA
330
139
100
AcDbEntity
  8
AM_4
100
AcDbLine
 10
40.38873605350877
 20
19.19054054054055
 30
0.0
 11
40.38873605350877
 21
22.88000000000001
 31
0.0
  0
LWPOLYLINE
  5
1BB
330
139
100
AcDbEntity
  8
AM_4
100
AcDbPolyline
 90
        7
 70
     0
 43
0.0
 10
44.77619047619048
 20
22.88000000000001
 10
45.21233709807861
 20
22.91514546033655
 10
45.6116217220589
 20
23.01128315838483
 10
45.97465653457989
 20
23.15782967334388
 10
46.29896369476764
 20
23.34542513518575
 10
46.66016738492898
 20
23.63663659563682
 10
46.95676640709996
 20
23.97156354616594
  0
LWPOLYLINE
  5
1BC
330
139
100
AcDbEntity
  8
AM_4
100
AcDbPolyline
 90
        3
 70
     0
 43
0.0
 10
47.5
 20
22.90675675675676
 10
47.31924815935792
 20
23.52214696737367
 10
46.95676640709998
 20
23.97156354616593
  0
LINE
  5
1BD
330
139
100
AcDbEntity
  8
AM_4
100
AcDbLine
 10
-30.84999999999999
 20
-22.88
 30
0.0
 11
-44.77619047619048
 21
-22.88
 31
0.0
  0
LINE
  5
1BE
330
139
100
AcDbEntity
  8
AM_4
100
AcDbLine
 10
44.77619047619048
 20
-22.88000000000001
 30
0.0
 11
30.84999999999999
 21
-22.88000000000001
 31
0.0
  0
LWPOLYLINE
  5
1BF
330
139
100
AcDbEntity
  8
AM_4
100
AcDbPolyline
 90
        3
 70
     0
 43
0.0
 10
44.77619047619048
 20
-22.88000000000001
 10
44.9467725223242
 20
-22.88534670678733
 10
44.99999999995146
 20
-22.88921054438931
  0
LINE
  5
1C0
330
139
100
AcDbEntity
  8
AM_4
100
AcDbLine
 10
37.41657386773941
 20
19.19054054054054
 30
0.0
 11
37.41657386773941
 21
22.88000000000001
 31
0.0
  0
LINE
  5
1C1
330
139
100
AcDbEntity
  8
AM_4
100
AcDbLine
 10
-37.41657386773941
 20
22.88000000000001
 30
0.0
 11
-37.41657386773941
 21
19.19054054054054
 31
0.0
  0
LWPOLYLINE
  5
1C2
330
139
100
AcDbEntity
  8
AM_4
100
AcDbPolyline
 90
        4
 70
     0
 43
0.0
 10
-44.99999999999837
 20
-22.88921054439317
 10
-44.98952284640856
 20
-22.88836708807044
 10
-44.91726628564749
 20
-22.88365586307977
 10
-44.77619047619049
 20
-22.88
  0
LINE
  5
1C3
330
139
100
AcDbEntity
  8
AM_4
100
AcDbLine
 10
47.49999999999999
 20
-25.60380952380953
 30
0.0
 11
47.5
 21
-25.87619047619049
 31
0.0
  0
LWPOLYLINE
  5
1C4
330
139
100
AcDbEntity
  8
AM_4
100
AcDbPolyline
 90
       19
 70
     0
 43
0.0
 10
47.5
 20
-25.87619047619049
 10
47.51036491757867
 20
-26.11358611834125
 10
47.54138078703341
 20
-26.34917503631184
 10
47.59281155886978
 20
-26.58116425618402
 10
47.66426581385933
 20
-26.80778819991564
 10
47.75519974197636
 20
-27.02732212245563
 10
47.86492128112048
 20
-27.23809523809525
 10
47.99259538412713
 20
-27.43850343615619
 10
48.13725037398068
 20
-27.62702148924144
 10
48.29778533886331
 20
-27.8022146611367
 10
48.47297851075857
 20
-27.96274962601932
 10
48.66149656384381
 20
-28.10740461587288
 10
48.86190476190476
 20
-28.23507871887953
 10
49.07267787754437
 20
-28.34480025802365
 10
49.29221180008436
 20
-28.43573418614068
 10
49.51883574381598
 20
-28.50718844113024
 10
49.75082496368816
 20
-28.5586192129666
 10
49.98641388165876
 20
-28.58963508242134
 10
50.22380952380952
 20
-28.60000000000002
  0
LINE
  5
1C5
330
139
100
AcDbEntity
  8
AM_4
100
AcDbLine
 10
50.22380952380952
 20
-28.60000000000002
 30
0.0
 11
97.37999999999998
 21
-28.6
 31
0.0
  0
LINE
  5
1C6
330
139
100
AcDbEntity
  8
AM_4
100
AcDbLine
 10
54.21337642120757
 20
-19.88468981855332
 30
0.0
 11
76.19999999999999
 21
-28.6
 31
0.0
  0
LINE
  5
1C7
330
139
100
AcDbEntity
  8
AM_4
100
AcDbLine
 10
-76.19999999999999
 20
-28.6
 30
0.0
 11
-54.21337642120757
 21
-19.88468981855332
 31
0.0
  0
LINE
  5
1C8
330
139
100
AcDbEntity
  8
AM_4
100
AcDbLine
 10
-97.38
 20
-28.59999999999998
 30
0.0
 11
-50.22380952380952
 21
-28.6
 31
0.0
  0
LWPOLYLINE
  5
1C9
330
139
100
AcDbEntity
  8
AM_4
100
AcDbPolyline
 90
       19
 70
     0
 43
0.0
 10
-50.22380952380952
 20
-28.59999999999999
 10
-49.98641388165876
 20
-28.58963508242132
 10
-49.75082496368817
 20
-28.55861921296658
 10
-49.51883574381599
 20
-28.50718844113022
 10
-49.29221180008437
 20
-28.43573418614066
 10
-49.07267787754439
 20
-28.34480025802363
 10
-48.86190476190477
 20
-28.23507871887951
 10
-48.66149656384383
 20
-28.10740461587287
 10
-48.47297851075857
 20
-27.96274962601931
 10
-48.29778533886331
 20
-27.80221466113668
 10
-48.13725037398069
 20
-27.62702148924143
 10
-47.99259538412714
 20
-27.43850343615618
 10
-47.86492128112049
 20
-27.23809523809523
 10
-47.75519974197637
 20
-27.02732212245562
 10
-47.66426581385934
 20
-26.80778819991563
 10
-47.59281155886978
 20
-26.58116425618401
 10
-47.54138078703342
 20
-26.34917503631183
 10
-47.51036491757868
 20
-26.11358611834124
 10
-47.50000000000001
 20
-25.87619047619048
  0
LINE
  5
1CA
330
139
100
AcDbEntity
  8
AM_4
100
AcDbLine
 10
-47.50000000000001
 20
-25.87619047619048
 30
0.0
 11
-47.50000000000001
 21
-25.60380952380953
 31
0.0
  0
LWPOLYLINE
  5
1CB
330
139
100
AcDbEntity
  8
AM_4
100
AcDbPolyline
 90
       19
 70
     0
 43
0.0
 10
-44.99984496299148
 20
-22.88919776657254
 10
-45.23558789411958
 20
-22.91902045678852
 10
-45.4678345335055
 20
-22.96927601292448
 10
-45.69481734398915
 20
-23.0395819598531
 10
-45.91480884932677
 20
-23.12940322686638
 10
-46.12613478132828
 20
-23.23805621988675
 10
-46.32718682204901
 20
-23.36471402403089
 10
-46.51643484406056
 20
-23.50841269693116
 10
-46.69243855564434
 20
-23.66805860491918
 10
-46.85385846228126
 20
-23.84243674623831
 10
-46.99946606101379
 20
-24.03021999794073
 10
-47.12815319009532
 20
-24.22997921609434
 10
-47.23894046277012
 20
-24.44019411243108
 10
-47.33098472099794
 20
-24.6592648246586
 10
-47.40358545239584
 20
-24.88552409237835
 10
-47.45619012156035
 20
-25.11724994594389
 10
-47.48839837519558
 20
-25.3526788116897
 10
-47.49996508904346
 20
-25.5900189337916
 10
-47.5
 20
-25.60380952380953
  0
LWPOLYLINE
  5
1CC
330
139
100
AcDbEntity
  8
AM_4
100
AcDbPolyline
 90
       37
 70
     0
 43
0.0
 10
44.99984496299149
 20
-22.88919776657256
 10
44.81831177203505
 20
-22.30626534026292
 10
44.29568416645687
 20
-21.72790301621942
 10
43.43593965790657
 20
-21.15851248095277
 10
42.24562142122217
 20
-20.60242714024374
 10
40.73378849691861
 20
-20.06387913930863
 10
38.91194684641954
 20
-19.54696715361875
 10
36.79396178474332
 20
-19.05562519550518
 10
34.39595245708365
 20
-18.59359267394954
 10
31.73616916238164
 20
-18.16438593542374
 10
28.83485445753104
 20
-17.77127150237009
 10
25.71408909929747
 20
-17.41724121299309
 10
22.39762399642673
 20
-17.10498945156425
 10
18.91069945088806
 20
-16.8368926425308
 10
15.27985306393561
 20
-16.61499116449077
 10
11.53271776893907
 20
-16.44097382167982
 10
7.697811528075527
 20
-16.31616499115129
 10
3.804320293417645
 20
-16.24151454346712
 10
-0.1181241157845447
 20
-16.21759061360937
 10
-4.039669529140323
 20
-16.24457527712993
 10
-7.93047061816019
 20
-16.3222631644456
 10
-11.76091603722678
 20
-16.45006302382469
 10
-15.5018537838148
 20
-16.62700222116967
 10
-19.12481306283276
 20
-16.85173414234993
 10
-22.60222096656471
 20
-17.12254844174844
 10
-25.90761232114695
 20
-17.43738405902463
 10
-29.01583110252123
 20
-17.7938449050281
 10
-31.90322188896748
 20
-18.1892180974838
 10
-34.54780989314662
 20
-18.62049460766429
 10
-36.92946820350096
 20
-19.08439216091523
 10
-39.03007096220409
 20
-19.57738021674737
 10
-40.83363131388366
 20
-20.0957068383815
 10
-42.32642307524385
 20
-20.63542724725281
 10
-43.49708519960844
 20
-21.1924338451577
 10
-44.33670824134587
 20
-21.76248747555633
 10
-44.83890216213027
 20
-22.34124968611358
 10
-44.99984496299149
 20
-22.88919776657254
  0
LWPOLYLINE
  5
1CD
330
139
100
AcDbEntity
  8
AM_4
100
AcDbPolyline
 90
       19
 70
     0
 43
0.0
 10
47.49999999999999
 20
-25.60380952380953
 10
47.48963508242132
 20
-25.36641388165877
 10
47.45861921296658
 20
-25.13082496368818
 10
47.40718844113022
 20
-24.898835743816
 10
47.33573418614066
 20
-24.67221180008438
 10
47.24480025802363
 20
-24.45267787754439
 10
47.13507871887951
 20
-24.24190476190477
 10
47.00740461587287
 20
-24.04149656384383
 10
46.86274962601931
 20
-23.85297851075858
 10
46.70221466113669
 20
-23.67778533886332
 10
46.52702148924143
 20
-23.5172503739807
 10
46.33850343615618
 20
-23.37259538412714
 10
46.13809523809523
 20
-23.24492128112049
 10
45.92732212245562
 20
-23.13519974197638
 10
45.70778819991563
 20
-23.04426581385935
 10
45.48116425618401
 20
-22.97281155886979
 10
45.24917503631183
 20
-22.92138078703343
 10
45.01358611834124
 20
-22.89036491757869
 10
44.9998449629915
 20
-22.88919776657255
  0
LINE
  5
1CE
330
139
100
AcDbEntity
  8
AM_4
100
AcDbLine
 10
-40.38873605350877
 20
19.19054054054055
 30
0.0
 11
-37.41657386773941
 21
19.19054054054054
 31
0.0
  0
LWPOLYLINE
  5
1CF
330
139
100
AcDbEntity
  8
AM_4
100
AcDbPolyline
 90
        3
 70
     0
 43
0.0
 10
-46.95676640709998
 20
23.97156354616594
 10
-47.40239973150505
 20
23.35915933234977
 10
-47.5
 20
22.90675675675677
  0
LWPOLYLINE
  5
1D0
330
139
100
AcDbEntity
  8
AM_4
100
AcDbPolyline
 90
        9
 70
     0
 43
0.0
 10
-47.49999999999999
 20
25.60380952380952
 10
-47.48963508242132
 20
25.36641388165876
 10
-47.45861921296658
 20
25.13082496368817
 10
-47.40718844113022
 20
24.89883574381599
 10
-47.33573418614066
 20
24.67221180008437
 10
-47.24480025802363
 20
24.45267787754439
 10
-47.13507871887951
 20
24.24190476190477
 10
-47.00740461587287
 20
24.04149656384382
 10
-46.95676640709996
 20
23.97156354616594
  0
LINE
  5
1D1
330
139
100
AcDbEntity
  8
AM_4
100
AcDbLine
 10
-47.49999999999999
 20
25.60380952380952
 30
0.0
 11
-47.50000000000001
 21
25.87619047619028
 31
0.0
  0
LWPOLYLINE
  5
1D2
330
139
100
AcDbEntity
  8
AM_4
100
AcDbPolyline
 90
       19
 70
     0
 43
0.0
 10
-47.5
 20
25.8761904761901
 10
-47.51036491757864
 20
26.11358611834087
 10
-47.54138078703335
 20
26.34917503631146
 10
-47.59281155886968
 20
26.58116425618364
 10
-47.66426581385921
 20
26.80778819991528
 10
-47.7551997419762
 20
27.02732212245528
 10
-47.86492128112029
 20
27.23809523809491
 10
-47.99259538412691
 20
27.43850343615587
 10
-48.13725037398044
 20
27.62702148924114
 10
-48.29778533886304
 20
27.80221466113642
 10
-48.47297851075827
 20
27.96274962601907
 10
-48.66149656384351
 20
28.10740461587266
 10
-48.86190476190443
 20
28.23507871887933
 10
-49.07267787754403
 20
28.34480025802348
 10
-49.29221180008401
 20
28.43573418614054
 10
-49.51883574381561
 20
28.50718844113013
 10
-49.75082496368779
 20
28.55861921296652
 10
-49.98641388165837
 20
28.5896350824213
 10
-50.22380952380914
 20
28.60000000000001
  0
LINE
  5
1D3
330
139
100
AcDbEntity
  8
AM_4
100
AcDbLine
 10
-97.38
 20
28.6
 30
0.0
 11
-50.22380952380952
 21
28.6
 31
0.0
  0
LINE
  5
1D4
330
139
100
AcDbEntity
  8
AM_4
100
AcDbLine
 10
-54.21337642120756
 20
19.88468981855333
 30
0.0
 11
-76.19999999999999
 21
28.6
 31
0.0
  0
LINE
  5
1D5
330
139
100
AcDbEntity
  8
AM_4
100
AcDbLine
 10
76.19999999999999
 20
28.6
 30
0.0
 11
54.21337642120756
 21
19.88468981855333
 31
0.0
  0
LINE
  5
1D6
330
139
100
AcDbEntity
  8
AM_4
100
AcDbLine
 10
50.22380952380952
 20
28.6
 30
0.0
 11
97.38
 21
28.6
 31
0.0
  0
LWPOLYLINE
  5
1D7
330
139
100
AcDbEntity
  8
AM_4
100
AcDbPolyline
 90
       19
 70
     0
 43
0.0
 10
50.22380952380952
 20
28.6
 10
49.98641388165876
 20
28.58963508242132
 10
49.75082496368817
 20
28.55861921296659
 10
49.51883574381599
 20
28.50718844113022
 10
49.29221180008437
 20
28.43573418614067
 10
49.07267787754439
 20
28.34480025802364
 10
48.86190476190477
 20
28.23507871887952
 10
48.66149656384383
 20
28.10740461587287
 10
48.47297851075857
 20
27.96274962601931
 10
48.29778533886331
 20
27.80221466113669
 10
48.13725037398069
 20
27.62702148924143
 10
47.99259538412714
 20
27.43850343615618
 10
47.86492128112049
 20
27.23809523809524
 10
47.75519974197637
 20
27.02732212245563
 10
47.66426581385934
 20
26.80778819991563
 10
47.59281155886978
 20
26.58116425618402
 10
47.54138078703342
 20
26.34917503631184
 10
47.51036491757868
 20
26.11358611834125
 10
47.50000000000001
 20
25.87619047619049
  0
LINE
  5
1D8
330
139
100
AcDbEntity
  8
AM_4
100
AcDbLine
 10
47.50000000000001
 20
25.87619047619048
 30
0.0
 11
47.5
 21
25.6038095238093
 31
0.0
  0
LWPOLYLINE
  5
1D9
330
139
100
AcDbEntity
  8
AM_4
100
AcDbPolyline
 90
        9
 70
     0
 43
0.0
 10
46.95676640709996
 20
23.97156354616594
 10
47.09072826787739
 20
24.16782444977549
 10
47.20707509850394
 20
24.37501406686993
 10
47.30492142934642
 20
24.59155555935867
 10
47.38352259074589
 20
24.81580091573253
 10
47.44228038040342
 20
25.04604349342647
 10
47.48074761606079
 20
25.28053100739995
 10
47.4986315388275
 20
25.51747886608422
 10
47.5
 20
25.60380952380907
  0
LWPOLYLINE
  5
1DA
330
139
100
AcDbEntity
  8
AM_4
100
AcDbPolyline
 90
        8
 70
     0
 43
0.0
 10
40.38873605350877
 20
19.19054054054054
 10
42.41393828782383
 20
19.72794150281053
 10
44.11634484153239
 20
20.28953516858419
 10
45.48299937281956
 20
20.87104747096543
 10
46.50350081549368
 20
21.46805275020643
 10
47.17008253738039
 20
22.0760074356505
 10
47.47767144908305
 20
22.69028462504835
 10
47.5
 20
22.90675675675676
  0
LINE
  5
1DB
330
139
100
AcDbEntity
  8
AM_4
100
AcDbLine
 10
37.41657386773941
 20
19.19054054054054
 30
0.0
 11
40.38873605350878
 21
19.19054054054055
 31
0.0
  0
LWPOLYLINE
  5
1DC
330
139
100
AcDbEntity
  8
AM_4
100
AcDbPolyline
 90
       24
 70
     0
 43
0.0
 10
-37.41657386773941
 20
19.19054054054054
 10
-35.0952989391087
 20
18.71992832260946
 10
-32.50692759443049
 20
18.28118039713837
 10
-29.67115890253914
 20
17.87763590076334
 10
-26.60957477546387
 20
17.51236605076863
 10
-23.34547571704678
 20
17.18815077126865
 10
-19.90370349203932
 20
16.90745753630693
 10
-16.31045206527268
 20
16.67242259088875
 10
-12.59306824976909
 20
16.48483469286671
 10
-8.779843580982247
 20
16.34612149941344
 10
-4.899799001129635
 20
16.25733870168843
 10
-0.9824639922988969
 20
16.21916199039088
 10
2.942348160741213
 20
16.23188191334551
 10
6.844767267639689
 20
16.29540166425812
 10
10.69509356264795
 20
16.40923781946999
 10
14.4640237377704
 20
16.57252401710382
 10
18.12287395863211
 20
16.78401755060071
 10
21.64379816577813
 20
17.04210882646746
 10
24.99999999999994
 20
17.34483361425495
 10
28.16593673880902
 20
17.68988799553789
 10
31.11751369197817
 20
18.07464589812519
 10
33.8322675766829
 20
18.49617908205498
 10
36.28953747664737
 20
18.95127942526888
 10
37.41657386773941
 20
19.19054054054054
  0
LINE
  5
1DD
330
139
100
AcDbEntity
  8
AM_4
100
AcDbLine
 10
-54.21337642120757
 20
-19.88468981855332
 30
0.0
 11
-54.21337642120756
 21
-8.576035424628806
 31
0.0
  0
LWPOLYLINE
  5
1DE
330
139
100
AcDbEntity
  8
AM_4
100
AcDbPolyline
 90
       29
 70
     0
 43
0.0
 10
-54.21337642120758
 20
-19.88468981855332
 10
-52.2351785056602
 20
-19.19382377702749
 10
-49.85943934122161
 20
-18.53121539740763
 10
-47.10423973744373
 20
-17.90190752955653
 10
-43.9905484269463
 20
-17.310689586335
 10
-40.54206248070046
 20
-16.76206109327813
 10
-36.78502695900983
 20
-16.26019744448902
 10
-32.74803517075458
 20
-15.8089181253685
 10
-28.46181106104562
 20
-15.41165764402499
 10
-23.95897538345072
 20
-15.07143939259395
 10
-19.27379743636287
 20
-14.79085263739816
 10
-14.44193425294723
 20
-14.57203281306759
 10
-9.500159229588336
 20
-14.4166452705924
 10
-4.486082258139292
 20
-14.32587260299641
 10
0.5621365080647183
 20
-14.30040564509004
 10
5.606077076015052
 20
-14.34043821580034
 10
10.60735201237502
 20
-14.44566564309187
 10
15.52789859502656
 20
-14.61528708270489
 10
20.33026849336843
 20
-14.84801161306372
 10
24.97791277272401
 20
-15.14206805996941
 10
29.43546005380307
 20
-15.49521847630488
 10
33.66898571025597
 20
-15.90477517416375
 10
37.64627005556439
 20
-16.36762117977823
 10
41.33704355431063
 20
-16.88023395557153
 10
44.71321719161924
 20
-17.43871220879582
 10
47.7490962475209
 20
-18.03880558272565
 10
50.42157584928635
 20
-18.67594700443914
 10
52.71031681345881
 20
-19.34528744300055
 10
54.21337642120758
 20
-19.88468981855332
  0
LINE
  5
1DF
330
139
100
AcDbEntity
  8
AM_4
100
AcDbLine
 10
54.21337642120757
 20
-19.88468981855332
 30
0.0
 11
54.21337642120756
 21
-8.576035424628815
 31
0.0
  0
LWPOLYLINE
  5
1E0
330
139
100
AcDbEntity
  8
AM_4
100
AcDbPolyline
 90
       21
 70
     0
 43
0.0
 10
54.21337642120756
 20
8.576035424628818
 10
53.93626387239273
 20
7.82852643232197
 10
53.67051374206464
 20
7.027250454729892
 10
53.4155268643664
 20
6.150303238642069
 10
53.18432870051275
 20
5.219087528865436
 10
53.02007907020687
 20
4.432813214113694
 10
52.87878527266121
 20
3.616758720367784
 10
52.76095292055501
 20
2.75110537462194
 10
52.67370418876854
 20
1.863707434774543
 10
52.6205891446177
 20
0.984157577077505
 10
52.60019836929511
 20
0.0967625515333042
 10
52.61437434788881
 20
-0.8215902810277602
 10
52.6637095766041
 20
-1.732926168526101
 10
52.73706723265725
 20
-2.539496912325056
 10
52.83603320906403
 20
-3.329422741563624
 10
52.96199069545939
 20
-4.117475938432776
 10
53.10999661222601
 20
-4.879727815420202
 10
53.34506285240268
 20
-5.882989683964878
 10
53.60888274013897
 20
-6.826523342903688
 10
53.90360066175683
 20
-7.734994100216813
 10
54.21337642120756
 20
-8.576035424628955
  0
LINE
  5
1E1
330
139
100
AcDbEntity
  8
AM_4
100
AcDbLine
 10
54.21337642120756
 20
8.576035424628818
 30
0.0
 11
54.21337642120756
 21
19.88468981855333
 31
0.0
  0
LWPOLYLINE
  5
1E2
330
139
100
AcDbEntity
  8
AM_4
100
AcDbPolyline
 90
       29
 70
     0
 43
0.0
 10
54.21337642120756
 20
19.88468981855332
 10
52.23517850566017
 20
19.19382377702749
 10
49.85943934122157
 20
18.53121539740763
 10
47.1042397374437
 20
17.90190752955652
 10
43.99054842694628
 20
17.31068958633501
 10
40.5420624807004
 20
16.76206109327813
 10
36.78502695900977
 20
16.26019744448902
 10
32.74803517075453
 20
15.8089181253685
 10
28.46181106104557
 20
15.41165764402499
 10
23.95897538345066
 20
15.07143939259396
 10
19.27379743636282
 20
14.79085263739817
 10
14.44193425294718
 20
14.5720328130676
 10
9.500159229588283
 20
14.41664527059241
 10
4.48608225813924
 20
14.32587260299642
 10
-0.5621365080647697
 20
14.30040564509005
 10
-5.606077076015103
 20
14.34043821580035
 10
-10.60735201237507
 20
14.44566564309189
 10
-15.52789859502661
 20
14.61528708270491
 10
-20.33026849336846
 20
14.84801161306373
 10
-24.97791277272405
 20
15.14206805996943
 10
-29.43546005380311
 20
15.49521847630489
 10
-33.66898571025599
 20
15.90477517416377
 10
-37.64627005556442
 20
16.36762117977825
 10
-41.33704355431065
 20
16.88023395557155
 10
-44.71321719161925
 20
17.43871220879583
 10
-47.74909624752091
 20
18.03880558272567
 10
-50.42157584928635
 20
18.67594700443916
 10
-52.71031681345881
 20
19.34528744300056
 10
-54.21337642120756
 20
19.88468981855333
  0
LINE
  5
1E3
330
139
100
AcDbEntity
  8
AM_4
100
AcDbLine
 10
-54.21337642120756
 20
8.576035424628822
 30
0.0
 11
-54.21337642120756
 21
19.88468981855333
 31
0.0
  0
LWPOLYLINE
  5
1E4
330
139
100
AcDbEntity
  8
AM_4
100
AcDbPolyline
 90
       21
 70
     0
 43
0.0
 10
-54.21337642120756
 20
-8.576035424628806
 10
-53.93626387239271
 20
-7.828526432321948
 10
-53.67051374206463
 20
-7.027250454729866
 10
-53.41552686436639
 20
-6.150303238642045
 10
-53.18432870051275
 20
-5.219087528865413
 10
-53.02007907020687
 20
-4.432813214113676
 10
-52.87878527266121
 20
-3.616758720367771
 10
-52.76095292055501
 20
-2.751105374621919
 10
-52.67370418876854
 20
-1.863707434774513
 10
-52.6205891446177
 20
-0.9841575770774785
 10
-52.60019836929511
 20
-0.0967625515332816
 10
-52.61437434788881
 20
0.8215902810277762
 10
-52.6637095766041
 20
1.73292616852611
 10
-52.73706723265725
 20
2.539496912325065
 10
-52.83603320906403
 20
3.329422741563634
 10
-52.96199069545939
 20
4.117475938432784
 10
-53.10999661222601
 20
4.879727815420209
 10
-53.34506285240268
 20
5.882989683964887
 10
-53.60888274013897
 20
6.826523342903696
 10
-53.90360066175683
 20
7.734994100216824
 10
-54.21337642120756
 20
8.576035424628971
  0
ENDBLK
  5
13C
330
139
100
AcDbEntity
  8
0
100
AcDbBlockEnd
  0
ENDSEC
  0
SECTION
  2
ENTITIES
  0
INSERT
  5
6F
330
1F
100
AcDbEntity
  8
0
100
AcDbBlockReference
  2
1_051879_4
 10
0.0
 20
0.0
 30
0.0
  0
POINT
  5
1E6
330
1F
100
AcDbEntity
  8
ConnectionPoints
100
AcDbPoint
 10
0.0
 20
-30.2
 30
0.0000000000000018
  0
POINT
  5
1E7
330
1F
100
AcDbEntity
  8
ConnectionPoints
100
AcDbPoint
 10
40.9414826307011
 20
0.0000000000000025
 30
40.9414826307011
  0
POINT
  5
1E8
330
1F
100
AcDbEntity
  8
ConnectionPoints
100
AcDbPoint
 10
0.0
 20
-30.2
 30
0.0000000000000018
  0
ENDSEC
  0
SECTION
  2
OBJECTS
  0
DICTIONARY
  5
C
330
0
100
AcDbDictionary
281
     1
  3
ACAD_DETAILVIEWSTYLE
350
1F0
  3
ACAD_GROUP
350
D
  3
ACAD_LAYOUT
350
1A
  3
ACAD_MATERIAL
350
43
  3
ACAD_MLEADERSTYLE
350
6B
  3
ACAD_MLINESTYLE
350
17
  3
ACAD_PLOTSETTINGS
350
19
  3
ACAD_PLOTSTYLENAME
350
E
  3
ACAD_SCALELIST
350
47
  3
ACAD_SECTIONVIEWSTYLE
350
1F1
  3
ACAD_TABLESTYLE
350
69
  3
ACAD_VISUALSTYLE
350
2A
  3
ACDB_RECOMPOSE_DATA
350
1ED
  3
AcDbVariableDictionary
350
1E9
  0
SUN
  5
6D
330
29
100
AcDbSun
 90
        1
290
     0
 63
     7
421
 16777215
 40
1.0
291
     1
 91
  2455826
 92
 54000000
292
     0
 70
     2
 71
   256
280
     1
  0
DICTIONARY
  5
1F0
102
{ACAD_REACTORS
330
C
102
}
330
C
100
AcDbDictionary
281
     1
  0
DICTIONARY
  5
D
102
{ACAD_REACTORS
330
C
102
}
330
C
100
AcDbDictionary
281
     1
  0
DICTIONARY
  5
1A
102
{ACAD_REACTORS
330
C
102
}
330
C
100
AcDbDictionary
281
     1
  3
Layout1
350
1E
  3
Layout2
350
26
  3
Model
350
22
  0
DICTIONARY
  5
43
102
{ACAD_REACTORS
330
C
102
}
330
C
100
AcDbDictionary
281
     1
  3
ByBlock
350
45
  3
ByLayer
350
44
  3
Global
350
46
  0
DICTIONARY
  5
6B
102
{ACAD_REACTORS
330
C
102
}
330
C
100
AcDbDictionary
281
     1
  3
Standard
350
6C
  0
DICTIONARY
  5
17
102
{ACAD_REACTORS
330
C
102
}
330
C
100
AcDbDictionary
281
     1
  3
Standard
350
18
  0
DICTIONARY
  5
19
102
{ACAD_REACTORS
330
C
102
}
330
C
100
AcDbDictionary
281
     1
  0
ACDBDICTIONARYWDFLT
  5
E
102
{ACAD_REACTORS
330
C
102
}
330
C
100
AcDbDictionary
281
     1
  3
Normal
350
F
100
AcDbDictionaryWithDefault
340
F
  0
DICTIONARY
  5
47
102
{ACAD_REACTORS
330
C
102
}
330
C
100
AcDbDictionary
281
     1
  3
A0
350
48
  3
A1
350
49
  3
A2
350
4A
  3
A3
350
4B
  3
A4
350
4C
  3
A5
350
4D
  3
A6
350
4E
  3
A7
350
4F
  3
A8
350
50
  3
A9
350
51
  3
B0
350
52
  3
B1
350
53
  3
B2
350
54
  3
B3
350
55
  3
B4
350
56
  3
B5
350
57
  3
B6
350
58
  3
B7
350
59
  3
B8
350
5A
  3
B9
350
5B
  3
C0
350
5C
  3
C1
350
5D
  3
C2
350
5E
  3
C3
350
5F
  3
C4
350
60
  3
C5
350
61
  3
C6
350
62
  3
C7
350
63
  3
C8
350
64
  3
C9
350
65
  3
D0
350
66
  3
D1
350
67
  3
D2
350
68
  0
DICTIONARY
  5
1F1
102
{ACAD_REACTORS
330
C
102
}
330
C
100
AcDbDictionary
281
     1
  0
DICTIONARY
  5
69
102
{ACAD_REACTORS
330
C
102
}
330
C
100
AcDbDictionary
281
     1
  3
Standard
350
6A
  0
DICTIONARY
  5
2A
102
{ACAD_REACTORS
330
C
102
}
330
C
100
AcDbDictionary
281
     1
  3
2dWireframe
350
2F
  3
Basic
350
32
  3
Brighten
350
36
  3
ColorChange
350
3A
  3
Conceptual
350
34
  3
Dim
350
35
  3
EdgeColorOff
350
3D
  3
Facepattern
350
39
  3
Flat
350
2B
  3
FlatWithEdges
350
2C
  3
Gouraud
350
2D
  3
GouraudWithEdges
350
2E
  3
Hidden
350
31
  3
JitterOff
350
3B
  3
Linepattern
350
38
  3
OverhangOff
350
3C
  3
Realistic
350
33
  3
Shaded
350
42
  3
Shaded with edges
350
41
  3
Shades of Gray
350
3E
  3
Sketchy
350
3F
  3
Thicken
350
37
  3
Wireframe
350
30
  3
X-Ray
350
40
  0
XRECORD
  5
1ED
102
{ACAD_REACTORS
330
C
102
}
330
C
100
AcDbXrecord
280
     1
 90
        1
330
6A
  0
DICTIONARY
  5
1E9
102
{ACAD_REACTORS
330
C
102
}
330
C
100
AcDbDictionary
281
     1
  3
CANNOSCALE
350
1EA
  3
CMLEADERSTYLE
350
1EF
  3
CTABLESTYLE
350
1EE
  0
LAYOUT
  5
1E
102
{ACAD_REACTORS
330
1A
102
}
330
1A
100
AcDbPlotSettings
  1

  2
none_device
  4

  6

 40
0.0
 41
0.0
 42
0.0
 43
0.0
 44
0.0
 45
0.0
 46
0.0
 47
0.0
 48
0.0
 49
0.0
140
0.0
141
0.0
142
1.0
143
1.0
 70
   688
 72
     1
 73
     0
 74
     5
  7

 75
    16
 76
     0
 77
     2
 78
   300
147
1.0
148
0.0
149
0.0
100
AcDbLayout
  1
Layout1
 70
     1
 71
     1
 10
0.0
 20
0.0
 11
420.0
 21
297.0
 12
0.0
 22
0.0
 32
0.0
 14
1.000000000000000E+20
 24
1.000000000000000E+20
 34
1.000000000000000E+20
 15
-1.000000000000000E+20
 25
-1.000000000000000E+20
 35
-1.000000000000000E+20
146
0.0
 13
0.0
 23
0.0
 33
0.0
 16
1.0
 26
0.0
 36
0.0
 17
0.0
 27
1.0
 37
0.0
 76
     0
330
1B
  0
LAYOUT
  5
26
102
{ACAD_REACTORS
330
1A
102
}
330
1A
100
AcDbPlotSettings
  1

  2
none_device
  4

  6

 40
0.0
 41
0.0
 42
0.0
 43
0.0
 44
0.0
 45
0.0
 46
0.0
 47
0.0
 48
0.0
 49
0.0
140
0.0
141
0.0
142
1.0
143
1.0
 70
   688
 72
     1
 73
     0
 74
     5
  7

 75
    16
 76
     0
 77
     2
 78
   300
147
1.0
148
0.0
149
0.0
100
AcDbLayout
  1
Layout2
 70
     1
 71
     2
 10
0.0
 20
0.0
 11
0.0
 21
0.0
 12
0.0
 22
0.0
 32
0.0
 14
0.0
 24
0.0
 34
0.0
 15
0.0
 25
0.0
 35
0.0
146
0.0
 13
0.0
 23
0.0
 33
0.0
 16
1.0
 26
0.0
 36
0.0
 17
0.0
 27
1.0
 37
0.0
 76
     0
330
23
  0
LAYOUT
  5
22
102
{ACAD_REACTORS
330
1A
102
}
330
1A
100
AcDbPlotSettings
  1

  2
none_device
  4
Letter_(8.50_x_11.00_Inches)
  6

 40
6.35
 41
6.35
 42
6.35000508
 43
6.35000508
 44
215.9
 45
279.4
 46
0.0
 47
0.0
 48
0.0
 49
0.0
140
0.0
141
0.0
142
1.0
143
1.0
 70
  1712
 72
     1
 73
     0
 74
     0
  7

 75
     0
 76
     0
 77
     2
 78
   300
147
1.0
148
0.0
149
0.0
100
AcDbLayout
  1
Model
 70
     1
 71
     0
 10
0.0
 20
0.0
 11
420.0
 21
297.0
 12
0.0
 22
0.0
 32
0.0
 14
1.000000000000000E+20
 24
1.000000000000000E+20
 34
1.000000000000000E+20
 15
-1.000000000000000E+20
 25
-1.000000000000000E+20
 35
-1.000000000000000E+20
146
0.0
 13
0.0
 23
0.0
 33
0.0
 16
1.0
 26
0.0
 36
0.0
 17
0.0
 27
1.0
 37
0.0
 76
     0
330
1F
331
29
  0
MATERIAL
  5
45
102
{ACAD_REACTORS
330
43
102
}
330
43
100
AcDbMaterial
  1
ByBlock
 72
     1
 94
      127
  0
MATERIAL
  5
44
102
{ACAD_REACTORS
330
43
102
}
330
43
100
AcDbMaterial
  1
ByLayer
 72
     1
 94
      127
  0
MATERIAL
  5
46
102
{ACAD_REACTORS
330
43
102
}
330
43
100
AcDbMaterial
  1
Global
 72
     1
 94
      127
  0
MLEADERSTYLE
  5
6C
102
{ACAD_REACTORS
330
6B
102
}
330
6B
100
AcDbMLeaderStyle
179
     2
170
     2
171
     1
172
     0
 90
        2
 40
0.0
 41
0.0
173
     1
 91
-1056964608
340
14
 92
       -2
290
     1
 42
2.0
291
     1
 43
8.0
  3
Standard
341
0
 44
4.0
300

342
11
174
     1
178
     6
175
     1
176
     0
 93
-1056964608
 45
4.0
292
     0
297
     0
 46
4.0
343
0
 94
-1056964608
 47
1.0
 49
1.0
140
1.0
293
     1
141
0.0
294
     1
177
     0
142
1.0
295
     0
296
     0
143
3.75
271
     0
272
     9
273
     9
298
     0
  0
MLINESTYLE
  5
18
102
{ACAD_REACTORS
330
17
102
}
330
17
100
AcDbMlineStyle
  2
Standard
 70
     0
  3

 62
   256
 51
90.0
 52
90.0
 71
     2
 49
0.5
 62
   256
  6
BYLAYER
 49
-0.5
 62
   256
  6
BYLAYER
  0
ACDBPLACEHOLDER
  5
F
102
{ACAD_REACTORS
330
E
102
}
330
E
  0
SCALE
  5
48
102
{ACAD_REACTORS
330
47
102
}
330
47
100
AcDbScale
 70
     0
300
1:1
140
1.0
141
1.0
290
     1
  0
SCALE
  5
49
102
{ACAD_REACTORS
330
47
102
}
330
47
100
AcDbScale
 70
     0
300
1:2
140
1.0
141
2.0
290
     0
  0
SCALE
  5
4A
102
{ACAD_REACTORS
330
47
102
}
330
47
100
AcDbScale
 70
     0
300
1:4
140
1.0
141
4.0
290
     0
  0
SCALE
  5
4B
102
{ACAD_REACTORS
330
47
102
}
330
47
100
AcDbScale
 70
     0
300
1:5
140
1.0
141
5.0
290
     0
  0
SCALE
  5
4C
102
{ACAD_REACTORS
330
47
102
}
330
47
100
AcDbScale
 70
     0
300
1:8
140
1.0
141
8.0
290
     0
  0
SCALE
  5
4D
102
{ACAD_REACTORS
330
47
102
}
330
47
100
AcDbScale
 70
     0
300
1:10
140
1.0
141
10.0
290
     0
  0
SCALE
  5
4E
102
{ACAD_REACTORS
330
47
102
}
330
47
100
AcDbScale
 70
     0
300
1:16
140
1.0
141
16.0
290
     0
  0
SCALE
  5
4F
102
{ACAD_REACTORS
330
47
102
}
330
47
100
AcDbScale
 70
     0
300
1:20
140
1.0
141
20.0
290
     0
  0
SCALE
  5
50
102
{ACAD_REACTORS
330
47
102
}
330
47
100
AcDbScale
 70
     0
300
1:30
140
1.0
141
30.0
290
     0
  0
SCALE
  5
51
102
{ACAD_REACTORS
330
47
102
}
330
47
100
AcDbScale
 70
     0
300
1:40
140
1.0
141
40.0
290
     0
  0
SCALE
  5
52
102
{ACAD_REACTORS
330
47
102
}
330
47
100
AcDbScale
 70
     0
300
1:50
140
1.0
141
50.0
290
     0
  0
SCALE
  5
53
102
{ACAD_REACTORS
330
47
102
}
330
47
100
AcDbScale
 70
     0
300
1:100
140
1.0
141
100.0
290
     0
  0
SCALE
  5
54
102
{ACAD_REACTORS
330
47
102
}
330
47
100
AcDbScale
 70
     0
300
2:1
140
2.0
141
1.0
290
     0
  0
SCALE
  5
55
102
{ACAD_REACTORS
330
47
102
}
330
47
100
AcDbScale
 70
     0
300
4:1
140
4.0
141
1.0
290
     0
  0
SCALE
  5
56
102
{ACAD_REACTORS
330
47
102
}
330
47
100
AcDbScale
 70
     0
300
8:1
140
8.0
141
1.0
290
     0
  0
SCALE
  5
57
102
{ACAD_REACTORS
330
47
102
}
330
47
100
AcDbScale
 70
     0
300
10:1
140
10.0
141
1.0
290
     0
  0
SCALE
  5
58
102
{ACAD_REACTORS
330
47
102
}
330
47
100
AcDbScale
 70
     0
300
100:1
140
100.0
141
1.0
290
     0
  0
SCALE
  5
59
102
{ACAD_REACTORS
330
47
102
}
330
47
100
AcDbScale
 70
     0
300
1/128" = 1'-0"
140
0.0078125
141
12.0
290
     0
  0
SCALE
  5
5A
102
{ACAD_REACTORS
330
47
102
}
330
47
100
AcDbScale
 70
     0
300
1/64" = 1'-0"
140
0.015625
141
12.0
290
     0
  0
SCALE
  5
5B
102
{ACAD_REACTORS
330
47
102
}
330
47
100
AcDbScale
 70
     0
300
1/32" = 1'-0"
140
0.03125
141
12.0
290
     0
  0
SCALE
  5
5C
102
{ACAD_REACTORS
330
47
102
}
330
47
100
AcDbScale
 70
     0
300
1/16" = 1'-0"
140
0.0625
141
12.0
290
     0
  0
SCALE
  5
5D
102
{ACAD_REACTORS
330
47
102
}
330
47
100
AcDbScale
 70
     0
300
3/32" = 1'-0"
140
0.09375
141
12.0
290
     0
  0
SCALE
  5
5E
102
{ACAD_REACTORS
330
47
102
}
330
47
100
AcDbScale
 70
     0
300
1/8" = 1'-0"
140
0.125
141
12.0
290
     0
  0
SCALE
  5
5F
102
{ACAD_REACTORS
330
47
102
}
330
47
100
AcDbScale
 70
     0
300
3/16" = 1'-0"
140
0.1875
141
12.0
290
     0
  0
SCALE
  5
60
102
{ACAD_REACTORS
330
47
102
}
330
47
100
AcDbScale
 70
     0
300
1/4" = 1'-0"
140
0.25
141
12.0
290
     0
  0
SCALE
  5
61
102
{ACAD_REACTORS
330
47
102
}
330
47
100
AcDbScale
 70
     0
300
3/8" = 1'-0"
140
0.375
141
12.0
290
     0
  0
SCALE
  5
62
102
{ACAD_REACTORS
330
47
102
}
330
47
100
AcDbScale
 70
     0
300
1/2" = 1'-0"
140
0.5
141
12.0
290
     0
  0
SCALE
  5
63
102
{ACAD_REACTORS
330
47
102
}
330
47
100
AcDbScale
 70
     0
300
3/4" = 1'-0"
140
0.75
141
12.0
290
     0
  0
SCALE
  5
64
102
{ACAD_REACTORS
330
47
102
}
330
47
100
AcDbScale
 70
     0
300
1" = 1'-0"
140
1.0
141
12.0
290
     0
  0
SCALE
  5
65
102
{ACAD_REACTORS
330
47
102
}
330
47
100
AcDbScale
 70
     0
300
1-1/2" = 1'-0"
140
1.5
141
12.0
290
     0
  0
SCALE
  5
66
102
{ACAD_REACTORS
330
47
102
}
330
47
100
AcDbScale
 70
     0
300
3" = 1'-0"
140
3.0
141
12.0
290
     0
  0
SCALE
  5
67
102
{ACAD_REACTORS
330
47
102
}
330
47
100
AcDbScale
 70
     0
300
6" = 1'-0"
140
6.0
141
12.0
290
     0
  0
SCALE
  5
68
102
{ACAD_REACTORS
330
47
102
}
330
47
100
AcDbScale
 70
     0
300
1'-0" = 1'-0"
140
12.0
141
12.0
290
     0
  0
TABLESTYLE
  5
6A
102
{ACAD_REACTORS
330
69
102
}
102
{ACAD_XDICTIONARY
360
1EB
102
}
330
69
100
AcDbTableStyle
  3
Standard
 70
     0
 71
     0
 40
0.06
 41
0.06
280
     0
281
     0
  7
Standard
140
4.5
170
     2
 62
     0
 63
   257
283
     0
 90
        4
 91
        0
  1

274
    -2
284
     1
 64
     0
275
    -2
285
     1
 65
     0
276
    -2
286
     1
 66
     0
277
    -2
287
     1
 67
     0
278
    -2
288
     1
 68
     0
279
    -2
289
     1
 69
     0
  7
Standard
140
6.0
170
     5
 62
     0
 63
   257
283
     0
 90
        4
 91
        0
  1

274
    -2
284
     1
 64
     0
275
    -2
285
     1
 65
     0
276
    -2
286
     1
 66
     0
277
    -2
287
     1
 67
     0
278
    -2
288
     1
 68
     0
279
    -2
289
     1
 69
     0
  7
Standard
140
4.5
170
     5
 62
     0
 63
   257
283
     0
 90
        4
 91
        0
  1

274
    -2
284
     1
 64
     0
275
    -2
285
     1
 65
     0
276
    -2
286
     1
 66
     0
277
    -2
287
     1
 67
     0
278
    -2
288
     1
 68
     0
279
    -2
289
     1
 69
     0
  0
VISUALSTYLE
  5
2F
102
{ACAD_REACTORS
330
2A
102
}
330
2A
100
AcDbVisualStyle
  2
2dWireframe
 70
     4
177
     3
291
     0
 70
    58
 90
        0
176
     1
 90
        2
176
     1
 90
        0
176
     1
 90
        0
176
     1
 40
0.6
176
     1
 40
30.0
176
     1
 62
     7
420
 16777215
176
     1
 90
        1
176
     1
 90
        4
176
     1
 62
     7
176
     1
 62
   257
176
     1
 90
        1
176
     1
 90
        1
176
     1
 40
1.0
176
     1
 90
        0
176
     1
 62
   257
176
     1
 40
1.0
176
     1
 90
        1
176
     1
 90
        6
176
     1
 90
        2
176
     1
 62
     7
176
     1
 90
        5
176
     1
 90
        0
176
     1
 90
        0
176
     1
290
     0
176
     1
 90
        1
176
     1
 40
0.0
176
     1
 90
        0
176
     1
290
     1
176
     1
290
     1
176
     1
290
     0
176
     1
290
     0
176
     1
290
     0
176
     1
290
     0
176
     1
290
     0
176
     1
290
     0
176
     1
290
     0
176
     1
 90
       50
176
     1
 40
0.0
176
     1
 40
1.0
176
     1
 90
        0
176
     1
 62
    18
420
        0
176
     1
 90
       50
176
     1
 90
        3
176
     1
 62
     5
420
      255
176
     1
290
     0
176
     1
 90
       50
176
     1
 90
       50
176
     1
 90
       50
176
     1
290
     0
176
     1
 90
       50
176
     1
 62
   256
176
     0
 40
1.0
176
     0
 90
        2
176
     1
  1
strokes_ogs.tif
176
     1
290
     0
176
     1
 40
1.0
176
     1
 40
1.0
176
     1
  0
VISUALSTYLE
  5
32
102
{ACAD_REACTORS
330
2A
102
}
330
2A
100
AcDbVisualStyle
  2
Basic
 70
     7
177
     3
291
     1
 70
    58
 90
        1
176
     1
 90
        0
176
     1
 90
        1
176
     1
 90
        0
176
     1
 40
0.6
176
     1
 40
30.0
176
     1
 62
     7
420
 16777215
176
     1
 90
        0
176
     1
 90
        4
176
     1
 62
     7
176
     1
 62
   257
176
     1
 90
        1
176
     1
 90
        1
176
     1
 40
1.0
176
     1
 90
        8
176
     1
 62
     7
176
     1
 40
1.0
176
     1
 90
        1
176
     1
 90
        6
176
     1
 90
        2
176
     1
 62
     7
176
     1
 90
        5
176
     1
 90
        0
176
     1
 90
        0
176
     1
290
     0
176
     1
 90
        1
176
     1
 40
0.0
176
     1
 90
        0
176
     1
290
     0
176
     1
290
     1
176
     1
290
     1
176
     1
290
     0
176
     1
290
     0
176
     1
290
     0
176
     1
290
     0
176
     1
290
     0
176
     1
290
     0
176
     1
 90
       50
176
     1
 40
0.0
176
     1
 40
1.0
176
     1
 90
        0
176
     1
 62
    18
420
        0
176
     1
 90
       50
176
     1
 90
        3
176
     1
 62
     5
420
      255
176
     1
290
     0
176
     1
 90
       50
176
     1
 90
       50
176
     1
 90
       50
176
     1
290
     0
176
     1
 90
       50
176
     1
 62
   256
176
     0
 40
1.0
176
     0
 90
        2
176
     1
  1
strokes_ogs.tif
176
     1
290
     0
176
     1
 40
1.0
176
     1
 40
1.0
176
     1
  0
VISUALSTYLE
  5
36
102
{ACAD_REACTORS
330
2A
102
}
330
2A
100
AcDbVisualStyle
  2
Brighten
 70
    12
177
     3
291
     1
 70
    58
 90
        2
176
     1
 90
        2
176
     1
 90
        0
176
     1
 90
        0
176
     1
 40
0.6
176
     1
 40
30.0
176
     1
 62
     7
420
 16777215
176
     1
 90
        1
176
     1
 90
        4
176
     1
 62
     7
176
     1
 62
   257
176
     1
 90
        1
176
     1
 90
        1
176
     1
 40
1.0
176
     1
 90
        8
176
     1
 62
     7
176
     1
 40
1.0
176
     1
 90
        1
176
     1
 90
        6
176
     1
 90
        2
176
     1
 62
     7
176
     1
 90
        5
176
     1
 90
        0
176
     1
 90
        0
176
     1
290
     0
176
     1
 90
        1
176
     1
 40
50.0
176
     1
 90
        0
176
     1
290
     0
176
     1
290
     1
176
     1
290
     1
176
     1
290
     0
176
     1
290
     0
176
     1
290
     0
176
     1
290
     0
176
     1
290
     0
176
     1
290
     0
176
     1
 90
       50
176
     1
 40
0.0
176
     1
 40
1.0
176
     1
 90
        0
176
     1
 62
    18
420
        0
176
     1
 90
       50
176
     1
 90
        3
176
     1
 62
     5
420
      255
176
     1
290
     0
176
     1
 90
       50
176
     1
 90
       50
176
     1
 90
       50
176
     1
290
     0
176
     1
 90
       50
176
     1
 62
   256
176
     0
 40
1.0
176
     0
 90
        2
176
     1
  1
strokes_ogs.tif
176
     1
290
     0
176
     1
 40
1.0
176
     1
 40
1.0
176
     1
  0
VISUALSTYLE
  5
3A
102
{ACAD_REACTORS
330
2A
102
}
330
2A
100
AcDbVisualStyle
  2
ColorChange
 70
    16
177
     3
291
     1
 70
    58
 90
        2
176
     1
 90
        2
176
     1
 90
        3
176
     1
 90
        0
176
     1
 40
0.6
176
     1
 40
30.0
176
     1
 62
     8
420
  8421504
176
     1
 90
        1
176
     1
 90
        4
176
     1
 62
     7
176
     1
 62
   257
176
     1
 90
        1
176
     1
 90
        1
176
     1
 40
1.0
176
     1
 90
        8
176
     1
 62
     8
420
  8421504
176
     1
 40
1.0
176
     1
 90
        1
176
     1
 90
        6
176
     1
 90
        2
176
     1
 62
     7
176
     1
 90
        5
176
     1
 90
        0
176
     1
 90
        0
176
     1
290
     0
176
     1
 90
        1
176
     1
 40
0.0
176
     1
 90
        0
176
     1
290
     0
176
     1
290
     1
176
     1
290
     1
176
     1
290
     0
176
     1
290
     0
176
     1
290
     0
176
     1
290
     0
176
     1
290
     0
176
     1
290
     0
176
     1
 90
       50
176
     1
 40
0.0
176
     1
 40
1.0
176
     1
 90
        0
176
     1
 62
    18
420
        0
176
     1
 90
       50
176
     1
 90
        3
176
     1
 62
     5
420
      255
176
     1
290
     0
176
     1
 90
       50
176
     1
 90
       50
176
     1
 90
       50
176
     1
290
     0
176
     1
 90
       50
176
     1
 62
   256
176
     0
 40
1.0
176
     0
 90
        2
176
     1
  1
strokes_ogs.tif
176
     1
290
     0
176
     1
 40
1.0
176
     1
 40
1.0
176
     1
  0
VISUALSTYLE
  5
34
102
{ACAD_REACTORS
330
2A
102
}
330
2A
100
AcDbVisualStyle
  2
Conceptual
 70
     9
177
     3
291
     0
 70
    58
 90
        3
176
     1
 90
        2
176
     1
 90
        0
176
     1
 90
        0
176
     1
 40
0.6
176
     1
 40
30.0
176
     1
 62
     7
420
 16777215
176
     1
 90
        2
176
     1
 90
        2
176
     1
 62
     7
176
     1
 62
   257
176
     1
 90
        1
176
     1
 90
        1
176
     1
 40
179.0
176
     1
 90
        8
176
     1
 62
     7
176
     1
 40
1.0
176
     1
 90
        1
176
     1
 90
        6
176
     1
 90
        2
176
     1
 62
     7
176
     1
 90
        3
176
     1
 90
        0
176
     1
 90
        0
176
     1
290
     0
176
     1
 90
        1
176
     1
 40
0.0
176
     1
 90
        0
176
     1
290
     0
176
     1
290
     1
176
     1
290
     1
176
     1
290
     0
176
     1
290
     0
176
     1
290
     0
176
     1
290
     0
176
     1
290
     0
176
     1
290
     0
176
     1
 90
       50
176
     1
 40
0.0
176
     1
 40
1.0
176
     1
 90
        0
176
     1
 62
    18
420
        0
176
     1
 90
       50
176
     1
 90
        3
176
     1
 62
     5
420
      255
176
     1
290
     0
176
     1
 90
       50
176
     1
 90
       50
176
     1
 90
       50
176
     1
290
     0
176
     1
 90
       50
176
     1
 62
   256
176
     0
 40
1.0
176
     0
 90
        2
176
     1
  1
strokes_ogs.tif
176
     1
290
     0
176
     1
 40
1.0
176
     1
 40
1.0
176
     1
  0
VISUALSTYLE
  5
35
102
{ACAD_REACTORS
330
2A
102
}
330
2A
100
AcDbVisualStyle
  2
Dim
 70
    11
177
     3
291
     1
 70
    58
 90
        2
176
     1
 90
        2
176
     1
 90
        0
176
     1
 90
        0
176
     1
 40
0.6
176
     1
 40
30.0
176
     1
 62
     7
420
 16777215
176
     1
 90
        1
176
     1
 90
        4
176
     1
 62
     7
176
     1
 62
   257
176
     1
 90
        1
176
     1
 90
        1
176
     1
 40
1.0
176
     1
 90
        8
176
     1
 62
     7
176
     1
 40
1.0
176
     1
 90
        1
176
     1
 90
        6
176
     1
 90
        2
176
     1
 62
     7
176
     1
 90
        5
176
     1
 90
        0
176
     1
 90
        0
176
     1
290
     0
176
     1
 90
        1
176
     1
 40
-50.0
176
     1
 90
        0
176
     1
290
     0
176
     1
290
     1
176
     1
290
     1
176
     1
290
     0
176
     1
290
     0
176
     1
290
     0
176
     1
290
     0
176
     1
290
     0
176
     1
290
     0
176
     1
 90
       50
176
     1
 40
0.0
176
     1
 40
1.0
176
     1
 90
        0
176
     1
 62
    18
420
        0
176
     1
 90
       50
176
     1
 90
        3
176
     1
 62
     5
420
      255
176
     1
290
     0
176
     1
 90
       50
176
     1
 90
       50
176
     1
 90
       50
176
     1
290
     0
176
     1
 90
       50
176
     1
 62
   256
176
     0
 40
1.0
176
     0
 90
        2
176
     1
  1
strokes_ogs.tif
176
     1
290
     0
176
     1
 40
1.0
176
     1
 40
1.0
176
     1
  0
VISUALSTYLE
  5
3D
102
{ACAD_REACTORS
330
2A
102
}
330
2A
100
AcDbVisualStyle
  2
EdgeColorOff
 70
    22
177
     3
291
     1
 70
    58
 90
        2
176
     0
 90
        2
176
     0
 90
        0
176
     0
 90
        0
176
     0
 40
0.6
176
     0
 40
30.0
176
     0
 62
     7
420
 16777215
176
     0
 90
        1
176
     0
 90
        4
176
     0
 62
     7
176
     0
 62
   257
176
     0
 90
        1
176
     0
 90
        1
176
     0
 40
1.0
176
     0
 90
        8
176
     2
 62
     7
176
     0
 40
1.0
176
     0
 90
        1
176
     0
 90
        6
176
     0
 90
        2
176
     0
 62
     7
176
     0
 90
        5
176
     0
 90
        0
176
     0
 90
        0
176
     0
290
     0
176
     0
 90
        1
176
     0
 40
0.0
176
     0
 90
        0
176
     0
290
     0
176
     0
290
     1
176
     0
290
     1
176
     0
290
     0
176
     0
290
     0
176
     0
290
     0
176
     0
290
     0
176
     0
290
     0
176
     0
290
     0
176
     0
 90
       50
176
     0
 40
0.0
176
     0
 40
1.0
176
     0
 90
        0
176
     0
 62
    18
420
        0
176
     0
 90
       50
176
     0
 90
        3
176
     0
 62
     5
420
      255
176
     0
290
     0
176
     0
 90
       50
176
     0
 90
       50
176
     0
 90
       50
176
     0
290
     0
176
     0
 90
       50
176
     0
 62
   256
176
     0
 40
1.0
176
     0
 90
        2
176
     0
  1
strokes_ogs.tif
176
     0
290
     0
176
     0
 40
1.0
176
     0
 40
1.0
176
     0
  0
VISUALSTYLE
  5
39
102
{ACAD_REACTORS
330
2A
102
}
330
2A
100
AcDbVisualStyle
  2
Facepattern
 70
    15
177
     3
291
     1
 70
    58
 90
        2
176
     1
 90
        2
176
     1
 90
        0
176
     1
 90
        0
176
     1
 40
0.6
176
     1
 40
30.0
176
     1
 62
     7
420
 16777215
176
     1
 90
        1
176
     1
 90
        4
176
     1
 62
     7
176
     1
 62
   257
176
     1
 90
        1
176
     1
 90
        1
176
     1
 40
1.0
176
     1
 90
        8
176
     1
 62
     7
176
     1
 40
1.0
176
     1
 90
        1
176
     1
 90
        6
176
     1
 90
        2
176
     1
 62
     7
176
     1
 90
        5
176
     1
 90
        0
176
     1
 90
        0
176
     1
290
     0
176
     1
 90
        1
176
     1
 40
0.0
176
     1
 90
        0
176
     1
290
     0
176
     1
290
     1
176
     1
290
     1
176
     1
290
     0
176
     1
290
     0
176
     1
290
     0
176
     1
290
     0
176
     1
290
     0
176
     1
290
     0
176
     1
 90
       50
176
     1
 40
0.0
176
     1
 40
1.0
176
     1
 90
        0
176
     1
 62
    18
420
        0
176
     1
 90
       50
176
     1
 90
        3
176
     1
 62
     5
420
      255
176
     1
290
     0
176
     1
 90
       50
176
     1
 90
       50
176
     1
 90
       50
176
     1
290
     0
176
     1
 90
       50
176
     1
 62
   256
176
     0
 40
1.0
176
     0
 90
        2
176
     1
  1
strokes_ogs.tif
176
     1
290
     0
176
     1
 40
1.0
176
     1
 40
1.0
176
     1
  0
VISUALSTYLE
  5
2B
102
{ACAD_REACTORS
330
2A
102
}
330
2A
100
AcDbVisualStyle
  2
Flat
 70
     0
177
     3
291
     1
 70
    58
 90
        2
176
     1
 90
        1
176
     1
 90
        1
176
     1
 90
        2
176
     1
 40
0.6
176
     1
 40
30.0
176
     1
 62
     7
420
 16777215
176
     1
 90
        0
176
     1
 90
        0
176
     1
 62
     7
176
     1
 62
   257
176
     1
 90
        1
176
     1
 90
        1
176
     1
 40
1.0
176
     1
 90
        8
176
     1
 62
     7
176
     1
 40
1.0
176
     1
 90
        1
176
     1
 90
        6
176
     1
 90
        2
176
     1
 62
     7
176
     1
 90
        5
176
     1
 90
        0
176
     1
 90
        0
176
     1
290
     0
176
     1
 90
       13
176
     1
 40
0.0
176
     1
 90
        0
176
     1
290
     0
176
     1
290
     1
176
     1
290
     1
176
     1
290
     0
176
     1
290
     0
176
     1
290
     0
176
     1
290
     0
176
     1
290
     0
176
     1
290
     0
176
     1
 90
       50
176
     1
 40
0.0
176
     1
 40
1.0
176
     1
 90
        0
176
     1
 62
    18
420
        0
176
     1
 90
       50
176
     1
 90
        3
176
     1
 62
     5
420
      255
176
     1
290
     0
176
     1
 90
       50
176
     1
 90
       50
176
     1
 90
       50
176
     1
290
     0
176
     1
 90
       50
176
     1
 62
   256
176
     0
 40
1.0
176
     0
 90
        2
176
     1
  1
strokes_ogs.tif
176
     1
290
     0
176
     1
 40
1.0
176
     1
 40
1.0
176
     1
  0
VISUALSTYLE
  5
2C
102
{ACAD_REACTORS
330
2A
102
}
330
2A
100
AcDbVisualStyle
  2
FlatWithEdges
 70
     1
177
     3
291
     1
 70
    58
 90
        2
176
     1
 90
        1
176
     1
 90
        1
176
     1
 90
        2
176
     1
 40
0.6
176
     1
 40
30.0
176
     1
 62
     7
420
 16777215
176
     1
 90
        1
176
     1
 90
        0
176
     1
 62
     7
176
     1
 62
   257
176
     1
 90
        1
176
     1
 90
        1
176
     1
 40
1.0
176
     1
 90
        0
176
     1
 62
   257
176
     1
 40
1.0
176
     1
 90
        1
176
     1
 90
        6
176
     1
 90
        2
176
     1
 62
     7
176
     1
 90
        5
176
     1
 90
        0
176
     1
 90
        0
176
     1
290
     0
176
     1
 90
       13
176
     1
 40
0.0
176
     1
 90
        0
176
     1
290
     0
176
     1
290
     1
176
     1
290
     1
176
     1
290
     0
176
     1
290
     0
176
     1
290
     0
176
     1
290
     0
176
     1
290
     0
176
     1
290
     0
176
     1
 90
       50
176
     1
 40
0.0
176
     1
 40
1.0
176
     1
 90
        0
176
     1
 62
    18
420
        0
176
     1
 90
       50
176
     1
 90
        3
176
     1
 62
     5
420
      255
176
     1
290
     0
176
     1
 90
       50
176
     1
 90
       50
176
     1
 90
       50
176
     1
290
     0
176
     1
 90
       50
176
     1
 62
   256
176
     0
 40
1.0
176
     0
 90
        2
176
     1
  1
strokes_ogs.tif
176
     1
290
     0
176
     1
 40
1.0
176
     1
 40
1.0
176
     1
  0
VISUALSTYLE
  5
2D
102
{ACAD_REACTORS
330
2A
102
}
330
2A
100
AcDbVisualStyle
  2
Gouraud
 70
     2
177
     3
291
     1
 70
    58
 90
        2
176
     1
 90
        2
176
     1
 90
        1
176
     1
 90
        2
176
     1
 40
0.6
176
     1
 40
30.0
176
     1
 62
     7
420
 16777215
176
     1
 90
        0
176
     1
 90
        0
176
     1
 62
     7
176
     1
 62
   257
176
     1
 90
        1
176
     1
 90
        1
176
     1
 40
1.0
176
     1
 90
        0
176
     1
 62
     7
176
     1
 40
1.0
176
     1
 90
        1
176
     1
 90
        6
176
     1
 90
        2
176
     1
 62
     7
176
     1
 90
        5
176
     1
 90
        0
176
     1
 90
        0
176
     1
290
     0
176
     1
 90
       13
176
     1
 40
0.0
176
     1
 90
        0
176
     1
290
     0
176
     1
290
     1
176
     1
290
     1
176
     1
290
     0
176
     1
290
     0
176
     1
290
     0
176
     1
290
     0
176
     1
290
     0
176
     1
290
     0
176
     1
 90
       50
176
     1
 40
0.0
176
     1
 40
1.0
176
     1
 90
        0
176
     1
 62
    18
420
        0
176
     1
 90
       50
176
     1
 90
        3
176
     1
 62
     5
420
      255
176
     1
290
     0
176
     1
 90
       50
176
     1
 90
       50
176
     1
 90
       50
176
     1
290
     0
176
     1
 90
       50
176
     1
 62
   256
176
     0
 40
1.0
176
     0
 90
        2
176
     1
  1
strokes_ogs.tif
176
     1
290
     0
176
     1
 40
1.0
176
     1
 40
1.0
176
     1
  0
VISUALSTYLE
  5
2E
102
{ACAD_REACTORS
330
2A
102
}
330
2A
100
AcDbVisualStyle
  2
GouraudWithEdges
 70
     3
177
     3
291
     1
 70
    58
 90
        2
176
     1
 90
        2
176
     1
 90
        1
176
     1
 90
        2
176
     1
 40
0.6
176
     1
 40
30.0
176
     1
 62
     7
420
 16777215
176
     1
 90
        1
176
     1
 90
        0
176
     1
 62
     7
176
     1
 62
   257
176
     1
 90
        1
176
     1
 90
        1
176
     1
 40
1.0
176
     1
 90
        0
176
     1
 62
   257
176
     1
 40
1.0
176
     1
 90
        1
176
     1
 90
        6
176
     1
 90
        2
176
     1
 62
     7
176
     1
 90
        5
176
     1
 90
        0
176
     1
 90
        0
176
     1
290
     0
176
     1
 90
       13
176
     1
 40
0.0
176
     1
 90
        0
176
     1
290
     0
176
     1
290
     1
176
     1
290
     1
176
     1
290
     0
176
     1
290
     0
176
     1
290
     0
176
     1
290
     0
176
     1
290
     0
176
     1
290
     0
176
     1
 90
       50
176
     1
 40
0.0
176
     1
 40
1.0
176
     1
 90
        0
176
     1
 62
    18
420
        0
176
     1
 90
       50
176
     1
 90
        3
176
     1
 62
     5
420
      255
176
     1
290
     0
176
     1
 90
       50
176
     1
 90
       50
176
     1
 90
       50
176
     1
290
     0
176
     1
 90
       50
176
     1
 62
   256
176
     0
 40
1.0
176
     0
 90
        2
176
     1
  1
strokes_ogs.tif
176
     1
290
     0
176
     1
 40
1.0
176
     1
 40
1.0
176
     1
  0
VISUALSTYLE
  5
31
102
{ACAD_REACTORS
330
2A
102
}
330
2A
100
AcDbVisualStyle
  2
Hidden
 70
     6
177
     3
291
     0
 70
    58
 90
        1
176
     1
 90
        2
176
     1
 90
        2
176
     1
 90
        0
176
     1
 40
0.6
176
     1
 40
30.0
176
     1
 62
     7
420
 16777215
176
     1
 90
        2
176
     1
 90
        2
176
     1
 62
     7
176
     1
 62
   257
176
     1
 90
        2
176
     1
 90
        1
176
     1
 40
40.0
176
     1
 90
        0
176
     1
 62
   257
176
     1
 40
1.0
176
     1
 90
        1
176
     1
 90
        6
176
     1
 90
        2
176
     1
 62
     7
176
     1
 90
        3
176
     1
 90
        0
176
     1
 90
        0
176
     1
290
     0
176
     1
 90
        1
176
     1
 40
0.0
176
     1
 90
        0
176
     1
290
     0
176
     1
290
     1
176
     1
290
     1
176
     1
290
     0
176
     1
290
     0
176
     1
290
     0
176
     1
290
     0
176
     1
290
     0
176
     1
290
     0
176
     1
 90
       50
176
     1
 40
0.0
176
     1
 40
1.0
176
     1
 90
        0
176
     1
 62
    18
420
        0
176
     1
 90
       50
176
     1
 90
        3
176
     1
 62
     5
420
      255
176
     1
290
     0
176
     1
 90
       50
176
     1
 90
       50
176
     1
 90
       50
176
     1
290
     0
176
     1
 90
       50
176
     1
 62
   256
176
     0
 40
1.0
176
     0
 90
        2
176
     1
  1
strokes_ogs.tif
176
     1
290
     0
176
     1
 40
1.0
176
     1
 40
1.0
176
     1
  0
VISUALSTYLE
  5
3B
102
{ACAD_REACTORS
330
2A
102
}
330
2A
100
AcDbVisualStyle
  2
JitterOff
 70
    20
177
     3
291
     1
 70
    58
 90
        2
176
     0
 90
        2
176
     0
 90
        0
176
     0
 90
        0
176
     0
 40
0.6
176
     0
 40
30.0
176
     0
 62
     7
420
 16777215
176
     0
 90
        1
176
     0
 90
        4
176
     0
 62
     7
176
     0
 62
   257
176
     0
 90
        1
176
     0
 90
        1
176
     0
 40
1.0
176
     0
 90
       10
176
     2
 62
     7
176
     0
 40
1.0
176
     0
 90
        1
176
     0
 90
        6
176
     0
 90
        2
176
     0
 62
     7
176
     0
 90
        5
176
     0
 90
        0
176
     0
 90
        0
176
     0
290
     0
176
     0
 90
        1
176
     0
 40
0.0
176
     0
 90
        0
176
     0
290
     0
176
     0
290
     1
176
     0
290
     1
176
     0
290
     0
176
     0
290
     0
176
     0
290
     0
176
     0
290
     0
176
     0
290
     0
176
     0
290
     0
176
     0
 90
       50
176
     0
 40
0.0
176
     0
 40
1.0
176
     0
 90
        0
176
     0
 62
    18
420
        0
176
     0
 90
       50
176
     0
 90
        3
176
     0
 62
     5
420
      255
176
     0
290
     0
176
     0
 90
       50
176
     0
 90
       50
176
     0
 90
       50
176
     0
290
     0
176
     0
 90
       50
176
     0
 62
   256
176
     0
 40
1.0
176
     0
 90
        2
176
     0
  1
strokes_ogs.tif
176
     0
290
     0
176
     0
 40
1.0
176
     0
 40
1.0
176
     0
  0
VISUALSTYLE
  5
38
102
{ACAD_REACTORS
330
2A
102
}
330
2A
100
AcDbVisualStyle
  2
Linepattern
 70
    14
177
     3
291
     1
 70
    58
 90
        2
176
     1
 90
        2
176
     1
 90
        0
176
     1
 90
        0
176
     1
 40
0.6
176
     1
 40
30.0
176
     1
 62
     7
420
 16777215
176
     1
 90
        1
176
     1
 90
        4
176
     1
 62
     7
176
     1
 62
   257
176
     1
 90
        7
176
     1
 90
        7
176
     1
 40
1.0
176
     1
 90
        8
176
     1
 62
     7
176
     1
 40
1.0
176
     1
 90
        1
176
     1
 90
        6
176
     1
 90
        2
176
     1
 62
     7
176
     1
 90
        5
176
     1
 90
        0
176
     1
 90
        0
176
     1
290
     0
176
     1
 90
        1
176
     1
 40
0.0
176
     1
 90
        0
176
     1
290
     0
176
     1
290
     1
176
     1
290
     1
176
     1
290
     0
176
     1
290
     0
176
     1
290
     0
176
     1
290
     0
176
     1
290
     0
176
     1
290
     0
176
     1
 90
       50
176
     1
 40
0.0
176
     1
 40
1.0
176
     1
 90
        0
176
     1
 62
    18
420
        0
176
     1
 90
       50
176
     1
 90
        3
176
     1
 62
     5
420
      255
176
     1
290
     0
176
     1
 90
       50
176
     1
 90
       50
176
     1
 90
       50
176
     1
290
     0
176
     1
 90
       50
176
     1
 62
   256
176
     0
 40
1.0
176
     0
 90
        2
176
     1
  1
strokes_ogs.tif
176
     1
290
     0
176
     1
 40
1.0
176
     1
 40
1.0
176
     1
  0
VISUALSTYLE
  5
3C
102
{ACAD_REACTORS
330
2A
102
}
330
2A
100
AcDbVisualStyle
  2
OverhangOff
 70
    21
177
     3
291
     1
 70
    58
 90
        2
176
     0
 90
        2
176
     0
 90
        0
176
     0
 90
        0
176
     0
 40
0.6
176
     0
 40
30.0
176
     0
 62
     7
420
 16777215
176
     0
 90
        1
176
     0
 90
        4
176
     0
 62
     7
176
     0
 62
   257
176
     0
 90
        1
176
     0
 90
        1
176
     0
 40
1.0
176
     0
 90
        9
176
     2
 62
     7
176
     0
 40
1.0
176
     0
 90
        1
176
     0
 90
        6
176
     0
 90
        2
176
     0
 62
     7
176
     0
 90
        5
176
     0
 90
        0
176
     0
 90
        0
176
     0
290
     0
176
     0
 90
        1
176
     0
 40
0.0
176
     0
 90
        0
176
     0
290
     0
176
     0
290
     1
176
     0
290
     1
176
     0
290
     0
176
     0
290
     0
176
     0
290
     0
176
     0
290
     0
176
     0
290
     0
176
     0
290
     0
176
     0
 90
       50
176
     0
 40
0.0
176
     0
 40
1.0
176
     0
 90
        0
176
     0
 62
    18
420
        0
176
     0
 90
       50
176
     0
 90
        3
176
     0
 62
     5
420
      255
176
     0
290
     0
176
     0
 90
       50
176
     0
 90
       50
176
     0
 90
       50
176
     0
290
     0
176
     0
 90
       50
176
     0
 62
   256
176
     0
 40
1.0
176
     0
 90
        2
176
     0
  1
strokes_ogs.tif
176
     0
290
     0
176
     0
 40
1.0
176
     0
 40
1.0
176
     0
  0
VISUALSTYLE
  5
33
102
{ACAD_REACTORS
330
2A
102
}
330
2A
100
AcDbVisualStyle
  2
Realistic
 70
     8
177
     3
291
     0
 70
    58
 90
        2
176
     1
 90
        3
176
     1
 90
        0
176
     1
 90
        2
176
     1
 40
0.6
176
     1
 40
30.0
176
     1
 62
     7
420
 16777215
176
     1
 90
        0
176
     1
 90
        0
176
     1
 62
     7
176
     1
 62
   257
176
     1
 90
        1
176
     1
 90
        1
176
     1
 40
1.0
176
     1
 90
        8
176
     1
 62
   257
176
     1
 40
1.0
176
     1
 90
        1
176
     1
 90
        6
176
     1
 90
        2
176
     1
 62
     7
176
     1
 90
        3
176
     1
 90
        0
176
     1
 90
        0
176
     1
290
     0
176
     1
 90
       13
176
     1
 40
0.0
176
     1
 90
        0
176
     1
290
     0
176
     1
290
     1
176
     1
290
     1
176
     1
290
     0
176
     1
290
     0
176
     1
290
     0
176
     1
290
     0
176
     1
290
     0
176
     1
290
     0
176
     1
 90
       50
176
     1
 40
0.0
176
     1
 40
1.0
176
     1
 90
        0
176
     1
 62
    18
420
        0
176
     1
 90
       50
176
     1
 90
        3
176
     1
 62
     5
420
      255
176
     1
290
     0
176
     1
 90
       50
176
     1
 90
       50
176
     1
 90
       50
176
     1
290
     0
176
     1
 90
       50
176
     1
 62
   256
176
     0
 40
1.0
176
     0
 90
        2
176
     1
  1
strokes_ogs.tif
176
     1
290
     0
176
     1
 40
1.0
176
     1
 40
1.0
176
     1
  0
VISUALSTYLE
  5
42
102
{ACAD_REACTORS
330
2A
102
}
330
2A
100
AcDbVisualStyle
  2
Shaded
 70
    27
177
     3
291
     0
 70
    58
 90
        2
176
     1
 90
        2
176
     1
 90
        1
176
     1
 90
        2
176
     1
 40
0.6
176
     1
 40
30.0
176
     1
 62
     7
420
 16777215
176
     1
 90
        0
176
     1
 90
        4
176
     1
 62
     7
176
     1
 62
   257
176
     1
 90
        1
176
     1
 90
        1
176
     1
 40
1.0
176
     1
 90
        8
176
     1
 62
   257
176
     1
 40
1.0
176
     1
 90
        1
176
     1
 90
        6
176
     1
 90
        2
176
     1
 62
     8
420
  7895160
176
     1
 90
        3
176
     1
 90
        0
176
     1
 90
        0
176
     1
290
     0
176
     1
 90
        5
176
     1
 40
0.0
176
     1
 90
        0
176
     1
290
     0
176
     1
290
     1
176
     1
290
     1
176
     1
290
     0
176
     1
290
     0
176
     1
290
     0
176
     1
290
     0
176
     1
290
     0
176
     1
290
     0
176
     1
 90
       50
176
     1
 40
0.0
176
     1
 40
1.0
176
     1
 90
        0
176
     1
 62
    18
420
        0
176
     1
 90
       50
176
     1
 90
        3
176
     1
 62
     5
420
      255
176
     1
290
     0
176
     1
 90
       50
176
     1
 90
       50
176
     1
 90
       50
176
     1
290
     0
176
     1
 90
       50
176
     1
 62
   256
176
     0
 40
1.0
176
     0
 90
        2
176
     1
  1
strokes_ogs.tif
176
     1
290
     0
176
     1
 40
1.0
176
     1
 40
1.0
176
     1
  0
VISUALSTYLE
  5
41
102
{ACAD_REACTORS
330
2A
102
}
330
2A
100
AcDbVisualStyle
  2
Shaded with edges
 70
    26
177
     3
291
     0
 70
    58
 90
        2
176
     1
 90
        2
176
     1
 90
        1
176
     1
 90
        2
176
     1
 40
0.6
176
     1
 40
30.0
176
     1
 62
     7
420
 16777215
176
     1
 90
        1
176
     1
 90
       10
176
     1
 62
     7
176
     1
 62
   257
176
     1
 90
        2
176
     1
 90
        1
176
     1
 40
1.0
176
     1
 90
        8
176
     1
 62
   257
176
     1
 40
1.0
176
     1
 90
        1
176
     1
 90
        6
176
     1
 90
        2
176
     1
 62
     7
176
     1
 90
        3
176
     1
 90
        0
176
     1
 90
        0
176
     1
290
     0
176
     1
 90
        5
176
     1
 40
0.0
176
     1
 90
        0
176
     1
290
     0
176
     1
290
     1
176
     1
290
     1
176
     1
290
     0
176
     1
290
     0
176
     1
290
     0
176
     1
290
     0
176
     1
290
     0
176
     1
290
     0
176
     1
 90
       50
176
     1
 40
0.0
176
     1
 40
1.0
176
     1
 90
        0
176
     1
 62
    18
420
        0
176
     1
 90
       50
176
     1
 90
        3
176
     1
 62
     5
420
      255
176
     1
290
     0
176
     1
 90
       50
176
     1
 90
       50
176
     1
 90
       50
176
     1
290
     0
176
     1
 90
       50
176
     1
 62
   256
176
     0
 40
1.0
176
     0
 90
        2
176
     1
  1
strokes_ogs.tif
176
     1
290
     0
176
     1
 40
1.0
176
     1
 40
1.0
176
     1
  0
VISUALSTYLE
  5
3E
102
{ACAD_REACTORS
330
2A
102
}
330
2A
100
AcDbVisualStyle
  2
Shades of Gray
 70
    23
177
     3
291
     0
 70
    58
 90
        2
176
     1
 90
        2
176
     1
 90
        3
176
     1
 90
        0
176
     1
 40
0.6
176
     1
 40
30.0
176
     1
 62
     7
420
 16777215
176
     1
 90
        2
176
     1
 90
        2
176
     1
 62
     7
176
     1
 62
     7
176
     1
 90
        1
176
     1
 90
        1
176
     1
 40
40.0
176
     1
 90
        8
176
     1
 62
     7
176
     1
 40
1.0
176
     1
 90
        1
176
     1
 90
        6
176
     1
 90
        2
176
     1
 62
     7
176
     1
 90
        3
176
     1
 90
        0
176
     1
 90
        0
176
     1
290
     0
176
     1
 90
        1
176
     1
 40
0.0
176
     1
 90
        0
176
     1
290
     0
176
     1
290
     1
176
     1
290
     1
176
     1
290
     0
176
     1
290
     0
176
     1
290
     0
176
     1
290
     0
176
     1
290
     0
176
     1
290
     0
176
     1
 90
       50
176
     1
 40
0.0
176
     1
 40
1.0
176
     1
 90
        0
176
     1
 62
    18
420
        0
176
     1
 90
       50
176
     1
 90
        3
176
     1
 62
     5
420
      255
176
     1
290
     0
176
     1
 90
       50
176
     1
 90
       50
176
     1
 90
       50
176
     1
290
     0
176
     1
 90
       50
176
     1
 62
   256
176
     0
 40
1.0
176
     0
 90
        2
176
     1
  1
strokes_ogs.tif
176
     1
290
     0
176
     1
 40
1.0
176
     1
 40
1.0
176
     1
  0
VISUALSTYLE
  5
3F
102
{ACAD_REACTORS
330
2A
102
}
330
2A
100
AcDbVisualStyle
  2
Sketchy
 70
    24
177
     3
291
     0
 70
    58
 90
        1
176
     1
 90
        2
176
     1
 90
        2
176
     1
 90
        0
176
     1
 40
0.6
176
     1
 40
30.0
176
     1
 62
     7
420
 16777215
176
     1
 90
        2
176
     1
 90
        2
176
     1
 62
     7
176
     1
 62
     7
176
     1
 90
        1
176
     1
 90
        1
176
     1
 40
40.0
176
     1
 90
       11
176
     1
 62
     7
176
     1
 40
1.0
176
     1
 90
        1
176
     1
 90
        6
176
     1
 90
        2
176
     1
 62
     7
176
     1
 90
        6
176
     1
 90
        0
176
     1
 90
        0
176
     1
290
     0
176
     1
 90
        1
176
     1
 40
0.0
176
     1
 90
        0
176
     1
290
     0
176
     1
290
     1
176
     1
290
     1
176
     1
290
     0
176
     1
290
     0
176
     1
290
     0
176
     1
290
     0
176
     1
290
     0
176
     1
290
     0
176
     1
 90
       50
176
     1
 40
0.0
176
     1
 40
1.0
176
     1
 90
        0
176
     1
 62
    18
420
        0
176
     1
 90
       50
176
     1
 90
        3
176
     1
 62
     5
420
      255
176
     1
290
     0
176
     1
 90
       50
176
     1
 90
       50
176
     1
 90
       50
176
     1
290
     0
176
     1
 90
       50
176
     1
 62
   256
176
     0
 40
1.0
176
     0
 90
        2
176
     1
  1
strokes_ogs.tif
176
     1
290
     0
176
     1
 40
1.0
176
     1
 40
1.0
176
     1
  0
VISUALSTYLE
  5
37
102
{ACAD_REACTORS
330
2A
102
}
330
2A
100
AcDbVisualStyle
  2
Thicken
 70
    13
177
     3
291
     1
 70
    58
 90
        2
176
     1
 90
        2
176
     1
 90
        0
176
     1
 90
        0
176
     1
 40
0.6
176
     1
 40
30.0
176
     1
 62
     7
420
 16777215
176
     1
 90
        1
176
     1
 90
        4
176
     1
 62
     7
176
     1
 62
   257
176
     1
 90
        1
176
     1
 90
        1
176
     1
 40
1.0
176
     1
 90
       12
176
     1
 62
     7
176
     1
 40
1.0
176
     1
 90
        1
176
     1
 90
        6
176
     1
 90
        2
176
     1
 62
     7
176
     1
 90
        5
176
     1
 90
        0
176
     1
 90
        0
176
     1
290
     0
176
     1
 90
        1
176
     1
 40
0.0
176
     1
 90
        0
176
     1
290
     0
176
     1
290
     1
176
     1
290
     1
176
     1
290
     0
176
     1
290
     0
176
     1
290
     0
176
     1
290
     0
176
     1
290
     0
176
     1
290
     0
176
     1
 90
       50
176
     1
 40
0.0
176
     1
 40
1.0
176
     1
 90
        0
176
     1
 62
    18
420
        0
176
     1
 90
       50
176
     1
 90
        3
176
     1
 62
     5
420
      255
176
     1
290
     0
176
     1
 90
       50
176
     1
 90
       50
176
     1
 90
       50
176
     1
290
     0
176
     1
 90
       50
176
     1
 62
   256
176
     0
 40
1.0
176
     0
 90
        2
176
     1
  1
strokes_ogs.tif
176
     1
290
     0
176
     1
 40
1.0
176
     1
 40
1.0
176
     1
  0
VISUALSTYLE
  5
30
102
{ACAD_REACTORS
330
2A
102
}
330
2A
100
AcDbVisualStyle
  2
Wireframe
 70
     5
177
     3
291
     0
 70
    58
 90
        0
176
     1
 90
        2
176
     1
 90
        0
176
     1
 90
        0
176
     1
 40
0.6
176
     1
 40
30.0
176
     1
 62
     7
420
 16777215
176
     1
 90
        1
176
     1
 90
        4
176
     1
 62
     7
176
     1
 62
   257
176
     1
 90
        1
176
     1
 90
        1
176
     1
 40
1.0
176
     1
 90
        0
176
     1
 62
   257
176
     1
 40
1.0
176
     1
 90
        1
176
     1
 90
        6
176
     1
 90
        2
176
     1
 62
     7
176
     1
 90
        3
176
     1
 90
        0
176
     1
 90
        0
176
     1
290
     0
176
     1
 90
        1
176
     1
 40
0.0
176
     1
 90
        0
176
     1
290
     0
176
     1
290
     1
176
     1
290
     1
176
     1
290
     0
176
     1
290
     0
176
     1
290
     0
176
     1
290
     0
176
     1
290
     0
176
     1
290
     0
176
     1
 90
       50
176
     1
 40
0.0
176
     1
 40
1.0
176
     1
 90
        0
176
     1
 62
    18
420
        0
176
     1
 90
       50
176
     1
 90
        3
176
     1
 62
     5
420
      255
176
     1
290
     0
176
     1
 90
       50
176
     1
 90
       50
176
     1
 90
       50
176
     1
290
     0
176
     1
 90
       50
176
     1
 62
   256
176
     0
 40
1.0
176
     0
 90
        2
176
     1
  1
strokes_ogs.tif
176
     1
290
     0
176
     1
 40
1.0
176
     1
 40
1.0
176
     1
  0
VISUALSTYLE
  5
40
102
{ACAD_REACTORS
330
2A
102
}
330
2A
100
AcDbVisualStyle
  2
X-Ray
 70
    25
177
     3
291
     0
 70
    58
 90
        2
176
     1
 90
        2
176
     1
 90
        1
176
     1
 90
        1
176
     1
 40
0.5
176
     1
 40
30.0
176
     1
 62
     7
420
 16777215
176
     1
 90
        1
176
     1
 90
        0
176
     1
 62
     7
176
     1
 62
   257
176
     1
 90
        1
176
     1
 90
        1
176
     1
 40
1.0
176
     1
 90
        8
176
     1
 62
     7
176
     1
 40
1.0
176
     1
 90
        1
176
     1
 90
        6
176
     1
 90
        2
176
     1
 62
     7
176
     1
 90
        3
176
     1
 90
        0
176
     1
 90
        0
176
     1
290
     0
176
     1
 90
       13
176
     1
 40
0.0
176
     1
 90
        0
176
     1
290
     0
176
     1
290
     1
176
     1
290
     1
176
     1
290
     0
176
     1
290
     0
176
     1
290
     0
176
     1
290
     0
176
     1
290
     0
176
     1
290
     0
176
     1
 90
       50
176
     1
 40
0.0
176
     1
 40
1.0
176
     1
 90
        0
176
     1
 62
    18
420
        0
176
     1
 90
       50
176
     1
 90
        3
176
     1
 62
     5
420
      255
176
     1
290
     0
176
     1
 90
       50
176
     1
 90
       50
176
     1
 90
       50
176
     1
290
     0
176
     1
 90
       50
176
     1
 62
   256
176
     0
 40
1.0
176
     0
 90
        2
176
     1
  1
strokes_ogs.tif
176
     1
290
     0
176
     1
 40
1.0
176
     1
 40
1.0
176
     1
  0
DICTIONARYVAR
  5
1EA
102
{ACAD_REACTORS
330
1E9
102
}
330
1E9
100
DictionaryVariables
280
     0
  1
1:1
  0
DICTIONARYVAR
  5
1EF
102
{ACAD_REACTORS
330
1E9
102
}
330
1E9
100
DictionaryVariables
280
     0
  1
Standard
  0
DICTIONARYVAR
  5
1EE
102
{ACAD_REACTORS
330
1E9
102
}
330
1E9
100
DictionaryVariables
280
     0
  1
Standard
  0
DICTIONARY
  5
1EB
330
6A
100
AcDbDictionary
280
     1
281
     1
  3
ACAD_ROUNDTRIP_2008_TABLESTYLE_CELLSTYLEMAP
360
1EC
  0
CELLSTYLEMAP
  5
1EC
102
{ACAD_REACTORS
330
1EB
102
}
330
1EB
100
AcDbCellStyleMap
 90
        3
300
CELLSTYLE
  1
TABLEFORMAT_BEGIN
 90
        5
170
     1
 91
        0
 92
    32768
 62
   257
 93
        1
300
CONTENTFORMAT
  1
CONTENTFORMAT_BEGIN
 90
        0
 91
        0
 92
        4
 93
        0
300

 40
0.0
140
1.0
 94
        5
 62
     0
340
11
144
6.0
309
CONTENTFORMAT_END
171
     1
301
MARGIN
  1
CELLMARGIN_BEGIN
 40
1.5
 40
1.5
 40
1.5
 40
1.5
 40
1.5
 40
1.5
309
CELLMARGIN_END
 94
        6
 95
        1
302
GRIDFORMAT
  1
GRIDFORMAT_BEGIN
 90
        0
 91
        1
 62
     0
 92
       -2
340
14
 93
        0
 40
0.045
309
GRIDFORMAT_END
 95
        2
302
GRIDFORMAT
  1
GRIDFORMAT_BEGIN
 90
        0
 91
        1
 62
     0
 92
       -2
340
14
 93
        0
 40
0.045
309
GRIDFORMAT_END
 95
        4
302
GRIDFORMAT
  1
GRIDFORMAT_BEGIN
 90
        0
 91
        1
 62
     0
 92
       -2
340
14
 93
        0
 40
0.045
309
GRIDFORMAT_END
 95
        8
302
GRIDFORMAT
  1
GRIDFORMAT_BEGIN
 90
        0
 91
        1
 62
     0
 92
       -2
340
14
 93
        0
 40
0.045
309
GRIDFORMAT_END
 95
       16
302
GRIDFORMAT
  1
GRIDFORMAT_BEGIN
 90
        0
 91
        1
 62
     0
 92
       -2
340
14
 93
        0
 40
0.045
309
GRIDFORMAT_END
 95
       32
302
GRIDFORMAT
  1
GRIDFORMAT_BEGIN
 90
        0
 91
        1
 62
     0
 92
       -2
340
14
 93
        0
 40
0.045
309
GRIDFORMAT_END
309
TABLEFORMAT_END
  1
CELLSTYLE_BEGIN
 90
        1
 91
        1
300
_TITLE
309
CELLSTYLE_END
300
CELLSTYLE
  1
TABLEFORMAT_BEGIN
 90
        5
170
     1
 91
        0
 92
        0
 62
   257
 93
        1
300
CONTENTFORMAT
  1
CONTENTFORMAT_BEGIN
 90
        0
 91
        0
 92
        4
 93
        0
300

 40
0.0
140
1.0
 94
        5
 62
     0
340
11
144
4.5
309
CONTENTFORMAT_END
171
     1
301
MARGIN
  1
CELLMARGIN_BEGIN
 40
1.5
 40
1.5
 40
1.5
 40
1.5
 40
1.5
 40
1.5
309
CELLMARGIN_END
 94
        6
 95
        1
302
GRIDFORMAT
  1
GRIDFORMAT_BEGIN
 90
        0
 91
        1
 62
     0
 92
       -2
340
14
 93
        0
 40
0.045
309
GRIDFORMAT_END
 95
        2
302
GRIDFORMAT
  1
GRIDFORMAT_BEGIN
 90
        0
 91
        1
 62
     0
 92
       -2
340
14
 93
        0
 40
0.045
309
GRIDFORMAT_END
 95
        4
302
GRIDFORMAT
  1
GRIDFORMAT_BEGIN
 90
        0
 91
        1
 62
     0
 92
       -2
340
14
 93
        0
 40
0.045
309
GRIDFORMAT_END
 95
        8
302
GRIDFORMAT
  1
GRIDFORMAT_BEGIN
 90
        0
 91
        1
 62
     0
 92
       -2
340
14
 93
        0
 40
0.045
309
GRIDFORMAT_END
 95
       16
302
GRIDFORMAT
  1
GRIDFORMAT_BEGIN
 90
        0
 91
        1
 62
     0
 92
       -2
340
14
 93
        0
 40
0.045
309
GRIDFORMAT_END
 95
       32
302
GRIDFORMAT
  1
GRIDFORMAT_BEGIN
 90
        0
 91
        1
 62
     0
 92
       -2
340
14
 93
        0
 40
0.045
309
GRIDFORMAT_END
309
TABLEFORMAT_END
  1
CELLSTYLE_BEGIN
 90
        2
 91
        1
300
_HEADER
309
CELLSTYLE_END
300
CELLSTYLE
  1
TABLEFORMAT_BEGIN
 90
        5
170
     1
 91
        0
 92
        0
 62
   257
 93
        1
300
CONTENTFORMAT
  1
CONTENTFORMAT_BEGIN
 90
        0
 91
        0
 92
        4
 93
        0
300

 40
0.0
140
1.0
 94
        2
 62
     0
340
11
144
4.5
309
CONTENTFORMAT_END
171
     1
301
MARGIN
  1
CELLMARGIN_BEGIN
 40
1.5
 40
1.5
 40
1.5
 40
1.5
 40
1.5
 40
1.5
309
CELLMARGIN_END
 94
        6
 95
        1
302
GRIDFORMAT
  1
GRIDFORMAT_BEGIN
 90
        0
 91
        1
 62
     0
 92
       -2
340
14
 93
        0
 40
0.045
309
GRIDFORMAT_END
 95
        2
302
GRIDFORMAT
  1
GRIDFORMAT_BEGIN
 90
        0
 91
        1
 62
     0
 92
       -2
340
14
 93
        0
 40
0.045
309
GRIDFORMAT_END
 95
        4
302
GRIDFORMAT
  1
GRIDFORMAT_BEGIN
 90
        0
 91
        1
 62
     0
 92
       -2
340
14
 93
        0
 40
0.045
309
GRIDFORMAT_END
 95
        8
302
GRIDFORMAT
  1
GRIDFORMAT_BEGIN
 90
        0
 91
        1
 62
     0
 92
       -2
340
14
 93
        0
 40
0.045
309
GRIDFORMAT_END
 95
       16
302
GRIDFORMAT
  1
GRIDFORMAT_BEGIN
 90
        0
 91
        1
 62
     0
 92
       -2
340
14
 93
        0
 40
0.045
309
GRIDFORMAT_END
 95
       32
302
GRIDFORMAT
  1
GRIDFORMAT_BEGIN
 90
        0
 91
        1
 62
     0
 92
       -2
340
14
 93
        0
 40
0.045
309
GRIDFORMAT_END
309
TABLEFORMAT_END
  1
CELLSTYLE_BEGIN
 90
        3
 91
        2
300
_DATA
309
CELLSTYLE_END
  0
ENDSEC
  0
EOF