0
SECTION
  2
HEADER
  9
$ACADVER
  1
AC1027
  9
$ACADMAINTVER
 70
     8
  9
$DWGCODEPAGE
  3
ANSI_1252
  9
$REQUIREDVERSIONS
160
                 0
  9
$COMMENTS
  1
File was created by Cadenas
  9
$CUSTOMPROPERTYTAG
  1
NN
  9
$CUSTOMPROPERTY
  1
Eccentric Collar Two-Bolt Pillow Block Inch Bore
  9
$CUSTOMPROPERTYTAG
  1
NT
  9
$CUSTOMPROPERTY
  1
Eccentric Collar Pillow Block Bearings -(Normal Duty)
  9
$CUSTOMPROPERTYTAG
  1
NB
  9
$CUSTOMPROPERTY
  1
049841
  9
$CUSTOMPROPERTYTAG
  1
NBSYN
  9
$CUSTOMPROPERTY
  1
$PN.
  9
$CUSTOMPROPERTYTAG
  1
LINA
  9
$CUSTOMPROPERTY
  1
049841
  9
$CUSTOMPROPERTYTAG
  1
SERIES
  9
$CUSTOMPROPERTY
  1
208
  9
$CUSTOMPROPERTYTAG
  1
SS
  9
$CUSTOMPROPERTY
  1
1-1/2
  9
$CUSTOMPROPERTYTAG
  1
PN
  9
$CUSTOMPROPERTY
  1
049841
  9
$CUSTOMPROPERTYTAG
  1
DESCRIPTION
  9
$CUSTOMPROPERTY
  1
P2B-SXR-108-NL
  9
$CUSTOMPROPERTYTAG
  1
LF
  9
$CUSTOMPROPERTY
  1
NO-LUBE
  9
$CUSTOMPROPERTYTAG
  1
WEIGHT
  9
$CUSTOMPROPERTY
  1
5.3
  9
$CUSTOMPROPERTYTAG
  1
A
  9
$CUSTOMPROPERTY
  1
2.12
  9
$CUSTOMPROPERTYTAG
  1
B
  9
$CUSTOMPROPERTY
  1
7.25
  9
$CUSTOMPROPERTYTAG
  1
C
  9
$CUSTOMPROPERTY
  1
1.93
  9
$CUSTOMPROPERTYTAG
  1
DMIN
  9
$CUSTOMPROPERTY
  1
5.18
  9
$CUSTOMPROPERTYTAG
  1
DMAX
  9
$CUSTOMPROPERTY
  1
5.88
  9
$CUSTOMPROPERTYTAG
  1
F
  9
$CUSTOMPROPERTY
  1
1/2
  9
$CUSTOMPROPERTYTAG
  1
G
  9
$CUSTOMPROPERTY
  1
0.91
  9
$CUSTOMPROPERTYTAG
  1
H
  9
$CUSTOMPROPERTY
  1
0.93
  9
$CUSTOMPROPERTYTAG
  1
J
  9
$CUSTOMPROPERTY
  1
4.19
  9
$CUSTOMPROPERTYTAG
  1
L
  9
$CUSTOMPROPERTY
  1
2.38
  9
$CUSTOMPROPERTYTAG
  1
M
  9
$CUSTOMPROPERTY
  1
2.13
  9
$CUSTOMPROPERTYTAG
  1
R
  9
$CUSTOMPROPERTY
  1
0.75
  9
$CUSTOMPROPERTYTAG
  1
S
  9
$CUSTOMPROPERTY
  1
1.37
  9
$CUSTOMPROPERTYTAG
  1
U
  9
$CUSTOMPROPERTY
  1
3.26
  9
$CUSTOMPROPERTYTAG
  1
V
  9
$CUSTOMPROPERTY
  1
6.52
  9
$CUSTOMPROPERTYTAG
  1
W
  9
$CUSTOMPROPERTY
  1
0.69
  9
$CUSTOMPROPERTYTAG
  1
X
  9
$CUSTOMPROPERTY
  1
0.12
  9
$CUSTOMPROPERTYTAG
  1
COMPANY
  9
$CUSTOMPROPERTY
  1
baldor
  9
$INSBASE
 10
0.0
 20
0.0
 30
0.0
  9
$EXTMIN
 10
1.000000000000000E+20
 20
1.000000000000000E+20
 30
1.000000000000000E+20
  9
$EXTMAX
 10
-1.000000000000000E+20
 20
-1.000000000000000E+20
 30
-1.000000000000000E+20
  9
$LIMMIN
 10
0.0
 20
0.0
  9
$LIMMAX
 10
12.0
 20
9.0
  9
$ORTHOMODE
 70
     0
  9
$REGENMODE
 70
     1
  9
$FILLMODE
 70
     1
  9
$QTEXTMODE
 70
     0
  9
$MIRRTEXT
 70
     1
  9
$LTSCALE
 40
1.0
  9
$ATTMODE
 70
     1
  9
$TEXTSIZE
 40
0.2
  9
$TRACEWID
 40
0.05
  9
$TEXTSTYLE
  7
Standard
  9
$CLAYER
  8
0
  9
$CELTYPE
  6
ByLayer
  9
$CECOLOR
 62
   256
  9
$CELTSCALE
 40
1.0
  9
$DISPSILH
 70
     0
  9
$DIMSCALE
 40
1.0
  9
$DIMASZ
 40
0.18
  9
$DIMEXO
 40
0.0625
  9
$DIMDLI
 40
0.38
  9
$DIMRND
 40
0.0
  9
$DIMDLE
 40
0.0
  9
$DIMEXE
 40
0.18
  9
$DIMTP
 40
0.0
  9
$DIMTM
 40
0.0
  9
$DIMTXT
 40
0.18
  9
$DIMCEN
 40
0.09
  9
$DIMTSZ
 40
0.0
  9
$DIMTOL
 70
     0
  9
$DIMLIM
 70
     0
  9
$DIMTIH
 70
     1
  9
$DIMTOH
 70
     1
  9
$DIMSE1
 70
     0
  9
$DIMSE2
 70
     0
  9
$DIMTAD
 70
     0
  9
$DIMZIN
 70
     0
  9
$DIMBLK
  1

  9
$DIMASO
 70
     1
  9
$DIMSHO
 70
     1
  9
$DIMPOST
  1

  9
$DIMAPOST
  1

  9
$DIMALT
 70
     0
  9
$DIMALTD
 70
     2
  9
$DIMALTF
 40
25.4
  9
$DIMLFAC
 40
1.0
  9
$DIMTOFL
 70
     0
  9
$DIMTVP
 40
0.0
  9
$DIMTIX
 70
     0
  9
$DIMSOXD
 70
     0
  9
$DIMSAH
 70
     0
  9
$DIMBLK1
  1

  9
$DIMBLK2
  1

  9
$DIMSTYLE
  2
Standard
  9
$DIMCLRD
 70
     0
  9
$DIMCLRE
 70
     0
  9
$DIMCLRT
 70
     0
  9
$DIMTFAC
 40
1.0
  9
$DIMGAP
 40
0.09
  9
$DIMJUST
 70
     0
  9
$DIMSD1
 70
     0
  9
$DIMSD2
 70
     0
  9
$DIMTOLJ
 70
     1
  9
$DIMTZIN
 70
     0
  9
$DIMALTZ
 70
     0
  9
$DIMALTTZ
 70
     0
  9
$DIMUPT
 70
     0
  9
$DIMDEC
 70
     4
  9
$DIMTDEC
 70
     4
  9
$DIMALTU
 70
     2
  9
$DIMALTTD
 70
     2
  9
$DIMTXSTY
  7
Standard
  9
$DIMAUNIT
 70
     0
  9
$DIMADEC
 70
     0
  9
$DIMALTRND
 40
0.0
  9
$DIMAZIN
 70
     0
  9
$DIMDSEP
 70
    46
  9
$DIMATFIT
 70
     3
  9
$DIMFRAC
 70
     0
  9
$DIMLDRBLK
  1

  9
$DIMLUNIT
 70
     2
  9
$DIMLWD
 70
    -2
  9
$DIMLWE
 70
    -2
  9
$DIMTMOVE
 70
     0
  9
$DIMFXL
 40
1.0
  9
$DIMFXLON
 70
     0
  9
$DIMJOGANG
 40
0.7853981633974483
  9
$DIMTFILL
 70
     0
  9
$DIMTFILLCLR
 70
     0
  9
$DIMARCSYM
 70
     0
  9
$DIMLTYPE
  6

  9
$DIMLTEX1
  6

  9
$DIMLTEX2
  6

  9
$DIMTXTDIRECTION
 70
     0
  9
$LUNITS
 70
     2
  9
$LUPREC
 70
     4
  9
$SKETCHINC
 40
0.1
  9
$FILLETRAD
 40
0.5
  9
$AUNITS
 70
     0
  9
$AUPREC
 70
     0
  9
$MENU
  1
.
  9
$ELEVATION
 40
0.0
  9
$PELEVATION
 40
0.0
  9
$THICKNESS
 40
0.0
  9
$LIMCHECK
 70
     0
  9
$CHAMFERA
 40
0.0
  9
$CHAMFERB
 40
0.0
  9
$CHAMFERC
 40
0.0
  9
$CHAMFERD
 40
0.0
  9
$SKPOLY
 70
     0
  9
$TDCREATE
 40
2458168.980400417
  9
$TDUCREATE
 40
2458168.93873375
  9
$TDUPDATE
 40
2458168.980400602
  9
$TDUUPDATE
 40
2458168.938733935
  9
$TDINDWG
 40
0.0000000116
  9
$TDUSRTIMER
 40
0.0000000116
  9
$USRTIMER
 70
     1
  9
$ANGBASE
 50
0.0
  9
$ANGDIR
 70
     0
  9
$PDMODE
 70
     0
  9
$PDSIZE
 40
0.0
  9
$PLINEWID
 40
0.0
  9
$SPLFRAME
 70
     0
  9
$SPLINETYPE
 70
     6
  9
$SPLINESEGS
 70
     8
  9
$HANDSEED
  5
1D3
  9
$SURFTAB1
 70
     6
  9
$SURFTAB2
 70
     6
  9
$SURFTYPE
 70
     6
  9
$SURFU
 70
     6
  9
$SURFV
 70
     6
  9
$UCSBASE
  2

  9
$UCSNAME
  2

  9
$UCSORG
 10
0.0
 20
0.0
 30
0.0
  9
$UCSXDIR
 10
1.0
 20
0.0
 30
0.0
  9
$UCSYDIR
 10
0.0
 20
1.0
 30
0.0
  9
$UCSORTHOREF
  2

  9
$UCSORTHOVIEW
 70
     0
  9
$UCSORGTOP
 10
0.0
 20
0.0
 30
0.0
  9
$UCSORGBOTTOM
 10
0.0
 20
0.0
 30
0.0
  9
$UCSORGLEFT
 10
0.0
 20
0.0
 30
0.0
  9
$UCSORGRIGHT
 10
0.0
 20
0.0
 30
0.0
  9
$UCSORGFRONT
 10
0.0
 20
0.0
 30
0.0
  9
$UCSORGBACK
 10
0.0
 20
0.0
 30
0.0
  9
$PUCSBASE
  2

  9
$PUCSNAME
  2

  9
$PUCSORG
 10
0.0
 20
0.0
 30
0.0
  9
$PUCSXDIR
 10
1.0
 20
0.0
 30
0.0
  9
$PUCSYDIR
 10
0.0
 20
1.0
 30
0.0
  9
$PUCSORTHOREF
  2

  9
$PUCSORTHOVIEW
 70
     0
  9
$PUCSORGTOP
 10
0.0
 20
0.0
 30
0.0
  9
$PUCSORGBOTTOM
 10
0.0
 20
0.0
 30
0.0
  9
$PUCSORGLEFT
 10
0.0
 20
0.0
 30
0.0
  9
$PUCSORGRIGHT
 10
0.0
 20
0.0
 30
0.0
  9
$PUCSORGFRONT
 10
0.0
 20
0.0
 30
0.0
  9
$PUCSORGBACK
 10
0.0
 20
0.0
 30
0.0
  9
$USERI1
 70
     0
  9
$USERI2
 70
     0
  9
$USERI3
 70
     0
  9
$USERI4
 70
     0
  9
$USERI5
 70
     0
  9
$USERR1
 40
0.0
  9
$USERR2
 40
0.0
  9
$USERR3
 40
0.0
  9
$USERR4
 40
0.0
  9
$USERR5
 40
0.0
  9
$WORLDVIEW
 70
     1
  9
$SHADEDGE
 70
     3
  9
$SHADEDIF
 70
    70
  9
$TILEMODE
 70
     1
  9
$MAXACTVP
 70
    64
  9
$PINSBASE
 10
0.0
 20
0.0
 30
0.0
  9
$PLIMCHECK
 70
     0
  9
$PEXTMIN
 10
1.000000000000000E+20
 20
1.000000000000000E+20
 30
1.000000000000000E+20
  9
$PEXTMAX
 10
-1.000000000000000E+20
 20
-1.000000000000000E+20
 30
-1.000000000000000E+20
  9
$PLIMMIN
 10
0.0
 20
0.0
  9
$PLIMMAX
 10
12.0
 20
9.0
  9
$UNITMODE
 70
     0
  9
$VISRETAIN
 70
     1
  9
$PLINEGEN
 70
     0
  9
$PSLTSCALE
 70
     1
  9
$TREEDEPTH
 70
  3020
  9
$CMLSTYLE
  2
Standard
  9
$CMLJUST
 70
     0
  9
$CMLSCALE
 40
1.0
  9
$PROXYGRAPHICS
 70
     1
  9
$MEASUREMENT
 70
     0
  9
$CELWEIGHT
370
    -1
  9
$ENDCAPS
280
     0
  9
$JOINSTYLE
280
     0
  9
$LWDISPLAY
290
     0
  9
$INSUNITS
 70
     1
  9
$HYPERLINKBASE
  1

  9
$STYLESHEET
  1

  9
$XEDIT
290
     1
  9
$CEPSNTYPE
380
     0
  9
$PSTYLEMODE
290
     1
  9
$FINGERPRINTGUID
  2
{4CB34FBC-7EA6-4FAA-BB67-856FA04486CB}
  9
$VERSIONGUID
  2
{FAEB1C32-E019-11D5-929B-00C0DF256EC4}
  9
$EXTNAMES
290
     1
  9
$PSVPSCALE
 40
0.0
  9
$OLESTARTUP
290
     0
  9
$SORTENTS
280
   127
  9
$INDEXCTL
280
     0
  9
$HIDETEXT
280
     1
  9
$XCLIPFRAME
280
     2
  9
$HALOGAP
280
     0
  9
$OBSCOLOR
 70
   257
  9
$OBSLTYPE
280
     0
  9
$INTERSECTIONDISPLAY
280
     0
  9
$INTERSECTIONCOLOR
 70
   257
  9
$DIMASSOC
280
     2
  9
$PROJECTNAME
  1

  9
$CAMERADISPLAY
290
     0
  9
$LENSLENGTH
 40
50.0
  9
$CAMERAHEIGHT
 40
0.0
  9
$STEPSPERSEC
 40
2.0
  9
$STEPSIZE
 40
6.0
  9
$3DDWFPREC
 40
2.0
  9
$PSOLWIDTH
 40
0.25
  9
$PSOLHEIGHT
 40
4.0
  9
$LOFTANG1
 40
1.570796326794897
  9
$LOFTANG2
 40
1.570796326794897
  9
$LOFTMAG1
 40
0.0
  9
$LOFTMAG2
 40
0.0
  9
$LOFTPARAM
 70
     7
  9
$LOFTNORMALS
280
     1
  9
$LATITUDE
 40
37.795
  9
$LONGITUDE
 40
-122.394
  9
$NORTHDIRECTION
 40
0.0
  9
$TIMEZONE
 70
 -8000
  9
$LIGHTGLYPHDISPLAY
280
     1
  9
$TILEMODELIGHTSYNCH
280
     1
  9
$CMATERIAL
347
44
  9
$SOLIDHIST
280
     0
  9
$SHOWHIST
280
     1
  9
$DWFFRAME
280
     2
  9
$DGNFRAME
280
     2
  9
$REALWORLDSCALE
290
     1
  9
$INTERFERECOLOR
 62
   256
  9
$CSHADOW
280
     0
  9
$SHADOWPLANELOCATION
 40
0.0
  0
ENDSEC
  0
SECTION
  2
CLASSES
  0
CLASS
  1
ACDBDICTIONARYWDFLT
  2
AcDbDictionaryWithDefault
  3
ObjectDBX Classes
 90
        0
 91
        4
280
     0
281
     0
  0
CLASS
  1
VISUALSTYLE
  2
AcDbVisualStyle
  3
ObjectDBX Classes
 90
     4095
 91
        4
280
     0
281
     0
  0
CLASS
  1
MATERIAL
  2
AcDbMaterial
  3
ObjectDBX Classes
 90
     1153
 91
        4
280
     0
281
     0
  0
CLASS
  1
SCALE
  2
AcDbScale
  3
ObjectDBX Classes
 90
     1153
 91
        4
280
     0
281
     0
  0
CLASS
  1
TABLESTYLE
  2
AcDbTableStyle
  3
ObjectDBX Classes
 90
     4095
 91
        4
280
     0
281
     0
  0
CLASS
  1
MLEADERSTYLE
  2
AcDbMLeaderStyle
  3
ACDB_MLEADERSTYLE_CLASS
 90
     4095
 91
        4
280
     0
281
     0
  0
CLASS
  1
SUN
  2
AcDbSun
  3
SCENEOE
 90
     1153
 91
        4
280
     0
281
     0
  0
CLASS
  1
DICTIONARYVAR
  2
AcDbDictionaryVar
  3
ObjectDBX Classes
 90
        0
 91
        4
280
     0
281
     0
  0
CLASS
  1
CELLSTYLEMAP
  2
AcDbCellStyleMap
  3
ObjectDBX Classes
 90
     1152
 91
        4
280
     0
281
     0
  0
ENDSEC
  0
SECTION
  2
TABLES
  0
TABLE
  2
VPORT
  5
8
330
0
100
AcDbSymbolTable
 70
     1
  0
VPORT
  5
29
330
8
100
AcDbSymbolTableRecord
100
AcDbViewportTableRecord
  2
*Active
 70
     0
 10
0.0
 20
0.0
 11
1.0
 21
1.0
 12
0.0
 22
-0.2072500000000002
 13
0.0
 23
0.0
 14
0.5
 24
0.5
 15
0.5
 25
0.5
 16
0.0
 26
0.0
 36
1.0
 17
0.0
 27
0.0
 37
0.0
 40
2.588249999999999
 41
2.857142857142858
 42
50.0
 43
0.0
 44
0.0
 50
0.0
 51
0.0
 71
     0
 72
   100
 73
     1
 74
     3
 75
     0
 76
     0
 77
     0
 78
     0
281
     0
 65
     1
110
0.0
120
0.0
130
0.0
111
1.0
121
0.0
131
0.0
112
0.0
122
1.0
132
0.0
 79
     0
146
0.0
348
2F
 60
     3
 61
     5
292
     1
282
     1
141
0.0
142
0.0
 63
   250
361
6D
  0
ENDTAB
  0
TABLE
  2
LTYPE
  5
5
330
0
100
AcDbSymbolTable
 70
     3
  0
LTYPE
  5
14
330
5
100
AcDbSymbolTableRecord
100
AcDbLinetypeTableRecord
  2
ByBlock
 70
     0
  3

 72
    65
 73
     0
 40
0.0
  0
LTYPE
  5
15
330
5
100
AcDbSymbolTableRecord
100
AcDbLinetypeTableRecord
  2
ByLayer
 70
     0
  3

 72
    65
 73
     0
 40
0.0
  0
LTYPE
  5
16
330
5
100
AcDbSymbolTableRecord
100
AcDbLinetypeTableRecord
  2
Continuous
 70
     0
  3
Solid line
 72
    65
 73
     0
 40
0.0
  0
LTYPE
  5
9B
330
5
100
AcDbSymbolTableRecord
100
AcDbLinetypeTableRecord
  2
Dashed
 70
     0
  3

 72
    65
 73
     2
 40
2.0
 49
1.0
 74
     0
 49
-1.0
 74
     0
  0
LTYPE
  5
100
330
5
100
AcDbSymbolTableRecord
100
AcDbLinetypeTableRecord
  2
Center
 70
     0
  3

 72
    65
 73
     4
 40
1.5
 49
0.45
 74
     0
 49
-0.5
 74
     0
 49
0.05
 74
     0
 49
-0.5
 74
     0
  0
ENDTAB
  0
TABLE
  2
LAYER
  5
2
330
0
100
AcDbSymbolTable
 70
     7
  0
LAYER
  5
10
330
2
100
AcDbSymbolTableRecord
100
AcDbLayerTableRecord
  2
0
 70
     0
 62
     7
  6
Continuous
370
    -3
390
F
347
46
348
0
  0
LAYER
  5
72
330
2
100
AcDbSymbolTableRecord
100
AcDbLayerTableRecord
  2
AM_6
 70
     0
 62
    -2
  6
Continuous
370
    35
390
F
347
46
348
0
  0
LAYER
  5
9C
330
2
100
AcDbSymbolTableRecord
100
AcDbLayerTableRecord
  2
AM_9
 70
     0
 62
     6
  6
Dashed
370
    25
390
F
347
46
348
0
  0
LAYER
  5
AD
330
2
100
AcDbSymbolTableRecord
100
AcDbLayerTableRecord
  2
AM_4
 70
     0
 62
     7
  6
Continuous
370
    50
390
F
347
46
348
0
  0
LAYER
  5
101
330
2
100
AcDbSymbolTableRecord
100
AcDbLayerTableRecord
  2
AM_7
 70
     0
 62
     7
  6
Center
370
    25
390
F
347
46
348
0
  0
LAYER
  5
121
330
2
100
AcDbSymbolTableRecord
100
AcDbLayerTableRecord
  2
AM_5
 70
     0
 62
     3
  6
Continuous
370
    25
390
F
347
46
348
0
  0
LAYER
  5
1C4
330
2
100
AcDbSymbolTableRecord
100
AcDbLayerTableRecord
  2
ConnectionPoints
 70
     0
 62
     7
  6
Continuous
370
    50
390
F
347
46
348
0
  0
ENDTAB
  0
TABLE
  2
STYLE
  5
3
330
0
100
AcDbSymbolTable
 70
     1
  0
STYLE
  5
11
330
3
100
AcDbSymbolTableRecord
100
AcDbTextStyleTableRecord
  2
Standard
 70
     0
 40
0.0
 41
1.0
 50
0.0
 71
     0
 42
0.2
  3
txt
  4

  0
ENDTAB
  0
TABLE
  2
VIEW
  5
6
330
0
100
AcDbSymbolTable
 70
     0
  0
ENDTAB
  0
TABLE
  2
UCS
  5
7
330
0
100
AcDbSymbolTable
 70
     0
  0
ENDTAB
  0
TABLE
  2
APPID
  5
9
330
0
100
AcDbSymbolTable
 70
     1
  0
APPID
  5
12
330
9
100
AcDbSymbolTableRecord
100
AcDbRegAppTableRecord
  2
ACAD
 70
     0
  0
ENDTAB
  0
TABLE
  2
DIMSTYLE
  5
A
330
0
100
AcDbSymbolTable
 70
     1
100
AcDbDimStyleTable
  0
DIMSTYLE
105
27
330
A
100
AcDbSymbolTableRecord
100
AcDbDimStyleTableRecord
  2
Standard
 70
     0
178
     0
340
11
  0
ENDTAB
  0
TABLE
  2
BLOCK_RECORD
  5
1
330
0
100
AcDbSymbolTable
 70
     5
  0
BLOCK_RECORD
  5
1F
330
1
100
AcDbSymbolTableRecord
100
AcDbBlockTableRecord
  2
*Model_Space
340
22
 70
     0
280
     1
281
     0
  0
BLOCK_RECORD
  5
1B
330
1
100
AcDbSymbolTableRecord
100
AcDbBlockTableRecord
  2
*Paper_Space
340
1E
 70
     0
280
     1
281
     0
  0
BLOCK_RECORD
  5
23
330
1
100
AcDbSymbolTableRecord
100
AcDbBlockTableRecord
  2
*Paper_Space0
340
26
 70
     0
280
     1
281
     0
  0
BLOCK_RECORD
  5
6E
330
1
100
AcDbSymbolTableRecord
100
AcDbBlockTableRecord
  2
1_049841_4
340
0
102
{BLKREFS
331
6F
102
}
 70
     0
280
     1
281
     0
  0
BLOCK_RECORD
  5
90
330
1
100
AcDbSymbolTableRecord
100
AcDbBlockTableRecord
  2
2_430026_0_in_049841_4
340
0
102
{BLKREFS
331
91
102
}
 70
     0
280
     1
281
     0
  0
BLOCK_RECORD
  5
BF
330
1
100
AcDbSymbolTableRecord
100
AcDbBlockTableRecord
  2
3_131916_0_in_049841_4
340
0
102
{BLKREFS
331
C0
102
}
 70
     0
280
     1
281
     0
  0
BLOCK_RECORD
  5
123
330
1
100
AcDbSymbolTableRecord
100
AcDbBlockTableRecord
  2
4_049841H_0_in_049841_4
340
0
102
{BLKREFS
331
124
102
}
 70
     0
280
     1
281
     0
  0
ENDTAB
  0
ENDSEC
  0
SECTION
  2
BLOCKS
  0
BLOCK
  5
20
330
1F
100
AcDbEntity
  8
0
100
AcDbBlockBegin
  2
*Model_Space
 70
     0
 10
0.0
 20
0.0
 30
0.0
  3
*Model_Space
  1

  0
ENDBLK
  5
21
330
1F
100
AcDbEntity
  8
0
100
AcDbBlockEnd
  0
BLOCK
  5
1C
330
1B
100
AcDbEntity
 67
     1
  8
0
100
AcDbBlockBegin
  2
*Paper_Space
 70
     0
 10
0.0
 20
0.0
 30
0.0
  3
*Paper_Space
  1

  0
ENDBLK
  5
1D
330
1B
100
AcDbEntity
 67
     1
  8
0
100
AcDbBlockEnd
  0
BLOCK
  5
24
330
23
100
AcDbEntity
  8
0
100
AcDbBlockBegin
  2
*Paper_Space0
 70
     0
 10
0.0
 20
0.0
 30
0.0
  3
*Paper_Space0
  1

  0
ENDBLK
  5
25
330
23
100
AcDbEntity
  8
0
100
AcDbBlockEnd
  0
BLOCK
  5
70
330
6E
100
AcDbEntity
  8
0
100
AcDbBlockBegin
  2
1_049841_4
 70
     2
 10
0.0
 20
0.0
 30
0.0
  3
1_049841_4
  1

  0
ATTDEF
  5
73
330
6E
100
AcDbEntity
  8
AM_6
100
AcDbText
 10
8.625
 20
1.0615
 30
0.0
 40
0.5
  1
Eccentric Collar Two-Bolt Pillow Block Inch Bore
100
AcDbAttributeDefinition
  3

  2
NN
 70
     8
280
     0
  0
ATTDEF
  5
74
330
6E
100
AcDbEntity
  8
AM_6
100
AcDbText
 10
8.625
 20
0.5614999999999999
 30
0.0
 40
0.5
  1
Eccentric Collar Pillow Block Bearings -(Normal Duty)
100
AcDbAttributeDefinition
  3

  2
NT
 70
     8
280
     0
  0
ATTDEF
  5
75
330
6E
100
AcDbEntity
  8
AM_6
100
AcDbText
 10
8.625
 20
0.0614999999999999
 30
0.0
 40
0.5
  1
049841
100
AcDbAttributeDefinition
  3

  2
NB
 70
     8
280
     0
  0
ATTDEF
  5
76
330
6E
100
AcDbEntity
  8
AM_6
100
AcDbText
 10
8.625
 20
-0.4385000000000001
 30
0.0
 40
0.5
  1
$PN.
100
AcDbAttributeDefinition
  3

  2
NBSYN
 70
     8
280
     0
  0
ATTDEF
  5
77
330
6E
100
AcDbEntity
  8
AM_6
100
AcDbText
 10
8.625
 20
-0.9385000000000001
 30
0.0
 40
0.5
  1
049841
100
AcDbAttributeDefinition
  3

  2
LINA
 70
     8
280
     0
  0
ATTDEF
  5
78
330
6E
100
AcDbEntity
  8
AM_6
100
AcDbText
 10
8.625
 20
-1.4385
 30
0.0
 40
0.5
  1
208
100
AcDbAttributeDefinition
  3

  2
SERIES
 70
     8
280
     0
  0
ATTDEF
  5
79
330
6E
100
AcDbEntity
  8
AM_6
100
AcDbText
 10
8.625
 20
-1.9385
 30
0.0
 40
0.5
  1
1-1/2
100
AcDbAttributeDefinition
  3

  2
SS
 70
     8
280
     0
  0
ATTDEF
  5
7A
330
6E
100
AcDbEntity
  8
AM_6
100
AcDbText
 10
8.625
 20
-2.4385
 30
0.0
 40
0.5
  1
049841
100
AcDbAttributeDefinition
  3

  2
PN
 70
     8
280
     0
  0
ATTDEF
  5
7B
330
6E
100
AcDbEntity
  8
AM_6
100
AcDbText
 10
8.625
 20
-2.9385
 30
0.0
 40
0.5
  1
P2B-SXR-108-NL
100
AcDbAttributeDefinition
  3

  2
DESCRIPTION
 70
     8
280
     0
  0
ATTDEF
  5
7C
330
6E
100
AcDbEntity
  8
AM_6
100
AcDbText
 10
8.625
 20
-3.4385
 30
0.0
 40
0.5
  1
NO-LUBE
100
AcDbAttributeDefinition
  3

  2
LF
 70
     8
280
     0
  0
ATTDEF
  5
7D
330
6E
100
AcDbEntity
  8
AM_6
100
AcDbText
 10
8.625
 20
-3.9385
 30
0.0
 40
0.5
  1
5.3
100
AcDbAttributeDefinition
  3

  2
WEIGHT
 70
     8
280
     0
  0
ATTDEF
  5
7E
330
6E
100
AcDbEntity
  8
AM_6
100
AcDbText
 10
8.625
 20
-4.4385
 30
0.0
 40
0.5
  1
2.12
100
AcDbAttributeDefinition
  3

  2
A
 70
     8
280
     0
  0
ATTDEF
  5
7F
330
6E
100
AcDbEntity
  8
AM_6
100
AcDbText
 10
8.625
 20
-4.9385
 30
0.0
 40
0.5
  1
7.25
100
AcDbAttributeDefinition
  3

  2
B
 70
     8
280
     0
  0
ATTDEF
  5
80
330
6E
100
AcDbEntity
  8
AM_6
100
AcDbText
 10
8.625
 20
-5.4385
 30
0.0
 40
0.5
  1
1.93
100
AcDbAttributeDefinition
  3

  2
C
 70
     8
280
     0
  0
ATTDEF
  5
81
330
6E
100
AcDbEntity
  8
AM_6
100
AcDbText
 10
8.625
 20
-5.9385
 30
0.0
 40
0.5
  1
5.18
100
AcDbAttributeDefinition
  3

  2
DMIN
 70
     8
280
     0
  0
ATTDEF
  5
82
330
6E
100
AcDbEntity
  8
AM_6
100
AcDbText
 10
8.625
 20
-6.4385
 30
0.0
 40
0.5
  1
5.88
100
AcDbAttributeDefinition
  3

  2
DMAX
 70
     8
280
     0
  0
ATTDEF
  5
83
330
6E
100
AcDbEntity
  8
AM_6
100
AcDbText
 10
8.625
 20
-6.9385
 30
0.0
 40
0.5
  1
1/2
100
AcDbAttributeDefinition
  3

  2
F
 70
     8
280
     0
  0
ATTDEF
  5
84
330
6E
100
AcDbEntity
  8
AM_6
100
AcDbText
 10
8.625
 20
-7.4385
 30
0.0
 40
0.5
  1
0.91
100
AcDbAttributeDefinition
  3

  2
G
 70
     8
280
     0
  0
ATTDEF
  5
85
330
6E
100
AcDbEntity
  8
AM_6
100
AcDbText
 10
8.625
 20
-7.9385
 30
0.0
 40
0.5
  1
0.93
100
AcDbAttributeDefinition
  3

  2
H
 70
     8
280
     0
  0
ATTDEF
  5
86
330
6E
100
AcDbEntity
  8
AM_6
100
AcDbText
 10
8.625
 20
-8.438500000000001
 30
0.0
 40
0.5
  1
4.19
100
AcDbAttributeDefinition
  3

  2
J
 70
     8
280
     0
  0
ATTDEF
  5
87
330
6E
100
AcDbEntity
  8
AM_6
100
AcDbText
 10
8.625
 20
-8.938500000000001
 30
0.0
 40
0.5
  1
2.38
100
AcDbAttributeDefinition
  3

  2
L
 70
     8
280
     0
  0
ATTDEF
  5
88
330
6E
100
AcDbEntity
  8
AM_6
100
AcDbText
 10
8.625
 20
-9.438500000000001
 30
0.0
 40
0.5
  1
2.13
100
AcDbAttributeDefinition
  3

  2
M
 70
     8
280
     0
  0
ATTDEF
  5
89
330
6E
100
AcDbEntity
  8
AM_6
100
AcDbText
 10
8.625
 20
-9.938500000000001
 30
0.0
 40
0.5
  1
0.75
100
AcDbAttributeDefinition
  3

  2
R
 70
     8
280
     0
  0
ATTDEF
  5
8A
330
6E
100
AcDbEntity
  8
AM_6
100
AcDbText
 10
8.625
 20
-10.4385
 30
0.0
 40
0.5
  1
1.37
100
AcDbAttributeDefinition
  3

  2
S
 70
     8
280
     0
  0
ATTDEF
  5
8B
330
6E
100
AcDbEntity
  8
AM_6
100
AcDbText
 10
8.625
 20
-10.9385
 30
0.0
 40
0.5
  1
3.26
100
AcDbAttributeDefinition
  3

  2
U
 70
     8
280
     0
  0
ATTDEF
  5
8C
330
6E
100
AcDbEntity
  8
AM_6
100
AcDbText
 10
8.625
 20
-11.4385
 30
0.0
 40
0.5
  1
6.52
100
AcDbAttributeDefinition
  3

  2
V
 70
     8
280
     0
  0
ATTDEF
  5
8D
330
6E
100
AcDbEntity
  8
AM_6
100
AcDbText
 10
8.625
 20
-11.9385
 30
0.0
 40
0.5
  1
0.69
100
AcDbAttributeDefinition
  3

  2
W
 70
     8
280
     0
  0
ATTDEF
  5
8E
330
6E
100
AcDbEntity
  8
AM_6
100
AcDbText
 10
8.625
 20
-12.4385
 30
0.0
 40
0.5
  1
0.12
100
AcDbAttributeDefinition
  3

  2
X
 70
     8
280
     0
  0
ATTDEF
  5
8F
330
6E
100
AcDbEntity
  8
AM_6
100
AcDbText
 10
8.625
 20
-12.9385
 30
0.0
 40
0.5
  1
baldor
100
AcDbAttributeDefinition
  3

  2
COMPANY
 70
     8
280
     0
  0
INSERT
  5
91
330
6E
100
AcDbEntity
  8
0
100
AcDbBlockReference
  2
2_430026_0_in_049841_4
 10
0.0
 20
0.0
 30
0.0
  0
INSERT
  5
C0
330
6E
100
AcDbEntity
  8
0
100
AcDbBlockReference
  2
3_131916_0_in_049841_4
 10
0.0
 20
0.0
 30
0.0
  0
INSERT
  5
124
330
6E
100
AcDbEntity
  8
0
100
AcDbBlockReference
  2
4_049841H_0_in_049841_4
 10
0.0
 20
0.0
 30
0.0
  0
ENDBLK
  5
71
330
6E
100
AcDbEntity
  8
0
100
AcDbBlockEnd
  0
BLOCK
  5
92
330
90
100
AcDbEntity
  8
0
100
AcDbBlockBegin
  2
2_430026_0_in_049841_4
 70
     2
 10
0.0
 20
0.0
 30
0.0
  3
2_430026_0_in_049841_4
  1

  0
ATTDEF
  5
94
330
90
100
AcDbEntity
  8
AM_6
100
AcDbText
 10
6.620692673005921
 20
0.1993639982534375
 30
0.0
 40
0.5
  1
430026 Plug
100
AcDbAttributeDefinition
  3

  2
NN
 70
     8
280
     0
  0
ATTDEF
  5
95
330
90
100
AcDbEntity
  8
AM_6
100
AcDbText
 10
6.620692673005921
 20
-0.3006360017465625
 30
0.0
 40
0.5
  1
Plug
100
AcDbAttributeDefinition
  3

  2
NT
 70
     8
280
     0
  0
ATTDEF
  5
96
330
90
100
AcDbEntity
  8
AM_6
100
AcDbText
 10
6.620692673005921
 20
-0.8006360017465625
 30
0.0
 40
0.5
  1
430026
100
AcDbAttributeDefinition
  3

  2
NB
 70
     8
280
     0
  0
ATTDEF
  5
97
330
90
100
AcDbEntity
  8
AM_6
100
AcDbText
 10
6.620692673005921
 20
-1.300636001746562
 30
0.0
 40
0.5
  1
$PN.
100
AcDbAttributeDefinition
  3

  2
NBSYN
 70
     8
280
     0
  0
ATTDEF
  5
98
330
90
100
AcDbEntity
  8
AM_6
100
AcDbText
 10
6.620692673005921
 20
-1.800636001746562
 30
0.0
 40
0.5
  1
430026
100
AcDbAttributeDefinition
  3

  2
LINA
 70
     8
280
     0
  0
ATTDEF
  5
99
330
90
100
AcDbEntity
  8
AM_6
100
AcDbText
 10
6.620692673005921
 20
-2.300636001746562
 30
0.0
 40
0.5
  1
430026
100
AcDbAttributeDefinition
  3

  2
PN
 70
     8
280
     0
  0
ATTDEF
  5
9A
330
90
100
AcDbEntity
  8
AM_6
100
AcDbText
 10
6.620692673005921
 20
-2.800636001746562
 30
0.0
 40
0.5
  1
baldor
100
AcDbAttributeDefinition
  3

  2
COMPANY
 70
     8
280
     0
  0
ELLIPSE
  5
9D
330
90
100
AcDbEntity
  8
AM_9
100
AcDbEllipse
 10
1.272438652745192
 20
0.0000000000000001
 30
0.0
 11
-3.127431692422572E-17
 21
-0.1702494517657397
 31
0.0
210
0.0
220
0.0
230
1.0
 40
0.7071067811865475
 41
0.0
 42
6.283185307179586
  0
LINE
  5
9E
330
90
100
AcDbEntity
  8
AM_9
100
AcDbLine
 10
1.328474619755695
 20
0.0000000000000001
 30
0.0
 11
1.366747896986683
 21
-0.0937499999999999
 31
0.0
  0
LINE
  5
9F
330
90
100
AcDbEntity
  8
AM_9
100
AcDbLine
 10
1.366747896986683
 20
0.0937500000000001
 30
0.0
 11
1.328474619755695
 21
0.0000000000000001
 31
0.0
  0
LINE
  5
A0
330
90
100
AcDbEntity
  8
AM_9
100
AcDbLine
 10
1.447337765590035
 20
0.0838459434838453
 30
0.0
 11
1.443294451448657
 21
0.0937500000000001
 31
0.0
  0
LINE
  5
A1
330
90
100
AcDbEntity
  8
AM_9
100
AcDbLine
 10
1.443294451448657
 20
-0.0937499999999999
 30
0.0
 11
1.447296137946083
 21
-0.0839479099707201
 31
0.0
  0
ELLIPSE
  5
A2
330
90
100
AcDbEntity
  8
AM_9
100
AcDbEllipse
 10
1.405021174217668
 20
0.0000000000000013
 30
0.0
 11
5.740531871003145E-18
 21
0.09374999999999879
 31
0.0
210
0.0
220
0.0
230
1.0
 40
0.7071067811865552
 41
5.682331380376993
 42
10.02222055085829
  0
LINE
  5
A3
330
90
100
AcDbEntity
  8
AM_9
100
AcDbLine
 10
1.342553548324076
 20
-0.0661318839386912
 30
0.0
 11
1.380893128517699
 21
-0.0873197418766239
 31
0.0
  0
LINE
  5
A4
330
90
100
AcDbEntity
  8
AM_9
100
AcDbLine
 10
1.380893128517699
 20
0.0873197418766241
 30
0.0
 11
1.342553548324076
 21
0.0661318839386913
 31
0.0
  0
LINE
  5
A5
330
90
100
AcDbEntity
  8
AM_9
100
AcDbLine
 10
1.366747896986683
 20
0.0937500000000001
 30
0.0
 11
1.454608159947642
 21
0.0937500000000001
 31
0.0
  0
LINE
  5
A6
330
90
100
AcDbEntity
  8
AM_9
100
AcDbLine
 10
1.366747896986683
 20
-0.0937499999999999
 30
0.0
 11
1.454608159947642
 21
-0.0937499999999999
 31
0.0
  0
LINE
  5
A7
330
90
100
AcDbEntity
  8
AM_9
100
AcDbLine
 10
1.328474619755695
 20
0.0000000000000001
 30
0.0
 11
1.416334882716655
 21
0.0000000000000001
 31
0.0
  0
LINE
  5
A8
330
90
100
AcDbEntity
  8
AM_9
100
AcDbLine
 10
1.282360263217441
 20
-0.1907804974829229
 30
0.0
 11
1.452253997471105
 21
-0.1982851507886392
 31
0.0
  0
LINE
  5
A9
330
90
100
AcDbEntity
  8
AM_9
100
AcDbLine
 10
1.452253997471105
 20
0.1982851507886394
 30
0.0
 11
1.282360263217441
 21
0.1907804974829231
 31
0.0
  0
ELLIPSE
  5
AA
330
90
100
AcDbEntity
  8
AM_9
100
AcDbEllipse
 10
1.479274273093919
 20
0.0000000000000001
 30
0.0
 11
1.220859406417983E-17
 21
0.199381471828121
 31
0.0
210
0.0
220
0.0
230
1.0
 40
0.7071067811865475
 41
4.463828942208124
 42
4.960949018561256
  0
ELLIPSE
  5
AB
330
90
100
AcDbEntity
  8
AM_9
100
AcDbEllipse
 10
1.360827000393508
 20
0.0000000000000011
 30
0.0
 11
4.347610051068854E-18
 21
0.07100186035836339
 31
0.0
210
0.0
220
0.0
230
1.0
 40
0.7071067811865448
 41
0.0
 42
6.283185307179586
  0
ELLIPSE
  5
AC
330
90
100
AcDbEntity
  8
AM_9
100
AcDbEllipse
 10
1.286573901517262
 20
-0.0000000000000005
 30
0.0
 11
1.168763340082629E-17
 21
0.190873538541295
 31
0.0
210
0.0
220
0.0
230
1.0
 40
0.7071067811865468
 41
0.0
 42
6.283185307179586
  0
LINE
  5
AE
330
90
100
AcDbEntity
  8
AM_4
100
AcDbLine
 10
1.481567728679644
 20
0.0000000000000001
 30
0.0
 11
1.447337765590035
 21
0.0838459434838453
 31
0.0
  0
LINE
  5
AF
330
90
100
AcDbEntity
  8
AM_4
100
AcDbLine
 10
1.481567728679644
 20
0.0000000000000001
 30
0.0
 11
1.569427991640603
 21
0.0000000000000001
 31
0.0
  0
LINE
  5
B0
330
90
100
AcDbEntity
  8
AM_4
100
AcDbLine
 10
1.447296137946083
 20
-0.0839479099707201
 30
0.0
 11
1.481567728679644
 21
0.0000000000000001
 31
0.0
  0
ELLIPSE
  5
B1
330
90
100
AcDbEntity
  8
AM_4
100
AcDbEllipse
 10
1.405021174217673
 20
-0.0000000000000048
 30
0.0
 11
5.740531871002793E-18
 21
0.09374999999999305
 31
0.0
210
0.0
220
0.0
230
1.0
 40
0.7071067811865512
 41
3.739035243678673
 42
5.682331380377099
  0
LWPOLYLINE
  5
B2
330
90
100
AcDbEntity
  8
AM_4
100
AcDbPolyline
 90
        6
 70
     0
 43
0.0
 10
1.454608159947642
 20
-0.0937499999999999
 10
1.440032349402892
 20
-0.0742104790331714
 10
1.427793871503524
 20
-0.0527625339528987
 10
1.421904033670216
 20
-0.037736434300393
 10
1.418190054193222
 20
-0.022510364473931
 10
1.416334882716655
 20
0.0000000000000001
  0
LWPOLYLINE
  5
B3
330
90
100
AcDbEntity
  8
AM_4
100
AcDbPolyline
 90
        6
 70
     0
 43
0.0
 10
1.416334882716655
 20
0.0000000000000001
 10
1.417713024234286
 20
0.0195395209668286
 10
1.422986720160886
 20
0.0409874660471014
 10
1.429365641318529
 20
0.0560135656996071
 10
1.438083695795807
 20
0.071239635526069
 10
1.454608159947642
 20
0.0937500000000001
  0
LINE
  5
B4
330
90
100
AcDbEntity
  8
AM_4
100
AcDbLine
 10
1.454608159947642
 20
0.0937500000000001
 30
0.0
 11
1.531154714409616
 21
0.0937500000000001
 31
0.0
  0
LWPOLYLINE
  5
B5
330
90
100
AcDbEntity
  8
AM_4
100
AcDbPolyline
 90
        6
 70
     0
 43
0.0
 10
1.531154714409616
 20
0.0937500000000001
 10
1.532532855927248
 20
0.0742104790331715
 10
1.537806551853848
 20
0.0527625339528988
 10
1.54418547301149
 20
0.0377364343003932
 10
1.552903527488768
 20
0.0225103644739312
 10
1.569427991640603
 20
0.0000000000000001
  0
LWPOLYLINE
  5
B6
330
90
100
AcDbEntity
  8
AM_4
100
AcDbPolyline
 90
        6
 70
     0
 43
0.0
 10
1.569427991640603
 20
0.0000000000000001
 10
1.554852181095854
 20
-0.0195395209668285
 10
1.542613703196485
 20
-0.0409874660471012
 10
1.536723865363178
 20
-0.0560135656996069
 10
1.533009885886183
 20
-0.0712396355260688
 10
1.531154714409616
 20
-0.0937499999999999
  0
LINE
  5
B7
330
90
100
AcDbEntity
  8
AM_4
100
AcDbLine
 10
1.531154714409616
 20
-0.0937499999999999
 30
0.0
 11
1.454608159947642
 21
-0.0937499999999999
 31
0.0
  0
LINE
  5
B8
330
90
100
AcDbEntity
  8
AM_4
100
AcDbLine
 10
1.452253997471105
 20
-0.1982851507886392
 30
0.0
 11
1.474872817489387
 21
-0.1992842835887233
 31
0.0
  0
LINE
  5
B9
330
90
100
AcDbEntity
  8
AM_4
100
AcDbLine
 10
1.474872817489387
 20
0.1992842835887235
 30
0.0
 11
1.452253997471105
 21
0.1982851507886394
 31
0.0
  0
ELLIPSE
  5
BA
330
90
100
AcDbEntity
  8
AM_4
100
AcDbEllipse
 10
1.479274273093919
 20
-0.0000000000000003
 30
0.0
 11
1.220859406417984E-17
 21
0.1993814718281213
 31
0.0
210
0.0
220
0.0
230
1.0
 40
0.7071067811865476
 41
4.960949018561256
 42
10.74701424938771
  0
ELLIPSE
  5
BB
330
90
100
AcDbEntity
  8
AM_4
100
AcDbEllipse
 10
1.493409521865988
 20
0.0000000000000001
 30
0.0
 11
-2.002297516605922E-17
 21
-0.109
 31
0.0
210
0.0
220
0.0
230
1.0
 40
0.7071067811865483
 41
0.0
 42
6.283185307179586
  0
LINE
  5
BC
330
90
100
AcDbEntity
  8
AM_4
100
AcDbLine
 10
1.616780965116224
 20
0.0442828986057767
 30
0.0
 11
1.615925497242778
 21
0.0490495380771809
 31
0.0
  0
LINE
  5
BD
330
90
100
AcDbEntity
  8
AM_4
100
AcDbLine
 10
1.615925497242778
 20
-0.0490495380771807
 30
0.0
 11
1.616780965116224
 21
-0.0442828986057765
 31
0.0
  0
ELLIPSE
  5
BE
330
90
100
AcDbEntity
  8
AM_4
100
AcDbEllipse
 10
1.493409521865988
 20
0.0000000000000001
 30
0.0
 11
1.102216155863618E-17
 21
0.1800055586036764
 31
0.0
210
0.0
220
0.0
230
1.0
 40
0.7071067811865493
 41
0.0
 42
6.283185307179586
  0
ENDBLK
  5
93
330
90
100
AcDbEntity
  8
0
100
AcDbBlockEnd
  0
BLOCK
  5
C1
330
BF
100
AcDbEntity
  8
0
100
AcDbBlockBegin
  2
3_131916_0_in_049841_4
 70
     2
 10
0.0
 20
0.0
 30
0.0
  3
3_131916_0_in_049841_4
  1

  0
ATTDEF
  5
C3
330
BF
100
AcDbEntity
  8
AM_6
100
AcDbText
 10
6.681039999999999
 20
0.7499999999999999
 30
0.0
 40
0.5
  1
Eccentric Collar Insert Inch Bore
100
AcDbAttributeDefinition
  3

  2
NN
 70
     8
280
     0
  0
ATTDEF
  5
C4
330
BF
100
AcDbEntity
  8
AM_6
100
AcDbText
 10
6.681039999999999
 20
0.2499999999999999
 30
0.0
 40
0.5
  1
SXR Normal Duty Bearing Inserts
100
AcDbAttributeDefinition
  3

  2
NT
 70
     8
280
     0
  0
ATTDEF
  5
C5
330
BF
100
AcDbEntity
  8
AM_6
100
AcDbText
 10
6.681039999999999
 20
-0.2500000000000001
 30
0.0
 40
0.5
  1
131916
100
AcDbAttributeDefinition
  3

  2
NB
 70
     8
280
     0
  0
ATTDEF
  5
C6
330
BF
100
AcDbEntity
  8
AM_6
100
AcDbText
 10
6.681039999999999
 20
-0.7500000000000001
 30
0.0
 40
0.5
  1
$PN.
100
AcDbAttributeDefinition
  3

  2
NBSYN
 70
     8
280
     0
  0
ATTDEF
  5
C7
330
BF
100
AcDbEntity
  8
AM_6
100
AcDbText
 10
6.681039999999999
 20
-1.25
 30
0.0
 40
0.5
  1
131916
100
AcDbAttributeDefinition
  3

  2
LINA
 70
     8
280
     0
  0
ATTDEF
  5
C8
330
BF
100
AcDbEntity
  8
AM_6
100
AcDbText
 10
6.681039999999999
 20
-1.75
 30
0.0
 40
0.5
  1
208
100
AcDbAttributeDefinition
  3

  2
SERIES
 70
     8
280
     0
  0
ATTDEF
  5
C9
330
BF
100
AcDbEntity
  8
AM_6
100
AcDbText
 10
6.681039999999999
 20
-2.25
 30
0.0
 40
0.5
  1
1-1/2
100
AcDbAttributeDefinition
  3

  2
SS
 70
     8
280
     0
  0
ATTDEF
  5
CA
330
BF
100
AcDbEntity
  8
AM_6
100
AcDbText
 10
6.681039999999999
 20
-2.75
 30
0.0
 40
0.5
  1
131916
100
AcDbAttributeDefinition
  3

  2
PN
 70
     8
280
     0
  0
ATTDEF
  5
CB
330
BF
100
AcDbEntity
  8
AM_6
100
AcDbText
 10
6.681039999999999
 20
-3.25
 30
0.0
 40
0.5
  1
INS-SXR-108
100
AcDbAttributeDefinition
  3

  2
DESCRIPTION
 70
     8
280
     0
  0
ATTDEF
  5
CC
330
BF
100
AcDbEntity
  8
AM_6
100
AcDbText
 10
6.681039999999999
 20
-3.75
 30
0.0
 40
0.5
  1
1.7
100
AcDbAttributeDefinition
  3

  2
WEIGHT
 70
     8
280
     0
  0
ATTDEF
  5
CD
330
BF
100
AcDbEntity
  8
AM_6
100
AcDbText
 10
6.681039999999999
 20
-4.25
 30
0.0
 40
0.5
  1
2.12
100
AcDbAttributeDefinition
  3

  2
A
 70
     8
280
     0
  0
ATTDEF
  5
CE
330
BF
100
AcDbEntity
  8
AM_6
100
AcDbText
 10
6.681039999999999
 20
-4.75
 30
0.0
 40
0.5
  1
0.87
100
AcDbAttributeDefinition
  3

  2
C
 70
     8
280
     0
  0
ATTDEF
  5
CF
330
BF
100
AcDbEntity
  8
AM_6
100
AcDbText
 10
6.681039999999999
 20
-5.25
 30
0.0
 40
0.5
  1
3.1496
100
AcDbAttributeDefinition
  3

  2
D
 70
     8
280
     0
  0
ATTDEF
  5
D0
330
BF
100
AcDbEntity
  8
AM_6
100
AcDbText
 10
6.681039999999999
 20
-5.75
 30
0.0
 40
0.5
  1
0.22
100
AcDbAttributeDefinition
  3

  2
J
 70
     8
280
     0
  0
ATTDEF
  5
D1
330
BF
100
AcDbEntity
  8
AM_6
100
AcDbText
 10
6.681039999999999
 20
-6.25
 30
0.0
 40
0.5
  1
2.38
100
AcDbAttributeDefinition
  3

  2
L
 70
     8
280
     0
  0
ATTDEF
  5
D2
330
BF
100
AcDbEntity
  8
AM_6
100
AcDbText
 10
6.681039999999999
 20
-6.75
 30
0.0
 40
0.5
  1
5/16 - 24
100
AcDbAttributeDefinition
  3

  2
N
 70
     8
280
     0
  0
ATTDEF
  5
D3
330
BF
100
AcDbEntity
  8
AM_6
100
AcDbText
 10
6.681039999999999
 20
-7.25
 30
0.0
 40
0.5
  1
0.75
100
AcDbAttributeDefinition
  3

  2
W
 70
     8
280
     0
  0
ATTDEF
  5
D4
330
BF
100
AcDbEntity
  8
AM_6
100
AcDbText
 10
6.681039999999999
 20
-7.75
 30
0.0
 40
0.5
  1
1.37
100
AcDbAttributeDefinition
  3

  2
Y
 70
     8
280
     0
  0
ATTDEF
  5
D5
330
BF
100
AcDbEntity
  8
AM_6
100
AcDbText
 10
6.681039999999999
 20
-8.25
 30
0.0
 40
0.5
  1
2.05
100
AcDbAttributeDefinition
  3

  2
Z
 70
     8
280
     0
  0
ATTDEF
  5
D6
330
BF
100
AcDbEntity
  8
AM_6
100
AcDbText
 10
6.681039999999999
 20
-8.75
 30
0.0
 40
0.5
  1
baldor
100
AcDbAttributeDefinition
  3

  2
COMPANY
 70
     8
280
     0
  0
LINE
  5
D7
330
BF
100
AcDbEntity
  8
AM_9
100
AcDbLine
 10
1.545633333333333
 20
0.3241666666666667
 30
0.0
 11
1.54110581826436
 21
0.3241666666666667
 31
0.0
  0
ARC
  5
D8
330
BF
100
AcDbEntity
  8
AM_9
100
AcDbCircle
 10
1.545633333333415
 20
0.2200000000000089
 30
0.0
 40
0.1041666666666577
100
AcDbArc
 50
283.7049120784494
 51
90.0
  0
LINE
  5
D9
330
BF
100
AcDbEntity
  8
AM_9
100
AcDbLine
 10
1.545633333333333
 20
0.3241666666666667
 30
0.0
 11
1.545633333333333
 21
0.2921862373738017
 31
0.0
  0
LINE
  5
DA
330
BF
100
AcDbEntity
  8
AM_9
100
AcDbLine
 10
0.7499999999999999
 20
-0.8889463420073541
 30
0.0
 11
0.7499999999999999
 21
0.7326000000000003
 31
0.0
  0
LINE
  5
DB
330
BF
100
AcDbEntity
  8
AM_9
100
AcDbLine
 10
-0.7499999999999999
 20
0.7326000000000003
 30
0.0
 11
-0.7499999999999999
 21
-0.8889463420073541
 31
0.0
  0
LINE
  5
DC
330
BF
100
AcDbEntity
  8
AM_9
100
AcDbLine
 10
0.7500000000000001
 20
-1.3526
 30
0.0
 11
0.7500000000000001
 21
-0.9135536579926455
 31
0.0
  0
LINE
  5
DD
330
BF
100
AcDbEntity
  8
AM_9
100
AcDbLine
 10
-0.7500000000000001
 20
-0.9135536579926455
 30
0.0
 11
-0.7500000000000001
 21
-1.3526
 31
0.0
  0
LINE
  5
DE
330
BF
100
AcDbEntity
  8
AM_9
100
AcDbLine
 10
-0.7500000000000001
 20
-0.8889463420073541
 30
0.0
 11
0.7500000000000001
 21
-0.8889463420073541
 31
0.0
  0
LINE
  5
DF
330
BF
100
AcDbEntity
  8
AM_9
100
AcDbLine
 10
-0.7500000000000001
 20
-0.8889463420073541
 30
0.0
 11
-0.762303657992646
 21
-0.9012500000000001
 31
0.0
  0
LINE
  5
E0
330
BF
100
AcDbEntity
  8
AM_9
100
AcDbLine
 10
0.762303657992646
 20
-0.9012500000000001
 30
0.0
 11
0.7500000000000001
 21
-0.8889463420073541
 31
0.0
  0
LINE
  5
E1
330
BF
100
AcDbEntity
  8
AM_9
100
AcDbLine
 10
-0.762303657992646
 20
-0.9012500000000001
 30
0.0
 11
0.762303657992646
 21
-0.9012500000000001
 31
0.0
  0
LINE
  5
E2
330
BF
100
AcDbEntity
  8
AM_9
100
AcDbLine
 10
-0.7500000000000001
 20
-0.9135536579926455
 30
0.0
 11
0.7500000000000001
 21
-0.9135536579926455
 31
0.0
  0
LINE
  5
E3
330
BF
100
AcDbEntity
  8
AM_9
100
AcDbLine
 10
0.7500000000000001
 20
-0.9135536579926455
 30
0.0
 11
0.762303657992646
 21
-0.9012500000000001
 31
0.0
  0
LINE
  5
E4
330
BF
100
AcDbEntity
  8
AM_9
100
AcDbLine
 10
-0.762303657992646
 20
-0.9012500000000001
 30
0.0
 11
-0.7500000000000001
 21
-0.9135536579926455
 31
0.0
  0
LINE
  5
E5
330
BF
100
AcDbEntity
  8
AM_9
100
AcDbLine
 10
0.7499999999999999
 20
0.7326000000000003
 30
0.0
 11
0.7674
 21
0.7499999999999999
 31
0.0
  0
LINE
  5
E6
330
BF
100
AcDbEntity
  8
AM_9
100
AcDbLine
 10
-0.7674
 20
0.7499999999999999
 30
0.0
 11
-0.7499999999999999
 21
0.7326000000000003
 31
0.0
  0
LINE
  5
E7
330
BF
100
AcDbEntity
  8
AM_9
100
AcDbLine
 10
-0.7500000000000001
 20
-1.3526
 30
0.0
 11
0.7500000000000001
 21
-1.3526
 31
0.0
  0
LINE
  5
E8
330
BF
100
AcDbEntity
  8
AM_9
100
AcDbLine
 10
-0.7500000000000001
 20
-1.3526
 30
0.0
 11
-0.7674000000000001
 21
-1.37
 31
0.0
  0
LINE
  5
E9
330
BF
100
AcDbEntity
  8
AM_9
100
AcDbLine
 10
0.7674000000000001
 20
-1.37
 30
0.0
 11
0.7500000000000001
 21
-1.3526
 31
0.0
  0
LINE
  5
EA
330
BF
100
AcDbEntity
  8
AM_9
100
AcDbLine
 10
1.025
 20
0.435
 30
0.0
 11
1.025
 21
0.6104420317202508
 31
0.0
  0
LINE
  5
EB
330
BF
100
AcDbEntity
  8
AM_9
100
AcDbLine
 10
-1.025
 20
0.6104420317202508
 30
0.0
 11
-1.025
 21
0.435
 31
0.0
  0
LINE
  5
EC
330
BF
100
AcDbEntity
  8
AM_9
100
AcDbLine
 10
1.025
 20
-0.6104420317202507
 30
0.0
 11
1.025
 21
-0.435
 31
0.0
  0
LINE
  5
ED
330
BF
100
AcDbEntity
  8
AM_9
100
AcDbLine
 10
-1.025
 20
-0.435
 30
0.0
 11
-1.025
 21
-0.6104420317202507
 31
0.0
  0
LINE
  5
EE
330
BF
100
AcDbEntity
  8
AM_9
100
AcDbLine
 10
1.499809523809524
 20
-0.264
 30
0.0
 11
1.499809523809524
 21
-0.176
 31
0.0
  0
LINE
  5
EF
330
BF
100
AcDbEntity
  8
AM_9
100
AcDbLine
 10
-1.499809523809524
 20
-0.176
 30
0.0
 11
-1.499809523809524
 21
-0.264
 31
0.0
  0
LINE
  5
F0
330
BF
100
AcDbEntity
  8
AM_9
100
AcDbLine
 10
-1.487091106825684
 20
-0.4350000000000002
 30
0.0
 11
1.48709110682159
 21
-0.4350000000000002
 31
0.0
  0
ARC
  5
F1
330
BF
100
AcDbEntity
  8
AM_9
100
AcDbCircle
 10
1.487091106825684
 20
-0.4001999999999997
 30
0.0
 40
0.0348000000000004
100
AcDbArc
 50
270.0
 51
344.9375946795574
  0
ARC
  5
F2
330
BF
100
AcDbEntity
  8
AM_9
100
AcDbCircle
 10
-1.487091106825684
 20
-0.4001999999999997
 30
0.0
 40
0.0348000000000003
100
AcDbArc
 50
195.0624053204425
 51
270.0
  0
LINE
  5
F3
330
BF
100
AcDbEntity
  8
AM_9
100
AcDbLine
 10
-1.487091106825671
 20
0.435
 30
0.0
 11
1.487091106821578
 21
0.435
 31
0.0
  0
ARC
  5
F4
330
BF
100
AcDbEntity
  8
AM_9
100
AcDbCircle
 10
1.487091106825671
 20
0.4002000000000003
 30
0.0
 40
0.0347999999999998
100
AcDbArc
 50
15.06235625298556
 51
90.0
  0
ARC
  5
F5
330
BF
100
AcDbEntity
  8
AM_9
100
AcDbCircle
 10
-1.487091106825671
 20
0.4002000000000003
 30
0.0
 40
0.0347999999999997
100
AcDbArc
 50
90.0
 51
164.9376437470144
  0
LINE
  5
F6
330
BF
100
AcDbEntity
  8
AM_9
100
AcDbLine
 10
-1.552513780937226
 20
-0.264
 30
0.0
 11
1.552513780937445
 21
-0.264
 31
0.0
  0
LINE
  5
F7
330
BF
100
AcDbEntity
  8
AM_9
100
AcDbLine
 10
-1.520695495520894
 20
-0.4092435092979014
 30
0.0
 11
1.520695495521113
 21
-0.4092435092979014
 31
0.0
  0
ARC
  5
F8
330
BF
100
AcDbEntity
  8
AM_9
100
AcDbCircle
 10
0.0000000001868314
 20
-0.0000000000408781
 30
0.0
 40
1.574799999809176
100
AcDbArc
 50
344.937642662391
 51
350.3493485934285
  0
ARC
  5
F9
330
BF
100
AcDbEntity
  8
AM_9
100
AcDbCircle
 10
-0.0000000001870393
 20
-0.0000000000409242
 30
0.0
 40
1.574799999808963
100
AcDbArc
 50
189.6506514065711
 51
195.0623573376093
  0
LINE
  5
FA
330
BF
100
AcDbEntity
  8
AM_9
100
AcDbLine
 10
-1.564934196699657
 20
-0.1759999999999997
 30
0.0
 11
1.564934196699662
 21
-0.1759999999999997
 31
0.0
  0
LINE
  5
FB
330
BF
100
AcDbEntity
  8
AM_9
100
AcDbLine
 10
-1.520695503265628
 20
0.4092434805194805
 30
0.0
 11
1.520695503265633
 21
0.4092434805194804
 31
0.0
  0
LINE
  5
FC
330
BF
100
AcDbEntity
  8
AM_9
100
AcDbLine
 10
1.541074629025365
 20
0.3241666666589038
 30
0.0
 11
1.570312649790496
 21
0.1187990821007443
 31
0.0
  0
ARC
  5
FD
330
BF
100
AcDbEntity
  8
AM_9
100
AcDbCircle
 10
0.0000000000005886
 20
0.0000000000000124
 30
0.0
 40
1.574799999999422
100
AcDbArc
 50
353.5832052965247
 51
4.326364331038948
  0
ARC
  5
FE
330
BF
100
AcDbEntity
  8
AM_9
100
AcDbCircle
 10
0.00000000000608
 20
0.0000000000013745
 30
0.0
 40
1.574799999993776
100
AcDbArc
 50
11.87114361703059
 51
15.06235625299518
  0
ARC
  5
FF
330
BF
100
AcDbEntity
  8
AM_9
100
AcDbCircle
 10
-0.0000000000002702
 20
0.0000000000000193
 30
0.0
 40
1.574799999999739
100
AcDbArc
 50
164.9376437470122
 51
186.4167947034743
  0
LINE
  5
102
330
BF
100
AcDbEntity
  8
AM_7
100
AcDbLine
 10
0.9937599999999999
 20
0.22
 30
0.0
 11
1.68104
 21
0.22
 31
0.0
  0
LINE
  5
103
330
BF
100
AcDbEntity
  8
AM_4
100
AcDbLine
 10
0.976190476190476
 20
-0.8387499999999999
 30
0.0
 11
0.976190476190476
 21
-0.8075000000000001
 31
0.0
  0
LINE
  5
104
330
BF
100
AcDbEntity
  8
AM_4
100
AcDbLine
 10
-0.976190476190476
 20
-0.8075000000000001
 30
0.0
 11
-0.976190476190476
 21
-0.8387499999999999
 31
0.0
  0
LINE
  5
105
330
BF
100
AcDbEntity
  8
AM_4
100
AcDbLine
 10
-1.0076
 20
-0.8075000000000003
 30
0.0
 11
1.0076
 21
-0.8075000000000003
 31
0.0
  0
LINE
  5
106
330
BF
100
AcDbEntity
  8
AM_4
100
AcDbLine
 10
1.0076
 20
-0.8075000000000003
 30
0.0
 11
1.025
 21
-0.7901000000000004
 31
0.0
  0
LINE
  5
107
330
BF
100
AcDbEntity
  8
AM_4
100
AcDbLine
 10
-1.025
 20
-0.7901000000000004
 30
0.0
 11
-1.0076
 21
-0.8075000000000003
 31
0.0
  0
LINE
  5
108
330
BF
100
AcDbEntity
  8
AM_4
100
AcDbLine
 10
-1.0076
 20
0.7499999999999999
 30
0.0
 11
1.0076
 21
0.7499999999999999
 31
0.0
  0
LINE
  5
109
330
BF
100
AcDbEntity
  8
AM_4
100
AcDbLine
 10
-1.0076
 20
0.7499999999999999
 30
0.0
 11
-1.025
 21
0.7326
 31
0.0
  0
LINE
  5
10A
330
BF
100
AcDbEntity
  8
AM_4
100
AcDbLine
 10
1.025
 20
0.7326
 30
0.0
 11
1.0076
 21
0.7499999999999999
 31
0.0
  0
LINE
  5
10B
330
BF
100
AcDbEntity
  8
AM_4
100
AcDbLine
 10
-1.025
 20
0.7326
 30
0.0
 11
1.025
 21
0.7326
 31
0.0
  0
LINE
  5
10C
330
BF
100
AcDbEntity
  8
AM_4
100
AcDbLine
 10
1.025
 20
0.6104420317202508
 30
0.0
 11
1.025
 21
0.7326
 31
0.0
  0
LINE
  5
10D
330
BF
100
AcDbEntity
  8
AM_4
100
AcDbLine
 10
-1.025
 20
0.7326
 30
0.0
 11
-1.025
 21
0.6104420317202508
 31
0.0
  0
LINE
  5
10E
330
BF
100
AcDbEntity
  8
AM_4
100
AcDbLine
 10
-1.025
 20
-0.7901000000000004
 30
0.0
 11
1.025
 21
-0.7901000000000004
 31
0.0
  0
LINE
  5
10F
330
BF
100
AcDbEntity
  8
AM_4
100
AcDbLine
 10
1.025
 20
-0.7901000000000004
 30
0.0
 11
1.025
 21
-0.6104420317202507
 31
0.0
  0
LINE
  5
110
330
BF
100
AcDbEntity
  8
AM_4
100
AcDbLine
 10
-1.025
 20
-0.6104420317202507
 30
0.0
 11
-1.025
 21
-0.7901000000000004
 31
0.0
  0
ARC
  5
111
330
BF
100
AcDbEntity
  8
AM_4
100
AcDbCircle
 10
0.0000000000000092
 20
-1.135625000000021
 30
0.0
 40
0.139350000000021
100
AcDbArc
 50
42.43496366259796
 51
137.5650363374026
  0
LINE
  5
112
330
BF
100
AcDbEntity
  8
AM_4
100
AcDbLine
 10
-1.1509375
 20
-0.8387499999999999
 30
0.0
 11
1.150937499999847
 21
-0.8387499999999999
 31
0.0
  0
ARC
  5
113
330
BF
100
AcDbEntity
  8
AM_4
100
AcDbCircle
 10
1.1509375
 20
-0.8778125000000002
 30
0.0
 40
0.0390625000000002
100
AcDbArc
 50
0.0
 51
90.0
  0
ARC
  5
114
330
BF
100
AcDbEntity
  8
AM_4
100
AcDbCircle
 10
-1.1509375
 20
-0.8778125
 30
0.0
 40
0.0390625000000001
100
AcDbArc
 50
90.0
 51
180.0
  0
LINE
  5
115
330
BF
100
AcDbEntity
  8
AM_4
100
AcDbLine
 10
-1.1509375
 20
-1.37
 30
0.0
 11
1.150937499999847
 21
-1.37
 31
0.0
  0
ARC
  5
116
330
BF
100
AcDbEntity
  8
AM_4
100
AcDbCircle
 10
1.1509375
 20
-1.3309375
 30
0.0
 40
0.0390625000000002
100
AcDbArc
 50
270.0
 51
0.0
  0
ARC
  5
117
330
BF
100
AcDbEntity
  8
AM_4
100
AcDbCircle
 10
-1.1509375
 20
-1.3309375
 30
0.0
 40
0.0390625000000004
100
AcDbArc
 50
180.0
 51
270.0
  0
ARC
  5
118
330
BF
100
AcDbEntity
  8
AM_4
100
AcDbCircle
 10
0.0
 20
-1.135625
 30
0.0
 40
0.1393499999999997
100
AcDbArc
 50
222.4349636625934
 51
317.5650363374065
  0
LINE
  5
119
330
BF
100
AcDbEntity
  8
AM_4
100
AcDbLine
 10
-1.19
 20
-1.3309375
 30
0.0
 11
1.19
 21
-1.3309375
 31
0.0
  0
LWPOLYLINE
  5
11A
330
BF
100
AcDbEntity
  8
AM_4
100
AcDbPolyline
 90
       10
 70
     0
 43
0.0
 10
-0.1028463927884372
 20
-1.229651815273126
 10
-0.1171396130424802
 20
-1.211076249275666
 10
-0.1281451239152519
 20
-1.190372143457396
 10
-0.1355012392384502
 20
-1.16808824416918
 10
-0.1390423141907008
 20
-1.144880126389977
 10
-0.1386191464558426
 20
-1.12151052899198
 10
-0.1343246908874815
 20
-1.098539963691773
 10
-0.126249861488134
 20
-1.076670788259688
 10
-0.114672525221422
 20
-1.056450291542423
 10
-0.1028463927884372
 20
-1.041598184726874
  0
LWPOLYLINE
  5
11B
330
BF
100
AcDbEntity
  8
AM_4
100
AcDbPolyline
 90
       12
 70
     0
 43
0.0
 10
-0.1028463927884372
 20
-1.041598184726874
 10
-0.0918127921091261
 20
-1.029596654555888
 10
-0.0792729955217302
 20
-1.018827202187448
 10
-0.0595588315971897
 20
-1.006376279362773
 10
-0.0372414089099934
 20
-0.9973319528031147
 10
-0.0156043260319087
 20
-0.9927744500149049
 10
0.007194011199518
 20
-0.9920242251831694
 10
0.0282776032300802
 20
-0.994972812152452
 10
0.0491543734286892
 20
-1.001565422128815
 10
0.0682354761238459
 20
-1.011271360860251
 10
0.0859645639831015
 20
-1.024248310607589
 10
0.1028463927884548
 20
-1.041598184726873
  0
LWPOLYLINE
  5
11C
330
BF
100
AcDbEntity
  8
AM_4
100
AcDbPolyline
 90
       10
 70
     0
 43
0.0
 10
0.1028463927884372
 20
-1.041598184726874
 10
0.1171396130424802
 20
-1.060173750724334
 10
0.1281451239152519
 20
-1.080877856542604
 10
0.1355012392384502
 20
-1.10316175583082
 10
0.1390423141907008
 20
-1.126369873610023
 10
0.1386191464558426
 20
-1.14973947100802
 10
0.1343246908874815
 20
-1.172710036308227
 10
0.126249861488134
 20
-1.194579211740312
 10
0.114672525221422
 20
-1.214799708457577
 10
0.1028463927884372
 20
-1.229651815273126
  0
LWPOLYLINE
  5
11D
330
BF
100
AcDbEntity
  8
AM_4
100
AcDbPolyline
 90
       12
 70
     0
 43
0.0
 10
0.1028463927884372
 20
-1.229651815273126
 10
0.0918127921091261
 20
-1.241653345444112
 10
0.0792729955217303
 20
-1.252422797812552
 10
0.0595588315971896
 20
-1.264873720637227
 10
0.0372414089099935
 20
-1.273918047196885
 10
0.0156043260319088
 20
-1.278475549985095
 10
-0.007194011199518
 20
-1.279225774816831
 10
-0.0282776032300802
 20
-1.276277187847548
 10
-0.0491543734286892
 20
-1.269684577871185
 10
-0.0682354761238459
 20
-1.259978639139749
 10
-0.0859645639831016
 20
-1.247001689392411
 10
-0.1028463927884372
 20
-1.229651815273126
  0
LINE
  5
11E
330
BF
100
AcDbEntity
  8
AM_4
100
AcDbLine
 10
-1.19
 20
-0.8778125000000001
 30
0.0
 11
1.19
 21
-0.8778125000000001
 31
0.0
  0
LINE
  5
11F
330
BF
100
AcDbEntity
  8
AM_4
100
AcDbLine
 10
1.19
 20
-1.3309375
 30
0.0
 11
1.19
 21
-0.8778125000000001
 31
0.0
  0
LINE
  5
120
330
BF
100
AcDbEntity
  8
AM_4
100
AcDbLine
 10
-1.19
 20
-0.8778125000000001
 30
0.0
 11
-1.19
 21
-1.3309375
 31
0.0
  0
ARC
  5
122
330
BF
100
AcDbEntity
  8
AM_5
100
AcDbCircle
 10
0.0
 20
-1.135625
 30
0.0
 40
0.15625
100
AcDbArc
 50
74.99999999999996
 51
15.00000000000004
  0
ENDBLK
  5
C2
330
BF
100
AcDbEntity
  8
0
100
AcDbBlockEnd
  0
BLOCK
  5
125
330
123
100
AcDbEntity
  8
0
100
AcDbBlockBegin
  2
4_049841H_0_in_049841_4
 70
     2
 10
0.0
 20
0.0
 30
0.0
  3
4_049841H_0_in_049841_4
  1

  0
ATTDEF
  5
127
330
123
100
AcDbEntity
  8
AM_6
100
AcDbText
 10
8.625
 20
1.0615
 30
0.0
 40
0.5
  1
P2B-SXR -I-Housing
100
AcDbAttributeDefinition
  3

  2
NN
 70
     8
280
     0
  0
ATTDEF
  5
128
330
123
100
AcDbEntity
  8
AM_6
100
AcDbText
 10
8.625
 20
0.5614999999999999
 30
0.0
 40
0.5
  1
Eccentric Collar Pillow Block Bearings -(Normal Duty)
100
AcDbAttributeDefinition
  3

  2
NT
 70
     8
280
     0
  0
ATTDEF
  5
129
330
123
100
AcDbEntity
  8
AM_6
100
AcDbText
 10
8.625
 20
0.0614999999999999
 30
0.0
 40
0.5
  1
049841H
100
AcDbAttributeDefinition
  3

  2
NB
 70
     8
280
     0
  0
ATTDEF
  5
12A
330
123
100
AcDbEntity
  8
AM_6
100
AcDbText
 10
8.625
 20
-0.4385000000000001
 30
0.0
 40
0.5
  1
$PN.H
100
AcDbAttributeDefinition
  3

  2
NBSYN
 70
     8
280
     0
  0
ATTDEF
  5
12B
330
123
100
AcDbEntity
  8
AM_6
100
AcDbText
 10
8.625
 20
-0.9385000000000001
 30
0.0
 40
0.5
  1
049841
100
AcDbAttributeDefinition
  3

  2
LINA
 70
     8
280
     0
  0
ATTDEF
  5
12C
330
123
100
AcDbEntity
  8
AM_6
100
AcDbText
 10
8.625
 20
-1.4385
 30
0.0
 40
0.5
  1
208
100
AcDbAttributeDefinition
  3

  2
SERIES
 70
     8
280
     0
  0
ATTDEF
  5
12D
330
123
100
AcDbEntity
  8
AM_6
100
AcDbText
 10
8.625
 20
-1.9385
 30
0.0
 40
0.5
  1
1-1/2
100
AcDbAttributeDefinition
  3

  2
SS
 70
     8
280
     0
  0
ATTDEF
  5
12E
330
123
100
AcDbEntity
  8
AM_6
100
AcDbText
 10
8.625
 20
-2.4385
 30
0.0
 40
0.5
  1
049841
100
AcDbAttributeDefinition
  3

  2
PN
 70
     8
280
     0
  0
ATTDEF
  5
12F
330
123
100
AcDbEntity
  8
AM_6
100
AcDbText
 10
8.625
 20
-2.9385
 30
0.0
 40
0.5
  1
P2B-SXR-108-NL
100
AcDbAttributeDefinition
  3

  2
DESCRIPTION
 70
     8
280
     0
  0
ATTDEF
  5
130
330
123
100
AcDbEntity
  8
AM_6
100
AcDbText
 10
8.625
 20
-3.4385
 30
0.0
 40
0.5
  1
NO-LUBE
100
AcDbAttributeDefinition
  3

  2
LF
 70
     8
280
     0
  0
ATTDEF
  5
131
330
123
100
AcDbEntity
  8
AM_6
100
AcDbText
 10
8.625
 20
-3.9385
 30
0.0
 40
0.5
  1
5.3
100
AcDbAttributeDefinition
  3

  2
WEIGHT
 70
     8
280
     0
  0
ATTDEF
  5
132
330
123
100
AcDbEntity
  8
AM_6
100
AcDbText
 10
8.625
 20
-4.4385
 30
0.0
 40
0.5
  1
2.12
100
AcDbAttributeDefinition
  3

  2
A
 70
     8
280
     0
  0
ATTDEF
  5
133
330
123
100
AcDbEntity
  8
AM_6
100
AcDbText
 10
8.625
 20
-4.9385
 30
0.0
 40
0.5
  1
7.25
100
AcDbAttributeDefinition
  3

  2
B
 70
     8
280
     0
  0
ATTDEF
  5
134
330
123
100
AcDbEntity
  8
AM_6
100
AcDbText
 10
8.625
 20
-5.4385
 30
0.0
 40
0.5
  1
1.93
100
AcDbAttributeDefinition
  3

  2
C
 70
     8
280
     0
  0
ATTDEF
  5
135
330
123
100
AcDbEntity
  8
AM_6
100
AcDbText
 10
8.625
 20
-5.9385
 30
0.0
 40
0.5
  1
5.18
100
AcDbAttributeDefinition
  3

  2
DMIN
 70
     8
280
     0
  0
ATTDEF
  5
136
330
123
100
AcDbEntity
  8
AM_6
100
AcDbText
 10
8.625
 20
-6.4385
 30
0.0
 40
0.5
  1
5.88
100
AcDbAttributeDefinition
  3

  2
DMAX
 70
     8
280
     0
  0
ATTDEF
  5
137
330
123
100
AcDbEntity
  8
AM_6
100
AcDbText
 10
8.625
 20
-6.9385
 30
0.0
 40
0.5
  1
1/2
100
AcDbAttributeDefinition
  3

  2
F
 70
     8
280
     0
  0
ATTDEF
  5
138
330
123
100
AcDbEntity
  8
AM_6
100
AcDbText
 10
8.625
 20
-7.4385
 30
0.0
 40
0.5
  1
0.91
100
AcDbAttributeDefinition
  3

  2
G
 70
     8
280
     0
  0
ATTDEF
  5
139
330
123
100
AcDbEntity
  8
AM_6
100
AcDbText
 10
8.625
 20
-7.9385
 30
0.0
 40
0.5
  1
0.93
100
AcDbAttributeDefinition
  3

  2
H
 70
     8
280
     0
  0
ATTDEF
  5
13A
330
123
100
AcDbEntity
  8
AM_6
100
AcDbText
 10
8.625
 20
-8.438500000000001
 30
0.0
 40
0.5
  1
4.19
100
AcDbAttributeDefinition
  3

  2
J
 70
     8
280
     0
  0
ATTDEF
  5
13B
330
123
100
AcDbEntity
  8
AM_6
100
AcDbText
 10
8.625
 20
-8.938500000000001
 30
0.0
 40
0.5
  1
2.38
100
AcDbAttributeDefinition
  3

  2
L
 70
     8
280
     0
  0
ATTDEF
  5
13C
330
123
100
AcDbEntity
  8
AM_6
100
AcDbText
 10
8.625
 20
-9.438500000000001
 30
0.0
 40
0.5
  1
2.13
100
AcDbAttributeDefinition
  3

  2
M
 70
     8
280
     0
  0
ATTDEF
  5
13D
330
123
100
AcDbEntity
  8
AM_6
100
AcDbText
 10
8.625
 20
-9.938500000000001
 30
0.0
 40
0.5
  1
0.75
100
AcDbAttributeDefinition
  3

  2
R
 70
     8
280
     0
  0
ATTDEF
  5
13E
330
123
100
AcDbEntity
  8
AM_6
100
AcDbText
 10
8.625
 20
-10.4385
 30
0.0
 40
0.5
  1
1.37
100
AcDbAttributeDefinition
  3

  2
S
 70
     8
280
     0
  0
ATTDEF
  5
13F
330
123
100
AcDbEntity
  8
AM_6
100
AcDbText
 10
8.625
 20
-10.9385
 30
0.0
 40
0.5
  1
3.26
100
AcDbAttributeDefinition
  3

  2
U
 70
     8
280
     0
  0
ATTDEF
  5
140
330
123
100
AcDbEntity
  8
AM_6
100
AcDbText
 10
8.625
 20
-11.4385
 30
0.0
 40
0.5
  1
6.52
100
AcDbAttributeDefinition
  3

  2
V
 70
     8
280
     0
  0
ATTDEF
  5
141
330
123
100
AcDbEntity
  8
AM_6
100
AcDbText
 10
8.625
 20
-11.9385
 30
0.0
 40
0.5
  1
0.69
100
AcDbAttributeDefinition
  3

  2
W
 70
     8
280
     0
  0
ATTDEF
  5
142
330
123
100
AcDbEntity
  8
AM_6
100
AcDbText
 10
8.625
 20
-12.4385
 30
0.0
 40
0.5
  1
0.12
100
AcDbAttributeDefinition
  3

  2
X
 70
     8
280
     0
  0
ATTDEF
  5
143
330
123
100
AcDbEntity
  8
AM_6
100
AcDbText
 10
8.625
 20
-12.9385
 30
0.0
 40
0.5
  1
4005
100
AcDbAttributeDefinition
  3

  2
CAPS
 70
     8
280
     0
  0
ATTDEF
  5
144
330
123
100
AcDbEntity
  8
AM_6
100
AcDbText
 10
8.625
 20
-13.4385
 30
0.0
 40
0.5
  1
7332
100
AcDbAttributeDefinition
  3

  2
CAPD
 70
     8
280
     0
  0
ATTDEF
  5
145
330
123
100
AcDbEntity
  8
AM_6
100
AcDbText
 10
8.625
 20
-13.9385
 30
0.0
 40
0.5
  1
baldor
100
AcDbAttributeDefinition
  3

  2
COMPANY
 70
     8
280
     0
  0
LINE
  5
146
330
123
100
AcDbEntity
  8
AM_9
100
AcDbLine
 10
-1.5568
 20
0.4824999999999998
 30
0.0
 11
-1.5568
 21
0.7719999999999998
 31
0.0
  0
LINE
  5
147
330
123
100
AcDbEntity
  8
AM_9
100
AcDbLine
 10
1.5568
 20
0.4824999999999998
 30
0.0
 11
1.5568
 21
0.7719999999999998
 31
0.0
  0
LINE
  5
148
330
123
100
AcDbEntity
  8
AM_9
100
AcDbLine
 10
1.6498
 20
-0.7720000000000001
 30
0.0
 11
1.6498
 21
-0.4825000000000001
 31
0.0
  0
LINE
  5
149
330
123
100
AcDbEntity
  8
AM_9
100
AcDbLine
 10
1.5568
 20
-0.7720000000000001
 30
0.0
 11
1.5568
 21
-0.4825000000000001
 31
0.0
  0
LINE
  5
14A
330
123
100
AcDbEntity
  8
AM_9
100
AcDbLine
 10
-1.6498
 20
-0.7720000000000008
 30
0.0
 11
-1.6498
 21
-0.4825000000000001
 31
0.0
  0
LINE
  5
14B
330
123
100
AcDbEntity
  8
AM_9
100
AcDbLine
 10
-1.5568
 20
-0.7720000000000001
 30
0.0
 11
-1.5568
 21
-0.4825000000000001
 31
0.0
  0
LINE
  5
14C
330
123
100
AcDbEntity
  8
AM_9
100
AcDbLine
 10
3.034
 20
0.2637498815165611
 30
0.0
 11
3.034
 21
0.4824999999999998
 31
0.0
  0
LINE
  5
14D
330
123
100
AcDbEntity
  8
AM_9
100
AcDbLine
 10
3.219999999999999
 20
-0.4825000000000001
 30
0.0
 11
3.219999999999999
 21
0.4824999999999998
 31
0.0
  0
LINE
  5
14E
330
123
100
AcDbEntity
  8
AM_9
100
AcDbLine
 10
3.034
 20
-0.4825000000000001
 30
0.0
 11
3.034
 21
-0.2637498815165611
 31
0.0
  0
LINE
  5
14F
330
123
100
AcDbEntity
  8
AM_9
100
AcDbLine
 10
-3.034
 20
-0.4825000000000001
 30
0.0
 11
-3.034
 21
-0.263749881516561
 31
0.0
  0
LINE
  5
150
330
123
100
AcDbEntity
  8
AM_9
100
AcDbLine
 10
-3.219999999999999
 20
-0.4825000000000001
 30
0.0
 11
-3.219999999999999
 21
0.4824999999999998
 31
0.0
  0
LINE
  5
151
330
123
100
AcDbEntity
  8
AM_9
100
AcDbLine
 10
-3.034
 20
0.2637498815165612
 30
0.0
 11
-3.034
 21
0.4824999999999998
 31
0.0
  0
LINE
  5
152
330
123
100
AcDbEntity
  8
AM_9
100
AcDbLine
 10
-2.250436822756278
 20
-0.4825000000000001
 30
0.0
 11
-2.250436822756278
 21
0.4824999999999998
 31
0.0
  0
LINE
  5
153
330
123
100
AcDbEntity
  8
AM_9
100
AcDbLine
 10
2.250436822756278
 20
-0.4825000000000001
 30
0.0
 11
2.250436822756278
 21
0.4824999999999998
 31
0.0
  0
LINE
  5
154
330
123
100
AcDbEntity
  8
AM_9
100
AcDbLine
 10
-2.009735110810933
 20
-0.4825000000000001
 30
0.0
 11
-2.009735110810933
 21
0.4824999999999998
 31
0.0
  0
LINE
  5
155
330
123
100
AcDbEntity
  8
AM_9
100
AcDbLine
 10
2.009735110810933
 20
-0.4825000000000001
 30
0.0
 11
2.009735110810933
 21
0.4824999999999998
 31
0.0
  0
LINE
  5
156
330
123
100
AcDbEntity
  8
AM_9
100
AcDbLine
 10
1.083052081861397
 20
-0.4825000000000001
 30
0.0
 11
1.083052081861397
 21
0.4824999999999998
 31
0.0
  0
LINE
  5
157
330
123
100
AcDbEntity
  8
AM_9
100
AcDbLine
 10
-1.083052081861398
 20
-0.4825000000000001
 30
0.0
 11
-1.083052081861398
 21
0.4824999999999998
 31
0.0
  0
LINE
  5
158
330
123
100
AcDbEntity
  8
AM_9
100
AcDbLine
 10
1.453617429482585
 20
-0.4825
 30
0.0
 11
1.453617429482585
 21
0.4824999999999999
 31
0.0
  0
LINE
  5
159
330
123
100
AcDbEntity
  8
AM_9
100
AcDbLine
 10
-1.453617429482584
 20
-0.4825
 30
0.0
 11
-1.453617429482584
 21
0.4824999999999999
 31
0.0
  0
LINE
  5
15A
330
123
100
AcDbEntity
  8
AM_9
100
AcDbLine
 10
3.219999999999999
 20
-0.4825000000000001
 30
0.0
 11
-3.219999999999999
 21
-0.4825000000000001
 31
0.0
  0
LINE
  5
15B
330
123
100
AcDbEntity
  8
AM_9
100
AcDbLine
 10
3.219999999999999
 20
0.4824999999999998
 30
0.0
 11
-3.219999999999999
 21
0.4824999999999998
 31
0.0
  0
LINE
  5
15C
330
123
100
AcDbEntity
  8
AM_9
100
AcDbLine
 10
-1.469469305565788
 20
-0.2895
 30
0.0
 11
-1.469469305565788
 21
0.6763880368098161
 31
0.0
  0
LINE
  5
15D
330
123
100
AcDbEntity
  8
AM_9
100
AcDbLine
 10
-1.384736451459266
 20
-0.2895
 30
0.0
 11
-1.6498
 21
-0.2895
 31
0.0
  0
LINE
  5
15E
330
123
100
AcDbEntity
  8
AM_9
100
AcDbLine
 10
-1.649796972996152
 20
0.7817539696882609
 30
0.0
 11
-1.648498860907605
 21
0.7770674733746127
 31
0.0
  0
LINE
  5
15F
330
123
100
AcDbEntity
  8
AM_9
100
AcDbLine
 10
-1.6498
 20
0.7819999999999999
 30
0.0
 11
-1.6498
 21
-0.2895
 31
0.0
  0
LINE
  5
160
330
123
100
AcDbEntity
  8
AM_9
100
AcDbLine
 10
1.6498
 20
-0.2895
 30
0.0
 11
1.384736451459266
 21
-0.2895
 31
0.0
  0
LINE
  5
161
330
123
100
AcDbEntity
  8
AM_9
100
AcDbLine
 10
1.469469305565788
 20
-0.2895
 30
0.0
 11
1.469469305565788
 21
0.676388036809816
 31
0.0
  0
LINE
  5
162
330
123
100
AcDbEntity
  8
AM_9
100
AcDbLine
 10
1.648496071153114
 20
0.7770625566838708
 30
0.0
 11
1.649798052280336
 21
0.7818026409321838
 31
0.0
  0
LINE
  5
163
330
123
100
AcDbEntity
  8
AM_9
100
AcDbLine
 10
1.6498
 20
-0.2895
 30
0.0
 11
1.6498
 21
0.782
 31
0.0
  0
LINE
  5
164
330
123
100
AcDbEntity
  8
AM_9
100
AcDbLine
 10
-1.384736451459266
 20
-0.2895
 30
0.0
 11
-1.384736451459266
 21
0.676388036809816
 31
0.0
  0
LINE
  5
165
330
123
100
AcDbEntity
  8
AM_9
100
AcDbLine
 10
1.384736451459266
 20
0.676388036809816
 30
0.0
 11
1.384736451459266
 21
-0.2895
 31
0.0
  0
LINE
  5
166
330
123
100
AcDbEntity
  8
AM_9
100
AcDbLine
 10
1.5748
 20
-0.772
 30
0.0
 11
1.5748
 21
-0.2895
 31
0.0
  0
LINE
  5
167
330
123
100
AcDbEntity
  8
AM_9
100
AcDbLine
 10
-1.5748
 20
-0.2895
 30
0.0
 11
-1.5748
 21
-0.772
 31
0.0
  0
LINE
  5
168
330
123
100
AcDbEntity
  8
AM_9
100
AcDbLine
 10
1.024999999999999
 20
-0.7720000000000001
 30
0.0
 11
-1.024999999999999
 21
-0.7720000000000001
 31
0.0
  0
LINE
  5
169
330
123
100
AcDbEntity
  8
AM_9
100
AcDbLine
 10
1.231678404945329
 20
-0.1806863231297341
 30
0.0
 11
1.45238426360613
 21
-0.1904354816791411
 31
0.0
  0
LINE
  5
16A
330
123
100
AcDbEntity
  8
AM_9
100
AcDbLine
 10
1.452367829012865
 20
0.1904347557199103
 30
0.0
 11
1.231678404945329
 21
0.1806863231297342
 31
0.0
  0
LWPOLYLINE
  5
16B
330
123
100
AcDbEntity
  8
AM_9
100
AcDbPolyline
 90
       19
 70
     0
 43
0.0
 10
1.430597717407028
 20
0.1869902856293542
 10
1.418058185721295
 20
0.1827179195988743
 10
1.39635737685416
 20
0.1711722138171803
 10
1.376083237328111
 20
0.1547674258778702
 10
1.357896679948196
 20
0.1340498289295944
 10
1.342353885346994
 20
0.1094198733559506
 10
1.330029079974755
 20
0.0817091009739341
 10
1.321387609075308
 20
0.0516138509594347
 10
1.316699606539029
 20
0.0200551586266665
 10
1.316191001975151
 20
-0.0119977435483351
 10
1.31979977569738
 20
-0.0437116758147289
 10
1.327444581890876
 20
-0.0741328000526886
 10
1.338800282897112
 20
-0.1024718099085826
 10
1.353564457430656
 20
-0.1279545835317752
 10
1.371170462903499
 20
-0.1498387669005575
 10
1.39110953849016
 20
-0.1674777742333969
 10
1.412683106631224
 20
-0.1803858685142564
 10
1.435160140197928
 20
-0.1881026816369114
 10
1.45244335010558
 20
-0.1904380904274682
  0
LWPOLYLINE
  5
16C
330
123
100
AcDbEntity
  8
AM_9
100
AcDbPolyline
 90
        3
 70
     0
 43
0.0
 10
1.452429218974703
 20
0.1904374674660733
 10
1.440542344282036
 20
0.1891766165803501
 10
1.430597717407028
 20
0.1869902856293542
  0
LWPOLYLINE
  5
16D
330
123
100
AcDbEntity
  8
AM_9
100
AcDbPolyline
 90
       16
 70
     0
 43
0.0
 10
1.45244335010558
 20
-0.1904380904274682
 10
1.457915970846067
 20
-0.1905219703435214
 10
1.480179131676448
 20
-0.1875223856957385
 10
1.501452698864093
 20
-0.1792902615023085
 10
1.521156458941552
 20
-0.1659930709837442
 10
1.538834078696577
 20
-0.1480781469208251
 10
1.554105301260784
 20
-0.1258815984200485
 10
1.566582270655469
 20
-0.1001538992695743
 10
1.575983785359032
 20
-0.0714816021749154
 10
1.582112813181784
 20
-0.0407848691661336
 10
1.584798820946223
 20
-0.008968001674625
 10
1.584044372894545
 20
0.023102760282961
 10
1.57983497073267
 20
0.0544360644063764
 10
1.572301439832866
 20
0.0842383412250013
 10
1.565612154685546
 20
0.1025210714179342
 10
1.557614271770321
 20
0.119563144326522
  0
LWPOLYLINE
  5
16E
330
123
100
AcDbEntity
  8
AM_9
100
AcDbPolyline
 90
        7
 70
     0
 43
0.0
 10
1.557614271770321
 20
0.119563144326522
 10
1.542995386360517
 20
0.1427491157304324
 10
1.525818148642326
 20
0.1619192019875211
 10
1.506442327185204
 20
0.1764693482550341
 10
1.485377421170186
 20
0.1860428075683639
 10
1.463224726259021
 20
0.1902814818244113
 10
1.452429218974703
 20
0.1904374674660733
  0
ELLIPSE
  5
16F
330
123
100
AcDbEntity
  8
AM_9
100
AcDbEllipse
 10
1.235669100123503
 20
0.0000000000000061
 30
0.0
 11
1.106924205118213E-17
 21
0.1807744413963105
 31
0.0
210
0.0
220
0.0
230
1.0
 40
0.7071067811865476
 41
0.0
 42
6.283185307179586
  0
LINE
  5
170
330
123
100
AcDbEntity
  8
AM_7
100
AcDbLine
 10
3.197
 20
-0.6900000000000001
 30
0.0
 11
3.323
 21
-0.6900000000000001
 31
0.0
  0
LINE
  5
171
330
123
100
AcDbEntity
  8
AM_7
100
AcDbLine
 10
3.26
 20
-0.7530000000000001
 30
0.0
 11
3.26
 21
-0.627
 31
0.0
  0
LINE
  5
172
330
123
100
AcDbEntity
  8
AM_7
100
AcDbLine
 10
-3.323
 20
-0.6900000000000001
 30
0.0
 11
-3.197
 21
-0.6900000000000001
 31
0.0
  0
LINE
  5
173
330
123
100
AcDbEntity
  8
AM_7
100
AcDbLine
 10
-3.26
 20
-0.7530000000000001
 30
0.0
 11
-3.26
 21
-0.627
 31
0.0
  0
LINE
  5
174
330
123
100
AcDbEntity
  8
AM_7
100
AcDbLine
 10
0.0
 20
1.0615
 30
0.0
 11
0.0
 21
-1.476
 31
0.0
  0
LINE
  5
175
330
123
100
AcDbEntity
  8
AM_7
100
AcDbLine
 10
-3.234
 20
0.0000000000000002
 30
0.0
 11
-2.296
 21
0.0000000000000002
 31
0.0
  0
LINE
  5
176
330
123
100
AcDbEntity
  8
AM_7
100
AcDbLine
 10
-2.94
 20
-0.2940000000000001
 30
0.0
 11
-2.94
 21
0.2940000000000004
 31
0.0
  0
LINE
  5
177
330
123
100
AcDbEntity
  8
AM_7
100
AcDbLine
 10
2.296
 20
-0.0000000000000001
 30
0.0
 11
3.234
 21
0.0000000000000001
 31
0.0
  0
LINE
  5
178
330
123
100
AcDbEntity
  8
AM_7
100
AcDbLine
 10
2.59
 20
-0.2940000000000004
 30
0.0
 11
2.59
 21
0.2940000000000002
 31
0.0
  0
LINE
  5
179
330
123
100
AcDbEntity
  8
AM_7
100
AcDbLine
 10
2.94
 20
-0.2940000000000002
 30
0.0
 11
2.94
 21
0.2940000000000003
 31
0.0
  0
LINE
  5
17A
330
123
100
AcDbEntity
  8
AM_7
100
AcDbLine
 10
-2.59
 20
-0.294
 30
0.0
 11
-2.59
 21
0.2940000000000005
 31
0.0
  0
LINE
  5
17B
330
123
100
AcDbEntity
  8
AM_4
100
AcDbLine
 10
3.625
 20
-0.9650000000000001
 30
0.0
 11
3.625
 21
0.9649999999999999
 31
0.0
  0
LINE
  5
17C
330
123
100
AcDbEntity
  8
AM_4
100
AcDbLine
 10
-3.625
 20
-0.9650000000000001
 30
0.0
 11
-3.625
 21
0.9649999999999999
 31
0.0
  0
LINE
  5
17D
330
123
100
AcDbEntity
  8
AM_4
100
AcDbLine
 10
-3.439000000000001
 20
0.7711764197321533
 30
0.0
 11
-3.439000000000001
 21
0.9649999999999999
 31
0.0
  0
LINE
  5
17E
330
123
100
AcDbEntity
  8
AM_4
100
AcDbLine
 10
3.439000000000001
 20
0.7711764197321535
 30
0.0
 11
3.439000000000001
 21
0.9649999999999999
 31
0.0
  0
LINE
  5
17F
330
123
100
AcDbEntity
  8
AM_4
100
AcDbLine
 10
-3.439000000000001
 20
-0.9650000000000001
 30
0.0
 11
-3.439000000000001
 21
-0.7711764197321532
 31
0.0
  0
LINE
  5
180
330
123
100
AcDbEntity
  8
AM_4
100
AcDbLine
 10
3.439000000000001
 20
-0.9650000000000001
 30
0.0
 11
3.439000000000001
 21
-0.7711764197321531
 31
0.0
  0
LINE
  5
181
330
123
100
AcDbEntity
  8
AM_4
100
AcDbLine
 10
-2.818584636923912
 20
-0.9650000000000001
 30
0.0
 11
-2.818584636923912
 21
-0.81
 31
0.0
  0
LINE
  5
182
330
123
100
AcDbEntity
  8
AM_4
100
AcDbLine
 10
-2.818584636923912
 20
0.8099999999999999
 30
0.0
 11
-2.818584636923912
 21
0.9649999999999999
 31
0.0
  0
LINE
  5
183
330
123
100
AcDbEntity
  8
AM_4
100
AcDbLine
 10
2.818584636923913
 20
0.8099999999999999
 30
0.0
 11
2.818584636923913
 21
0.9649999999999999
 31
0.0
  0
LINE
  5
184
330
123
100
AcDbEntity
  8
AM_4
100
AcDbLine
 10
2.818584636923913
 20
-0.9650000000000001
 30
0.0
 11
2.818584636923913
 21
-0.81
 31
0.0
  0
CIRCLE
  5
185
330
123
100
AcDbEntity
  8
AM_4
100
AcDbCircle
 10
3.26
 20
-0.6900000000000001
 30
0.0
 40
0.06
  0
ARC
  5
186
330
123
100
AcDbEntity
  8
AM_4
100
AcDbCircle
 10
2.59
 20
-0.0000000000000002
 30
0.0
 40
0.2800000000000001
100
AcDbArc
 50
90.0
 51
270.0
  0
LINE
  5
187
330
123
100
AcDbEntity
  8
AM_4
100
AcDbLine
 10
2.59
 20
0.2799999999999999
 30
0.0
 11
2.94
 21
0.2800000000000001
 31
0.0
  0
ARC
  5
188
330
123
100
AcDbEntity
  8
AM_4
100
AcDbCircle
 10
2.94
 20
0.0
 30
0.0
 40
0.28
100
AcDbArc
 50
270.0
 51
90.0
  0
LINE
  5
189
330
123
100
AcDbEntity
  8
AM_4
100
AcDbLine
 10
2.94
 20
-0.28
 30
0.0
 11
2.59
 21
-0.2800000000000001
 31
0.0
  0
ARC
  5
18A
330
123
100
AcDbEntity
  8
AM_4
100
AcDbCircle
 10
3.28
 20
0.4650000000000012
 30
0.0
 40
0.3449999999999993
100
AcDbArc
 50
0.0
 51
90.0
  0
LINE
  5
18B
330
123
100
AcDbEntity
  8
AM_4
100
AcDbLine
 10
3.280000000000001
 20
0.81
 30
0.0
 11
2.59
 21
0.8099999999999999
 31
0.0
  0
LINE
  5
18C
330
123
100
AcDbEntity
  8
AM_4
100
AcDbLine
 10
2.59
 20
-0.8100000000000005
 30
0.0
 11
3.28
 21
-0.81
 31
0.0
  0
ARC
  5
18D
330
123
100
AcDbEntity
  8
AM_4
100
AcDbCircle
 10
3.28
 20
-0.4650000000000009
 30
0.0
 40
0.3449999999999991
100
AcDbArc
 50
270.0
 51
0.0
  0
CIRCLE
  5
18E
330
123
100
AcDbEntity
  8
AM_4
100
AcDbCircle
 10
-3.26
 20
-0.6900000000000001
 30
0.0
 40
0.06
  0
ARC
  5
18F
330
123
100
AcDbEntity
  8
AM_4
100
AcDbCircle
 10
-2.94
 20
0.0000000000000002
 30
0.0
 40
0.2800000000000001
100
AcDbArc
 50
90.0
 51
270.0
  0
LINE
  5
190
330
123
100
AcDbEntity
  8
AM_4
100
AcDbLine
 10
-2.94
 20
0.2800000000000002
 30
0.0
 11
-2.59
 21
0.2800000000000002
 31
0.0
  0
ARC
  5
191
330
123
100
AcDbEntity
  8
AM_4
100
AcDbCircle
 10
-2.59
 20
0.0000000000000004
 30
0.0
 40
0.28
100
AcDbArc
 50
270.0
 51
90.0
  0
LINE
  5
192
330
123
100
AcDbEntity
  8
AM_4
100
AcDbLine
 10
-2.59
 20
-0.2799999999999997
 30
0.0
 11
-2.94
 21
-0.28
 31
0.0
  0
ARC
  5
193
330
123
100
AcDbEntity
  8
AM_4
100
AcDbCircle
 10
-3.279999999999998
 20
-0.4649999999999993
 30
0.0
 40
0.3450000000000011
100
AcDbArc
 50
180.0
 51
270.0
  0
LINE
  5
194
330
123
100
AcDbEntity
  8
AM_4
100
AcDbLine
 10
-3.279999999999999
 20
-0.8100000000000003
 30
0.0
 11
-2.59
 21
-0.8099999999999998
 31
0.0
  0
LINE
  5
195
330
123
100
AcDbEntity
  8
AM_4
100
AcDbLine
 10
-2.589999999999999
 20
0.8099999999999999
 30
0.0
 11
-3.28
 21
0.8099999999999998
 31
0.0
  0
ARC
  5
196
330
123
100
AcDbEntity
  8
AM_4
100
AcDbCircle
 10
-3.279999999999999
 20
0.4650000000000001
 30
0.0
 40
0.3449999999999998
100
AcDbArc
 50
90.0
 51
180.0
  0
LWPOLYLINE
  5
197
330
123
100
AcDbEntity
  8
AM_4
100
AcDbPolyline
 90
       12
 70
     0
 43
0.0
 10
-1.948374278826615
 20
0.4943849046327509
 10
-1.993904341974279
 20
0.5484249871066077
 10
-2.043971053011917
 20
0.5982912242805223
 10
-2.098193374037427
 20
0.6436041039795438
 10
-2.156158640447473
 20
0.6840187678284977
 10
-2.217425701564288
 20
0.7192276358324521
 10
-2.281528278058712
 20
0.7489627472462016
 10
-2.347978510617427
 20
0.7729977999173361
 10
-2.416270672846914
 20
0.7911498725822668
 10
-2.485885020156672
 20
0.8032808170074923
 10
-2.556291745329382
 20
0.8092983093810721
 10
-2.589999999999999
 20
0.8100000000000005
  0
LINE
  5
198
330
123
100
AcDbEntity
  8
AM_4
100
AcDbLine
 10
-2.642663464175489
 20
0.8099999999999999
 30
0.0
 11
-2.642663464175489
 21
0.9649999999999999
 31
0.0
  0
LWPOLYLINE
  5
199
330
123
100
AcDbEntity
  8
AM_4
100
AcDbPolyline
 90
       12
 70
     0
 43
0.0
 10
-2.589999999999999
 20
-0.8099999999999997
 10
-2.519403848374396
 20
-0.8069177054543135
 10
-2.449344976089786
 20
-0.7976942799398882
 10
-2.380356573466958
 20
-0.782399919294145
 10
-2.312963683906208
 20
-0.7611510228365854
 10
-2.247679207990033
 20
-0.7341093074996861
 10
-2.185
 20
-0.7014805770653949
 10
-2.125403086555653
 20
-0.6635131558740828
 10
-2.069342036153903
 20
-0.6204959989263718
 10
-2.017243507238896
 20
-0.5727564927611031
 10
-1.969504001073628
 20
-0.5206579638460965
 10
-1.948374278826615
 20
-0.4943849046327499
  0
LINE
  5
19A
330
123
100
AcDbEntity
  8
AM_4
100
AcDbLine
 10
-2.642663464175489
 20
-0.9650000000000001
 30
0.0
 11
-2.642663464175489
 21
-0.81
 31
0.0
  0
LWPOLYLINE
  5
19B
330
123
100
AcDbEntity
  8
AM_4
100
AcDbPolyline
 90
       12
 70
     0
 43
0.0
 10
1.948374278826615
 20
-0.4943849046327508
 10
1.993904341974279
 20
-0.5484249871066077
 10
2.043971053011918
 20
-0.5982912242805223
 10
2.098193374037428
 20
-0.6436041039795439
 10
2.156158640447474
 20
-0.6840187678284977
 10
2.217425701564289
 20
-0.7192276358324522
 10
2.281528278058713
 20
-0.7489627472462017
 10
2.347978510617428
 20
-0.7729977999173362
 10
2.416270672846915
 20
-0.7911498725822668
 10
2.485885020156673
 20
-0.8032808170074923
 10
2.556291745329382
 20
-0.809298309381072
 10
2.59
 20
-0.8100000000000005
  0
LINE
  5
19C
330
123
100
AcDbEntity
  8
AM_4
100
AcDbLine
 10
2.642663464175489
 20
-0.9650000000000001
 30
0.0
 11
2.64266346417549
 21
-0.81
 31
0.0
  0
LWPOLYLINE
  5
19D
330
123
100
AcDbEntity
  8
AM_4
100
AcDbPolyline
 90
       12
 70
     0
 43
0.0
 10
2.59
 20
0.8099999999999999
 10
2.519403848374397
 20
0.8069177054543141
 10
2.449344976089786
 20
0.7976942799398885
 10
2.380356573466958
 20
0.7823999192941454
 10
2.312963683906208
 20
0.761151022836586
 10
2.247679207990033
 20
0.7341093074996866
 10
2.185
 20
0.7014805770653955
 10
2.125403086555653
 20
0.6635131558740835
 10
2.069342036153903
 20
0.6204959989263725
 10
2.017243507238897
 20
0.5727564927611039
 10
1.969504001073628
 20
0.5206579638460973
 10
1.948374278826615
 20
0.4943849046327505
  0
LINE
  5
19E
330
123
100
AcDbEntity
  8
AM_4
100
AcDbLine
 10
2.64266346417549
 20
0.8099999999999999
 30
0.0
 11
2.642663464175489
 21
0.9649999999999999
 31
0.0
  0
LINE
  5
19F
330
123
100
AcDbEntity
  8
AM_4
100
AcDbLine
 10
-1.469469305565788
 20
0.6763880368098161
 30
0.0
 11
-1.469469305565788
 21
0.772
 31
0.0
  0
LINE
  5
1A0
330
123
100
AcDbEntity
  8
AM_4
100
AcDbLine
 10
1.6398
 20
0.7720000000000001
 30
0.0
 11
-1.6398
 21
0.772
 31
0.0
  0
LWPOLYLINE
  5
1A1
330
123
100
AcDbEntity
  8
AM_4
100
AcDbPolyline
 90
        4
 70
     0
 43
0.0
 10
-1.648498860907605
 20
0.7770674733746127
 10
-1.647774071317546
 20
0.7759655831580244
 10
-1.641878225154435
 20
0.7722183344870378
 10
-1.6398
 20
0.772
  0
LINE
  5
1A2
330
123
100
AcDbEntity
  8
AM_4
100
AcDbLine
 10
1.469469305565788
 20
0.676388036809816
 30
0.0
 11
1.469469305565788
 21
0.772
 31
0.0
  0
LWPOLYLINE
  5
1A3
330
123
100
AcDbEntity
  8
AM_4
100
AcDbPolyline
 90
        4
 70
     0
 43
0.0
 10
1.6398
 20
0.7720000000000001
 10
1.641878225154435
 20
0.7722183344870379
 10
1.647774071317547
 20
0.775965583158025
 10
1.648496071153114
 20
0.7770625566838708
  0
LINE
  5
1A4
330
123
100
AcDbEntity
  8
AM_4
100
AcDbLine
 10
1.384736451459266
 20
0.676388036809816
 30
0.0
 11
1.384736451459266
 21
0.7720000000000001
 31
0.0
  0
LINE
  5
1A5
330
123
100
AcDbEntity
  8
AM_4
100
AcDbLine
 10
-1.384736451459266
 20
0.7720000000000001
 30
0.0
 11
-1.384736451459266
 21
0.676388036809816
 31
0.0
  0
LINE
  5
1A6
330
123
100
AcDbEntity
  8
AM_4
100
AcDbLine
 10
-1.024999999999999
 20
-0.7720000000000001
 30
0.0
 11
-1.649799999999984
 21
-0.7720000000000012
 31
0.0
  0
LINE
  5
1A7
330
123
100
AcDbEntity
  8
AM_4
100
AcDbLine
 10
1.649799999999984
 20
-0.772
 30
0.0
 11
1.024999999999999
 21
-0.7720000000000001
 31
0.0
  0
LINE
  5
1A8
330
123
100
AcDbEntity
  8
AM_4
100
AcDbLine
 10
1.649799999999984
 20
-0.772
 30
0.0
 11
1.649799999999984
 21
-0.965
 31
0.0
  0
LINE
  5
1A9
330
123
100
AcDbEntity
  8
AM_4
100
AcDbLine
 10
1.649799999999984
 20
-0.965
 30
0.0
 11
3.625
 21
-0.9650000000000001
 31
0.0
  0
LINE
  5
1AA
330
123
100
AcDbEntity
  8
AM_4
100
AcDbLine
 10
1.948374278826615
 20
-0.688390177174681
 30
0.0
 11
2.589999999999999
 21
-0.9650000000000001
 31
0.0
  0
LINE
  5
1AB
330
123
100
AcDbEntity
  8
AM_4
100
AcDbLine
 10
-2.589999999999999
 20
-0.9650000000000001
 30
0.0
 11
-1.948374278826615
 21
-0.6883901771746811
 31
0.0
  0
LINE
  5
1AC
330
123
100
AcDbEntity
  8
AM_4
100
AcDbLine
 10
-3.625
 20
-0.9650000000000001
 30
0.0
 11
-1.649799999999984
 21
-0.9650000000000001
 31
0.0
  0
LINE
  5
1AD
330
123
100
AcDbEntity
  8
AM_4
100
AcDbLine
 10
-1.649799999999984
 20
-0.9650000000000001
 30
0.0
 11
-1.649799999999984
 21
-0.7720000000000012
 31
0.0
  0
LWPOLYLINE
  5
1AE
330
123
100
AcDbEntity
  8
AM_4
100
AcDbPolyline
 90
       36
 70
     0
 43
0.0
 10
1.571362160674617
 20
-0.7719999999999998
 10
1.556318456000286
 20
-0.7517886544675954
 10
1.529430228145017
 20
-0.7318482767484255
 10
1.490902112758343
 20
-0.7123306251572626
 10
1.441027332062269
 20
-0.6933842408077956
 10
1.380185463253108
 20
-0.6751533171250637
 10
1.308839549689823
 20
-0.657776602446425
 10
1.22753257685447
 20
-0.6413863440629314
 10
1.136883339904821
 20
-0.6261072817375896
 10
1.037581734269566
 20
-0.6120556983604456
 10
0.930383505127539
 20
-0.5993385349655777
 10
0.8161044957305715
 20
-0.5880525768452537
 10
0.695614438343727
 20
-0.5782837169554174
 10
0.569830335057605
 20
-0.5701063022184292
 10
0.439709478848731
 20
-0.5635825676980956
 10
0.3062421680019758
 20
-0.5587621629532549
 10
0.1704441693426487
 20
-0.5556817741746554
 10
0.0333489876376207
 20
-0.5543648449808918
 10
-0.1039999999999988
 20
-0.5548213979983121
 10
-0.2405574848407014
 20
-0.5570479585827798
 10
-0.3752841819691856
 20
-0.5610275812638127
 10
-0.5071547398700996
 20
-0.5667299787098464
 10
-0.6351655439721977
 20
-0.5741117522331151
 10
-0.758342354761226
 20
-0.5831167220798698
 10
-0.8757477223308883
 20
-0.593676354992227
 10
-0.9864881209426801
 20
-0.6057102857876434
 10
-1.089720749296285
 20
-0.6191269289864796
 10
-1.184659944756366
 20
-0.6338241758328017
 10
-1.27058316271962
 20
-0.6496901714036692
 10
-1.346836475615487
 20
-0.6666041658926375
 10
-1.412839549689822
 20
-0.6844374335886966
 10
-1.468090061695172
 20
-0.703054252556658
 10
-1.512167521874007
 20
-0.7223129375630327
 10
-1.544736474139666
 20
-0.7420669183862103
 10
-1.565549049099738
 20
-0.762165855304347
 10
-1.571362160674617
 20
-0.7719999999999998
  0
LINE
  5
1AF
330
123
100
AcDbEntity
  8
AM_4
100
AcDbLine
 10
-1.469469305565788
 20
0.6763880368098161
 30
0.0
 11
-1.384736451459266
 21
0.676388036809816
 31
0.0
  0
LWPOLYLINE
  5
1B0
330
123
100
AcDbEntity
  8
AM_4
100
AcDbPolyline
 90
        6
 70
     0
 43
0.0
 10
-1.648162767503278
 20
0.7765169242494625
 10
-1.635486675290831
 20
0.7552976945295958
 10
-1.610363541945566
 20
0.7343227267092757
 10
-1.572984569682003
 20
0.7137516529586466
 10
-1.523634235049109
 20
0.6937410315701049
 10
-1.469469305565788
 20
0.676388036809816
  0
LWPOLYLINE
  5
1B1
330
123
100
AcDbEntity
  8
AM_4
100
AcDbPolyline
 90
        8
 70
     0
 43
0.0
 10
-1.6498
 20
0.7819999999999999
 10
-1.649761946980917
 20
0.7811284425725232
 10
-1.649648077530122
 20
0.7802635182233306
 10
-1.649459258262891
 20
0.7794118095489747
 10
-1.649196926207859
 20
0.7785797985667432
 10
-1.648863077870366
 20
0.777773817382593
 10
-1.648460254037844
 20
0.7769999999999999
 10
-1.648162767503277
 20
0.7765169242494625
  0
LINE
  5
1B2
330
123
100
AcDbEntity
  8
AM_4
100
AcDbLine
 10
-1.6498
 20
0.7819999999999999
 30
0.0
 11
-1.6498
 21
0.9649999999999999
 31
0.0
  0
LINE
  5
1B3
330
123
100
AcDbEntity
  8
AM_4
100
AcDbLine
 10
-3.625
 20
0.9649999999999999
 30
0.0
 11
-1.6498
 21
0.9649999999999999
 31
0.0
  0
LINE
  5
1B4
330
123
100
AcDbEntity
  8
AM_4
100
AcDbLine
 10
-1.948374278826615
 20
0.688390177174681
 30
0.0
 11
-2.589999999999999
 21
0.9649999999999999
 31
0.0
  0
LINE
  5
1B5
330
123
100
AcDbEntity
  8
AM_4
100
AcDbLine
 10
2.589999999999999
 20
0.9649999999999999
 30
0.0
 11
1.948374278826615
 21
0.6883901771746808
 31
0.0
  0
LINE
  5
1B6
330
123
100
AcDbEntity
  8
AM_4
100
AcDbLine
 10
1.6498
 20
0.9649999999999996
 30
0.0
 11
3.625
 21
0.9649999999999999
 31
0.0
  0
LINE
  5
1B7
330
123
100
AcDbEntity
  8
AM_4
100
AcDbLine
 10
1.6498
 20
0.9649999999999996
 30
0.0
 11
1.6498
 21
0.7819999999999951
 31
0.0
  0
LWPOLYLINE
  5
1B8
330
123
100
AcDbEntity
  8
AM_4
100
AcDbPolyline
 90
        8
 70
     0
 43
0.0
 10
1.648162767503277
 20
0.7765169242494625
 10
1.648608826187718
 20
0.7772666522212532
 10
1.648987844385956
 20
0.7780524038277138
 10
1.649296937540645
 20
0.7788681990246691
 10
1.649533753266242
 20
0.7797078291180799
 10
1.649696489252082
 20
0.7805649040159527
 10
1.64978390697905
 20
0.7814329008607986
 10
1.6498
 20
0.7819999999999901
  0
LWPOLYLINE
  5
1B9
330
123
100
AcDbEntity
  8
AM_4
100
AcDbPolyline
 90
        6
 70
     0
 43
0.0
 10
1.469469305565787
 20
0.6763880368098157
 10
1.52924433827394
 20
0.6957659864908846
 10
1.577380898184851
 20
0.7158412703159027
 10
1.613512637011948
 20
0.7364611032531742
 10
1.637364570405816
 20
0.7574685559234505
 10
1.648162767503278
 20
0.7765169242494627
  0
LINE
  5
1BA
330
123
100
AcDbEntity
  8
AM_4
100
AcDbLine
 10
1.384736451459266
 20
0.676388036809816
 30
0.0
 11
1.469469305565788
 21
0.676388036809816
 31
0.0
  0
LWPOLYLINE
  5
1BB
330
123
100
AcDbEntity
  8
AM_4
100
AcDbPolyline
 90
       26
 70
     0
 43
0.0
 10
-1.384736451459265
 20
0.676388036809816
 10
-1.314100304137355
 20
0.6589479177925146
 10
-1.2334630600255
 20
0.6424853406533149
 10
-1.143438417241493
 20
0.6271255955446219
 10
-1.044711517675285
 20
0.6129855794011806
 10
-0.9380337326455065
 20
0.6001729062838176
 10
-0.8242169445100419
 20
0.5887850883714599
 10
-0.7041273677510578
 20
0.5789087938345726
 10
-0.5786789565597593
 20
0.5706191872380515
 10
-0.4488264490931336
 20
0.5639793574934971
 10
-0.3155581013400895
 20
0.5590398377145045
 10
-0.1798881658966563
 20
0.5558382206291552
 10
-0.0428491728913052
 20
0.5543988724766582
 10
0.0945159281927867
 20
0.554732747565556
 10
0.2311617059930537
 20
0.556837304904823
 10
0.3660482036314593
 20
0.5606965275423407
 10
0.4981488534142811
 20
0.5662810444635753
 10
0.6264582896321186
 20
0.5735483541227329
 10
0.749999999999998
 20
0.5824431479051854
 10
0.8678337575054961
 20
0.5928977310594252
 10
0.9790627761040275
 20
0.6048325378949988
 10
1.08284053580214
 20
0.6181567373254537
 10
1.178377225185806
 20
0.632768924147753
 10
1.264945752362185
 20
0.648557890797099
 10
1.341887278567961
 20
0.6654034737036516
 10
1.384736451459265
 20
0.676388036809816
  0
LINE
  5
1BC
330
123
100
AcDbEntity
  8
AM_4
100
AcDbLine
 10
-1.948374278826615
 20
-0.6883901771746811
 30
0.0
 11
-1.948374278826615
 21
-0.49438490463275
 31
0.0
  0
LWPOLYLINE
  5
1BD
330
123
100
AcDbEntity
  8
AM_4
100
AcDbPolyline
 90
       30
 70
     0
 43
0.0
 10
-1.948374278826616
 20
-0.6883901771746811
 10
-1.882660968717158
 20
-0.6636336925380732
 10
-1.802619471853988
 20
-0.6398190882044053
 10
-1.708858952358613
 20
-0.6171276076923075
 10
-1.602092984398543
 20
-0.5957319468699676
 10
-1.483134121457006
 20
-0.5757949396352968
 10
-1.352887712310315
 20
-0.557468318651645
 10
-1.212345010777007
 20
-0.5408915605706143
 10
-1.062575631677753
 20
-0.5261908245305212
 10
-0.9047194104207235
 20
-0.5134779920091782
 10
-0.7399777281658764
 20
-0.5028498153382909
 10
-0.5696043685889183
 20
-0.494387181359793
 10
-0.3948959758304773
 20
-0.4881544958281392
 10
-0.2171821862512568
 20
-0.4841991932436238
 10
-0.0378155090964748
 20
-0.4825513758471919
 10
0.1418389669161601
 20
-0.4832235845242097
 10
0.3204139627458532
 20
-0.4862107033607543
 10
0.4965504148478099
 20
-0.4914899985788082
 10
0.6689078184674369
 20
-0.4990212915540361
 10
0.8361744296909427
 20
-0.5087472645993776
 10
0.9970772486085757
 20
-0.5205938971872547
 10
1.150391707612594
 20
-0.5344710292904811
 10
1.294950991096176
 20
-0.5502730475545099
 10
1.429654915624729
 20
-0.5678796890788322
 10
1.553478302996137
 20
-0.5871569566902675
 10
1.6654787824659
 20
-0.6079581387423599
 10
1.764803962757513
 20
-0.630124925679596
 10
1.850697919274774
 20
-0.6534886148687116
 10
1.922506947144397
 20
-0.677871394527596
 10
1.948374278826615
 20
-0.6883901771746808
  0
LINE
  5
1BE
330
123
100
AcDbEntity
  8
AM_4
100
AcDbLine
 10
1.948374278826615
 20
-0.688390177174681
 30
0.0
 11
1.948374278826615
 21
-0.4943849046327503
 31
0.0
  0
LWPOLYLINE
  5
1BF
330
123
100
AcDbEntity
  8
AM_4
100
AcDbPolyline
 90
       31
 70
     0
 43
0.0
 10
1.948374278826615
 20
0.4943849046327501
 10
1.930385182732257
 20
0.470117934524492
 10
1.911682893359632
 20
0.4427029510168639
 10
1.892156897463968
 20
0.4112383356684187
 10
1.872552155544711
 20
0.3759901467943808
 10
1.857550651535616
 20
0.3458577946778336
 10
1.843023674141989
 20
0.313251286681584
 10
1.828912678733316
 20
0.2772063974993319
 10
1.815935024821488
 20
0.2385862825098906
 10
1.806804031354753
 20
0.2066441449622006
 10
1.798758277648791
 20
0.1733105213502427
 10
1.791803665268062
 20
0.1377628352723596
 10
1.786336362821524
 20
0.1011175468307331
 10
1.782581497792177
 20
0.064580573631572
 10
1.780467583166089
 20
0.0275184682540219
 10
1.780079297748369
 20
-0.0110754395472063
 10
1.781518268839152
 20
-0.0495710639300702
 10
1.784299152933148
 20
-0.0833244690283836
 10
1.788423874305498
 20
-0.1165148690794118
 10
1.793973306007732
 20
-0.1497959606133267
 10
1.800731785209654
 20
-0.1820870262310309
 10
1.808719022722872
 20
-0.2137714289970883
 10
1.817671316062569
 20
-0.2441483237040075
 10
1.827649977110071
 20
-0.2737178499740212
 10
1.838313601120906
 20
-0.3017740176691482
 10
1.855160735720837
 20
-0.3407497188889438
 10
1.8727235500708
 20
-0.3763170131378121
 10
1.891082656329421
 20
-0.4094093603319794
 10
1.909391021005158
 20
-0.4391712851628676
 10
1.929230853353752
 20
-0.4684913391306075
 10
1.948374278826615
 20
-0.4943849046327502
  0
LINE
  5
1C0
330
123
100
AcDbEntity
  8
AM_4
100
AcDbLine
 10
1.948374278826615
 20
0.4943849046327505
 30
0.0
 11
1.948374278826615
 21
0.6883901771746808
 31
0.0
  0
LWPOLYLINE
  5
1C1
330
123
100
AcDbEntity
  8
AM_4
100
AcDbPolyline
 90
       30
 70
     0
 43
0.0
 10
1.948374278826615
 20
0.688390177174681
 10
1.882660968717156
 20
0.6636336925380731
 10
1.802619471853987
 20
0.639819088204405
 10
1.708858952358612
 20
0.6171276076923073
 10
1.602092984398541
 20
0.5957319468699676
 10
1.483134121457005
 20
0.5757949396352967
 10
1.352887712310314
 20
0.557468318651645
 10
1.212345010777005
 20
0.5408915605706143
 10
1.062575631677751
 20
0.5261908245305212
 10
0.9047194104207216
 20
0.5134779920091783
 10
0.7399777281658745
 20
0.502849815338291
 10
0.5696043685889163
 20
0.4943871813597932
 10
0.3948959758304752
 20
0.4881544958281394
 10
0.2171821862512548
 20
0.484199193243624
 10
0.0378155090964727
 20
0.4825513758471921
 10
-0.1418389669161622
 20
0.4832235845242099
 10
-0.3204139627458553
 20
0.4862107033607546
 10
-0.4965504148478119
 20
0.4914899985788085
 10
-0.6689078184674387
 20
0.4990212915540364
 10
-0.8361744296909447
 20
0.5087472645993779
 10
-0.9970772486085776
 20
0.520593897187255
 10
-1.150391707612596
 20
0.5344710292904814
 10
-1.294950991096177
 20
0.5502730475545102
 10
-1.42965491562473
 20
0.5678796890788327
 10
-1.553478302996139
 20
0.5871569566902678
 10
-1.665478782465901
 20
0.6079581387423603
 10
-1.764803962757514
 20
0.6301249256795963
 10
-1.850697919274775
 20
0.6534886148687119
 10
-1.922506947144398
 20
0.6778713945275965
 10
-1.948374278826615
 20
0.6883901771746811
  0
LINE
  5
1C2
330
123
100
AcDbEntity
  8
AM_4
100
AcDbLine
 10
-1.948374278826615
 20
0.4943849046327511
 30
0.0
 11
-1.948374278826615
 21
0.688390177174681
 31
0.0
  0
LWPOLYLINE
  5
1C3
330
123
100
AcDbEntity
  8
AM_4
100
AcDbPolyline
 90
       31
 70
     0
 43
0.0
 10
-1.948374278826615
 20
-0.49438490463275
 10
-1.930385182732258
 20
-0.4701179345244918
 10
-1.911682893359632
 20
-0.4427029510168636
 10
-1.892156897463968
 20
-0.4112383356684182
 10
-1.872552155544711
 20
-0.3759901467943798
 10
-1.857550651535616
 20
-0.3458577946778329
 10
-1.84302367414199
 20
-0.3132512866815835
 10
-1.828912678733316
 20
-0.2772063974993315
 10
-1.815935024821488
 20
-0.2385862825098901
 10
-1.806804031354753
 20
-0.2066441449622002
 10
-1.798758277648791
 20
-0.1733105213502422
 10
-1.791803665268062
 20
-0.1377628352723591
 10
-1.786336362821524
 20
-0.1011175468307326
 10
-1.782581497792177
 20
-0.0645805736315715
 10
-1.780467583166089
 20
-0.0275184682540215
 10
-1.780079297748369
 20
0.0110754395472066
 10
-1.781518268839152
 20
0.0495710639300704
 10
-1.784299152933148
 20
0.0833244690283838
 10
-1.788423874305498
 20
0.116514869079412
 10
-1.793973306007733
 20
0.1497959606133269
 10
-1.800731785209654
 20
0.1820870262310311
 10
-1.808719022722872
 20
0.2137714289970886
 10
-1.817671316062569
 20
0.2441483237040081
 10
-1.827649977110071
 20
0.2737178499740216
 10
-1.838313601120906
 20
0.3017740176691486
 10
-1.855160735720837
 20
0.3407497188889442
 10
-1.8727235500708
 20
0.3763170131378124
 10
-1.891082656329421
 20
0.4094093603319798
 10
-1.909391021005158
 20
0.439171285162868
 10
-1.929230853353753
 20
0.4684913391306084
 10
-1.948374278826615
 20
0.4943849046327508
  0
ENDBLK
  5
126
330
123
100
AcDbEntity
  8
0
100
AcDbBlockEnd
  0
ENDSEC
  0
SECTION
  2
ENTITIES
  0
INSERT
  5
6F
330
1F
100
AcDbEntity
  8
0
100
AcDbBlockReference
  2
1_049841_4
 10
0.0
 20
0.0
 30
0.0
  0
POINT
  5
1C5
330
1F
100
AcDbEntity
  8
ConnectionPoints
100
AcDbPoint
 10
0.0
 20
0.0
 30
0.0
  0
POINT
  5
1C6
330
1F
100
AcDbEntity
  8
ConnectionPoints
100
AcDbPoint
 10
0.0
 20
-1.37
 30
0.0000000000000001
  0
POINT
  5
1C7
330
1F
100
AcDbEntity
  8
ConnectionPoints
100
AcDbPoint
 10
1.456639969244288
 20
0.0000000000000001
 30
1.456639969244289
  0
POINT
  5
1C8
330
1F
100
AcDbEntity
  8
ConnectionPoints
100
AcDbPoint
 10
1.456639969244288
 20
0.0000000000000001
 30
1.456639969244289
  0
POINT
  5
1C9
330
1F
100
AcDbEntity
  8
ConnectionPoints
100
AcDbPoint
 10
0.0
 20
-1.37
 30
0.0000000000000001
  0
ENDSEC
  0
SECTION
  2
OBJECTS
  0
DICTIONARY
  5
C
330
0
100
AcDbDictionary
281
     1
  3
ACAD_DETAILVIEWSTYLE
350
1D1
  3
ACAD_GROUP
350
D
  3
ACAD_LAYOUT
350
1A
  3
ACAD_MATERIAL
350
43
  3
ACAD_MLEADERSTYLE
350
6B
  3
ACAD_MLINESTYLE
350
17
  3
ACAD_PLOTSETTINGS
350
19
  3
ACAD_PLOTSTYLENAME
350
E
  3
ACAD_SCALELIST
350
47
  3
ACAD_SECTIONVIEWSTYLE
350
1D2
  3
ACAD_TABLESTYLE
350
69
  3
ACAD_VISUALSTYLE
350
2A
  3
ACDB_RECOMPOSE_DATA
350
1CE
  3
AcDbVariableDictionary
350
1CA
  0
SUN
  5
6D
330
29
100
AcDbSun
 90
        1
290
     0
 63
     7
421
 16777215
 40
1.0
291
     1
 91
  2455826
 92
 54000000
292
     0
 70
     2
 71
   256
280
     1
  0
DICTIONARY
  5
1D1
102
{ACAD_REACTORS
330
C
102
}
330
C
100
AcDbDictionary
281
     1
  0
DICTIONARY
  5
D
102
{ACAD_REACTORS
330
C
102
}
330
C
100
AcDbDictionary
281
     1
  0
DICTIONARY
  5
1A
102
{ACAD_REACTORS
330
C
102
}
330
C
100
AcDbDictionary
281
     1
  3
Layout1
350
1E
  3
Layout2
350
26
  3
Model
350
22
  0
DICTIONARY
  5
43
102
{ACAD_REACTORS
330
C
102
}
330
C
100
AcDbDictionary
281
     1
  3
ByBlock
350
45
  3
ByLayer
350
44
  3
Global
350
46
  0
DICTIONARY
  5
6B
102
{ACAD_REACTORS
330
C
102
}
330
C
100
AcDbDictionary
281
     1
  3
Standard
350
6C
  0
DICTIONARY
  5
17
102
{ACAD_REACTORS
330
C
102
}
330
C
100
AcDbDictionary
281
     1
  3
Standard
350
18
  0
DICTIONARY
  5
19
102
{ACAD_REACTORS
330
C
102
}
330
C
100
AcDbDictionary
281
     1
  0
ACDBDICTIONARYWDFLT
  5
E
102
{ACAD_REACTORS
330
C
102
}
330
C
100
AcDbDictionary
281
     1
  3
Normal
350
F
100
AcDbDictionaryWithDefault
340
F
  0
DICTIONARY
  5
47
102
{ACAD_REACTORS
330
C
102
}
330
C
100
AcDbDictionary
281
     1
  3
A0
350
48
  3
A1
350
49
  3
A2
350
4A
  3
A3
350
4B
  3
A4
350
4C
  3
A5
350
4D
  3
A6
350
4E
  3
A7
350
4F
  3
A8
350
50
  3
A9
350
51
  3
B0
350
52
  3
B1
350
53
  3
B2
350
54
  3
B3
350
55
  3
B4
350
56
  3
B5
350
57
  3
B6
350
58
  3
B7
350
59
  3
B8
350
5A
  3
B9
350
5B
  3
C0
350
5C
  3
C1
350
5D
  3
C2
350
5E
  3
C3
350
5F
  3
C4
350
60
  3
C5
350
61
  3
C6
350
62
  3
C7
350
63
  3
C8
350
64
  3
C9
350
65
  3
D0
350
66
  3
D1
350
67
  3
D2
350
68
  0
DICTIONARY
  5
1D2
102
{ACAD_REACTORS
330
C
102
}
330
C
100
AcDbDictionary
281
     1
  0
DICTIONARY
  5
69
102
{ACAD_REACTORS
330
C
102
}
330
C
100
AcDbDictionary
281
     1
  3
Standard
350
6A
  0
DICTIONARY
  5
2A
102
{ACAD_REACTORS
330
C
102
}
330
C
100
AcDbDictionary
281
     1
  3
2dWireframe
350
2F
  3
Basic
350
32
  3
Brighten
350
36
  3
ColorChange
350
3A
  3
Conceptual
350
34
  3
Dim
350
35
  3
EdgeColorOff
350
3D
  3
Facepattern
350
39
  3
Flat
350
2B
  3
FlatWithEdges
350
2C
  3
Gouraud
350
2D
  3
GouraudWithEdges
350
2E
  3
Hidden
350
31
  3
JitterOff
350
3B
  3
Linepattern
350
38
  3
OverhangOff
350
3C
  3
Realistic
350
33
  3
Shaded
350
42
  3
Shaded with edges
350
41
  3
Shades of Gray
350
3E
  3
Sketchy
350
3F
  3
Thicken
350
37
  3
Wireframe
350
30
  3
X-Ray
350
40
  0
XRECORD
  5
1CE
102
{ACAD_REACTORS
330
C
102
}
330
C
100
AcDbXrecord
280
     1
 90
        1
330
6A
  0
DICTIONARY
  5
1CA
102
{ACAD_REACTORS
330
C
102
}
330
C
100
AcDbDictionary
281
     1
  3
CANNOSCALE
350
1CB
  3
CMLEADERSTYLE
350
1D0
  3
CTABLESTYLE
350
1CF
  0
LAYOUT
  5
1E
102
{ACAD_REACTORS
330
1A
102
}
330
1A
100
AcDbPlotSettings
  1

  2
none_device
  4

  6

 40
0.0
 41
0.0
 42
0.0
 43
0.0
 44
0.0
 45
0.0
 46
0.0
 47
0.0
 48
0.0
 49
0.0
140
0.0
141
0.0
142
1.0
143
1.0
 70
   688
 72
     0
 73
     0
 74
     5
  7

 75
    16
 76
     0
 77
     2
 78
   300
147
1.0
148
0.0
149
0.0
100
AcDbLayout
  1
Layout1
 70
     1
 71
     1
 10
0.0
 20
0.0
 11
12.0
 21
9.0
 12
0.0
 22
0.0
 32
0.0
 14
1.000000000000000E+20
 24
1.000000000000000E+20
 34
1.000000000000000E+20
 15
-1.000000000000000E+20
 25
-1.000000000000000E+20
 35
-1.000000000000000E+20
146
0.0
 13
0.0
 23
0.0
 33
0.0
 16
1.0
 26
0.0
 36
0.0
 17
0.0
 27
1.0
 37
0.0
 76
     0
330
1B
  0
LAYOUT
  5
26
102
{ACAD_REACTORS
330
1A
102
}
330
1A
100
AcDbPlotSettings
  1

  2
none_device
  4

  6

 40
0.0
 41
0.0
 42
0.0
 43
0.0
 44
0.0
 45
0.0
 46
0.0
 47
0.0
 48
0.0
 49
0.0
140
0.0
141
0.0
142
1.0
143
1.0
 70
   688
 72
     0
 73
     0
 74
     5
  7

 75
    16
 76
     0
 77
     2
 78
   300
147
1.0
148
0.0
149
0.0
100
AcDbLayout
  1
Layout2
 70
     1
 71
     2
 10
0.0
 20
0.0
 11
0.0
 21
0.0
 12
0.0
 22
0.0
 32
0.0
 14
0.0
 24
0.0
 34
0.0
 15
0.0
 25
0.0
 35
0.0
146
0.0
 13
0.0
 23
0.0
 33
0.0
 16
1.0
 26
0.0
 36
0.0
 17
0.0
 27
1.0
 37
0.0
 76
     0
330
23
  0
LAYOUT
  5
22
102
{ACAD_REACTORS
330
1A
102
}
330
1A
100
AcDbPlotSettings
  1

  2
none_device
  4
Letter_(8.50_x_11.00_Inches)
  6

 40
6.35
 41
6.35
 42
6.35000508
 43
6.35000508
 44
215.9
 45
279.4
 46
0.0
 47
0.0
 48
0.0
 49
0.0
140
0.0
141
0.0
142
1.0
143
1.0
 70
  1712
 72
     0
 73
     0
 74
     0
  7

 75
     0
 76
     0
 77
     2
 78
   300
147
1.0
148
0.0
149
0.0
100
AcDbLayout
  1
Model
 70
     1
 71
     0
 10
0.0
 20
0.0
 11
12.0
 21
9.0
 12
0.0
 22
0.0
 32
0.0
 14
1.000000000000000E+20
 24
1.000000000000000E+20
 34
1.000000000000000E+20
 15
-1.000000000000000E+20
 25
-1.000000000000000E+20
 35
-1.000000000000000E+20
146
0.0
 13
0.0
 23
0.0
 33
0.0
 16
1.0
 26
0.0
 36
0.0
 17
0.0
 27
1.0
 37
0.0
 76
     0
330
1F
331
29
  0
MATERIAL
  5
45
102
{ACAD_REACTORS
330
43
102
}
330
43
100
AcDbMaterial
  1
ByBlock
 72
     1
 94
      127
  0
MATERIAL
  5
44
102
{ACAD_REACTORS
330
43
102
}
330
43
100
AcDbMaterial
  1
ByLayer
 72
     1
 94
      127
  0
MATERIAL
  5
46
102
{ACAD_REACTORS
330
43
102
}
330
43
100
AcDbMaterial
  1
Global
 72
     1
 94
      127
  0
MLEADERSTYLE
  5
6C
102
{ACAD_REACTORS
330
6B
102
}
330
6B
100
AcDbMLeaderStyle
179
     2
170
     2
171
     1
172
     0
 90
        2
 40
0.0
 41
0.0
173
     1
 91
-1056964608
340
14
 92
       -2
290
     1
 42
0.09
291
     1
 43
0.36
  3
Standard
341
0
 44
0.18
300

342
11
174
     1
178
     6
175
     1
176
     0
 93
-1056964608
 45
0.18
292
     0
297
     0
 46
0.18
343
0
 94
-1056964608
 47
1.0
 49
1.0
140
1.0
293
     1
141
0.0
294
     1
177
     0
142
1.0
295
     0
296
     0
143
0.125
271
     0
272
     9
273
     9
298
     0
  0
MLINESTYLE
  5
18
102
{ACAD_REACTORS
330
17
102
}
330
17
100
AcDbMlineStyle
  2
Standard
 70
     0
  3

 62
   256
 51
90.0
 52
90.0
 71
     2
 49
0.5
 62
   256
  6
BYLAYER
 49
-0.5
 62
   256
  6
BYLAYER
  0
ACDBPLACEHOLDER
  5
F
102
{ACAD_REACTORS
330
E
102
}
330
E
  0
SCALE
  5
48
102
{ACAD_REACTORS
330
47
102
}
330
47
100
AcDbScale
 70
     0
300
1:1
140
1.0
141
1.0
290
     1
  0
SCALE
  5
49
102
{ACAD_REACTORS
330
47
102
}
330
47
100
AcDbScale
 70
     0
300
1:2
140
1.0
141
2.0
290
     0
  0
SCALE
  5
4A
102
{ACAD_REACTORS
330
47
102
}
330
47
100
AcDbScale
 70
     0
300
1:4
140
1.0
141
4.0
290
     0
  0
SCALE
  5
4B
102
{ACAD_REACTORS
330
47
102
}
330
47
100
AcDbScale
 70
     0
300
1:5
140
1.0
141
5.0
290
     0
  0
SCALE
  5
4C
102
{ACAD_REACTORS
330
47
102
}
330
47
100
AcDbScale
 70
     0
300
1:8
140
1.0
141
8.0
290
     0
  0
SCALE
  5
4D
102
{ACAD_REACTORS
330
47
102
}
330
47
100
AcDbScale
 70
     0
300
1:10
140
1.0
141
10.0
290
     0
  0
SCALE
  5
4E
102
{ACAD_REACTORS
330
47
102
}
330
47
100
AcDbScale
 70
     0
300
1:16
140
1.0
141
16.0
290
     0
  0
SCALE
  5
4F
102
{ACAD_REACTORS
330
47
102
}
330
47
100
AcDbScale
 70
     0
300
1:20
140
1.0
141
20.0
290
     0
  0
SCALE
  5
50
102
{ACAD_REACTORS
330
47
102
}
330
47
100
AcDbScale
 70
     0
300
1:30
140
1.0
141
30.0
290
     0
  0
SCALE
  5
51
102
{ACAD_REACTORS
330
47
102
}
330
47
100
AcDbScale
 70
     0
300
1:40
140
1.0
141
40.0
290
     0
  0
SCALE
  5
52
102
{ACAD_REACTORS
330
47
102
}
330
47
100
AcDbScale
 70
     0
300
1:50
140
1.0
141
50.0
290
     0
  0
SCALE
  5
53
102
{ACAD_REACTORS
330
47
102
}
330
47
100
AcDbScale
 70
     0
300
1:100
140
1.0
141
100.0
290
     0
  0
SCALE
  5
54
102
{ACAD_REACTORS
330
47
102
}
330
47
100
AcDbScale
 70
     0
300
2:1
140
2.0
141
1.0
290
     0
  0
SCALE
  5
55
102
{ACAD_REACTORS
330
47
102
}
330
47
100
AcDbScale
 70
     0
300
4:1
140
4.0
141
1.0
290
     0
  0
SCALE
  5
56
102
{ACAD_REACTORS
330
47
102
}
330
47
100
AcDbScale
 70
     0
300
8:1
140
8.0
141
1.0
290
     0
  0
SCALE
  5
57
102
{ACAD_REACTORS
330
47
102
}
330
47
100
AcDbScale
 70
     0
300
10:1
140
10.0
141
1.0
290
     0
  0
SCALE
  5
58
102
{ACAD_REACTORS
330
47
102
}
330
47
100
AcDbScale
 70
     0
300
100:1
140
100.0
141
1.0
290
     0
  0
SCALE
  5
59
102
{ACAD_REACTORS
330
47
102
}
330
47
100
AcDbScale
 70
     0
300
1/128" = 1'-0"
140
0.0078125
141
12.0
290
     0
  0
SCALE
  5
5A
102
{ACAD_REACTORS
330
47
102
}
330
47
100
AcDbScale
 70
     0
300
1/64" = 1'-0"
140
0.015625
141
12.0
290
     0
  0
SCALE
  5
5B
102
{ACAD_REACTORS
330
47
102
}
330
47
100
AcDbScale
 70
     0
300
1/32" = 1'-0"
140
0.03125
141
12.0
290
     0
  0
SCALE
  5
5C
102
{ACAD_REACTORS
330
47
102
}
330
47
100
AcDbScale
 70
     0
300
1/16" = 1'-0"
140
0.0625
141
12.0
290
     0
  0
SCALE
  5
5D
102
{ACAD_REACTORS
330
47
102
}
330
47
100
AcDbScale
 70
     0
300
3/32" = 1'-0"
140
0.09375
141
12.0
290
     0
  0
SCALE
  5
5E
102
{ACAD_REACTORS
330
47
102
}
330
47
100
AcDbScale
 70
     0
300
1/8" = 1'-0"
140
0.125
141
12.0
290
     0
  0
SCALE
  5
5F
102
{ACAD_REACTORS
330
47
102
}
330
47
100
AcDbScale
 70
     0
300
3/16" = 1'-0"
140
0.1875
141
12.0
290
     0
  0
SCALE
  5
60
102
{ACAD_REACTORS
330
47
102
}
330
47
100
AcDbScale
 70
     0
300
1/4" = 1'-0"
140
0.25
141
12.0
290
     0
  0
SCALE
  5
61
102
{ACAD_REACTORS
330
47
102
}
330
47
100
AcDbScale
 70
     0
300
3/8" = 1'-0"
140
0.375
141
12.0
290
     0
  0
SCALE
  5
62
102
{ACAD_REACTORS
330
47
102
}
330
47
100
AcDbScale
 70
     0
300
1/2" = 1'-0"
140
0.5
141
12.0
290
     0
  0
SCALE
  5
63
102
{ACAD_REACTORS
330
47
102
}
330
47
100
AcDbScale
 70
     0
300
3/4" = 1'-0"
140
0.75
141
12.0
290
     0
  0
SCALE
  5
64
102
{ACAD_REACTORS
330
47
102
}
330
47
100
AcDbScale
 70
     0
300
1" = 1'-0"
140
1.0
141
12.0
290
     0
  0
SCALE
  5
65
102
{ACAD_REACTORS
330
47
102
}
330
47
100
AcDbScale
 70
     0
300
1-1/2" = 1'-0"
140
1.5
141
12.0
290
     0
  0
SCALE
  5
66
102
{ACAD_REACTORS
330
47
102
}
330
47
100
AcDbScale
 70
     0
300
3" = 1'-0"
140
3.0
141
12.0
290
     0
  0
SCALE
  5
67
102
{ACAD_REACTORS
330
47
102
}
330
47
100
AcDbScale
 70
     0
300
6" = 1'-0"
140
6.0
141
12.0
290
     0
  0
SCALE
  5
68
102
{ACAD_REACTORS
330
47
102
}
330
47
100
AcDbScale
 70
     0
300
1'-0" = 1'-0"
140
12.0
141
12.0
290
     0
  0
TABLESTYLE
  5
6A
102
{ACAD_REACTORS
330
69
102
}
102
{ACAD_XDICTIONARY
360
1CC
102
}
330
69
100
AcDbTableStyle
  3
Standard
 70
     0
 71
     0
 40
0.06
 41
0.06
280
     0
281
     0
  7
Standard
140
0.18
170
     2
 62
     0
 63
   257
283
     0
 90
        4
 91
        0
  1

274
    -2
284
     1
 64
     0
275
    -2
285
     1
 65
     0
276
    -2
286
     1
 66
     0
277
    -2
287
     1
 67
     0
278
    -2
288
     1
 68
     0
279
    -2
289
     1
 69
     0
  7
Standard
140
0.25
170
     5
 62
     0
 63
   257
283
     0
 90
        4
 91
        0
  1

274
    -2
284
     1
 64
     0
275
    -2
285
     1
 65
     0
276
    -2
286
     1
 66
     0
277
    -2
287
     1
 67
     0
278
    -2
288
     1
 68
     0
279
    -2
289
     1
 69
     0
  7
Standard
140
0.18
170
     5
 62
     0
 63
   257
283
     0
 90
        4
 91
        0
  1

274
    -2
284
     1
 64
     0
275
    -2
285
     1
 65
     0
276
    -2
286
     1
 66
     0
277
    -2
287
     1
 67
     0
278
    -2
288
     1
 68
     0
279
    -2
289
     1
 69
     0
  0
VISUALSTYLE
  5
2F
102
{ACAD_REACTORS
330
2A
102
}
330
2A
100
AcDbVisualStyle
  2
2dWireframe
 70
     4
177
     3
291
     0
 70
    58
 90
        0
176
     1
 90
        2
176
     1
 90
        0
176
     1
 90
        0
176
     1
 40
0.6
176
     1
 40
30.0
176
     1
 62
     7
420
 16777215
176
     1
 90
        1
176
     1
 90
        4
176
     1
 62
     7
176
     1
 62
   257
176
     1
 90
        1
176
     1
 90
        1
176
     1
 40
1.0
176
     1
 90
        0
176
     1
 62
   257
176
     1
 40
1.0
176
     1
 90
        1
176
     1
 90
        6
176
     1
 90
        2
176
     1
 62
     7
176
     1
 90
        5
176
     1
 90
        0
176
     1
 90
        0
176
     1
290
     0
176
     1
 90
        1
176
     1
 40
0.0
176
     1
 90
        0
176
     1
290
     1
176
     1
290
     1
176
     1
290
     0
176
     1
290
     0
176
     1
290
     0
176
     1
290
     0
176
     1
290
     0
176
     1
290
     0
176
     1
290
     0
176
     1
 90
       50
176
     1
 40
0.0
176
     1
 40
1.0
176
     1
 90
        0
176
     1
 62
    18
420
        0
176
     1
 90
       50
176
     1
 90
        3
176
     1
 62
     5
420
      255
176
     1
290
     0
176
     1
 90
       50
176
     1
 90
       50
176
     1
 90
       50
176
     1
290
     0
176
     1
 90
       50
176
     1
 62
   256
176
     0
 40
1.0
176
     0
 90
        2
176
     1
  1
strokes_ogs.tif
176
     1
290
     0
176
     1
 40
1.0
176
     1
 40
1.0
176
     1
  0
VISUALSTYLE
  5
32
102
{ACAD_REACTORS
330
2A
102
}
330
2A
100
AcDbVisualStyle
  2
Basic
 70
     7
177
     3
291
     1
 70
    58
 90
        1
176
     1
 90
        0
176
     1
 90
        1
176
     1
 90
        0
176
     1
 40
0.6
176
     1
 40
30.0
176
     1
 62
     7
420
 16777215
176
     1
 90
        0
176
     1
 90
        4
176
     1
 62
     7
176
     1
 62
   257
176
     1
 90
        1
176
     1
 90
        1
176
     1
 40
1.0
176
     1
 90
        8
176
     1
 62
     7
176
     1
 40
1.0
176
     1
 90
        1
176
     1
 90
        6
176
     1
 90
        2
176
     1
 62
     7
176
     1
 90
        5
176
     1
 90
        0
176
     1
 90
        0
176
     1
290
     0
176
     1
 90
        1
176
     1
 40
0.0
176
     1
 90
        0
176
     1
290
     0
176
     1
290
     1
176
     1
290
     1
176
     1
290
     0
176
     1
290
     0
176
     1
290
     0
176
     1
290
     0
176
     1
290
     0
176
     1
290
     0
176
     1
 90
       50
176
     1
 40
0.0
176
     1
 40
1.0
176
     1
 90
        0
176
     1
 62
    18
420
        0
176
     1
 90
       50
176
     1
 90
        3
176
     1
 62
     5
420
      255
176
     1
290
     0
176
     1
 90
       50
176
     1
 90
       50
176
     1
 90
       50
176
     1
290
     0
176
     1
 90
       50
176
     1
 62
   256
176
     0
 40
1.0
176
     0
 90
        2
176
     1
  1
strokes_ogs.tif
176
     1
290
     0
176
     1
 40
1.0
176
     1
 40
1.0
176
     1
  0
VISUALSTYLE
  5
36
102
{ACAD_REACTORS
330
2A
102
}
330
2A
100
AcDbVisualStyle
  2
Brighten
 70
    12
177
     3
291
     1
 70
    58
 90
        2
176
     1
 90
        2
176
     1
 90
        0
176
     1
 90
        0
176
     1
 40
0.6
176
     1
 40
30.0
176
     1
 62
     7
420
 16777215
176
     1
 90
        1
176
     1
 90
        4
176
     1
 62
     7
176
     1
 62
   257
176
     1
 90
        1
176
     1
 90
        1
176
     1
 40
1.0
176
     1
 90
        8
176
     1
 62
     7
176
     1
 40
1.0
176
     1
 90
        1
176
     1
 90
        6
176
     1
 90
        2
176
     1
 62
     7
176
     1
 90
        5
176
     1
 90
        0
176
     1
 90
        0
176
     1
290
     0
176
     1
 90
        1
176
     1
 40
50.0
176
     1
 90
        0
176
     1
290
     0
176
     1
290
     1
176
     1
290
     1
176
     1
290
     0
176
     1
290
     0
176
     1
290
     0
176
     1
290
     0
176
     1
290
     0
176
     1
290
     0
176
     1
 90
       50
176
     1
 40
0.0
176
     1
 40
1.0
176
     1
 90
        0
176
     1
 62
    18
420
        0
176
     1
 90
       50
176
     1
 90
        3
176
     1
 62
     5
420
      255
176
     1
290
     0
176
     1
 90
       50
176
     1
 90
       50
176
     1
 90
       50
176
     1
290
     0
176
     1
 90
       50
176
     1
 62
   256
176
     0
 40
1.0
176
     0
 90
        2
176
     1
  1
strokes_ogs.tif
176
     1
290
     0
176
     1
 40
1.0
176
     1
 40
1.0
176
     1
  0
VISUALSTYLE
  5
3A
102
{ACAD_REACTORS
330
2A
102
}
330
2A
100
AcDbVisualStyle
  2
ColorChange
 70
    16
177
     3
291
     1
 70
    58
 90
        2
176
     1
 90
        2
176
     1
 90
        3
176
     1
 90
        0
176
     1
 40
0.6
176
     1
 40
30.0
176
     1
 62
     8
420
  8421504
176
     1
 90
        1
176
     1
 90
        4
176
     1
 62
     7
176
     1
 62
   257
176
     1
 90
        1
176
     1
 90
        1
176
     1
 40
1.0
176
     1
 90
        8
176
     1
 62
     8
420
  8421504
176
     1
 40
1.0
176
     1
 90
        1
176
     1
 90
        6
176
     1
 90
        2
176
     1
 62
     7
176
     1
 90
        5
176
     1
 90
        0
176
     1
 90
        0
176
     1
290
     0
176
     1
 90
        1
176
     1
 40
0.0
176
     1
 90
        0
176
     1
290
     0
176
     1
290
     1
176
     1
290
     1
176
     1
290
     0
176
     1
290
     0
176
     1
290
     0
176
     1
290
     0
176
     1
290
     0
176
     1
290
     0
176
     1
 90
       50
176
     1
 40
0.0
176
     1
 40
1.0
176
     1
 90
        0
176
     1
 62
    18
420
        0
176
     1
 90
       50
176
     1
 90
        3
176
     1
 62
     5
420
      255
176
     1
290
     0
176
     1
 90
       50
176
     1
 90
       50
176
     1
 90
       50
176
     1
290
     0
176
     1
 90
       50
176
     1
 62
   256
176
     0
 40
1.0
176
     0
 90
        2
176
     1
  1
strokes_ogs.tif
176
     1
290
     0
176
     1
 40
1.0
176
     1
 40
1.0
176
     1
  0
VISUALSTYLE
  5
34
102
{ACAD_REACTORS
330
2A
102
}
330
2A
100
AcDbVisualStyle
  2
Conceptual
 70
     9
177
     3
291
     0
 70
    58
 90
        3
176
     1
 90
        2
176
     1
 90
        0
176
     1
 90
        0
176
     1
 40
0.6
176
     1
 40
30.0
176
     1
 62
     7
420
 16777215
176
     1
 90
        2
176
     1
 90
        2
176
     1
 62
     7
176
     1
 62
   257
176
     1
 90
        1
176
     1
 90
        1
176
     1
 40
179.0
176
     1
 90
        8
176
     1
 62
     7
176
     1
 40
1.0
176
     1
 90
        1
176
     1
 90
        6
176
     1
 90
        2
176
     1
 62
     7
176
     1
 90
        3
176
     1
 90
        0
176
     1
 90
        0
176
     1
290
     0
176
     1
 90
        1
176
     1
 40
0.0
176
     1
 90
        0
176
     1
290
     0
176
     1
290
     1
176
     1
290
     1
176
     1
290
     0
176
     1
290
     0
176
     1
290
     0
176
     1
290
     0
176
     1
290
     0
176
     1
290
     0
176
     1
 90
       50
176
     1
 40
0.0
176
     1
 40
1.0
176
     1
 90
        0
176
     1
 62
    18
420
        0
176
     1
 90
       50
176
     1
 90
        3
176
     1
 62
     5
420
      255
176
     1
290
     0
176
     1
 90
       50
176
     1
 90
       50
176
     1
 90
       50
176
     1
290
     0
176
     1
 90
       50
176
     1
 62
   256
176
     0
 40
1.0
176
     0
 90
        2
176
     1
  1
strokes_ogs.tif
176
     1
290
     0
176
     1
 40
1.0
176
     1
 40
1.0
176
     1
  0
VISUALSTYLE
  5
35
102
{ACAD_REACTORS
330
2A
102
}
330
2A
100
AcDbVisualStyle
  2
Dim
 70
    11
177
     3
291
     1
 70
    58
 90
        2
176
     1
 90
        2
176
     1
 90
        0
176
     1
 90
        0
176
     1
 40
0.6
176
     1
 40
30.0
176
     1
 62
     7
420
 16777215
176
     1
 90
        1
176
     1
 90
        4
176
     1
 62
     7
176
     1
 62
   257
176
     1
 90
        1
176
     1
 90
        1
176
     1
 40
1.0
176
     1
 90
        8
176
     1
 62
     7
176
     1
 40
1.0
176
     1
 90
        1
176
     1
 90
        6
176
     1
 90
        2
176
     1
 62
     7
176
     1
 90
        5
176
     1
 90
        0
176
     1
 90
        0
176
     1
290
     0
176
     1
 90
        1
176
     1
 40
-50.0
176
     1
 90
        0
176
     1
290
     0
176
     1
290
     1
176
     1
290
     1
176
     1
290
     0
176
     1
290
     0
176
     1
290
     0
176
     1
290
     0
176
     1
290
     0
176
     1
290
     0
176
     1
 90
       50
176
     1
 40
0.0
176
     1
 40
1.0
176
     1
 90
        0
176
     1
 62
    18
420
        0
176
     1
 90
       50
176
     1
 90
        3
176
     1
 62
     5
420
      255
176
     1
290
     0
176
     1
 90
       50
176
     1
 90
       50
176
     1
 90
       50
176
     1
290
     0
176
     1
 90
       50
176
     1
 62
   256
176
     0
 40
1.0
176
     0
 90
        2
176
     1
  1
strokes_ogs.tif
176
     1
290
     0
176
     1
 40
1.0
176
     1
 40
1.0
176
     1
  0
VISUALSTYLE
  5
3D
102
{ACAD_REACTORS
330
2A
102
}
330
2A
100
AcDbVisualStyle
  2
EdgeColorOff
 70
    22
177
     3
291
     1
 70
    58
 90
        2
176
     0
 90
        2
176
     0
 90
        0
176
     0
 90
        0
176
     0
 40
0.6
176
     0
 40
30.0
176
     0
 62
     7
420
 16777215
176
     0
 90
        1
176
     0
 90
        4
176
     0
 62
     7
176
     0
 62
   257
176
     0
 90
        1
176
     0
 90
        1
176
     0
 40
1.0
176
     0
 90
        8
176
     2
 62
     7
176
     0
 40
1.0
176
     0
 90
        1
176
     0
 90
        6
176
     0
 90
        2
176
     0
 62
     7
176
     0
 90
        5
176
     0
 90
        0
176
     0
 90
        0
176
     0
290
     0
176
     0
 90
        1
176
     0
 40
0.0
176
     0
 90
        0
176
     0
290
     0
176
     0
290
     1
176
     0
290
     1
176
     0
290
     0
176
     0
290
     0
176
     0
290
     0
176
     0
290
     0
176
     0
290
     0
176
     0
290
     0
176
     0
 90
       50
176
     0
 40
0.0
176
     0
 40
1.0
176
     0
 90
        0
176
     0
 62
    18
420
        0
176
     0
 90
       50
176
     0
 90
        3
176
     0
 62
     5
420
      255
176
     0
290
     0
176
     0
 90
       50
176
     0
 90
       50
176
     0
 90
       50
176
     0
290
     0
176
     0
 90
       50
176
     0
 62
   256
176
     0
 40
1.0
176
     0
 90
        2
176
     0
  1
strokes_ogs.tif
176
     0
290
     0
176
     0
 40
1.0
176
     0
 40
1.0
176
     0
  0
VISUALSTYLE
  5
39
102
{ACAD_REACTORS
330
2A
102
}
330
2A
100
AcDbVisualStyle
  2
Facepattern
 70
    15
177
     3
291
     1
 70
    58
 90
        2
176
     1
 90
        2
176
     1
 90
        0
176
     1
 90
        0
176
     1
 40
0.6
176
     1
 40
30.0
176
     1
 62
     7
420
 16777215
176
     1
 90
        1
176
     1
 90
        4
176
     1
 62
     7
176
     1
 62
   257
176
     1
 90
        1
176
     1
 90
        1
176
     1
 40
1.0
176
     1
 90
        8
176
     1
 62
     7
176
     1
 40
1.0
176
     1
 90
        1
176
     1
 90
        6
176
     1
 90
        2
176
     1
 62
     7
176
     1
 90
        5
176
     1
 90
        0
176
     1
 90
        0
176
     1
290
     0
176
     1
 90
        1
176
     1
 40
0.0
176
     1
 90
        0
176
     1
290
     0
176
     1
290
     1
176
     1
290
     1
176
     1
290
     0
176
     1
290
     0
176
     1
290
     0
176
     1
290
     0
176
     1
290
     0
176
     1
290
     0
176
     1
 90
       50
176
     1
 40
0.0
176
     1
 40
1.0
176
     1
 90
        0
176
     1
 62
    18
420
        0
176
     1
 90
       50
176
     1
 90
        3
176
     1
 62
     5
420
      255
176
     1
290
     0
176
     1
 90
       50
176
     1
 90
       50
176
     1
 90
       50
176
     1
290
     0
176
     1
 90
       50
176
     1
 62
   256
176
     0
 40
1.0
176
     0
 90
        2
176
     1
  1
strokes_ogs.tif
176
     1
290
     0
176
     1
 40
1.0
176
     1
 40
1.0
176
     1
  0
VISUALSTYLE
  5
2B
102
{ACAD_REACTORS
330
2A
102
}
330
2A
100
AcDbVisualStyle
  2
Flat
 70
     0
177
     3
291
     1
 70
    58
 90
        2
176
     1
 90
        1
176
     1
 90
        1
176
     1
 90
        2
176
     1
 40
0.6
176
     1
 40
30.0
176
     1
 62
     7
420
 16777215
176
     1
 90
        0
176
     1
 90
        0
176
     1
 62
     7
176
     1
 62
   257
176
     1
 90
        1
176
     1
 90
        1
176
     1
 40
1.0
176
     1
 90
        8
176
     1
 62
     7
176
     1
 40
1.0
176
     1
 90
        1
176
     1
 90
        6
176
     1
 90
        2
176
     1
 62
     7
176
     1
 90
        5
176
     1
 90
        0
176
     1
 90
        0
176
     1
290
     0
176
     1
 90
       13
176
     1
 40
0.0
176
     1
 90
        0
176
     1
290
     0
176
     1
290
     1
176
     1
290
     1
176
     1
290
     0
176
     1
290
     0
176
     1
290
     0
176
     1
290
     0
176
     1
290
     0
176
     1
290
     0
176
     1
 90
       50
176
     1
 40
0.0
176
     1
 40
1.0
176
     1
 90
        0
176
     1
 62
    18
420
        0
176
     1
 90
       50
176
     1
 90
        3
176
     1
 62
     5
420
      255
176
     1
290
     0
176
     1
 90
       50
176
     1
 90
       50
176
     1
 90
       50
176
     1
290
     0
176
     1
 90
       50
176
     1
 62
   256
176
     0
 40
1.0
176
     0
 90
        2
176
     1
  1
strokes_ogs.tif
176
     1
290
     0
176
     1
 40
1.0
176
     1
 40
1.0
176
     1
  0
VISUALSTYLE
  5
2C
102
{ACAD_REACTORS
330
2A
102
}
330
2A
100
AcDbVisualStyle
  2
FlatWithEdges
 70
     1
177
     3
291
     1
 70
    58
 90
        2
176
     1
 90
        1
176
     1
 90
        1
176
     1
 90
        2
176
     1
 40
0.6
176
     1
 40
30.0
176
     1
 62
     7
420
 16777215
176
     1
 90
        1
176
     1
 90
        0
176
     1
 62
     7
176
     1
 62
   257
176
     1
 90
        1
176
     1
 90
        1
176
     1
 40
1.0
176
     1
 90
        0
176
     1
 62
   257
176
     1
 40
1.0
176
     1
 90
        1
176
     1
 90
        6
176
     1
 90
        2
176
     1
 62
     7
176
     1
 90
        5
176
     1
 90
        0
176
     1
 90
        0
176
     1
290
     0
176
     1
 90
       13
176
     1
 40
0.0
176
     1
 90
        0
176
     1
290
     0
176
     1
290
     1
176
     1
290
     1
176
     1
290
     0
176
     1
290
     0
176
     1
290
     0
176
     1
290
     0
176
     1
290
     0
176
     1
290
     0
176
     1
 90
       50
176
     1
 40
0.0
176
     1
 40
1.0
176
     1
 90
        0
176
     1
 62
    18
420
        0
176
     1
 90
       50
176
     1
 90
        3
176
     1
 62
     5
420
      255
176
     1
290
     0
176
     1
 90
       50
176
     1
 90
       50
176
     1
 90
       50
176
     1
290
     0
176
     1
 90
       50
176
     1
 62
   256
176
     0
 40
1.0
176
     0
 90
        2
176
     1
  1
strokes_ogs.tif
176
     1
290
     0
176
     1
 40
1.0
176
     1
 40
1.0
176
     1
  0
VISUALSTYLE
  5
2D
102
{ACAD_REACTORS
330
2A
102
}
330
2A
100
AcDbVisualStyle
  2
Gouraud
 70
     2
177
     3
291
     1
 70
    58
 90
        2
176
     1
 90
        2
176
     1
 90
        1
176
     1
 90
        2
176
     1
 40
0.6
176
     1
 40
30.0
176
     1
 62
     7
420
 16777215
176
     1
 90
        0
176
     1
 90
        0
176
     1
 62
     7
176
     1
 62
   257
176
     1
 90
        1
176
     1
 90
        1
176
     1
 40
1.0
176
     1
 90
        0
176
     1
 62
     7
176
     1
 40
1.0
176
     1
 90
        1
176
     1
 90
        6
176
     1
 90
        2
176
     1
 62
     7
176
     1
 90
        5
176
     1
 90
        0
176
     1
 90
        0
176
     1
290
     0
176
     1
 90
       13
176
     1
 40
0.0
176
     1
 90
        0
176
     1
290
     0
176
     1
290
     1
176
     1
290
     1
176
     1
290
     0
176
     1
290
     0
176
     1
290
     0
176
     1
290
     0
176
     1
290
     0
176
     1
290
     0
176
     1
 90
       50
176
     1
 40
0.0
176
     1
 40
1.0
176
     1
 90
        0
176
     1
 62
    18
420
        0
176
     1
 90
       50
176
     1
 90
        3
176
     1
 62
     5
420
      255
176
     1
290
     0
176
     1
 90
       50
176
     1
 90
       50
176
     1
 90
       50
176
     1
290
     0
176
     1
 90
       50
176
     1
 62
   256
176
     0
 40
1.0
176
     0
 90
        2
176
     1
  1
strokes_ogs.tif
176
     1
290
     0
176
     1
 40
1.0
176
     1
 40
1.0
176
     1
  0
VISUALSTYLE
  5
2E
102
{ACAD_REACTORS
330
2A
102
}
330
2A
100
AcDbVisualStyle
  2
GouraudWithEdges
 70
     3
177
     3
291
     1
 70
    58
 90
        2
176
     1
 90
        2
176
     1
 90
        1
176
     1
 90
        2
176
     1
 40
0.6
176
     1
 40
30.0
176
     1
 62
     7
420
 16777215
176
     1
 90
        1
176
     1
 90
        0
176
     1
 62
     7
176
     1
 62
   257
176
     1
 90
        1
176
     1
 90
        1
176
     1
 40
1.0
176
     1
 90
        0
176
     1
 62
   257
176
     1
 40
1.0
176
     1
 90
        1
176
     1
 90
        6
176
     1
 90
        2
176
     1
 62
     7
176
     1
 90
        5
176
     1
 90
        0
176
     1
 90
        0
176
     1
290
     0
176
     1
 90
       13
176
     1
 40
0.0
176
     1
 90
        0
176
     1
290
     0
176
     1
290
     1
176
     1
290
     1
176
     1
290
     0
176
     1
290
     0
176
     1
290
     0
176
     1
290
     0
176
     1
290
     0
176
     1
290
     0
176
     1
 90
       50
176
     1
 40
0.0
176
     1
 40
1.0
176
     1
 90
        0
176
     1
 62
    18
420
        0
176
     1
 90
       50
176
     1
 90
        3
176
     1
 62
     5
420
      255
176
     1
290
     0
176
     1
 90
       50
176
     1
 90
       50
176
     1
 90
       50
176
     1
290
     0
176
     1
 90
       50
176
     1
 62
   256
176
     0
 40
1.0
176
     0
 90
        2
176
     1
  1
strokes_ogs.tif
176
     1
290
     0
176
     1
 40
1.0
176
     1
 40
1.0
176
     1
  0
VISUALSTYLE
  5
31
102
{ACAD_REACTORS
330
2A
102
}
330
2A
100
AcDbVisualStyle
  2
Hidden
 70
     6
177
     3
291
     0
 70
    58
 90
        1
176
     1
 90
        2
176
     1
 90
        2
176
     1
 90
        0
176
     1
 40
0.6
176
     1
 40
30.0
176
     1
 62
     7
420
 16777215
176
     1
 90
        2
176
     1
 90
        2
176
     1
 62
     7
176
     1
 62
   257
176
     1
 90
        2
176
     1
 90
        1
176
     1
 40
40.0
176
     1
 90
        0
176
     1
 62
   257
176
     1
 40
1.0
176
     1
 90
        1
176
     1
 90
        6
176
     1
 90
        2
176
     1
 62
     7
176
     1
 90
        3
176
     1
 90
        0
176
     1
 90
        0
176
     1
290
     0
176
     1
 90
        1
176
     1
 40
0.0
176
     1
 90
        0
176
     1
290
     0
176
     1
290
     1
176
     1
290
     1
176
     1
290
     0
176
     1
290
     0
176
     1
290
     0
176
     1
290
     0
176
     1
290
     0
176
     1
290
     0
176
     1
 90
       50
176
     1
 40
0.0
176
     1
 40
1.0
176
     1
 90
        0
176
     1
 62
    18
420
        0
176
     1
 90
       50
176
     1
 90
        3
176
     1
 62
     5
420
      255
176
     1
290
     0
176
     1
 90
       50
176
     1
 90
       50
176
     1
 90
       50
176
     1
290
     0
176
     1
 90
       50
176
     1
 62
   256
176
     0
 40
1.0
176
     0
 90
        2
176
     1
  1
strokes_ogs.tif
176
     1
290
     0
176
     1
 40
1.0
176
     1
 40
1.0
176
     1
  0
VISUALSTYLE
  5
3B
102
{ACAD_REACTORS
330
2A
102
}
330
2A
100
AcDbVisualStyle
  2
JitterOff
 70
    20
177
     3
291
     1
 70
    58
 90
        2
176
     0
 90
        2
176
     0
 90
        0
176
     0
 90
        0
176
     0
 40
0.6
176
     0
 40
30.0
176
     0
 62
     7
420
 16777215
176
     0
 90
        1
176
     0
 90
        4
176
     0
 62
     7
176
     0
 62
   257
176
     0
 90
        1
176
     0
 90
        1
176
     0
 40
1.0
176
     0
 90
       10
176
     2
 62
     7
176
     0
 40
1.0
176
     0
 90
        1
176
     0
 90
        6
176
     0
 90
        2
176
     0
 62
     7
176
     0
 90
        5
176
     0
 90
        0
176
     0
 90
        0
176
     0
290
     0
176
     0
 90
        1
176
     0
 40
0.0
176
     0
 90
        0
176
     0
290
     0
176
     0
290
     1
176
     0
290
     1
176
     0
290
     0
176
     0
290
     0
176
     0
290
     0
176
     0
290
     0
176
     0
290
     0
176
     0
290
     0
176
     0
 90
       50
176
     0
 40
0.0
176
     0
 40
1.0
176
     0
 90
        0
176
     0
 62
    18
420
        0
176
     0
 90
       50
176
     0
 90
        3
176
     0
 62
     5
420
      255
176
     0
290
     0
176
     0
 90
       50
176
     0
 90
       50
176
     0
 90
       50
176
     0
290
     0
176
     0
 90
       50
176
     0
 62
   256
176
     0
 40
1.0
176
     0
 90
        2
176
     0
  1
strokes_ogs.tif
176
     0
290
     0
176
     0
 40
1.0
176
     0
 40
1.0
176
     0
  0
VISUALSTYLE
  5
38
102
{ACAD_REACTORS
330
2A
102
}
330
2A
100
AcDbVisualStyle
  2
Linepattern
 70
    14
177
     3
291
     1
 70
    58
 90
        2
176
     1
 90
        2
176
     1
 90
        0
176
     1
 90
        0
176
     1
 40
0.6
176
     1
 40
30.0
176
     1
 62
     7
420
 16777215
176
     1
 90
        1
176
     1
 90
        4
176
     1
 62
     7
176
     1
 62
   257
176
     1
 90
        7
176
     1
 90
        7
176
     1
 40
1.0
176
     1
 90
        8
176
     1
 62
     7
176
     1
 40
1.0
176
     1
 90
        1
176
     1
 90
        6
176
     1
 90
        2
176
     1
 62
     7
176
     1
 90
        5
176
     1
 90
        0
176
     1
 90
        0
176
     1
290
     0
176
     1
 90
        1
176
     1
 40
0.0
176
     1
 90
        0
176
     1
290
     0
176
     1
290
     1
176
     1
290
     1
176
     1
290
     0
176
     1
290
     0
176
     1
290
     0
176
     1
290
     0
176
     1
290
     0
176
     1
290
     0
176
     1
 90
       50
176
     1
 40
0.0
176
     1
 40
1.0
176
     1
 90
        0
176
     1
 62
    18
420
        0
176
     1
 90
       50
176
     1
 90
        3
176
     1
 62
     5
420
      255
176
     1
290
     0
176
     1
 90
       50
176
     1
 90
       50
176
     1
 90
       50
176
     1
290
     0
176
     1
 90
       50
176
     1
 62
   256
176
     0
 40
1.0
176
     0
 90
        2
176
     1
  1
strokes_ogs.tif
176
     1
290
     0
176
     1
 40
1.0
176
     1
 40
1.0
176
     1
  0
VISUALSTYLE
  5
3C
102
{ACAD_REACTORS
330
2A
102
}
330
2A
100
AcDbVisualStyle
  2
OverhangOff
 70
    21
177
     3
291
     1
 70
    58
 90
        2
176
     0
 90
        2
176
     0
 90
        0
176
     0
 90
        0
176
     0
 40
0.6
176
     0
 40
30.0
176
     0
 62
     7
420
 16777215
176
     0
 90
        1
176
     0
 90
        4
176
     0
 62
     7
176
     0
 62
   257
176
     0
 90
        1
176
     0
 90
        1
176
     0
 40
1.0
176
     0
 90
        9
176
     2
 62
     7
176
     0
 40
1.0
176
     0
 90
        1
176
     0
 90
        6
176
     0
 90
        2
176
     0
 62
     7
176
     0
 90
        5
176
     0
 90
        0
176
     0
 90
        0
176
     0
290
     0
176
     0
 90
        1
176
     0
 40
0.0
176
     0
 90
        0
176
     0
290
     0
176
     0
290
     1
176
     0
290
     1
176
     0
290
     0
176
     0
290
     0
176
     0
290
     0
176
     0
290
     0
176
     0
290
     0
176
     0
290
     0
176
     0
 90
       50
176
     0
 40
0.0
176
     0
 40
1.0
176
     0
 90
        0
176
     0
 62
    18
420
        0
176
     0
 90
       50
176
     0
 90
        3
176
     0
 62
     5
420
      255
176
     0
290
     0
176
     0
 90
       50
176
     0
 90
       50
176
     0
 90
       50
176
     0
290
     0
176
     0
 90
       50
176
     0
 62
   256
176
     0
 40
1.0
176
     0
 90
        2
176
     0
  1
strokes_ogs.tif
176
     0
290
     0
176
     0
 40
1.0
176
     0
 40
1.0
176
     0
  0
VISUALSTYLE
  5
33
102
{ACAD_REACTORS
330
2A
102
}
330
2A
100
AcDbVisualStyle
  2
Realistic
 70
     8
177
     3
291
     0
 70
    58
 90
        2
176
     1
 90
        3
176
     1
 90
        0
176
     1
 90
        2
176
     1
 40
0.6
176
     1
 40
30.0
176
     1
 62
     7
420
 16777215
176
     1
 90
        0
176
     1
 90
        0
176
     1
 62
     7
176
     1
 62
   257
176
     1
 90
        1
176
     1
 90
        1
176
     1
 40
1.0
176
     1
 90
        8
176
     1
 62
   257
176
     1
 40
1.0
176
     1
 90
        1
176
     1
 90
        6
176
     1
 90
        2
176
     1
 62
     7
176
     1
 90
        3
176
     1
 90
        0
176
     1
 90
        0
176
     1
290
     0
176
     1
 90
       13
176
     1
 40
0.0
176
     1
 90
        0
176
     1
290
     0
176
     1
290
     1
176
     1
290
     1
176
     1
290
     0
176
     1
290
     0
176
     1
290
     0
176
     1
290
     0
176
     1
290
     0
176
     1
290
     0
176
     1
 90
       50
176
     1
 40
0.0
176
     1
 40
1.0
176
     1
 90
        0
176
     1
 62
    18
420
        0
176
     1
 90
       50
176
     1
 90
        3
176
     1
 62
     5
420
      255
176
     1
290
     0
176
     1
 90
       50
176
     1
 90
       50
176
     1
 90
       50
176
     1
290
     0
176
     1
 90
       50
176
     1
 62
   256
176
     0
 40
1.0
176
     0
 90
        2
176
     1
  1
strokes_ogs.tif
176
     1
290
     0
176
     1
 40
1.0
176
     1
 40
1.0
176
     1
  0
VISUALSTYLE
  5
42
102
{ACAD_REACTORS
330
2A
102
}
330
2A
100
AcDbVisualStyle
  2
Shaded
 70
    27
177
     3
291
     0
 70
    58
 90
        2
176
     1
 90
        2
176
     1
 90
        1
176
     1
 90
        2
176
     1
 40
0.6
176
     1
 40
30.0
176
     1
 62
     7
420
 16777215
176
     1
 90
        0
176
     1
 90
        4
176
     1
 62
     7
176
     1
 62
   257
176
     1
 90
        1
176
     1
 90
        1
176
     1
 40
1.0
176
     1
 90
        8
176
     1
 62
   257
176
     1
 40
1.0
176
     1
 90
        1
176
     1
 90
        6
176
     1
 90
        2
176
     1
 62
     8
420
  7895160
176
     1
 90
        3
176
     1
 90
        0
176
     1
 90
        0
176
     1
290
     0
176
     1
 90
        5
176
     1
 40
0.0
176
     1
 90
        0
176
     1
290
     0
176
     1
290
     1
176
     1
290
     1
176
     1
290
     0
176
     1
290
     0
176
     1
290
     0
176
     1
290
     0
176
     1
290
     0
176
     1
290
     0
176
     1
 90
       50
176
     1
 40
0.0
176
     1
 40
1.0
176
     1
 90
        0
176
     1
 62
    18
420
        0
176
     1
 90
       50
176
     1
 90
        3
176
     1
 62
     5
420
      255
176
     1
290
     0
176
     1
 90
       50
176
     1
 90
       50
176
     1
 90
       50
176
     1
290
     0
176
     1
 90
       50
176
     1
 62
   256
176
     0
 40
1.0
176
     0
 90
        2
176
     1
  1
strokes_ogs.tif
176
     1
290
     0
176
     1
 40
1.0
176
     1
 40
1.0
176
     1
  0
VISUALSTYLE
  5
41
102
{ACAD_REACTORS
330
2A
102
}
330
2A
100
AcDbVisualStyle
  2
Shaded with edges
 70
    26
177
     3
291
     0
 70
    58
 90
        2
176
     1
 90
        2
176
     1
 90
        1
176
     1
 90
        2
176
     1
 40
0.6
176
     1
 40
30.0
176
     1
 62
     7
420
 16777215
176
     1
 90
        1
176
     1
 90
       10
176
     1
 62
     7
176
     1
 62
   257
176
     1
 90
        2
176
     1
 90
        1
176
     1
 40
1.0
176
     1
 90
        8
176
     1
 62
   257
176
     1
 40
1.0
176
     1
 90
        1
176
     1
 90
        6
176
     1
 90
        2
176
     1
 62
     7
176
     1
 90
        3
176
     1
 90
        0
176
     1
 90
        0
176
     1
290
     0
176
     1
 90
        5
176
     1
 40
0.0
176
     1
 90
        0
176
     1
290
     0
176
     1
290
     1
176
     1
290
     1
176
     1
290
     0
176
     1
290
     0
176
     1
290
     0
176
     1
290
     0
176
     1
290
     0
176
     1
290
     0
176
     1
 90
       50
176
     1
 40
0.0
176
     1
 40
1.0
176
     1
 90
        0
176
     1
 62
    18
420
        0
176
     1
 90
       50
176
     1
 90
        3
176
     1
 62
     5
420
      255
176
     1
290
     0
176
     1
 90
       50
176
     1
 90
       50
176
     1
 90
       50
176
     1
290
     0
176
     1
 90
       50
176
     1
 62
   256
176
     0
 40
1.0
176
     0
 90
        2
176
     1
  1
strokes_ogs.tif
176
     1
290
     0
176
     1
 40
1.0
176
     1
 40
1.0
176
     1
  0
VISUALSTYLE
  5
3E
102
{ACAD_REACTORS
330
2A
102
}
330
2A
100
AcDbVisualStyle
  2
Shades of Gray
 70
    23
177
     3
291
     0
 70
    58
 90
        2
176
     1
 90
        2
176
     1
 90
        3
176
     1
 90
        0
176
     1
 40
0.6
176
     1
 40
30.0
176
     1
 62
     7
420
 16777215
176
     1
 90
        2
176
     1
 90
        2
176
     1
 62
     7
176
     1
 62
     7
176
     1
 90
        1
176
     1
 90
        1
176
     1
 40
40.0
176
     1
 90
        8
176
     1
 62
     7
176
     1
 40
1.0
176
     1
 90
        1
176
     1
 90
        6
176
     1
 90
        2
176
     1
 62
     7
176
     1
 90
        3
176
     1
 90
        0
176
     1
 90
        0
176
     1
290
     0
176
     1
 90
        1
176
     1
 40
0.0
176
     1
 90
        0
176
     1
290
     0
176
     1
290
     1
176
     1
290
     1
176
     1
290
     0
176
     1
290
     0
176
     1
290
     0
176
     1
290
     0
176
     1
290
     0
176
     1
290
     0
176
     1
 90
       50
176
     1
 40
0.0
176
     1
 40
1.0
176
     1
 90
        0
176
     1
 62
    18
420
        0
176
     1
 90
       50
176
     1
 90
        3
176
     1
 62
     5
420
      255
176
     1
290
     0
176
     1
 90
       50
176
     1
 90
       50
176
     1
 90
       50
176
     1
290
     0
176
     1
 90
       50
176
     1
 62
   256
176
     0
 40
1.0
176
     0
 90
        2
176
     1
  1
strokes_ogs.tif
176
     1
290
     0
176
     1
 40
1.0
176
     1
 40
1.0
176
     1
  0
VISUALSTYLE
  5
3F
102
{ACAD_REACTORS
330
2A
102
}
330
2A
100
AcDbVisualStyle
  2
Sketchy
 70
    24
177
     3
291
     0
 70
    58
 90
        1
176
     1
 90
        2
176
     1
 90
        2
176
     1
 90
        0
176
     1
 40
0.6
176
     1
 40
30.0
176
     1
 62
     7
420
 16777215
176
     1
 90
        2
176
     1
 90
        2
176
     1
 62
     7
176
     1
 62
     7
176
     1
 90
        1
176
     1
 90
        1
176
     1
 40
40.0
176
     1
 90
       11
176
     1
 62
     7
176
     1
 40
1.0
176
     1
 90
        1
176
     1
 90
        6
176
     1
 90
        2
176
     1
 62
     7
176
     1
 90
        6
176
     1
 90
        0
176
     1
 90
        0
176
     1
290
     0
176
     1
 90
        1
176
     1
 40
0.0
176
     1
 90
        0
176
     1
290
     0
176
     1
290
     1
176
     1
290
     1
176
     1
290
     0
176
     1
290
     0
176
     1
290
     0
176
     1
290
     0
176
     1
290
     0
176
     1
290
     0
176
     1
 90
       50
176
     1
 40
0.0
176
     1
 40
1.0
176
     1
 90
        0
176
     1
 62
    18
420
        0
176
     1
 90
       50
176
     1
 90
        3
176
     1
 62
     5
420
      255
176
     1
290
     0
176
     1
 90
       50
176
     1
 90
       50
176
     1
 90
       50
176
     1
290
     0
176
     1
 90
       50
176
     1
 62
   256
176
     0
 40
1.0
176
     0
 90
        2
176
     1
  1
strokes_ogs.tif
176
     1
290
     0
176
     1
 40
1.0
176
     1
 40
1.0
176
     1
  0
VISUALSTYLE
  5
37
102
{ACAD_REACTORS
330
2A
102
}
330
2A
100
AcDbVisualStyle
  2
Thicken
 70
    13
177
     3
291
     1
 70
    58
 90
        2
176
     1
 90
        2
176
     1
 90
        0
176
     1
 90
        0
176
     1
 40
0.6
176
     1
 40
30.0
176
     1
 62
     7
420
 16777215
176
     1
 90
        1
176
     1
 90
        4
176
     1
 62
     7
176
     1
 62
   257
176
     1
 90
        1
176
     1
 90
        1
176
     1
 40
1.0
176
     1
 90
       12
176
     1
 62
     7
176
     1
 40
1.0
176
     1
 90
        1
176
     1
 90
        6
176
     1
 90
        2
176
     1
 62
     7
176
     1
 90
        5
176
     1
 90
        0
176
     1
 90
        0
176
     1
290
     0
176
     1
 90
        1
176
     1
 40
0.0
176
     1
 90
        0
176
     1
290
     0
176
     1
290
     1
176
     1
290
     1
176
     1
290
     0
176
     1
290
     0
176
     1
290
     0
176
     1
290
     0
176
     1
290
     0
176
     1
290
     0
176
     1
 90
       50
176
     1
 40
0.0
176
     1
 40
1.0
176
     1
 90
        0
176
     1
 62
    18
420
        0
176
     1
 90
       50
176
     1
 90
        3
176
     1
 62
     5
420
      255
176
     1
290
     0
176
     1
 90
       50
176
     1
 90
       50
176
     1
 90
       50
176
     1
290
     0
176
     1
 90
       50
176
     1
 62
   256
176
     0
 40
1.0
176
     0
 90
        2
176
     1
  1
strokes_ogs.tif
176
     1
290
     0
176
     1
 40
1.0
176
     1
 40
1.0
176
     1
  0
VISUALSTYLE
  5
30
102
{ACAD_REACTORS
330
2A
102
}
330
2A
100
AcDbVisualStyle
  2
Wireframe
 70
     5
177
     3
291
     0
 70
    58
 90
        0
176
     1
 90
        2
176
     1
 90
        0
176
     1
 90
        0
176
     1
 40
0.6
176
     1
 40
30.0
176
     1
 62
     7
420
 16777215
176
     1
 90
        1
176
     1
 90
        4
176
     1
 62
     7
176
     1
 62
   257
176
     1
 90
        1
176
     1
 90
        1
176
     1
 40
1.0
176
     1
 90
        0
176
     1
 62
   257
176
     1
 40
1.0
176
     1
 90
        1
176
     1
 90
        6
176
     1
 90
        2
176
     1
 62
     7
176
     1
 90
        3
176
     1
 90
        0
176
     1
 90
        0
176
     1
290
     0
176
     1
 90
        1
176
     1
 40
0.0
176
     1
 90
        0
176
     1
290
     0
176
     1
290
     1
176
     1
290
     1
176
     1
290
     0
176
     1
290
     0
176
     1
290
     0
176
     1
290
     0
176
     1
290
     0
176
     1
290
     0
176
     1
 90
       50
176
     1
 40
0.0
176
     1
 40
1.0
176
     1
 90
        0
176
     1
 62
    18
420
        0
176
     1
 90
       50
176
     1
 90
        3
176
     1
 62
     5
420
      255
176
     1
290
     0
176
     1
 90
       50
176
     1
 90
       50
176
     1
 90
       50
176
     1
290
     0
176
     1
 90
       50
176
     1
 62
   256
176
     0
 40
1.0
176
     0
 90
        2
176
     1
  1
strokes_ogs.tif
176
     1
290
     0
176
     1
 40
1.0
176
     1
 40
1.0
176
     1
  0
VISUALSTYLE
  5
40
102
{ACAD_REACTORS
330
2A
102
}
330
2A
100
AcDbVisualStyle
  2
X-Ray
 70
    25
177
     3
291
     0
 70
    58
 90
        2
176
     1
 90
        2
176
     1
 90
        1
176
     1
 90
        1
176
     1
 40
0.5
176
     1
 40
30.0
176
     1
 62
     7
420
 16777215
176
     1
 90
        1
176
     1
 90
        0
176
     1
 62
     7
176
     1
 62
   257
176
     1
 90
        1
176
     1
 90
        1
176
     1
 40
1.0
176
     1
 90
        8
176
     1
 62
     7
176
     1
 40
1.0
176
     1
 90
        1
176
     1
 90
        6
176
     1
 90
        2
176
     1
 62
     7
176
     1
 90
        3
176
     1
 90
        0
176
     1
 90
        0
176
     1
290
     0
176
     1
 90
       13
176
     1
 40
0.0
176
     1
 90
        0
176
     1
290
     0
176
     1
290
     1
176
     1
290
     1
176
     1
290
     0
176
     1
290
     0
176
     1
290
     0
176
     1
290
     0
176
     1
290
     0
176
     1
290
     0
176
     1
 90
       50
176
     1
 40
0.0
176
     1
 40
1.0
176
     1
 90
        0
176
     1
 62
    18
420
        0
176
     1
 90
       50
176
     1
 90
        3
176
     1
 62
     5
420
      255
176
     1
290
     0
176
     1
 90
       50
176
     1
 90
       50
176
     1
 90
       50
176
     1
290
     0
176
     1
 90
       50
176
     1
 62
   256
176
     0
 40
1.0
176
     0
 90
        2
176
     1
  1
strokes_ogs.tif
176
     1
290
     0
176
     1
 40
1.0
176
     1
 40
1.0
176
     1
  0
DICTIONARYVAR
  5
1CB
102
{ACAD_REACTORS
330
1CA
102
}
330
1CA
100
DictionaryVariables
280
     0
  1
1:1
  0
DICTIONARYVAR
  5
1D0
102
{ACAD_REACTORS
330
1CA
102
}
330
1CA
100
DictionaryVariables
280
     0
  1
Standard
  0
DICTIONARYVAR
  5
1CF
102
{ACAD_REACTORS
330
1CA
102
}
330
1CA
100
DictionaryVariables
280
     0
  1
Standard
  0
DICTIONARY
  5
1CC
330
6A
100
AcDbDictionary
280
     1
281
     1
  3
ACAD_ROUNDTRIP_2008_TABLESTYLE_CELLSTYLEMAP
360
1CD
  0
CELLSTYLEMAP
  5
1CD
102
{ACAD_REACTORS
330
1CC
102
}
330
1CC
100
AcDbCellStyleMap
 90
        3
300
CELLSTYLE
  1
TABLEFORMAT_BEGIN
 90
        5
170
     1
 91
        0
 92
    32768
 62
   257
 93
        1
300
CONTENTFORMAT
  1
CONTENTFORMAT_BEGIN
 90
        0
 91
        0
 92
        4
 93
        0
300

 40
0.0
140
1.0
 94
        5
 62
     0
340
11
144
0.25
309
CONTENTFORMAT_END
171
     1
301
MARGIN
  1
CELLMARGIN_BEGIN
 40
0.06
 40
0.06
 40
0.06
 40
0.06
 40
0.06
 40
0.06
309
CELLMARGIN_END
 94
        6
 95
        1
302
GRIDFORMAT
  1
GRIDFORMAT_BEGIN
 90
        0
 91
        1
 62
     0
 92
       -2
340
14
 93
        0
 40
0.045
309
GRIDFORMAT_END
 95
        2
302
GRIDFORMAT
  1
GRIDFORMAT_BEGIN
 90
        0
 91
        1
 62
     0
 92
       -2
340
14
 93
        0
 40
0.045
309
GRIDFORMAT_END
 95
        4
302
GRIDFORMAT
  1
GRIDFORMAT_BEGIN
 90
        0
 91
        1
 62
     0
 92
       -2
340
14
 93
        0
 40
0.045
309
GRIDFORMAT_END
 95
        8
302
GRIDFORMAT
  1
GRIDFORMAT_BEGIN
 90
        0
 91
        1
 62
     0
 92
       -2
340
14
 93
        0
 40
0.045
309
GRIDFORMAT_END
 95
       16
302
GRIDFORMAT
  1
GRIDFORMAT_BEGIN
 90
        0
 91
        1
 62
     0
 92
       -2
340
14
 93
        0
 40
0.045
309
GRIDFORMAT_END
 95
       32
302
GRIDFORMAT
  1
GRIDFORMAT_BEGIN
 90
        0
 91
        1
 62
     0
 92
       -2
340
14
 93
        0
 40
0.045
309
GRIDFORMAT_END
309
TABLEFORMAT_END
  1
CELLSTYLE_BEGIN
 90
        1
 91
        1
300
_TITLE
309
CELLSTYLE_END
300
CELLSTYLE
  1
TABLEFORMAT_BEGIN
 90
        5
170
     1
 91
        0
 92
        0
 62
   257
 93
        1
300
CONTENTFORMAT
  1
CONTENTFORMAT_BEGIN
 90
        0
 91
        0
 92
        4
 93
        0
300

 40
0.0
140
1.0
 94
        5
 62
     0
340
11
144
0.18
309
CONTENTFORMAT_END
171
     1
301
MARGIN
  1
CELLMARGIN_BEGIN
 40
0.06
 40
0.06
 40
0.06
 40
0.06
 40
0.06
 40
0.06
309
CELLMARGIN_END
 94
        6
 95
        1
302
GRIDFORMAT
  1
GRIDFORMAT_BEGIN
 90
        0
 91
        1
 62
     0
 92
       -2
340
14
 93
        0
 40
0.045
309
GRIDFORMAT_END
 95
        2
302
GRIDFORMAT
  1
GRIDFORMAT_BEGIN
 90
        0
 91
        1
 62
     0
 92
       -2
340
14
 93
        0
 40
0.045
309
GRIDFORMAT_END
 95
        4
302
GRIDFORMAT
  1
GRIDFORMAT_BEGIN
 90
        0
 91
        1
 62
     0
 92
       -2
340
14
 93
        0
 40
0.045
309
GRIDFORMAT_END
 95
        8
302
GRIDFORMAT
  1
GRIDFORMAT_BEGIN
 90
        0
 91
        1
 62
     0
 92
       -2
340
14
 93
        0
 40
0.045
309
GRIDFORMAT_END
 95
       16
302
GRIDFORMAT
  1
GRIDFORMAT_BEGIN
 90
        0
 91
        1
 62
     0
 92
       -2
340
14
 93
        0
 40
0.045
309
GRIDFORMAT_END
 95
       32
302
GRIDFORMAT
  1
GRIDFORMAT_BEGIN
 90
        0
 91
        1
 62
     0
 92
       -2
340
14
 93
        0
 40
0.045
309
GRIDFORMAT_END
309
TABLEFORMAT_END
  1
CELLSTYLE_BEGIN
 90
        2
 91
        1
300
_HEADER
309
CELLSTYLE_END
300
CELLSTYLE
  1
TABLEFORMAT_BEGIN
 90
        5
170
     1
 91
        0
 92
        0
 62
   257
 93
        1
300
CONTENTFORMAT
  1
CONTENTFORMAT_BEGIN
 90
        0
 91
        0
 92
        4
 93
        0
300

 40
0.0
140
1.0
 94
        2
 62
     0
340
11
144
0.18
309
CONTENTFORMAT_END
171
     1
301
MARGIN
  1
CELLMARGIN_BEGIN
 40
0.06
 40
0.06
 40
0.06
 40
0.06
 40
0.06
 40
0.06
309
CELLMARGIN_END
 94
        6
 95
        1
302
GRIDFORMAT
  1
GRIDFORMAT_BEGIN
 90
        0
 91
        1
 62
     0
 92
       -2
340
14
 93
        0
 40
0.045
309
GRIDFORMAT_END
 95
        2
302
GRIDFORMAT
  1
GRIDFORMAT_BEGIN
 90
        0
 91
        1
 62
     0
 92
       -2
340
14
 93
        0
 40
0.045
309
GRIDFORMAT_END
 95
        4
302
GRIDFORMAT
  1
GRIDFORMAT_BEGIN
 90
        0
 91
        1
 62
     0
 92
       -2
340
14
 93
        0
 40
0.045
309
GRIDFORMAT_END
 95
        8
302
GRIDFORMAT
  1
GRIDFORMAT_BEGIN
 90
        0
 91
        1
 62
     0
 92
       -2
340
14
 93
        0
 40
0.045
309
GRIDFORMAT_END
 95
       16
302
GRIDFORMAT
  1
GRIDFORMAT_BEGIN
 90
        0
 91
        1
 62
     0
 92
       -2
340
14
 93
        0
 40
0.045
309
GRIDFORMAT_END
 95
       32
302
GRIDFORMAT
  1
GRIDFORMAT_BEGIN
 90
        0
 91
        1
 62
     0
 92
       -2
340
14
 93
        0
 40
0.045
309
GRIDFORMAT_END
309
TABLEFORMAT_END
  1
CELLSTYLE_BEGIN
 90
        3
 91
        2
300
_DATA
309
CELLSTYLE_END
  0
ENDSEC
  0
EOF