0
SECTION
  2
HEADER
  9
$ACADVER
  1
AC1027
  9
$ACADMAINTVER
 70
   105
  9
$DWGCODEPAGE
  3
ANSI_1252
  9
$REQUIREDVERSIONS
160
                 0
  9
$COMMENTS
  1
File was created by Cadenas
  9
$CUSTOMPROPERTYTAG
  1
NN
  9
$CUSTOMPROPERTY
  1
UNISPHERE ll Flange Bearing - Inch 4-Bolt Non-Expansion
  9
$CUSTOMPROPERTYTAG
  1
NT
  9
$CUSTOMPROPERTY
  1
Unisphere II
  9
$CUSTOMPROPERTYTAG
  1
NB
  9
$CUSTOMPROPERTY
  1
048061
  9
$CUSTOMPROPERTYTAG
  1
NBSYN
  9
$CUSTOMPROPERTY
  1
$PN.
  9
$CUSTOMPROPERTYTAG
  1
LINA
  9
$CUSTOMPROPERTY
  1
048061
  9
$CUSTOMPROPERTYTAG
  1
SS
  9
$CUSTOMPROPERTY
  1
2-3/4
  9
$CUSTOMPROPERTYTAG
  1
TYPE
  9
$CUSTOMPROPERTY
  1
Expansion Type
  9
$CUSTOMPROPERTYTAG
  1
PN
  9
$CUSTOMPROPERTY
  1
048061
  9
$CUSTOMPROPERTYTAG
  1
DESCRIPTION
  9
$CUSTOMPROPERTY
  1
F4B-UN2-212E
  9
$CUSTOMPROPERTYTAG
  1
WEIGHT
  9
$CUSTOMPROPERTY
  1
17.0
  9
$CUSTOMPROPERTYTAG
  1
A
  9
$CUSTOMPROPERTY
  1
2-29/64
  9
$CUSTOMPROPERTYTAG
  1
B
  9
$CUSTOMPROPERTY
  1
7-3/16
  9
$CUSTOMPROPERTYTAG
  1
C
  9
$CUSTOMPROPERTY
  1
2-19/32
  9
$CUSTOMPROPERTYTAG
  1
D
  9
$CUSTOMPROPERTY
  1
5-9/16
  9
$CUSTOMPROPERTYTAG
  1
F
  9
$CUSTOMPROPERTY
  1
3/4
  9
$CUSTOMPROPERTYTAG
  1
H
  9
$CUSTOMPROPERTY
  1
15/16
  9
$CUSTOMPROPERTYTAG
  1
J
  9
$CUSTOMPROPERTY
  1
25/32
  9
$CUSTOMPROPERTYTAG
  1
K
  9
$CUSTOMPROPERTY
  1
7-7/8
  9
$CUSTOMPROPERTYTAG
  1
L
  9
$CUSTOMPROPERTY
  1
4-23/32
  9
$CUSTOMPROPERTYTAG
  1
M
  9
$CUSTOMPROPERTY
  1
3/16
  9
$CUSTOMPROPERTYTAG
  1
N
  9
$CUSTOMPROPERTY
  1
3-13/16
  9
$CUSTOMPROPERTYTAG
  1
MRPM
  9
$CUSTOMPROPERTY
  1
1700
  9
$CUSTOMPROPERTYTAG
  1
CS
  9
$CUSTOMPROPERTY
  1
53000
  9
$CUSTOMPROPERTYTAG
  1
CD
  9
$CUSTOMPROPERTY
  1
41500
  9
$CUSTOMPROPERTYTAG
  1
RN
  9
$CUSTOMPROPERTY
  1
20
  9
$CUSTOMPROPERTYTAG
  1
RM
  9
$CUSTOMPROPERTY
  1
0.5748
  9
$CUSTOMPROPERTYTAG
  1
PD
  9
$CUSTOMPROPERTY
  1
4.197
  9
$CUSTOMPROPERTYTAG
  1
RC
  9
$CUSTOMPROPERTY
  1
0.0020-0.0031
  9
$CUSTOMPROPERTYTAG
  1
CSS
  9
$CUSTOMPROPERTY
  1
1/2-13x7/8
  9
$CUSTOMPROPERTYTAG
  1
CST
  9
$CUSTOMPROPERTY
  1
620
  9
$CUSTOMPROPERTYTAG
  1
MH
  9
$CUSTOMPROPERTY
  1
C.I. ASTM A48 CLASS 30
  9
$CUSTOMPROPERTYTAG
  1
MIR
  9
$CUSTOMPROPERTY
  1
4118 Case Carb.
  9
$CUSTOMPROPERTYTAG
  1
MOR
  9
$CUSTOMPROPERTY
  1
E52100 Steel
  9
$CUSTOMPROPERTYTAG
  1
MR
  9
$CUSTOMPROPERTY
  1
Polyamide
  9
$CUSTOMPROPERTYTAG
  1
MRO
  9
$CUSTOMPROPERTY
  1
E52100 Steel
  9
$CUSTOMPROPERTYTAG
  1
SM
  9
$CUSTOMPROPERTY
  1
2°
  9
$CUSTOMPROPERTYTAG
  1
COMPANY
  9
$CUSTOMPROPERTY
  1
baldor
  9
$INSBASE
 10
0.0
 20
0.0
 30
0.0
  9
$EXTMIN
 10
1.000000000000000E+20
 20
1.000000000000000E+20
 30
1.000000000000000E+20
  9
$EXTMAX
 10
-1.000000000000000E+20
 20
-1.000000000000000E+20
 30
-1.000000000000000E+20
  9
$LIMMIN
 10
0.0
 20
0.0
  9
$LIMMAX
 10
12.0
 20
9.0
  9
$ORTHOMODE
 70
     0
  9
$REGENMODE
 70
     1
  9
$FILLMODE
 70
     1
  9
$QTEXTMODE
 70
     0
  9
$MIRRTEXT
 70
     1
  9
$LTSCALE
 40
1.0
  9
$ATTMODE
 70
     1
  9
$TEXTSIZE
 40
0.2
  9
$TRACEWID
 40
0.05
  9
$TEXTSTYLE
  7
Standard
  9
$CLAYER
  8
0
  9
$CELTYPE
  6
ByLayer
  9
$CECOLOR
 62
   256
  9
$CELTSCALE
 40
1.0
  9
$DISPSILH
 70
     0
  9
$DIMSCALE
 40
1.0
  9
$DIMASZ
 40
0.18
  9
$DIMEXO
 40
0.0625
  9
$DIMDLI
 40
0.38
  9
$DIMRND
 40
0.0
  9
$DIMDLE
 40
0.0
  9
$DIMEXE
 40
0.18
  9
$DIMTP
 40
0.0
  9
$DIMTM
 40
0.0
  9
$DIMTXT
 40
0.18
  9
$DIMCEN
 40
0.09
  9
$DIMTSZ
 40
0.0
  9
$DIMTOL
 70
     0
  9
$DIMLIM
 70
     0
  9
$DIMTIH
 70
     1
  9
$DIMTOH
 70
     1
  9
$DIMSE1
 70
     0
  9
$DIMSE2
 70
     0
  9
$DIMTAD
 70
     0
  9
$DIMZIN
 70
     0
  9
$DIMBLK
  1

  9
$DIMASO
 70
     1
  9
$DIMSHO
 70
     1
  9
$DIMPOST
  1

  9
$DIMAPOST
  1

  9
$DIMALT
 70
     0
  9
$DIMALTD
 70
     2
  9
$DIMALTF
 40
25.4
  9
$DIMLFAC
 40
1.0
  9
$DIMTOFL
 70
     0
  9
$DIMTVP
 40
0.0
  9
$DIMTIX
 70
     0
  9
$DIMSOXD
 70
     0
  9
$DIMSAH
 70
     0
  9
$DIMBLK1
  1

  9
$DIMBLK2
  1

  9
$DIMSTYLE
  2
Standard
  9
$DIMCLRD
 70
     0
  9
$DIMCLRE
 70
     0
  9
$DIMCLRT
 70
     0
  9
$DIMTFAC
 40
1.0
  9
$DIMGAP
 40
0.09
  9
$DIMJUST
 70
     0
  9
$DIMSD1
 70
     0
  9
$DIMSD2
 70
     0
  9
$DIMTOLJ
 70
     1
  9
$DIMTZIN
 70
     0
  9
$DIMALTZ
 70
     0
  9
$DIMALTTZ
 70
     0
  9
$DIMUPT
 70
     0
  9
$DIMDEC
 70
     4
  9
$DIMTDEC
 70
     4
  9
$DIMALTU
 70
     2
  9
$DIMALTTD
 70
     2
  9
$DIMTXSTY
  7
Standard
  9
$DIMAUNIT
 70
     0
  9
$DIMADEC
 70
     0
  9
$DIMALTRND
 40
0.0
  9
$DIMAZIN
 70
     0
  9
$DIMDSEP
 70
    46
  9
$DIMATFIT
 70
     3
  9
$DIMFRAC
 70
     0
  9
$DIMLDRBLK
  1

  9
$DIMLUNIT
 70
     2
  9
$DIMLWD
 70
    -2
  9
$DIMLWE
 70
    -2
  9
$DIMTMOVE
 70
     0
  9
$DIMFXL
 40
1.0
  9
$DIMFXLON
 70
     0
  9
$DIMJOGANG
 40
0.7853981633974483
  9
$DIMTFILL
 70
     0
  9
$DIMTFILLCLR
 70
     0
  9
$DIMARCSYM
 70
     0
  9
$DIMLTYPE
  6

  9
$DIMLTEX1
  6

  9
$DIMLTEX2
  6

  9
$DIMTXTDIRECTION
 70
     0
  9
$LUNITS
 70
     2
  9
$LUPREC
 70
     4
  9
$SKETCHINC
 40
0.1
  9
$FILLETRAD
 40
0.5
  9
$AUNITS
 70
     0
  9
$AUPREC
 70
     0
  9
$MENU
  1
.
  9
$ELEVATION
 40
0.0
  9
$PELEVATION
 40
0.0
  9
$THICKNESS
 40
0.0
  9
$LIMCHECK
 70
     0
  9
$CHAMFERA
 40
0.0
  9
$CHAMFERB
 40
0.0
  9
$CHAMFERC
 40
0.0
  9
$CHAMFERD
 40
0.0
  9
$SKPOLY
 70
     0
  9
$TDCREATE
 40
2458169.003206632
  9
$TDUCREATE
 40
2458168.961539965
  9
$TDUPDATE
 40
2458169.003206632
  9
$TDUUPDATE
 40
2458168.961539965
  9
$TDINDWG
 40
0.0000000116
  9
$TDUSRTIMER
 40
0.0000000116
  9
$USRTIMER
 70
     1
  9
$ANGBASE
 50
0.0
  9
$ANGDIR
 70
     0
  9
$PDMODE
 70
     0
  9
$PDSIZE
 40
0.0
  9
$PLINEWID
 40
0.0
  9
$SPLFRAME
 70
     0
  9
$SPLINETYPE
 70
     6
  9
$SPLINESEGS
 70
     8
  9
$HANDSEED
  5
180
  9
$SURFTAB1
 70
     6
  9
$SURFTAB2
 70
     6
  9
$SURFTYPE
 70
     6
  9
$SURFU
 70
     6
  9
$SURFV
 70
     6
  9
$UCSBASE
  2

  9
$UCSNAME
  2

  9
$UCSORG
 10
0.0
 20
0.0
 30
0.0
  9
$UCSXDIR
 10
1.0
 20
0.0
 30
0.0
  9
$UCSYDIR
 10
0.0
 20
1.0
 30
0.0
  9
$UCSORTHOREF
  2

  9
$UCSORTHOVIEW
 70
     0
  9
$UCSORGTOP
 10
0.0
 20
0.0
 30
0.0
  9
$UCSORGBOTTOM
 10
0.0
 20
0.0
 30
0.0
  9
$UCSORGLEFT
 10
0.0
 20
0.0
 30
0.0
  9
$UCSORGRIGHT
 10
0.0
 20
0.0
 30
0.0
  9
$UCSORGFRONT
 10
0.0
 20
0.0
 30
0.0
  9
$UCSORGBACK
 10
0.0
 20
0.0
 30
0.0
  9
$PUCSBASE
  2

  9
$PUCSNAME
  2

  9
$PUCSORG
 10
0.0
 20
0.0
 30
0.0
  9
$PUCSXDIR
 10
1.0
 20
0.0
 30
0.0
  9
$PUCSYDIR
 10
0.0
 20
1.0
 30
0.0
  9
$PUCSORTHOREF
  2

  9
$PUCSORTHOVIEW
 70
     0
  9
$PUCSORGTOP
 10
0.0
 20
0.0
 30
0.0
  9
$PUCSORGBOTTOM
 10
0.0
 20
0.0
 30
0.0
  9
$PUCSORGLEFT
 10
0.0
 20
0.0
 30
0.0
  9
$PUCSORGRIGHT
 10
0.0
 20
0.0
 30
0.0
  9
$PUCSORGFRONT
 10
0.0
 20
0.0
 30
0.0
  9
$PUCSORGBACK
 10
0.0
 20
0.0
 30
0.0
  9
$USERI1
 70
     0
  9
$USERI2
 70
     0
  9
$USERI3
 70
     0
  9
$USERI4
 70
     0
  9
$USERI5
 70
     0
  9
$USERR1
 40
0.0
  9
$USERR2
 40
0.0
  9
$USERR3
 40
0.0
  9
$USERR4
 40
0.0
  9
$USERR5
 40
0.0
  9
$WORLDVIEW
 70
     1
  9
$SHADEDGE
 70
     3
  9
$SHADEDIF
 70
    70
  9
$TILEMODE
 70
     1
  9
$MAXACTVP
 70
    64
  9
$PINSBASE
 10
0.0
 20
0.0
 30
0.0
  9
$PLIMCHECK
 70
     0
  9
$PEXTMIN
 10
1.000000000000000E+20
 20
1.000000000000000E+20
 30
1.000000000000000E+20
  9
$PEXTMAX
 10
-1.000000000000000E+20
 20
-1.000000000000000E+20
 30
-1.000000000000000E+20
  9
$PLIMMIN
 10
0.0
 20
0.0
  9
$PLIMMAX
 10
12.0
 20
9.0
  9
$UNITMODE
 70
     0
  9
$VISRETAIN
 70
     1
  9
$PLINEGEN
 70
     0
  9
$PSLTSCALE
 70
     1
  9
$TREEDEPTH
 70
  3020
  9
$CMLSTYLE
  2
Standard
  9
$CMLJUST
 70
     0
  9
$CMLSCALE
 40
1.0
  9
$PROXYGRAPHICS
 70
     1
  9
$MEASUREMENT
 70
     0
  9
$CELWEIGHT
370
    -1
  9
$ENDCAPS
280
     0
  9
$JOINSTYLE
280
     0
  9
$LWDISPLAY
290
     0
  9
$INSUNITS
 70
     1
  9
$HYPERLINKBASE
  1

  9
$STYLESHEET
  1

  9
$XEDIT
290
     1
  9
$CEPSNTYPE
380
     0
  9
$PSTYLEMODE
290
     1
  9
$FINGERPRINTGUID
  2
{4D75612B-055E-45F6-8F8E-7E4D14C0AA2B}
  9
$VERSIONGUID
  2
{FAEB1C32-E019-11D5-929B-00C0DF256EC4}
  9
$EXTNAMES
290
     1
  9
$PSVPSCALE
 40
0.0
  9
$OLESTARTUP
290
     0
  9
$SORTENTS
280
   127
  9
$INDEXCTL
280
     0
  9
$HIDETEXT
280
     1
  9
$XCLIPFRAME
280
     2
  9
$HALOGAP
280
     0
  9
$OBSCOLOR
 70
   257
  9
$OBSLTYPE
280
     0
  9
$INTERSECTIONDISPLAY
280
     0
  9
$INTERSECTIONCOLOR
 70
   257
  9
$DIMASSOC
280
     2
  9
$PROJECTNAME
  1

  9
$CAMERADISPLAY
290
     0
  9
$LENSLENGTH
 40
50.0
  9
$CAMERAHEIGHT
 40
0.0
  9
$STEPSPERSEC
 40
2.0
  9
$STEPSIZE
 40
6.0
  9
$3DDWFPREC
 40
2.0
  9
$PSOLWIDTH
 40
0.25
  9
$PSOLHEIGHT
 40
4.0
  9
$LOFTANG1
 40
1.570796326794897
  9
$LOFTANG2
 40
1.570796326794897
  9
$LOFTMAG1
 40
0.0
  9
$LOFTMAG2
 40
0.0
  9
$LOFTPARAM
 70
     7
  9
$LOFTNORMALS
280
     1
  9
$LATITUDE
 40
37.795
  9
$LONGITUDE
 40
-122.394
  9
$NORTHDIRECTION
 40
0.0
  9
$TIMEZONE
 70
 -8000
  9
$LIGHTGLYPHDISPLAY
280
     1
  9
$TILEMODELIGHTSYNCH
280
     1
  9
$CMATERIAL
347
44
  9
$SOLIDHIST
280
     0
  9
$SHOWHIST
280
     1
  9
$DWFFRAME
280
     2
  9
$DGNFRAME
280
     2
  9
$REALWORLDSCALE
290
     1
  9
$INTERFERECOLOR
 62
   256
  9
$CSHADOW
280
     0
  9
$SHADOWPLANELOCATION
 40
0.0
  0
ENDSEC
  0
SECTION
  2
CLASSES
  0
CLASS
  1
ACDBDICTIONARYWDFLT
  2
AcDbDictionaryWithDefault
  3
ObjectDBX Classes
 90
        0
 91
        4
280
     0
281
     0
  0
CLASS
  1
VISUALSTYLE
  2
AcDbVisualStyle
  3
ObjectDBX Classes
 90
     4095
 91
        4
280
     0
281
     0
  0
CLASS
  1
MATERIAL
  2
AcDbMaterial
  3
ObjectDBX Classes
 90
     1153
 91
        4
280
     0
281
     0
  0
CLASS
  1
SCALE
  2
AcDbScale
  3
ObjectDBX Classes
 90
     1153
 91
        4
280
     0
281
     0
  0
CLASS
  1
TABLESTYLE
  2
AcDbTableStyle
  3
ObjectDBX Classes
 90
     4095
 91
        4
280
     0
281
     0
  0
CLASS
  1
MLEADERSTYLE
  2
AcDbMLeaderStyle
  3
ACDB_MLEADERSTYLE_CLASS
 90
     4095
 91
        4
280
     0
281
     0
  0
CLASS
  1
SUN
  2
AcDbSun
  3
SCENEOE
 90
     1153
 91
        4
280
     0
281
     0
  0
CLASS
  1
DICTIONARYVAR
  2
AcDbDictionaryVar
  3
ObjectDBX Classes
 90
        0
 91
        4
280
     0
281
     0
  0
CLASS
  1
CELLSTYLEMAP
  2
AcDbCellStyleMap
  3
ObjectDBX Classes
 90
     1152
 91
        4
280
     0
281
     0
  0
ENDSEC
  0
SECTION
  2
TABLES
  0
TABLE
  2
VPORT
  5
8
330
0
100
AcDbSymbolTable
 70
     1
  0
VPORT
  5
29
330
8
100
AcDbSymbolTableRecord
100
AcDbViewportTableRecord
  2
*Active
 70
     0
 10
0.0
 20
0.0
 11
1.0
 21
1.0
 12
3.544478071428571
 22
-5.110250000000001
 13
0.0
 23
0.0
 14
0.5
 24
0.5
 15
0.5
 25
0.5
 16
0.0
 26
0.0
 36
1.0
 17
0.0
 27
0.0
 37
0.0
 40
18.87
 41
0.677612494208494
 42
50.0
 43
0.0
 44
0.0
 50
0.0
 51
0.0
 71
     0
 72
   100
 73
     1
 74
     3
 75
     0
 76
     0
 77
     0
 78
     0
281
     0
 65
     1
110
0.0
120
0.0
130
0.0
111
1.0
121
0.0
131
0.0
112
0.0
122
1.0
132
0.0
 79
     0
146
0.0
348
2F
 60
     3
 61
     5
292
     1
282
     1
141
0.0
142
0.0
 63
   250
361
6D
  0
ENDTAB
  0
TABLE
  2
LTYPE
  5
5
330
0
100
AcDbSymbolTable
 70
     3
  0
LTYPE
  5
14
330
5
100
AcDbSymbolTableRecord
100
AcDbLinetypeTableRecord
  2
ByBlock
 70
     0
  3

 72
    65
 73
     0
 40
0.0
  0
LTYPE
  5
15
330
5
100
AcDbSymbolTableRecord
100
AcDbLinetypeTableRecord
  2
ByLayer
 70
     0
  3

 72
    65
 73
     0
 40
0.0
  0
LTYPE
  5
16
330
5
100
AcDbSymbolTableRecord
100
AcDbLinetypeTableRecord
  2
Continuous
 70
     0
  3
Solid line
 72
    65
 73
     0
 40
0.0
  0
LTYPE
  5
A6
330
5
100
AcDbSymbolTableRecord
100
AcDbLinetypeTableRecord
  2
Dashed
 70
     0
  3

 72
    65
 73
     2
 40
2.0
 49
1.0
 74
     0
 49
-1.0
 74
     0
  0
LTYPE
  5
D7
330
5
100
AcDbSymbolTableRecord
100
AcDbLinetypeTableRecord
  2
Center
 70
     0
  3

 72
    65
 73
     4
 40
1.5
 49
0.45
 74
     0
 49
-0.5
 74
     0
 49
0.05
 74
     0
 49
-0.5
 74
     0
  0
ENDTAB
  0
TABLE
  2
LAYER
  5
2
330
0
100
AcDbSymbolTable
 70
     8
  0
LAYER
  5
10
330
2
100
AcDbSymbolTableRecord
100
AcDbLayerTableRecord
  2
0
 70
     0
 62
     7
  6
Continuous
370
    -3
390
F
347
46
348
0
  0
LAYER
  5
6E
330
2
100
AcDbSymbolTableRecord
100
AcDbLayerTableRecord
  2
AM_6
 70
     0
 62
    -2
  6
Continuous
370
    35
390
F
347
46
348
0
  0
LAYER
  5
A7
330
2
100
AcDbSymbolTableRecord
100
AcDbLayerTableRecord
  2
AM_9
 70
     0
 62
     6
  6
Dashed
370
    25
390
F
347
46
348
0
  0
LAYER
  5
D1
330
2
100
AcDbSymbolTableRecord
100
AcDbLayerTableRecord
  2
AM_5
 70
     0
 62
     3
  6
Continuous
370
    25
390
F
347
46
348
0
  0
LAYER
  5
D8
330
2
100
AcDbSymbolTableRecord
100
AcDbLayerTableRecord
  2
AM_7
 70
     0
 62
     7
  6
Center
370
    25
390
F
347
46
348
0
  0
LAYER
  5
DA
330
2
100
AcDbSymbolTableRecord
100
AcDbLayerTableRecord
  2
AM_0
 70
     0
 62
     7
  6
Continuous
370
    50
390
F
347
46
348
0
  0
LAYER
  5
DE
330
2
100
AcDbSymbolTableRecord
100
AcDbLayerTableRecord
  2
AM_4
 70
     0
 62
     3
  6
Continuous
370
    25
390
F
347
46
348
0
  0
LAYER
  5
173
330
2
100
AcDbSymbolTableRecord
100
AcDbLayerTableRecord
  2
ConnectionPoints
 70
     0
 62
     7
  6
Continuous
370
    50
390
F
347
46
348
0
  0
ENDTAB
  0
TABLE
  2
STYLE
  5
3
330
0
100
AcDbSymbolTable
 70
     1
  0
STYLE
  5
11
330
3
100
AcDbSymbolTableRecord
100
AcDbTextStyleTableRecord
  2
Standard
 70
     0
 40
0.0
 41
1.0
 50
0.0
 71
     0
 42
0.2
  3
txt
  4

  0
ENDTAB
  0
TABLE
  2
VIEW
  5
6
330
0
100
AcDbSymbolTable
 70
     0
  0
ENDTAB
  0
TABLE
  2
UCS
  5
7
330
0
100
AcDbSymbolTable
 70
     0
  0
ENDTAB
  0
TABLE
  2
APPID
  5
9
330
0
100
AcDbSymbolTable
 70
     1
  0
APPID
  5
12
330
9
100
AcDbSymbolTableRecord
100
AcDbRegAppTableRecord
  2
ACAD
 70
     0
  0
ENDTAB
  0
TABLE
  2
DIMSTYLE
  5
A
330
0
100
AcDbSymbolTable
 70
     1
100
AcDbDimStyleTable
  0
DIMSTYLE
105
27
330
A
100
AcDbSymbolTableRecord
100
AcDbDimStyleTableRecord
  2
Standard
 70
     0
178
     0
340
11
  0
ENDTAB
  0
TABLE
  2
BLOCK_RECORD
  5
1
330
0
100
AcDbSymbolTable
 70
     4
  0
BLOCK_RECORD
  5
1F
330
1
100
AcDbSymbolTableRecord
100
AcDbBlockTableRecord
  2
*Model_Space
340
22
 70
     0
280
     1
281
     0
  0
BLOCK_RECORD
  5
1B
330
1
100
AcDbSymbolTableRecord
100
AcDbBlockTableRecord
  2
*Paper_Space
340
1E
 70
     0
280
     1
281
     0
  0
BLOCK_RECORD
  5
23
330
1
100
AcDbSymbolTableRecord
100
AcDbBlockTableRecord
  2
*Paper_Space0
340
26
 70
     0
280
     1
281
     0
  0
BLOCK_RECORD
  5
94
330
1
100
AcDbSymbolTableRecord
100
AcDbBlockTableRecord
  2
1_405020c_Inch_0_in_048061_2
340
0
102
{BLKREFS
331
95
102
}
 70
     0
280
     1
281
     0
  0
BLOCK_RECORD
  5
E2
330
1
100
AcDbSymbolTableRecord
100
AcDbBlockTableRecord
  2
2_421253_0_in_048061_2
340
0
102
{BLKREFS
331
E3
102
}
 70
     0
280
     1
281
     0
  0
BLOCK_RECORD
  5
12A
330
1
100
AcDbSymbolTableRecord
100
AcDbBlockTableRecord
  2
3_048061B_0_in_048061_2
340
0
102
{BLKREFS
331
12B
102
}
 70
     0
280
     1
281
     0
  0
ENDTAB
  0
ENDSEC
  0
SECTION
  2
BLOCKS
  0
BLOCK
  5
20
330
1F
100
AcDbEntity
  8
0
100
AcDbBlockBegin
  2
*Model_Space
 70
     0
 10
0.0
 20
0.0
 30
0.0
  3
*Model_Space
  1

  0
ENDBLK
  5
21
330
1F
100
AcDbEntity
  8
0
100
AcDbBlockEnd
  0
BLOCK
  5
1C
330
1B
100
AcDbEntity
 67
     1
  8
0
100
AcDbBlockBegin
  2
*Paper_Space
 70
     0
 10
0.0
 20
0.0
 30
0.0
  3
*Paper_Space
  1

  0
ENDBLK
  5
1D
330
1B
100
AcDbEntity
 67
     1
  8
0
100
AcDbBlockEnd
  0
BLOCK
  5
24
330
23
100
AcDbEntity
  8
0
100
AcDbBlockBegin
  2
*Paper_Space0
 70
     0
 10
0.0
 20
0.0
 30
0.0
  3
*Paper_Space0
  1

  0
ENDBLK
  5
25
330
23
100
AcDbEntity
  8
0
100
AcDbBlockEnd
  0
BLOCK
  5
96
330
94
100
AcDbEntity
  8
0
100
AcDbBlockBegin
  2
1_405020c_Inch_0_in_048061_2
 70
     2
 10
0.0
 20
0.0
 30
0.0
  3
1_405020c_Inch_0_in_048061_2
  1

  0
ATTDEF
  5
98
330
94
100
AcDbEntity
  8
AM_6
100
AcDbText
 10
4.693658630723042
 20
3.63975
 30
0.0
 40
0.5
  1
405020C -Inch
100
AcDbAttributeDefinition
  3

  2
NN
 70
     8
280
     0
  0
ATTDEF
  5
99
330
94
100
AcDbEntity
  8
AM_6
100
AcDbText
 10
4.693658630723042
 20
3.13975
 30
0.0
 40
0.5
  1
Grease fitting
100
AcDbAttributeDefinition
  3

  2
NT
 70
     8
280
     0
  0
ATTDEF
  5
9A
330
94
100
AcDbEntity
  8
AM_6
100
AcDbText
 10
4.693658630723042
 20
2.63975
 30
0.0
 40
0.5
  1
405020c-Inch
100
AcDbAttributeDefinition
  3

  2
NB
 70
     8
280
     0
  0
ATTDEF
  5
9B
330
94
100
AcDbEntity
  8
AM_6
100
AcDbText
 10
4.693658630723042
 20
2.13975
 30
0.0
 40
0.5
  1
$MN.-Inch
100
AcDbAttributeDefinition
  3

  2
NBSYN
 70
     8
280
     0
  0
ATTDEF
  5
9C
330
94
100
AcDbEntity
  8
AM_6
100
AcDbText
 10
4.693658630723042
 20
1.63975
 30
0.0
 40
0.5
  1
405020c
100
AcDbAttributeDefinition
  3

  2
LINA
 70
     8
280
     0
  0
ATTDEF
  5
9D
330
94
100
AcDbEntity
  8
AM_6
100
AcDbText
 10
4.693658630723042
 20
1.13975
 30
0.0
 40
0.5
  1
405020c
100
AcDbAttributeDefinition
  3

  2
MN
 70
     8
280
     0
  0
ATTDEF
  5
9E
330
94
100
AcDbEntity
  8
AM_6
100
AcDbText
 10
4.693658630723042
 20
0.6397499999999998
 30
0.0
 40
0.5
  1
0.230
100
AcDbAttributeDefinition
  3

  2
NDR
 70
     8
280
     0
  0
ATTDEF
  5
9F
330
94
100
AcDbEntity
  8
AM_6
100
AcDbText
 10
4.693658630723042
 20
0.1397499999999998
 30
0.0
 40
0.5
  1
0.210
100
AcDbAttributeDefinition
  3

  2
KDR
 70
     8
280
     0
  0
ATTDEF
  5
A0
330
94
100
AcDbEntity
  8
AM_6
100
AcDbText
 10
4.693658630723042
 20
-0.3602500000000002
 30
0.0
 40
0.5
  1
0.157
100
AcDbAttributeDefinition
  3

  2
BZE
 70
     8
280
     0
  0
ATTDEF
  5
A1
330
94
100
AcDbEntity
  8
AM_6
100
AcDbText
 10
4.693658630723042
 20
-0.8602500000000002
 30
0.0
 40
0.5
  1
9/32
100
AcDbAttributeDefinition
  3

  2
WAF
 70
     8
280
     0
  0
ATTDEF
  5
A2
330
94
100
AcDbEntity
  8
AM_6
100
AcDbText
 10
4.693658630723042
 20
-1.36025
 30
0.0
 40
0.5
  1
0.2813
100
AcDbAttributeDefinition
  3

  2
WAF1
 70
     8
280
     0
  0
ATTDEF
  5
A3
330
94
100
AcDbEntity
  8
AM_6
100
AcDbText
 10
4.693658630723042
 20
-1.86025
 30
0.0
 40
0.5
  1
0.545
100
AcDbAttributeDefinition
  3

  2
BL
 70
     8
280
     0
  0
ATTDEF
  5
A4
330
94
100
AcDbEntity
  8
AM_6
100
AcDbText
 10
4.693658630723042
 20
-2.36025
 30
0.0
 40
0.5
  1
0.200
100
AcDbAttributeDefinition
  3

  2
TL
 70
     8
280
     0
  0
ATTDEF
  5
A5
330
94
100
AcDbEntity
  8
AM_6
100
AcDbText
 10
4.693658630723042
 20
-2.86025
 30
0.0
 40
0.5
  1
baldor
100
AcDbAttributeDefinition
  3

  2
COMPANY
 70
     8
280
     0
  0
LINE
  5
A8
330
94
100
AcDbEntity
  8
AM_9
 48
0.0014008735729081
100
AcDbLine
 10
-0.3281000000000002
 20
3.2675
 30
0.0
 11
-0.3063413692769583
 21
3.273330207530646
 31
0.0
  0
LINE
  5
A9
330
94
100
AcDbEntity
  8
AM_9
 48
0.0014008735729081
100
AcDbLine
 10
-0.6311586307230418
 20
3.273330207530646
 30
0.0
 11
-0.6093999999999998
 21
3.2675
 31
0.0
  0
LINE
  5
AA
330
94
100
AcDbEntity
  8
AM_9
 48
0.0014008735729081
100
AcDbLine
 10
-0.3063413692769583
 20
3.32833645913602
 30
0.0
 11
-0.3281000000000001
 21
3.334166666666667
 31
0.0
  0
LINE
  5
AB
330
94
100
AcDbEntity
  8
AM_9
 48
0.0014008735729081
100
AcDbLine
 10
-0.6093999999999999
 20
3.334166666666667
 30
0.0
 11
-0.6311586307230418
 21
3.32833645913602
 31
0.0
  0
ARC
  5
AC
330
94
100
AcDbEntity
  8
AM_9
 48
0.0014008735729081
100
AcDbCircle
 10
-0.6134347896390983
 20
3.400842555146223
 30
0.0
 40
0.0499999999999996
100
AcDbArc
 50
314.9999999999997
 51
25.00000000000052
  0
ARC
  5
AD
330
94
100
AcDbEntity
  8
AM_9
 48
0.0014008735729081
100
AcDbCircle
 10
-0.3240652103609019
 20
3.400842555146223
 30
0.0
 40
0.0499999999999995
100
AcDbArc
 50
154.9999999999995
 51
225.0000000000004
  0
LINE
  5
AE
330
94
100
AcDbEntity
  8
AM_9
 48
0.0014008735729081
100
AcDbLine
 10
-0.3686613772963424
 20
3.0675
 30
0.0
 11
-0.5688386227036577
 21
3.0675
 31
0.0
  0
LINE
  5
AF
330
94
100
AcDbEntity
  8
AM_9
 48
0.0014008735729081
100
AcDbLine
 10
-0.3686613772963424
 20
3.0675
 30
0.0
 11
-0.3583337404060109
 21
3.077827636890332
 31
0.0
  0
LINE
  5
B0
330
94
100
AcDbEntity
  8
AM_9
 48
0.0014008735729081
100
AcDbLine
 10
-0.5791662595939892
 20
3.077827636890332
 30
0.0
 11
-0.5688386227036577
 21
3.0675
 31
0.0
  0
LINE
  5
B1
330
94
100
AcDbEntity
  8
AM_9
 48
0.0014008735729081
100
AcDbLine
 10
-0.3583337404060109
 20
3.077827636890332
 30
0.0
 11
-0.5791662595939892
 21
3.077827636890332
 31
0.0
  0
LINE
  5
B2
330
94
100
AcDbEntity
  8
AM_9
 48
0.0014008735729081
100
AcDbLine
 10
-0.3583337404060109
 20
3.077827636890332
 30
0.0
 11
-0.3524061828467229
 21
3.2675
 31
0.0
  0
LINE
  5
B3
330
94
100
AcDbEntity
  8
AM_9
 48
0.0014008735729081
100
AcDbLine
 10
-0.5850938171532771
 20
3.2675
 30
0.0
 11
-0.5791662595939892
 21
3.077827636890332
 31
0.0
  0
LINE
  5
B4
330
94
100
AcDbEntity
  8
AM_9
 48
0.0014008735729081
100
AcDbLine
 10
-0.3693805997127337
 20
3.421973468233258
 30
0.0
 11
-0.5681194002872664
 21
3.421973468233258
 31
0.0
  0
LINE
  5
B5
330
94
100
AcDbEntity
  8
AM_9
 48
0.0014008735729081
100
AcDbLine
 10
-0.3693805997127337
 20
3.421973468233258
 30
0.0
 11
-0.3375080886531095
 21
3.49032428877464
 31
0.0
  0
LINE
  5
B6
330
94
100
AcDbEntity
  8
AM_9
 48
0.0014008735729081
100
AcDbLine
 10
-0.5999919113468906
 20
3.49032428877464
 30
0.0
 11
-0.5681194002872664
 21
3.421973468233258
 31
0.0
  0
LINE
  5
B7
330
94
100
AcDbEntity
  8
AM_9
 48
0.0014008735729081
100
AcDbLine
 10
-0.5740624715505502
 20
3.593750000000001
 30
0.0
 11
-0.60070176466768
 21
3.530991758286138
 31
0.0
  0
LINE
  5
B8
330
94
100
AcDbEntity
  8
AM_9
 48
0.0014008735729081
100
AcDbLine
 10
-0.33679823533232
 20
3.530991758286138
 30
0.0
 11
-0.3634375284494498
 21
3.59375
 31
0.0
  0
LINE
  5
B9
330
94
100
AcDbEntity
  8
AM_9
 48
0.0014008735729081
100
AcDbLine
 10
-0.33679823533232
 20
3.530991758286138
 30
0.0
 11
-0.60070176466768
 21
3.530991758286138
 31
0.0
  0
LINE
  5
BA
330
94
100
AcDbEntity
  8
AM_9
 48
0.0014008735729081
100
AcDbLine
 10
-0.3375080886531095
 20
3.49032428877464
 30
0.0
 11
-0.5999919113468906
 21
3.49032428877464
 31
0.0
  0
ARC
  5
BB
330
94
100
AcDbEntity
  8
AM_9
 48
0.0014008735729081
100
AcDbCircle
 10
-0.5546765219950582
 20
3.511455201861674
 30
0.0
 40
0.0499999999999998
100
AcDbArc
 50
156.9999999999997
 51
204.9999999999998
  0
ARC
  5
BC
330
94
100
AcDbEntity
  8
AM_9
 48
0.0014008735729081
100
AcDbCircle
 10
-0.3828234780049418
 20
3.511455201861674
 30
0.0
 40
0.0499999999999997
100
AcDbArc
 50
335.0000000000001
 51
23.00000000000027
  0
LWPOLYLINE
  5
BD
330
94
100
AcDbEntity
  8
AM_9
 48
0.0014008735729081
100
AcDbPolyline
 90
        3
 70
     0
 43
0.0
 10
-0.3063413692769583
 20
3.273330207530646
 10
-0.326551169000346
 20
3.269052470556179
 10
-0.3469435269577187
 20
3.2675
  0
LINE
  5
BE
330
94
100
AcDbEntity
  8
AM_9
 48
0.0014008735729081
100
AcDbLine
 10
-0.3063413692769583
 20
3.32833645913602
 30
0.0
 11
-0.3063413692769583
 21
3.273330207530646
 31
0.0
  0
LWPOLYLINE
  5
BF
330
94
100
AcDbEntity
  8
AM_9
 48
0.0014008735729081
100
AcDbPolyline
 90
        3
 70
     0
 43
0.0
 10
-0.3469435269577187
 20
3.334166666666667
 10
-0.3266424481173385
 20
3.332627791204198
 10
-0.3063413692769583
 20
3.32833645913602
  0
LINE
  5
C0
330
94
100
AcDbEntity
  8
AM_9
 48
0.0014008735729081
100
AcDbLine
 10
-0.3875456846384792
 20
3.32833645913602
 30
0.0
 11
-0.3875456846384792
 21
3.273330207530646
 31
0.0
  0
LWPOLYLINE
  5
C1
330
94
100
AcDbEntity
  8
AM_9
 48
0.0014008735729081
100
AcDbPolyline
 90
        3
 70
     0
 43
0.0
 10
-0.46875
 20
3.2675
 10
-0.5093521576807605
 20
3.269038875462469
 10
-0.549954315361521
 20
3.273330207530646
  0
LWPOLYLINE
  5
C2
330
94
100
AcDbEntity
  8
AM_9
 48
0.0014008735729081
100
AcDbPolyline
 90
        4
 70
     0
 43
0.0
 10
-0.46875
 20
3.334166666666667
 10
-0.4375991240780484
 20
3.333253410066301
 10
-0.4064482481560969
 20
3.330634868230415
 10
-0.3875456846384792
 20
3.32833645913602
  0
LWPOLYLINE
  5
C3
330
94
100
AcDbEntity
  8
AM_9
 48
0.0014008735729081
100
AcDbPolyline
 90
        3
 70
     0
 43
0.0
 10
-0.3875456846384792
 20
3.32833645913602
 10
-0.3673358849150914
 20
3.332614196110488
 10
-0.3469435269577187
 20
3.334166666666667
  0
LWPOLYLINE
  5
C4
330
94
100
AcDbEntity
  8
AM_9
 48
0.0014008735729081
100
AcDbPolyline
 90
        3
 70
     0
 43
0.0
 10
-0.549954315361521
 20
3.32833645913602
 10
-0.5095347159147455
 20
3.332614196110488
 10
-0.46875
 20
3.334166666666667
  0
LWPOLYLINE
  5
C5
330
94
100
AcDbEntity
  8
AM_9
 48
0.0014008735729081
100
AcDbPolyline
 90
        3
 70
     0
 43
0.0
 10
-0.3469435269577187
 20
3.2675
 10
-0.3672446057980989
 20
3.269038875462469
 10
-0.3875456846384792
 20
3.273330207530646
  0
LWPOLYLINE
  5
C6
330
94
100
AcDbEntity
  8
AM_9
 48
0.0014008735729081
100
AcDbPolyline
 90
        4
 70
     0
 43
0.0
 10
-0.3875456846384792
 20
3.273330207530646
 10
-0.4064482481560969
 20
3.271031798436252
 10
-0.4375071743791796
 20
3.268418591732273
 10
-0.46875
 20
3.2675
  0
LINE
  5
C7
330
94
100
AcDbEntity
  8
AM_9
 48
0.0014008735729081
100
AcDbLine
 10
-0.3281000000000001
 20
3.334166666666667
 30
0.0
 11
-0.6093999999999999
 21
3.334166666666667
 31
0.0
  0
LINE
  5
C8
330
94
100
AcDbEntity
  8
AM_9
 48
0.0014008735729081
100
AcDbLine
 10
-0.3594205494202287
 20
3.365487216086895
 30
0.0
 11
-0.5780794505797714
 21
3.365487216086895
 31
0.0
  0
LINE
  5
C9
330
94
100
AcDbEntity
  8
AM_9
 48
0.0014008735729081
100
AcDbLine
 10
-0.5780794505797714
 20
3.365487216086895
 30
0.0
 11
-0.6093999999999999
 21
3.334166666666667
 31
0.0
  0
LINE
  5
CA
330
94
100
AcDbEntity
  8
AM_9
 48
0.0014008735729081
100
AcDbLine
 10
-0.3281000000000001
 20
3.334166666666667
 30
0.0
 11
-0.3594205494202287
 21
3.365487216086895
 31
0.0
  0
LINE
  5
CB
330
94
100
AcDbEntity
  8
AM_9
 48
0.0014008735729081
100
AcDbLine
 10
-0.6311586307230418
 20
3.32833645913602
 30
0.0
 11
-0.6311586307230418
 21
3.273330207530646
 31
0.0
  0
LWPOLYLINE
  5
CC
330
94
100
AcDbEntity
  8
AM_9
 48
0.0014008735729081
100
AcDbPolyline
 90
        3
 70
     0
 43
0.0
 10
-0.5905564730422813
 20
3.2675
 10
-0.6108575518826616
 20
3.269038875462469
 10
-0.6311586307230418
 20
3.273330207530646
  0
LWPOLYLINE
  5
CD
330
94
100
AcDbEntity
  8
AM_9
 48
0.0014008735729081
100
AcDbPolyline
 90
        3
 70
     0
 43
0.0
 10
-0.549954315361521
 20
3.273330207530646
 10
-0.5701641150849086
 20
3.269052470556179
 10
-0.5905564730422813
 20
3.2675
  0
LINE
  5
CE
330
94
100
AcDbEntity
  8
AM_9
 48
0.0014008735729081
100
AcDbLine
 10
-0.549954315361521
 20
3.32833645913602
 30
0.0
 11
-0.549954315361521
 21
3.273330207530646
 31
0.0
  0
LWPOLYLINE
  5
CF
330
94
100
AcDbEntity
  8
AM_9
 48
0.0014008735729081
100
AcDbPolyline
 90
        3
 70
     0
 43
0.0
 10
-0.5905564730422813
 20
3.334166666666667
 10
-0.5702553942019011
 20
3.332627791204198
 10
-0.549954315361521
 20
3.32833645913602
  0
LWPOLYLINE
  5
D0
330
94
100
AcDbEntity
  8
AM_9
 48
0.0014008735729081
100
AcDbPolyline
 90
        3
 70
     0
 43
0.0
 10
-0.6311586307230418
 20
3.32833645913602
 10
-0.610948830999654
 20
3.332614196110488
 10
-0.5905564730422813
 20
3.334166666666667
  0
LINE
  5
D2
330
94
100
AcDbEntity
  8
AM_5
 48
0.0014008735729081
100
AcDbLine
 10
-0.5745163861878746
 20
3.249179352154371
 30
0.0
 11
-0.5688386227036577
 21
3.0675
 31
0.0
  0
LINE
  5
D3
330
94
100
AcDbEntity
  8
AM_5
 48
0.0014008735729081
100
AcDbLine
 10
-0.5850938171532762
 20
3.267499999999998
 30
0.0
 11
-0.5745163861878746
 21
3.249179352154371
 31
0.0
  0
LINE
  5
D4
330
94
100
AcDbEntity
  8
AM_5
 48
0.0014008735729081
100
AcDbLine
 10
-0.35297873170333
 20
3.249179352154371
 30
0.0
 11
-0.5845212682966701
 21
3.249179352154371
 31
0.0
  0
LINE
  5
D5
330
94
100
AcDbEntity
  8
AM_5
 48
0.0014008735729081
100
AcDbLine
 10
-0.3629836138121254
 20
3.249179352154371
 30
0.0
 11
-0.3686613772963424
 21
3.0675
 31
0.0
  0
LINE
  5
D6
330
94
100
AcDbEntity
  8
AM_5
 48
0.0014008735729081
100
AcDbLine
 10
-0.3524061828467239
 20
3.267499999999998
 30
0.0
 11
-0.3629836138121254
 21
3.249179352154371
 31
0.0
  0
LINE
  5
D9
330
94
100
AcDbEntity
  8
AM_7
 48
0.0014008735729081
100
AcDbLine
 10
-0.46875
 20
3.63975
 30
0.0
 11
-0.46875
 21
3.04025
 31
0.0
  0
LINE
  5
DB
330
94
100
AcDbEntity
  8
AM_0
 48
0.0014008735729081
100
AcDbLine
 10
-0.387943570283272
 20
3.6125
 30
0.0
 11
-0.5495375707753936
 21
3.6125
 31
0.0
  0
ARC
  5
DC
330
94
100
AcDbEntity
  8
AM_0
 48
0.0014008735729081
100
AcDbCircle
 10
-0.5495564297167279
 20
3.5875
 30
0.0
 40
0.0249999999999999
100
AcDbArc
 50
90.00000000000026
 51
157.0000000000005
  0
ARC
  5
DD
330
94
100
AcDbEntity
  8
AM_0
 48
0.0014008735729081
100
AcDbCircle
 10
-0.3879435702832723
 20
3.587499999999999
 30
0.0
 40
0.0250000000000004
100
AcDbArc
 50
23.00000000000034
 51
89.99999999999949
  0
LINE
  5
DF
330
94
100
AcDbEntity
  8
AM_4
 48
0.0014008735729081
100
AcDbLine
 10
-0.3649309489469609
 20
3.597268278212232
 30
0.0
 11
-0.5725690510530391
 21
3.597268278212232
 31
0.0
  0
LINE
  5
E0
330
94
100
AcDbEntity
  8
AM_0
 48
0.0014008735729081
100
AcDbLine
 10
-0.5725690510530391
 20
3.597268278212232
 30
0.0
 11
-0.5740624715505502
 21
3.593750000000001
 31
0.0
  0
LINE
  5
E1
330
94
100
AcDbEntity
  8
AM_0
 48
0.0014008735729081
100
AcDbLine
 10
-0.3634375284494498
 20
3.59375
 30
0.0
 11
-0.3649309489469609
 21
3.597268278212232
 31
0.0
  0
ENDBLK
  5
97
330
94
100
AcDbEntity
  8
0
100
AcDbBlockEnd
  0
BLOCK
  5
E4
330
E2
100
AcDbEntity
  8
0
100
AcDbBlockBegin
  2
2_421253_0_in_048061_2
 70
     2
 10
0.0
 20
0.0
 30
0.0
  3
2_421253_0_in_048061_2
  1

  0
ATTDEF
  5
E6
330
E2
100
AcDbEntity
  8
AM_6
100
AcDbText
 10
5.04688
 20
2.411867559523809
 30
0.0
 40
0.5
  1
Unisphere II Insert With Seal - Inch
100
AcDbAttributeDefinition
  3

  2
NN
 70
     8
280
     0
  0
ATTDEF
  5
E7
330
E2
100
AcDbEntity
  8
AM_6
100
AcDbText
 10
5.04688
 20
1.911867559523809
 30
0.0
 40
0.5
  1
Unisphere II
100
AcDbAttributeDefinition
  3

  2
NT
 70
     8
280
     0
  0
ATTDEF
  5
E8
330
E2
100
AcDbEntity
  8
AM_6
100
AcDbText
 10
5.04688
 20
1.411867559523809
 30
0.0
 40
0.5
  1
421253
100
AcDbAttributeDefinition
  3

  2
NB
 70
     8
280
     0
  0
ATTDEF
  5
E9
330
E2
100
AcDbEntity
  8
AM_6
100
AcDbText
 10
5.04688
 20
0.9118675595238095
 30
0.0
 40
0.5
  1
$PN.
100
AcDbAttributeDefinition
  3

  2
NBSYN
 70
     8
280
     0
  0
ATTDEF
  5
EA
330
E2
100
AcDbEntity
  8
AM_6
100
AcDbText
 10
5.04688
 20
0.4118675595238095
 30
0.0
 40
0.5
  1
421253
100
AcDbAttributeDefinition
  3

  2
LINA
 70
     8
280
     0
  0
ATTDEF
  5
EB
330
E2
100
AcDbEntity
  8
AM_6
100
AcDbText
 10
5.04688
 20
-0.0881324404761905
 30
0.0
 40
0.5
  1
2-3/4
100
AcDbAttributeDefinition
  3

  2
SS
 70
     8
280
     0
  0
ATTDEF
  5
EC
330
E2
100
AcDbEntity
  8
AM_6
100
AcDbText
 10
5.04688
 20
-0.5881324404761905
 30
0.0
 40
0.5
  1
2.75000
100
AcDbAttributeDefinition
  3

  2
SS1
 70
     8
280
     0
  0
ATTDEF
  5
ED
330
E2
100
AcDbEntity
  8
AM_6
100
AcDbText
 10
5.04688
 20
-1.088132440476191
 30
0.0
 40
0.5
  1
5.1181
100
AcDbAttributeDefinition
  3

  2
A
 70
     8
280
     0
  0
ATTDEF
  5
EE
330
E2
100
AcDbEntity
  8
AM_6
100
AcDbText
 10
5.04688
 20
-1.588132440476191
 30
0.0
 40
0.5
  1
4.71875
100
AcDbAttributeDefinition
  3

  2
A1
 70
     8
280
     0
  0
ATTDEF
  5
EF
330
E2
100
AcDbEntity
  8
AM_6
100
AcDbText
 10
5.04688
 20
-2.088132440476191
 30
0.0
 40
0.5
  1
1.2705
100
AcDbAttributeDefinition
  3

  2
B
 70
     8
280
     0
  0
ATTDEF
  5
F0
330
E2
100
AcDbEntity
  8
AM_6
100
AcDbText
 10
5.04688
 20
-2.588132440476191
 30
0.0
 40
0.5
  1
1.27050
100
AcDbAttributeDefinition
  3

  2
B1
 70
     8
280
     0
  0
ATTDEF
  5
F1
330
E2
100
AcDbEntity
  8
AM_6
100
AcDbText
 10
5.04688
 20
-3.088132440476191
 30
0.0
 40
0.5
  1
2-29/64
100
AcDbAttributeDefinition
  3

  2
C
 70
     8
280
     0
  0
ATTDEF
  5
F2
330
E2
100
AcDbEntity
  8
AM_6
100
AcDbText
 10
5.04688
 20
-3.588132440476191
 30
0.0
 40
0.5
  1
2.45313
100
AcDbAttributeDefinition
  3

  2
C1
 70
     8
280
     0
  0
ATTDEF
  5
F3
330
E2
100
AcDbEntity
  8
AM_6
100
AcDbText
 10
5.04688
 20
-4.088132440476191
 30
0.0
 40
0.5
  1
0.795
100
AcDbAttributeDefinition
  3

  2
D
 70
     8
280
     0
  0
ATTDEF
  5
F4
330
E2
100
AcDbEntity
  8
AM_6
100
AcDbText
 10
5.04688
 20
-4.588132440476191
 30
0.0
 40
0.5
  1
0.79500
100
AcDbAttributeDefinition
  3

  2
D1
 70
     8
280
     0
  0
ATTDEF
  5
F5
330
E2
100
AcDbEntity
  8
AM_6
100
AcDbText
 10
5.04688
 20
-5.088132440476191
 30
0.0
 40
0.5
  1
0.442
100
AcDbAttributeDefinition
  3

  2
E
 70
     8
280
     0
  0
ATTDEF
  5
F6
330
E2
100
AcDbEntity
  8
AM_6
100
AcDbText
 10
5.04688
 20
-5.588132440476191
 30
0.0
 40
0.5
  1
0.44200
100
AcDbAttributeDefinition
  3

  2
E1
 70
     8
280
     0
  0
ATTDEF
  5
F7
330
E2
100
AcDbEntity
  8
AM_6
100
AcDbText
 10
5.04688
 20
-6.088132440476191
 30
0.0
 40
0.5
  1
421253
100
AcDbAttributeDefinition
  3

  2
PN
 70
     8
280
     0
  0
ATTDEF
  5
F8
330
E2
100
AcDbEntity
  8
AM_6
100
AcDbText
 10
5.04688
 20
-6.588132440476191
 30
0.0
 40
0.5
  1
baldor
100
AcDbAttributeDefinition
  3

  2
COMPANY
 70
     8
280
     0
  0
LINE
  5
F9
330
E2
100
AcDbEntity
  8
AM_9
 48
0.0130324921319111
100
AcDbLine
 10
-2.165159090909091
 20
0.9782465500127062
 30
0.0
 11
-2.165159090909091
 21
0.5810940820489929
 31
0.0
  0
LINE
  5
FA
330
E2
100
AcDbEntity
  8
AM_9
 48
0.0130324921319111
100
AcDbLine
 10
-1.763340909090909
 20
0.5810591230610023
 30
0.0
 11
-1.763340909090909
 21
0.9782465500127062
 31
0.0
  0
LWPOLYLINE
  5
FB
330
E2
100
AcDbEntity
  8
AM_9
 48
0.0130324921319111
100
AcDbPolyline
 90
       17
 70
     0
 43
0.0
 10
-1.811980428043463
 20
0.4596674799026281
 10
-1.821305867501377
 20
0.450077548266932
 10
-1.847061759635511
 20
0.4291146940860953
 10
-1.87613978992231
 20
0.4124274384440666
 10
-1.907793238939603
 20
0.4006318794944066
 10
-1.94107154442151
 20
0.3940772511864766
 10
-1.974716496813887
 20
0.3930634658049997
 10
-2.008064078206991
 20
0.3974587197558476
 10
-2.040003710196594
 20
0.4071292016456608
 10
-2.069831492178045
 20
0.4216775278315164
 10
-2.096876215476564
 20
0.4408397760470735
 10
-2.120218231249279
 20
0.4638528274055106
 10
-2.139290416801811
 20
0.490263269604569
 10
-2.153411800580047
 20
0.5190452317903579
 10
-2.162074265735354
 20
0.5492332479356961
 10
-2.165155469817106
 20
0.5800066643834143
 10
-2.16515909076324
 20
0.5810931716955592
  0
LWPOLYLINE
  5
FC
330
E2
100
AcDbEntity
  8
AM_9
 48
0.0130324921319111
100
AcDbPolyline
 90
        6
 70
     0
 43
0.0
 10
-1.763340909819976
 20
0.5811156220751653
 10
-1.764575204160667
 20
0.5608714799057144
 10
-1.771065797400311
 20
0.5306906584716119
 10
-1.782880587977388
 20
0.5016217297160063
 10
-1.799819356607247
 20
0.4744518801062449
 10
-1.811980428043463
 20
0.4596674799026281
  0
LWPOLYLINE
  5
FD
330
E2
100
AcDbEntity
  8
AM_9
 48
0.0130324921319111
100
AcDbPolyline
 90
       11
 70
     0
 43
0.0
 10
-2.16515909076324
 20
0.5810931716955592
 10
-2.162531543332594
 20
0.6101761498093082
 10
-2.154415896251338
 20
0.6391992921770835
 10
-2.140983322623456
 20
0.6662560060509836
 10
-2.122684755560877
 20
0.6907178149484843
 10
-2.099744193423274
 20
0.712130087886548
 10
-2.0729983526514
 20
0.7298027174326288
 10
-2.042983976803219
 20
0.7433282378515975
 10
-2.010708551356439
 20
0.7523489507807689
 10
-1.987640910281215
 20
0.7557918186867594
 10
-1.96425
 20
0.7569489309271662
  0
LINE
  5
FE
330
E2
100
AcDbEntity
  8
AM_9
 48
0.0130324921319111
100
AcDbLine
 10
-2.165159090909091
 20
2.314728535353535
 30
0.0
 11
-2.165159090909091
 21
1.375
 31
0.0
  0
LINE
  5
FF
330
E2
100
AcDbEntity
  8
AM_9
 48
0.0130324921319111
100
AcDbLine
 10
-1.763340909090909
 20
1.375
 30
0.0
 11
-1.763340909090909
 21
2.314728535353535
 31
0.0
  0
LINE
  5
100
330
E2
100
AcDbEntity
  8
AM_9
 48
0.0130324921319111
100
AcDbLine
 10
-1.763340909090909
 20
2.314728535353535
 30
0.0
 11
-2.165159090909091
 21
2.314728535353535
 31
0.0
  0
LINE
  5
101
330
E2
100
AcDbEntity
  8
AM_9
 48
0.0130324921319111
100
AcDbLine
 10
-1.763340909090909
 20
2.314728535353535
 30
0.0
 11
-1.718694444444445
 21
2.359375
 31
0.0
  0
LINE
  5
102
330
E2
100
AcDbEntity
  8
AM_9
 48
0.0130324921319111
100
AcDbLine
 10
-2.209805555555556
 20
2.359375
 30
0.0
 11
-2.165159090909091
 21
2.314728535353535
 31
0.0
  0
LWPOLYLINE
  5
103
330
E2
100
AcDbEntity
  8
AM_9
 48
0.0130324921319111
100
AcDbPolyline
 90
        6
 70
     0
 43
0.0
 10
-1.812264080901278
 20
0.697525436909018
 10
-1.794487600017308
 20
0.676704590701754
 10
-1.778834690847866
 20
0.6502483973510365
 10
-1.768435529315195
 20
0.6215345382875197
 10
-1.763692651267037
 20
0.5915227712631378
 10
-1.763340909819976
 20
0.5811156220751653
  0
LWPOLYLINE
  5
104
330
E2
100
AcDbEntity
  8
AM_9
 48
0.0130324921319111
100
AcDbPolyline
 90
        7
 70
     0
 43
0.0
 10
-1.96425
 20
0.7569489309271662
 10
-1.930725714644719
 20
0.7545543228588398
 10
-1.898151294650586
 20
0.7474906552439183
 10
-1.867478040830644
 20
0.7358689600575924
 10
-1.839510395143219
 20
0.7200140088245394
 10
-1.814904519623104
 20
0.7000896875878269
 10
-1.812264080901278
 20
0.697525436909018
  0
LINE
  5
105
330
E2
100
AcDbEntity
  8
AM_9
 48
0.0130324921319111
100
AcDbLine
 10
-2.40625
 20
-1.375
 30
0.0
 11
0.0468799999999999
 21
-1.375
 31
0.0
  0
LINE
  5
106
330
E2
100
AcDbEntity
  8
AM_9
 48
0.0130324921319111
100
AcDbLine
 10
0.0468799999999999
 20
1.375
 30
0.0
 11
-1.76334090909091
 21
1.375
 31
0.0
  0
LINE
  5
107
330
E2
100
AcDbEntity
  8
AM_9
 48
0.0130324921319111
100
AcDbLine
 10
-2.165159090909091
 20
1.375
 30
0.0
 11
-2.40625
 21
1.375
 31
0.0
  0
LWPOLYLINE
  5
108
330
E2
100
AcDbEntity
  8
AM_9
 48
0.0130324921319111
100
AcDbPolyline
 90
       21
 70
     0
 43
0.0
 10
-2.165159090908682
 20
1.37499999999994
 10
-2.164911384786763
 20
1.374963828082261
 10
-2.160324703534088
 20
1.374301941552897
 10
-2.15050443820935
 20
1.372935269028647
 10
-2.13517504771442
 20
1.370939790481792
 10
-2.115459340508927
 20
1.36862149692573
 10
-2.090886587222094
 20
1.366124943924728
 10
-2.063257909371648
 20
1.363841304297618
 10
-2.031939055397225
 20
1.361925969137328
 10
-1.999686963765585
 20
1.360704345400207
 10
-1.965446958769861
 20
1.360243349515218
 10
-1.932456767000828
 20
1.360614327006232
 10
-1.899432008397439
 20
1.361786293522398
 10
-1.869151310190712
 20
1.363563089113784
 10
-1.840716322394931
 20
1.365840805764975
 10
-1.816248816474043
 20
1.368270765424434
 10
-1.795320611113129
 20
1.370692407369274
 10
-1.779611432037536
 20
1.372716991214617
 10
-1.768787770008635
 20
1.374214692303674
 10
-1.764726722660283
 20
1.374798194423627
 10
-1.763340909090909
 20
1.375
  0
LINE
  5
109
330
E2
100
AcDbEntity
  8
AM_9
 48
0.0130324921319111
100
AcDbLine
 10
-1.52225
 20
-1.685267857142857
 30
0.0
 11
-1.22362
 21
-1.685267857142857
 31
0.0
  0
LINE
  5
10A
330
E2
100
AcDbEntity
  8
AM_9
 48
0.0130324921319111
100
AcDbLine
 10
-1.22362
 20
1.685267857142857
 30
0.0
 11
-1.52225
 21
1.685267857142857
 31
0.0
  0
LINE
  5
10B
330
E2
100
AcDbEntity
  8
AM_9
 48
0.0130324921319111
100
AcDbLine
 10
-1.52225
 20
2.339375
 30
0.0
 11
-1.52225
 21
-2.339375
 31
0.0
  0
ARC
  5
10C
330
E2
100
AcDbEntity
  8
AM_9
 48
0.0130324921319111
100
AcDbCircle
 10
-1.542249999999999
 20
-2.339375000000001
 30
0.0
 40
0.0199999999999987
100
AcDbArc
 50
269.9999999999974
 51
0.0000000000025444
  0
ARC
  5
10D
330
E2
100
AcDbEntity
  8
AM_9
 48
0.0130324921319111
100
AcDbCircle
 10
-1.542249999999999
 20
2.339375000000001
 30
0.0
 40
0.0199999999999991
100
AcDbArc
 50
359.9999999999974
 51
90.00000000000256
  0
LWPOLYLINE
  5
10E
330
E2
100
AcDbEntity
  8
AM_9
 48
0.0130324921319111
100
AcDbPolyline
 90
       39
 70
     0
 43
0.0
 10
-1.776938461692568
 20
0.8580534255340955
 10
-1.755290571208063
 20
0.8845191003915384
 10
-1.738223598290158
 20
0.9135803102812855
 10
-1.725423087696529
 20
0.9477123254187627
 10
-1.719230185972888
 20
0.9831103778537824
 10
-1.719844040760464
 20
1.017309930699523
 10
-1.726773803715378
 20
1.050684850356279
 10
-1.739697165425131
 20
1.081987177940547
 10
-1.758123966087544
 20
1.110809637723932
 10
-1.782236583244232
 20
1.137116169172584
 10
-1.810802421977931
 20
1.159579735505024
 10
-1.844657119629013
 20
1.178476495522298
 10
-1.881558591700842
 20
1.192367850814445
 10
-1.922252124840839
 20
1.201210761838903
 10
-1.964075636375396
 20
1.204214239451969
 10
-2.006882850379275
 20
1.201117305011098
 10
-2.048488307394062
 20
1.191905445118298
 10
-2.087696994465076
 20
1.176649142859465
 10
-2.123310079839333
 20
1.155721661846396
 10
-2.153459923342798
 20
1.130139906041421
 10
-2.178041918975132
 20
1.100141864252129
 10
-2.195383177795725
 20
1.068005666222589
 10
-2.206144429306838
 20
1.033408744103372
 10
-2.209767939801555
 20
0.9990872384391443
 10
-2.206889043362676
 20
0.964452168973664
 10
-2.197795520328892
 20
0.9312772028561926
 10
-2.182908962243325
 20
0.8997019208358893
 10
-2.162279231178841
 20
0.8701513729449902
 10
-2.136829100735302
 20
0.8438883250841908
 10
-2.105883530642497
 20
0.8207296242756691
 10
-2.071387005968513
 20
0.8024084402056095
 10
-2.032459297992376
 20
0.7889505227301657
 10
-1.991728054202219
 20
0.7815852892139634
 10
-1.949000482982265
 20
0.7806411559284259
 10
-1.906696990664553
 20
0.7863772603272098
 10
-1.865696217848083
 20
0.7988665445871034
 10
-1.827540669365211
 20
0.8176676519544369
 10
-1.80076029001459
 20
0.836278493977105
 10
-1.776938461653747
 20
0.8580534254244814
  0
LINE
  5
10F
330
E2
100
AcDbEntity
  8
AM_9
 48
0.0130324921319111
100
AcDbLine
 10
-1.8125
 20
-2.359375
 30
0.0
 11
-1.54225
 21
-2.359375
 31
0.0
  0
LINE
  5
110
330
E2
100
AcDbEntity
  8
AM_9
 48
0.0130324921319111
100
AcDbLine
 10
-1.54225
 20
2.359375
 30
0.0
 11
-1.718694444444445
 21
2.359375
 31
0.0
  0
LWPOLYLINE
  5
111
330
E2
100
AcDbEntity
  8
AM_9
 48
0.0130324921319111
100
AcDbPolyline
 90
        7
 70
     0
 43
0.0
 10
-1.71869444444448
 20
2.359374999999997
 10
-1.721689386937643
 20
2.359094371144655
 10
-1.730672000966745
 20
2.35827299786851
 10
-1.745819185138636
 20
2.356957046293598
 10
-1.766200079966855
 20
2.355323723917064
 10
-1.792033528332
 20
2.353480696346482
 10
-1.812082218798668
 20
2.352226112608182
  0
LINE
  5
112
330
E2
100
AcDbEntity
  8
AM_9
 48
0.0130324921319111
100
AcDbLine
 10
-1.54225
 20
2.359375
 30
0.0
 11
-1.54225
 21
-2.359375
 31
0.0
  0
LINE
  5
113
330
E2
100
AcDbEntity
  8
AM_9
 48
0.0130324921319111
100
AcDbLine
 10
-1.20362
 20
-2.359375
 30
0.0
 11
0.0000000000000002
 21
-2.359375
 31
0.0
  0
LINE
  5
114
330
E2
100
AcDbEntity
  8
AM_9
 48
0.0130324921319111
100
AcDbLine
 10
0.0000000000000002
 20
2.359375
 30
0.0
 11
-1.20362
 21
2.359375
 31
0.0
  0
LINE
  5
115
330
E2
100
AcDbEntity
  8
AM_9
 48
0.0130324921319111
100
AcDbLine
 10
-1.22362
 20
2.339375
 30
0.0
 11
-1.22362
 21
-2.339375
 31
0.0
  0
ARC
  5
116
330
E2
100
AcDbEntity
  8
AM_9
 48
0.0130324921319111
100
AcDbCircle
 10
-1.20362
 20
-2.339375
 30
0.0
 40
0.02
100
AcDbArc
 50
179.9999999999987
 51
270.0000000000007
  0
ARC
  5
117
330
E2
100
AcDbEntity
  8
AM_9
 48
0.0130324921319111
100
AcDbCircle
 10
-1.20362
 20
2.339375
 30
0.0
 40
0.0199999999999996
100
AcDbArc
 50
89.99999999999936
 51
180.0000000000013
  0
LINE
  5
118
330
E2
100
AcDbEntity
  8
AM_9
 48
0.0130324921319111
100
AcDbLine
 10
-1.20362
 20
2.359375
 30
0.0
 11
-1.20362
 21
-2.359375
 31
0.0
  0
LINE
  5
119
330
E2
100
AcDbEntity
  8
AM_5
 48
0.0130324921319111
100
AcDbLine
 10
-1.718694444444445
 20
1.375
 30
0.0
 11
-1.718694444444445
 21
2.359375
 31
0.0
  0
LINE
  5
11A
330
E2
100
AcDbEntity
  8
AM_5
 48
0.0130324921319111
100
AcDbLine
 10
-2.209805555555556
 20
1.375
 30
0.0
 11
-2.209805555555556
 21
2.359375
 31
0.0
  0
ELLIPSE
  5
11B
330
E2
100
AcDbEntity
  8
AM_9
 48
0.0130324921319111
100
AcDbEllipse
 10
-1.96425
 20
0.9782465500127061
 30
0.0
 11
-0.2009090909090909
 21
-1.135276005125521E-15
 31
0.0
210
0.0
220
0.0
230
1.0
 40
0.9063077870366497
 41
0.0
 42
6.283185307179586
  0
LINE
  5
11C
330
E2
100
AcDbEntity
  8
AM_7
 48
0.0130324921319111
100
AcDbLine
 10
-1.96425
 20
2.411867559523809
 30
0.0
 11
-1.96425
 21
1.25703125
 31
0.0
  0
LINE
  5
11D
330
E2
100
AcDbEntity
  8
AM_0
 48
0.0130324921319111
100
AcDbLine
 10
-2.3571874
 20
-2.359375
 30
0.0
 11
-1.8125
 21
-2.359375
 31
0.0
  0
LINE
  5
11E
330
E2
100
AcDbEntity
  8
AM_0
 48
0.0130324921319111
100
AcDbLine
 10
-2.209805555555556
 20
2.359375
 30
0.0
 11
-2.3571874
 21
2.359375
 31
0.0
  0
LWPOLYLINE
  5
11F
330
E2
100
AcDbEntity
  8
AM_0
 48
0.0130324921319111
100
AcDbPolyline
 90
       16
 70
     0
 43
0.0
 10
-1.812082218798668
 20
2.352226112608182
 10
-1.822599732275853
 20
2.351629550431324
 10
-1.857587261549429
 20
2.349950906512782
 10
-1.896009893605868
 20
2.348650946479228
 10
-1.937312792466881
 20
2.347889908344181
 10
-1.979446688879097
 20
2.347794110562669
 10
-2.022343243647088
 20
2.348402829777724
 10
-2.062734743652889
 20
2.349626495823784
 10
-2.101424315976642
 20
2.351388548185194
 10
-2.134483778054121
 20
2.35334977250605
 10
-2.149687198516542
 20
2.354392174173229
 10
-2.163452979348469
 20
2.355411916242432
 10
-2.184802680401925
 20
2.357136155118001
 10
-2.200305021466631
 20
2.358496454239897
 10
-2.208154128392244
 20
2.359219841321369
 10
-2.209805555555446
 20
2.35937499999999
  0
LINE
  5
120
330
E2
100
AcDbEntity
  8
AM_0
 48
0.0130324921319111
100
AcDbLine
 10
0.0468799999999999
 20
2.339375
 30
0.0
 11
0.0468799999999999
 21
-2.339375
 31
0.0
  0
ARC
  5
121
330
E2
100
AcDbEntity
  8
AM_0
 48
0.0130324921319111
100
AcDbCircle
 10
0.0268800000000001
 20
-2.339375
 30
0.0
 40
0.0199999999999996
100
AcDbArc
 50
269.9999999999992
 51
0.0000000000012722
  0
ARC
  5
122
330
E2
100
AcDbEntity
  8
AM_0
 48
0.0130324921319111
100
AcDbCircle
 10
0.0268800000000001
 20
2.339375
 30
0.0
 40
0.0199999999999998
100
AcDbArc
 50
359.9999999999987
 51
90.00000000000078
  0
LINE
  5
123
330
E2
100
AcDbEntity
  8
AM_0
 48
0.0130324921319111
100
AcDbLine
 10
-2.40625
 20
2.3103124
 30
0.0
 11
-2.40625
 21
-2.3103124
 31
0.0
  0
ARC
  5
124
330
E2
100
AcDbEntity
  8
AM_0
 48
0.0130324921319111
100
AcDbCircle
 10
-2.3571874
 20
-2.3103124
 30
0.0
 40
0.0490625999999996
100
AcDbArc
 50
179.9999999999995
 51
270.0000000000005
  0
ARC
  5
125
330
E2
100
AcDbEntity
  8
AM_0
 48
0.0130324921319111
100
AcDbCircle
 10
-2.3571874
 20
2.3103124
 30
0.0
 40
0.0490625999999996
100
AcDbArc
 50
89.99999999999949
 51
180.0000000000005
  0
LINE
  5
126
330
E2
100
AcDbEntity
  8
AM_4
 48
0.0130324921319111
100
AcDbLine
 10
-2.3571874
 20
2.359375
 30
0.0
 11
-2.3571874
 21
-2.359375
 31
0.0
  0
LINE
  5
127
330
E2
100
AcDbEntity
  8
AM_0
 48
0.0130324921319111
100
AcDbLine
 10
0.0000000000000002
 20
-2.359375
 30
0.0
 11
0.0268799999999998
 21
-2.359375
 31
0.0
  0
LINE
  5
128
330
E2
100
AcDbEntity
  8
AM_0
 48
0.0130324921319111
100
AcDbLine
 10
0.0268799999999998
 20
2.359375
 30
0.0
 11
0.0000000000000002
 21
2.359375
 31
0.0
  0
LINE
  5
129
330
E2
100
AcDbEntity
  8
AM_4
 48
0.0130324921319111
100
AcDbLine
 10
0.0268799999999998
 20
2.359375
 30
0.0
 11
0.0268799999999998
 21
-2.359375
 31
0.0
  0
ENDBLK
  5
E5
330
E2
100
AcDbEntity
  8
0
100
AcDbBlockEnd
  0
BLOCK
  5
12C
330
12A
100
AcDbEntity
  8
0
100
AcDbBlockBegin
  2
3_048061B_0_in_048061_2
 70
     2
 10
0.0
 20
0.0
 30
0.0
  3
3_048061B_0_in_048061_2
  1

  0
ATTDEF
  5
12E
330
12A
100
AcDbEntity
  8
AM_6
100
AcDbText
 10
5.1695365
 20
3.59375
 30
0.0
 40
0.5
  1
Unisphere II -4 Bolt Flange Bearing - Inch - Body
100
AcDbAttributeDefinition
  3

  2
NN
 70
     8
280
     0
  0
ATTDEF
  5
12F
330
12A
100
AcDbEntity
  8
AM_6
100
AcDbText
 10
5.1695365
 20
3.09375
 30
0.0
 40
0.5
  1
Unisphere II
100
AcDbAttributeDefinition
  3

  2
NT
 70
     8
280
     0
  0
ATTDEF
  5
130
330
12A
100
AcDbEntity
  8
AM_6
100
AcDbText
 10
5.1695365
 20
2.59375
 30
0.0
 40
0.5
  1
048061B
100
AcDbAttributeDefinition
  3

  2
NB
 70
     8
280
     0
  0
ATTDEF
  5
131
330
12A
100
AcDbEntity
  8
AM_6
100
AcDbText
 10
5.1695365
 20
2.09375
 30
0.0
 40
0.5
  1
$PN.
100
AcDbAttributeDefinition
  3

  2
NBSYN
 70
     8
280
     0
  0
ATTDEF
  5
132
330
12A
100
AcDbEntity
  8
AM_6
100
AcDbText
 10
5.1695365
 20
1.59375
 30
0.0
 40
0.5
  1
048061B
100
AcDbAttributeDefinition
  3

  2
LINA
 70
     8
280
     0
  0
ATTDEF
  5
133
330
12A
100
AcDbEntity
  8
AM_6
100
AcDbText
 10
5.1695365
 20
1.09375
 30
0.0
 40
0.5
  1
2-3/4
100
AcDbAttributeDefinition
  3

  2
SS
 70
     8
280
     0
  0
ATTDEF
  5
134
330
12A
100
AcDbEntity
  8
AM_6
100
AcDbText
 10
5.1695365
 20
0.5937500000000004
 30
0.0
 40
0.5
  1
2.75000
100
AcDbAttributeDefinition
  3

  2
SS1
 70
     8
280
     0
  0
ATTDEF
  5
135
330
12A
100
AcDbEntity
  8
AM_6
100
AcDbText
 10
5.1695365
 20
0.0937500000000004
 30
0.0
 40
0.5
  1
Expansion Type
100
AcDbAttributeDefinition
  3

  2
TYPE
 70
     8
280
     0
  0
ATTDEF
  5
136
330
12A
100
AcDbEntity
  8
AM_6
100
AcDbText
 10
5.1695365
 20
-0.4062499999999996
 30
0.0
 40
0.5
  1
048044B
100
AcDbAttributeDefinition
  3

  2
PNNE
 70
     8
280
     0
  0
ATTDEF
  5
137
330
12A
100
AcDbEntity
  8
AM_6
100
AcDbText
 10
5.1695365
 20
-0.9062499999999996
 30
0.0
 40
0.5
  1
048061B
100
AcDbAttributeDefinition
  3

  2
PNE
 70
     8
280
     0
  0
ATTDEF
  5
138
330
12A
100
AcDbEntity
  8
AM_6
100
AcDbText
 10
5.1695365
 20
-1.40625
 30
0.0
 40
0.5
  1
F4B-UN2-212
100
AcDbAttributeDefinition
  3

  2
DESCRIPTIONNE
 70
     8
280
     0
  0
ATTDEF
  5
139
330
12A
100
AcDbEntity
  8
AM_6
100
AcDbText
 10
5.1695365
 20
-1.90625
 30
0.0
 40
0.5
  1
F4B-UN2-212E
100
AcDbAttributeDefinition
  3

  2
DESCRIPTIONE
 70
     8
280
     0
  0
ATTDEF
  5
13A
330
12A
100
AcDbEntity
  8
AM_6
100
AcDbText
 10
5.1695365
 20
-2.40625
 30
0.0
 40
0.5
  1
17.0
100
AcDbAttributeDefinition
  3

  2
WEIGHT
 70
     8
280
     0
  0
ATTDEF
  5
13B
330
12A
100
AcDbEntity
  8
AM_6
100
AcDbText
 10
5.1695365
 20
-2.90625
 30
0.0
 40
0.5
  1
2-29/64
100
AcDbAttributeDefinition
  3

  2
A
 70
     8
280
     0
  0
ATTDEF
  5
13C
330
12A
100
AcDbEntity
  8
AM_6
100
AcDbText
 10
5.1695365
 20
-3.40625
 30
0.0
 40
0.5
  1
2.45313
100
AcDbAttributeDefinition
  3

  2
A1
 70
     8
280
     0
  0
ATTDEF
  5
13D
330
12A
100
AcDbEntity
  8
AM_6
100
AcDbText
 10
5.1695365
 20
-3.90625
 30
0.0
 40
0.5
  1
7-3/16
100
AcDbAttributeDefinition
  3

  2
B
 70
     8
280
     0
  0
ATTDEF
  5
13E
330
12A
100
AcDbEntity
  8
AM_6
100
AcDbText
 10
5.1695365
 20
-4.40625
 30
0.0
 40
0.5
  1
7.18750
100
AcDbAttributeDefinition
  3

  2
B1
 70
     8
280
     0
  0
ATTDEF
  5
13F
330
12A
100
AcDbEntity
  8
AM_6
100
AcDbText
 10
5.1695365
 20
-4.90625
 30
0.0
 40
0.5
  1
2-19/32
100
AcDbAttributeDefinition
  3

  2
C
 70
     8
280
     0
  0
ATTDEF
  5
140
330
12A
100
AcDbEntity
  8
AM_6
100
AcDbText
 10
5.1695365
 20
-5.40625
 30
0.0
 40
0.5
  1
2.59375
100
AcDbAttributeDefinition
  3

  2
C1
 70
     8
280
     0
  0
ATTDEF
  5
141
330
12A
100
AcDbEntity
  8
AM_6
100
AcDbText
 10
5.1695365
 20
-5.90625
 30
0.0
 40
0.5
  1
5-9/16
100
AcDbAttributeDefinition
  3

  2
D
 70
     8
280
     0
  0
ATTDEF
  5
142
330
12A
100
AcDbEntity
  8
AM_6
100
AcDbText
 10
5.1695365
 20
-6.40625
 30
0.0
 40
0.5
  1
5.56250
100
AcDbAttributeDefinition
  3

  2
D1
 70
     8
280
     0
  0
ATTDEF
  5
143
330
12A
100
AcDbEntity
  8
AM_6
100
AcDbText
 10
5.1695365
 20
-6.90625
 30
0.0
 40
0.5
  1
3/4
100
AcDbAttributeDefinition
  3

  2
F
 70
     8
280
     0
  0
ATTDEF
  5
144
330
12A
100
AcDbEntity
  8
AM_6
100
AcDbText
 10
5.1695365
 20
-7.40625
 30
0.0
 40
0.5
  1
0.75000
100
AcDbAttributeDefinition
  3

  2
F1
 70
     8
280
     0
  0
ATTDEF
  5
145
330
12A
100
AcDbEntity
  8
AM_6
100
AcDbText
 10
5.1695365
 20
-7.90625
 30
0.0
 40
0.5
  1
15/16
100
AcDbAttributeDefinition
  3

  2
H
 70
     8
280
     0
  0
ATTDEF
  5
146
330
12A
100
AcDbEntity
  8
AM_6
100
AcDbText
 10
5.1695365
 20
-8.40625
 30
0.0
 40
0.5
  1
0.93750
100
AcDbAttributeDefinition
  3

  2
H1
 70
     8
280
     0
  0
ATTDEF
  5
147
330
12A
100
AcDbEntity
  8
AM_6
100
AcDbText
 10
5.1695365
 20
-8.90625
 30
0.0
 40
0.5
  1
25/32
100
AcDbAttributeDefinition
  3

  2
J
 70
     8
280
     0
  0
ATTDEF
  5
148
330
12A
100
AcDbEntity
  8
AM_6
100
AcDbText
 10
5.1695365
 20
-9.40625
 30
0.0
 40
0.5
  1
0.78125
100
AcDbAttributeDefinition
  3

  2
J1
 70
     8
280
     0
  0
ATTDEF
  5
149
330
12A
100
AcDbEntity
  8
AM_6
100
AcDbText
 10
5.1695365
 20
-9.90625
 30
0.0
 40
0.5
  1
7-7/8
100
AcDbAttributeDefinition
  3

  2
K
 70
     8
280
     0
  0
ATTDEF
  5
14A
330
12A
100
AcDbEntity
  8
AM_6
100
AcDbText
 10
5.1695365
 20
-10.40625
 30
0.0
 40
0.5
  1
7.87500
100
AcDbAttributeDefinition
  3

  2
K1
 70
     8
280
     0
  0
ATTDEF
  5
14B
330
12A
100
AcDbEntity
  8
AM_6
100
AcDbText
 10
5.1695365
 20
-10.90625
 30
0.0
 40
0.5
  1
4-23/32
100
AcDbAttributeDefinition
  3

  2
L
 70
     8
280
     0
  0
ATTDEF
  5
14C
330
12A
100
AcDbEntity
  8
AM_6
100
AcDbText
 10
5.1695365
 20
-11.40625
 30
0.0
 40
0.5
  1
4.71875
100
AcDbAttributeDefinition
  3

  2
L1
 70
     8
280
     0
  0
ATTDEF
  5
14D
330
12A
100
AcDbEntity
  8
AM_6
100
AcDbText
 10
5.1695365
 20
-11.90625
 30
0.0
 40
0.5
  1
3/16
100
AcDbAttributeDefinition
  3

  2
M
 70
     8
280
     0
  0
ATTDEF
  5
14E
330
12A
100
AcDbEntity
  8
AM_6
100
AcDbText
 10
5.1695365
 20
-12.40625
 30
0.0
 40
0.5
  1
0.18750
100
AcDbAttributeDefinition
  3

  2
M1
 70
     8
280
     0
  0
ATTDEF
  5
14F
330
12A
100
AcDbEntity
  8
AM_6
100
AcDbText
 10
5.1695365
 20
-12.90625
 30
0.0
 40
0.5
  1
3-13/16
100
AcDbAttributeDefinition
  3

  2
N
 70
     8
280
     0
  0
ATTDEF
  5
150
330
12A
100
AcDbEntity
  8
AM_6
100
AcDbText
 10
5.1695365
 20
-13.40625
 30
0.0
 40
0.5
  1
3.81250
100
AcDbAttributeDefinition
  3

  2
N1
 70
     8
280
     0
  0
ATTDEF
  5
151
330
12A
100
AcDbEntity
  8
AM_6
100
AcDbText
 10
5.1695365
 20
-13.90625
 30
0.0
 40
0.5
  1
baldor
100
AcDbAttributeDefinition
  3

  2
COMPANY
 70
     8
280
     0
  0
LINE
  5
152
330
12A
100
AcDbEntity
  8
AM_9
 48
0.0202980919036548
100
AcDbLine
 10
0.0000000000000001
 20
3.267499999999998
 30
0.0
 11
-0.9375
 21
3.267499999999998
 31
0.0
  0
LINE
  5
153
330
12A
100
AcDbEntity
  8
AM_9
 48
0.0202980919036548
100
AcDbLine
 10
-1.8125
 20
-2.359375
 30
0.0
 11
0.0
 21
-2.359375
 31
0.0
  0
LINE
  5
154
330
12A
100
AcDbEntity
  8
AM_9
 48
0.0202980919036548
100
AcDbLine
 10
0.0
 20
2.359375
 30
0.0
 11
-1.8125
 21
2.359375
 31
0.0
  0
LINE
  5
155
330
12A
100
AcDbEntity
  8
AM_9
 48
0.0202980919036548
100
AcDbLine
 10
-0.4687499999999999
 20
-2.548877135624549
 30
0.0
 11
-0.9374999999999999
 21
-2.548877135624549
 31
0.0
  0
LINE
  5
156
330
12A
100
AcDbEntity
  8
AM_9
 48
0.0202980919036548
100
AcDbLine
 10
-0.9374999999999999
 20
2.548877135624551
 30
0.0
 11
-0.4687499999999999
 21
2.548877135624551
 31
0.0
  0
LINE
  5
157
330
12A
100
AcDbEntity
  8
AM_9
 48
0.0202980919036548
100
AcDbLine
 10
-0.9375
 20
2.73101355884473
 30
0.0
 11
-0.4687499999999999
 21
2.73101355884473
 31
0.0
  0
LINE
  5
158
330
12A
100
AcDbEntity
  8
AM_9
 48
0.0202980919036548
100
AcDbLine
 10
-0.9374999999999999
 20
-2.875000000000013
 30
0.0
 11
-0.46875
 21
-2.875000000000013
 31
0.0
  0
LINE
  5
159
330
12A
100
AcDbEntity
  8
AM_9
 48
0.0202980919036548
100
AcDbLine
 10
-0.9374999999999999
 20
-3.15625
 30
0.0
 11
0.0000000000000002
 21
-3.15625
 31
0.0
  0
LINE
  5
15A
330
12A
100
AcDbEntity
  8
AM_9
 48
0.0202980919036548
100
AcDbLine
 10
0.0000000000000002
 20
-2.40625
 30
0.0
 11
-0.9374999999999999
 21
-2.40625
 31
0.0
  0
LINE
  5
15B
330
12A
100
AcDbEntity
  8
AM_9
 48
0.0202980919036548
100
AcDbLine
 10
-0.9374999999999999
 20
2.40625
 30
0.0
 11
0.0000000000000002
 21
2.40625
 31
0.0
  0
LINE
  5
15C
330
12A
100
AcDbEntity
  8
AM_9
 48
0.0202980919036548
100
AcDbLine
 10
0.0000000000000002
 20
3.15625
 30
0.0
 11
-0.9374999999999999
 21
3.15625
 31
0.0
  0
LINE
  5
15D
330
12A
100
AcDbEntity
  8
AM_9
 48
0.0202980919036548
100
AcDbLine
 10
-0.9374999999999999
 20
-3.458114033216765
 30
0.0
 11
-0.4687499999999999
 21
-3.458114033216765
 31
0.0
  0
LINE
  5
15E
330
12A
100
AcDbEntity
  8
AM_9
 48
0.0202980919036548
100
AcDbLine
 10
-0.4687499999999999
 20
-2.84375
 30
0.0
 11
-0.4687499999999998
 21
-3.59375
 31
0.0
  0
LINE
  5
15F
330
12A
100
AcDbEntity
  8
AM_9
 48
0.0202980919036548
100
AcDbLine
 10
-0.4687499999999998
 20
3.59375
 30
0.0
 11
-0.4687499999999999
 21
2.84375
 31
0.0
  0
LINE
  5
160
330
12A
100
AcDbEntity
  8
AM_9
 48
0.0202980919036548
100
AcDbLine
 10
-0.9374999999999999
 20
3.458114033216763
 30
0.0
 11
-0.4687499999999999
 21
3.458114033216763
 31
0.0
  0
LINE
  5
161
330
12A
100
AcDbEntity
  8
AM_7
 48
0.0202980919036548
100
AcDbLine
 10
0.1695364999999999
 20
0.0
 30
0.0
 11
-2.7234375
 21
0.0
 31
0.0
  0
LINE
  5
162
330
12A
100
AcDbEntity
  8
AM_7
 48
0.0202980919036548
100
AcDbLine
 10
0.0937499999999998
 20
-2.78125
 30
0.0
 11
-1.96875
 21
-2.78125
 31
0.0
  0
LINE
  5
163
330
12A
100
AcDbEntity
  8
AM_7
 48
0.0202980919036548
100
AcDbLine
 10
0.0937499999999998
 20
2.78125
 30
0.0
 11
-1.96875
 21
2.78125
 31
0.0
  0
LINE
  5
164
330
12A
100
AcDbEntity
  8
AM_0
 48
0.0202980919036548
100
AcDbLine
 10
-1.8125
 20
-2.875000000000013
 30
0.0
 11
-0.9374999999999999
 21
-2.875000000000013
 31
0.0
  0
LINE
  5
165
330
12A
100
AcDbEntity
  8
AM_0
 48
0.0202980919036548
100
AcDbLine
 10
-0.9375
 20
2.874999999999999
 30
0.0
 11
-1.8125
 21
2.874999999999999
 31
0.0
  0
LINE
  5
166
330
12A
100
AcDbEntity
  8
AM_0
 48
0.0202980919036548
100
AcDbLine
 10
-1.8125
 20
2.875
 30
0.0
 11
-1.8125
 21
-2.875
 31
0.0
  0
LINE
  5
167
330
12A
100
AcDbEntity
  8
AM_0
 48
0.0202980919036548
100
AcDbLine
 10
-0.9374999999999999
 20
1.32998133351201
 30
0.0
 11
-0.9374999999999999
 21
3.59375
 31
0.0
  0
LINE
  5
168
330
12A
100
AcDbEntity
  8
AM_0
 48
0.0202980919036548
100
AcDbLine
 10
-0.4687499999999999
 20
1.32998133351201
 30
0.0
 11
-0.9374999999999999
 21
1.32998133351201
 31
0.0
  0
LINE
  5
169
330
12A
100
AcDbEntity
  8
AM_0
 48
0.0202980919036548
100
AcDbLine
 10
-0.9374999999999999
 20
-3.59375
 30
0.0
 11
-0.9374999999999999
 21
-1.329981333512006
 31
0.0
  0
LINE
  5
16A
330
12A
100
AcDbEntity
  8
AM_0
 48
0.0202980919036548
100
AcDbLine
 10
-0.9374999999999999
 20
-1.329981333512006
 30
0.0
 11
-0.4687499999999999
 21
-1.329981333512006
 31
0.0
  0
LINE
  5
16B
330
12A
100
AcDbEntity
  8
AM_0
 48
0.0202980919036548
100
AcDbLine
 10
-0.4687499999999998
 20
-2.84375
 30
0.0
 11
-0.4687499999999998
 21
2.84375
 31
0.0
  0
LINE
  5
16C
330
12A
100
AcDbEntity
  8
AM_4
 48
0.0202980919036548
100
AcDbLine
 10
-0.4687499999999998
 20
-2.84375
 30
0.0
 11
0.0000000000000002
 21
-2.84375
 31
0.0
  0
LINE
  5
16D
330
12A
100
AcDbEntity
  8
AM_0
 48
0.0202980919036548
100
AcDbLine
 10
-0.9374999999999998
 20
-2.413567672736752
 30
0.0
 11
-0.4687499999999998
 21
-2.413567672736752
 31
0.0
  0
LINE
  5
16E
330
12A
100
AcDbEntity
  8
AM_0
 48
0.0202980919036548
100
AcDbLine
 10
-0.9374999999999999
 20
-3.59375
 30
0.0
 11
0.0000000000000002
 21
-3.59375
 31
0.0
  0
LINE
  5
16F
330
12A
100
AcDbEntity
  8
AM_0
 48
0.0202980919036548
100
AcDbLine
 10
0.0000000000000002
 20
-3.59375
 30
0.0
 11
0.0000000000000002
 21
3.59375
 31
0.0
  0
LINE
  5
170
330
12A
100
AcDbEntity
  8
AM_0
 48
0.0202980919036548
100
AcDbLine
 10
-0.9374999999999999
 20
3.59375
 30
0.0
 11
0.0000000000000002
 21
3.59375
 31
0.0
  0
LINE
  5
171
330
12A
100
AcDbEntity
  8
AM_0
 48
0.0202980919036548
100
AcDbLine
 10
-0.9374999999999998
 20
2.413567672736743
 30
0.0
 11
-0.4687499999999998
 21
2.413567672736743
 31
0.0
  0
LINE
  5
172
330
12A
100
AcDbEntity
  8
AM_4
 48
0.0202980919036548
100
AcDbLine
 10
-0.4687499999999998
 20
2.84375
 30
0.0
 11
0.0000000000000002
 21
2.84375
 31
0.0
  0
ENDBLK
  5
12D
330
12A
100
AcDbEntity
  8
0
100
AcDbBlockEnd
  0
ENDSEC
  0
SECTION
  2
ENTITIES
  0
ATTDEF
  5
6F
330
1F
100
AcDbEntity
  8
AM_6
100
AcDbText
 10
5.1695365
 20
3.63975
 30
0.0
 40
0.5
  1
UNISPHERE ll Flange Bearing - Inch 4-Bolt Non-Expansion
100
AcDbAttributeDefinition
  3

  2
NN
 70
     8
280
     0
  0
ATTDEF
  5
70
330
1F
100
AcDbEntity
  8
AM_6
100
AcDbText
 10
5.1695365
 20
3.13975
 30
0.0
 40
0.5
  1
Unisphere II
100
AcDbAttributeDefinition
  3

  2
NT
 70
     8
280
     0
  0
ATTDEF
  5
71
330
1F
100
AcDbEntity
  8
AM_6
100
AcDbText
 10
5.1695365
 20
2.63975
 30
0.0
 40
0.5
  1
048061
100
AcDbAttributeDefinition
  3

  2
NB
 70
     8
280
     0
  0
ATTDEF
  5
72
330
1F
100
AcDbEntity
  8
AM_6
100
AcDbText
 10
5.1695365
 20
2.13975
 30
0.0
 40
0.5
  1
$PN.
100
AcDbAttributeDefinition
  3

  2
NBSYN
 70
     8
280
     0
  0
ATTDEF
  5
73
330
1F
100
AcDbEntity
  8
AM_6
100
AcDbText
 10
5.1695365
 20
1.63975
 30
0.0
 40
0.5
  1
048061
100
AcDbAttributeDefinition
  3

  2
LINA
 70
     8
280
     0
  0
ATTDEF
  5
74
330
1F
100
AcDbEntity
  8
AM_6
100
AcDbText
 10
5.1695365
 20
1.13975
 30
0.0
 40
0.5
  1
2-3/4
100
AcDbAttributeDefinition
  3

  2
SS
 70
     8
280
     0
  0
ATTDEF
  5
75
330
1F
100
AcDbEntity
  8
AM_6
100
AcDbText
 10
5.1695365
 20
0.6397499999999998
 30
0.0
 40
0.5
  1
Expansion Type
100
AcDbAttributeDefinition
  3

  2
TYPE
 70
     8
280
     0
  0
ATTDEF
  5
76
330
1F
100
AcDbEntity
  8
AM_6
100
AcDbText
 10
5.1695365
 20
0.1397499999999998
 30
0.0
 40
0.5
  1
048061
100
AcDbAttributeDefinition
  3

  2
PN
 70
     8
280
     0
  0
ATTDEF
  5
77
330
1F
100
AcDbEntity
  8
AM_6
100
AcDbText
 10
5.1695365
 20
-0.3602500000000002
 30
0.0
 40
0.5
  1
F4B-UN2-212E
100
AcDbAttributeDefinition
  3

  2
DESCRIPTION
 70
     8
280
     0
  0
ATTDEF
  5
78
330
1F
100
AcDbEntity
  8
AM_6
100
AcDbText
 10
5.1695365
 20
-0.8602500000000002
 30
0.0
 40
0.5
  1
17.0
100
AcDbAttributeDefinition
  3

  2
WEIGHT
 70
     8
280
     0
  0
ATTDEF
  5
79
330
1F
100
AcDbEntity
  8
AM_6
100
AcDbText
 10
5.1695365
 20
-1.36025
 30
0.0
 40
0.5
  1
2-29/64
100
AcDbAttributeDefinition
  3

  2
A
 70
     8
280
     0
  0
ATTDEF
  5
7A
330
1F
100
AcDbEntity
  8
AM_6
100
AcDbText
 10
5.1695365
 20
-1.86025
 30
0.0
 40
0.5
  1
7-3/16
100
AcDbAttributeDefinition
  3

  2
B
 70
     8
280
     0
  0
ATTDEF
  5
7B
330
1F
100
AcDbEntity
  8
AM_6
100
AcDbText
 10
5.1695365
 20
-2.36025
 30
0.0
 40
0.5
  1
2-19/32
100
AcDbAttributeDefinition
  3

  2
C
 70
     8
280
     0
  0
ATTDEF
  5
7C
330
1F
100
AcDbEntity
  8
AM_6
100
AcDbText
 10
5.1695365
 20
-2.86025
 30
0.0
 40
0.5
  1
5-9/16
100
AcDbAttributeDefinition
  3

  2
D
 70
     8
280
     0
  0
ATTDEF
  5
7D
330
1F
100
AcDbEntity
  8
AM_6
100
AcDbText
 10
5.1695365
 20
-3.36025
 30
0.0
 40
0.5
  1
3/4
100
AcDbAttributeDefinition
  3

  2
F
 70
     8
280
     0
  0
ATTDEF
  5
7E
330
1F
100
AcDbEntity
  8
AM_6
100
AcDbText
 10
5.1695365
 20
-3.86025
 30
0.0
 40
0.5
  1
15/16
100
AcDbAttributeDefinition
  3

  2
H
 70
     8
280
     0
  0
ATTDEF
  5
7F
330
1F
100
AcDbEntity
  8
AM_6
100
AcDbText
 10
5.1695365
 20
-4.360250000000001
 30
0.0
 40
0.5
  1
25/32
100
AcDbAttributeDefinition
  3

  2
J
 70
     8
280
     0
  0
ATTDEF
  5
80
330
1F
100
AcDbEntity
  8
AM_6
100
AcDbText
 10
5.1695365
 20
-4.860250000000001
 30
0.0
 40
0.5
  1
7-7/8
100
AcDbAttributeDefinition
  3

  2
K
 70
     8
280
     0
  0
ATTDEF
  5
81
330
1F
100
AcDbEntity
  8
AM_6
100
AcDbText
 10
5.1695365
 20
-5.360250000000001
 30
0.0
 40
0.5
  1
4-23/32
100
AcDbAttributeDefinition
  3

  2
L
 70
     8
280
     0
  0
ATTDEF
  5
82
330
1F
100
AcDbEntity
  8
AM_6
100
AcDbText
 10
5.1695365
 20
-5.860250000000001
 30
0.0
 40
0.5
  1
3/16
100
AcDbAttributeDefinition
  3

  2
M
 70
     8
280
     0
  0
ATTDEF
  5
83
330
1F
100
AcDbEntity
  8
AM_6
100
AcDbText
 10
5.1695365
 20
-6.360250000000001
 30
0.0
 40
0.5
  1
3-13/16
100
AcDbAttributeDefinition
  3

  2
N
 70
     8
280
     0
  0
ATTDEF
  5
84
330
1F
100
AcDbEntity
  8
AM_6
100
AcDbText
 10
5.1695365
 20
-6.860250000000001
 30
0.0
 40
0.5
  1
1700
100
AcDbAttributeDefinition
  3

  2
MRPM
 70
     8
280
     0
  0
ATTDEF
  5
85
330
1F
100
AcDbEntity
  8
AM_6
100
AcDbText
 10
5.1695365
 20
-7.360250000000001
 30
0.0
 40
0.5
  1
53000
100
AcDbAttributeDefinition
  3

  2
CS
 70
     8
280
     0
  0
ATTDEF
  5
86
330
1F
100
AcDbEntity
  8
AM_6
100
AcDbText
 10
5.1695365
 20
-7.860250000000001
 30
0.0
 40
0.5
  1
41500
100
AcDbAttributeDefinition
  3

  2
CD
 70
     8
280
     0
  0
ATTDEF
  5
87
330
1F
100
AcDbEntity
  8
AM_6
100
AcDbText
 10
5.1695365
 20
-8.36025
 30
0.0
 40
0.5
  1
20
100
AcDbAttributeDefinition
  3

  2
RN
 70
     8
280
     0
  0
ATTDEF
  5
88
330
1F
100
AcDbEntity
  8
AM_6
100
AcDbText
 10
5.1695365
 20
-8.86025
 30
0.0
 40
0.5
  1
0.5748
100
AcDbAttributeDefinition
  3

  2
RM
 70
     8
280
     0
  0
ATTDEF
  5
89
330
1F
100
AcDbEntity
  8
AM_6
100
AcDbText
 10
5.1695365
 20
-9.36025
 30
0.0
 40
0.5
  1
4.197
100
AcDbAttributeDefinition
  3

  2
PD
 70
     8
280
     0
  0
ATTDEF
  5
8A
330
1F
100
AcDbEntity
  8
AM_6
100
AcDbText
 10
5.1695365
 20
-9.86025
 30
0.0
 40
0.5
  1
0.0020-0.0031
100
AcDbAttributeDefinition
  3

  2
RC
 70
     8
280
     0
  0
ATTDEF
  5
8B
330
1F
100
AcDbEntity
  8
AM_6
100
AcDbText
 10
5.1695365
 20
-10.36025
 30
0.0
 40
0.5
  1
1/2-13x7/8
100
AcDbAttributeDefinition
  3

  2
CSS
 70
     8
280
     0
  0
ATTDEF
  5
8C
330
1F
100
AcDbEntity
  8
AM_6
100
AcDbText
 10
5.1695365
 20
-10.86025
 30
0.0
 40
0.5
  1
620
100
AcDbAttributeDefinition
  3

  2
CST
 70
     8
280
     0
  0
ATTDEF
  5
8D
330
1F
100
AcDbEntity
  8
AM_6
100
AcDbText
 10
5.1695365
 20
-11.36025
 30
0.0
 40
0.5
  1
C.I. ASTM A48 CLASS 30
100
AcDbAttributeDefinition
  3

  2
MH
 70
     8
280
     0
  0
ATTDEF
  5
8E
330
1F
100
AcDbEntity
  8
AM_6
100
AcDbText
 10
5.1695365
 20
-11.86025
 30
0.0
 40
0.5
  1
4118 Case Carb.
100
AcDbAttributeDefinition
  3

  2
MIR
 70
     8
280
     0
  0
ATTDEF
  5
8F
330
1F
100
AcDbEntity
  8
AM_6
100
AcDbText
 10
5.1695365
 20
-12.36025
 30
0.0
 40
0.5
  1
E52100 Steel
100
AcDbAttributeDefinition
  3

  2
MOR
 70
     8
280
     0
  0
ATTDEF
  5
90
330
1F
100
AcDbEntity
  8
AM_6
100
AcDbText
 10
5.1695365
 20
-12.86025
 30
0.0
 40
0.5
  1
Polyamide
100
AcDbAttributeDefinition
  3

  2
MR
 70
     8
280
     0
  0
ATTDEF
  5
91
330
1F
100
AcDbEntity
  8
AM_6
100
AcDbText
 10
5.1695365
 20
-13.36025
 30
0.0
 40
0.5
  1
E52100 Steel
100
AcDbAttributeDefinition
  3

  2
MRO
 70
     8
280
     0
  0
ATTDEF
  5
92
330
1F
100
AcDbEntity
  8
AM_6
100
AcDbText
 10
5.1695365
 20
-13.86025
 30
0.0
 40
0.5
  1
2°
100
AcDbAttributeDefinition
  3

  2
SM
 70
     8
280
     0
  0
ATTDEF
  5
93
330
1F
100
AcDbEntity
  8
AM_6
100
AcDbText
 10
5.1695365
 20
-14.36025
 30
0.0
 40
0.5
  1
baldor
100
AcDbAttributeDefinition
  3

  2
COMPANY
 70
     8
280
     0
  0
INSERT
  5
95
330
1F
100
AcDbEntity
  8
0
100
AcDbBlockReference
  2
1_405020c_Inch_0_in_048061_2
 10
0.0
 20
0.0
 30
0.0
  0
INSERT
  5
E3
330
1F
100
AcDbEntity
  8
0
100
AcDbBlockReference
  2
2_421253_0_in_048061_2
 10
0.0
 20
0.0
 30
0.0
  0
INSERT
  5
12B
330
1F
100
AcDbEntity
  8
0
100
AcDbBlockReference
  2
3_048061B_0_in_048061_2
 10
0.0
 20
0.0
 30
0.0
  0
POINT
  5
174
330
1F
100
AcDbEntity
  8
ConnectionPoints
100
AcDbPoint
 10
-2.40625
 20
0.0
 30
0.0000000000000001
  0
POINT
  5
175
330
1F
100
AcDbEntity
  8
ConnectionPoints
100
AcDbPoint
 10
-0.46875
 20
3.2675
 30
0.0
  0
POINT
  5
176
330
1F
100
AcDbEntity
  8
ConnectionPoints
100
AcDbPoint
 10
-2.40625
 20
0.0
 30
0.0000000000000001
  0
ENDSEC
  0
SECTION
  2
OBJECTS
  0
DICTIONARY
  5
C
330
0
100
AcDbDictionary
281
     1
  3
ACAD_DETAILVIEWSTYLE
350
17E
  3
ACAD_GROUP
350
D
  3
ACAD_LAYOUT
350
1A
  3
ACAD_MATERIAL
350
43
  3
ACAD_MLEADERSTYLE
350
6B
  3
ACAD_MLINESTYLE
350
17
  3
ACAD_PLOTSETTINGS
350
19
  3
ACAD_PLOTSTYLENAME
350
E
  3
ACAD_SCALELIST
350
47
  3
ACAD_SECTIONVIEWSTYLE
350
17F
  3
ACAD_TABLESTYLE
350
69
  3
ACAD_VISUALSTYLE
350
2A
  3
ACDB_RECOMPOSE_DATA
350
17B
  3
AcDbVariableDictionary
350
177
  0
SUN
  5
6D
330
29
100
AcDbSun
 90
        1
290
     0
 63
     7
421
 16777215
 40
1.0
291
     1
 91
  2455826
 92
 54000000
292
     0
 70
     2
 71
   256
280
     1
  0
DICTIONARY
  5
17E
102
{ACAD_REACTORS
330
C
102
}
330
C
100
AcDbDictionary
281
     1
  0
DICTIONARY
  5
D
102
{ACAD_REACTORS
330
C
102
}
330
C
100
AcDbDictionary
281
     1
  0
DICTIONARY
  5
1A
102
{ACAD_REACTORS
330
C
102
}
330
C
100
AcDbDictionary
281
     1
  3
Layout1
350
1E
  3
Layout2
350
26
  3
Model
350
22
  0
DICTIONARY
  5
43
102
{ACAD_REACTORS
330
C
102
}
330
C
100
AcDbDictionary
281
     1
  3
ByBlock
350
45
  3
ByLayer
350
44
  3
Global
350
46
  0
DICTIONARY
  5
6B
102
{ACAD_REACTORS
330
C
102
}
330
C
100
AcDbDictionary
281
     1
  3
Standard
350
6C
  0
DICTIONARY
  5
17
102
{ACAD_REACTORS
330
C
102
}
330
C
100
AcDbDictionary
281
     1
  3
Standard
350
18
  0
DICTIONARY
  5
19
102
{ACAD_REACTORS
330
C
102
}
330
C
100
AcDbDictionary
281
     1
  0
ACDBDICTIONARYWDFLT
  5
E
102
{ACAD_REACTORS
330
C
102
}
330
C
100
AcDbDictionary
281
     1
  3
Normal
350
F
100
AcDbDictionaryWithDefault
340
F
  0
DICTIONARY
  5
47
102
{ACAD_REACTORS
330
C
102
}
330
C
100
AcDbDictionary
281
     1
  3
A0
350
48
  3
A1
350
49
  3
A2
350
4A
  3
A3
350
4B
  3
A4
350
4C
  3
A5
350
4D
  3
A6
350
4E
  3
A7
350
4F
  3
A8
350
50
  3
A9
350
51
  3
B0
350
52
  3
B1
350
53
  3
B2
350
54
  3
B3
350
55
  3
B4
350
56
  3
B5
350
57
  3
B6
350
58
  3
B7
350
59
  3
B8
350
5A
  3
B9
350
5B
  3
C0
350
5C
  3
C1
350
5D
  3
C2
350
5E
  3
C3
350
5F
  3
C4
350
60
  3
C5
350
61
  3
C6
350
62
  3
C7
350
63
  3
C8
350
64
  3
C9
350
65
  3
D0
350
66
  3
D1
350
67
  3
D2
350
68
  0
DICTIONARY
  5
17F
102
{ACAD_REACTORS
330
C
102
}
330
C
100
AcDbDictionary
281
     1
  0
DICTIONARY
  5
69
102
{ACAD_REACTORS
330
C
102
}
330
C
100
AcDbDictionary
281
     1
  3
Standard
350
6A
  0
DICTIONARY
  5
2A
102
{ACAD_REACTORS
330
C
102
}
330
C
100
AcDbDictionary
281
     1
  3
2dWireframe
350
2F
  3
Basic
350
32
  3
Brighten
350
36
  3
ColorChange
350
3A
  3
Conceptual
350
34
  3
Dim
350
35
  3
EdgeColorOff
350
3D
  3
Facepattern
350
39
  3
Flat
350
2B
  3
FlatWithEdges
350
2C
  3
Gouraud
350
2D
  3
GouraudWithEdges
350
2E
  3
Hidden
350
31
  3
JitterOff
350
3B
  3
Linepattern
350
38
  3
OverhangOff
350
3C
  3
Realistic
350
33
  3
Shaded
350
42
  3
Shaded with edges
350
41
  3
Shades of Gray
350
3E
  3
Sketchy
350
3F
  3
Thicken
350
37
  3
Wireframe
350
30
  3
X-Ray
350
40
  0
XRECORD
  5
17B
102
{ACAD_REACTORS
330
C
102
}
330
C
100
AcDbXrecord
280
     1
 90
        1
330
6A
  0
DICTIONARY
  5
177
102
{ACAD_REACTORS
330
C
102
}
330
C
100
AcDbDictionary
281
     1
  3
CANNOSCALE
350
178
  3
CMLEADERSTYLE
350
17D
  3
CTABLESTYLE
350
17C
  0
LAYOUT
  5
1E
102
{ACAD_REACTORS
330
1A
102
}
330
1A
100
AcDbPlotSettings
  1

  2
none_device
  4

  6

 40
0.0
 41
0.0
 42
0.0
 43
0.0
 44
0.0
 45
0.0
 46
0.0
 47
0.0
 48
0.0
 49
0.0
140
0.0
141
0.0
142
1.0
143
1.0
 70
   688
 72
     0
 73
     0
 74
     5
  7

 75
    16
 76
     0
 77
     2
 78
   300
147
1.0
148
0.0
149
0.0
100
AcDbLayout
  1
Layout1
 70
     1
 71
     1
 10
0.0
 20
0.0
 11
12.0
 21
9.0
 12
0.0
 22
0.0
 32
0.0
 14
1.000000000000000E+20
 24
1.000000000000000E+20
 34
1.000000000000000E+20
 15
-1.000000000000000E+20
 25
-1.000000000000000E+20
 35
-1.000000000000000E+20
146
0.0
 13
0.0
 23
0.0
 33
0.0
 16
1.0
 26
0.0
 36
0.0
 17
0.0
 27
1.0
 37
0.0
 76
     0
330
1B
  0
LAYOUT
  5
26
102
{ACAD_REACTORS
330
1A
102
}
330
1A
100
AcDbPlotSettings
  1

  2
none_device
  4

  6

 40
0.0
 41
0.0
 42
0.0
 43
0.0
 44
0.0
 45
0.0
 46
0.0
 47
0.0
 48
0.0
 49
0.0
140
0.0
141
0.0
142
1.0
143
1.0
 70
   688
 72
     0
 73
     0
 74
     5
  7

 75
    16
 76
     0
 77
     2
 78
   300
147
1.0
148
0.0
149
0.0
100
AcDbLayout
  1
Layout2
 70
     1
 71
     2
 10
0.0
 20
0.0
 11
0.0
 21
0.0
 12
0.0
 22
0.0
 32
0.0
 14
0.0
 24
0.0
 34
0.0
 15
0.0
 25
0.0
 35
0.0
146
0.0
 13
0.0
 23
0.0
 33
0.0
 16
1.0
 26
0.0
 36
0.0
 17
0.0
 27
1.0
 37
0.0
 76
     0
330
23
  0
LAYOUT
  5
22
102
{ACAD_REACTORS
330
1A
102
}
330
1A
100
AcDbPlotSettings
  1

  2
none_device
  4
Letter_(8.50_x_11.00_Inches)
  6

 40
6.35
 41
6.35
 42
6.35000508
 43
6.35000508
 44
215.9
 45
279.4
 46
0.0
 47
0.0
 48
0.0
 49
0.0
140
0.0
141
0.0
142
1.0
143
1.0
 70
  1712
 72
     0
 73
     0
 74
     0
  7

 75
     0
 76
     0
 77
     2
 78
   300
147
1.0
148
0.0
149
0.0
100
AcDbLayout
  1
Model
 70
     1
 71
     0
 10
0.0
 20
0.0
 11
12.0
 21
9.0
 12
0.0
 22
0.0
 32
0.0
 14
1.000000000000000E+20
 24
1.000000000000000E+20
 34
1.000000000000000E+20
 15
-1.000000000000000E+20
 25
-1.000000000000000E+20
 35
-1.000000000000000E+20
146
0.0
 13
0.0
 23
0.0
 33
0.0
 16
1.0
 26
0.0
 36
0.0
 17
0.0
 27
1.0
 37
0.0
 76
     0
330
1F
331
29
  0
MATERIAL
  5
45
102
{ACAD_REACTORS
330
43
102
}
330
43
100
AcDbMaterial
  1
ByBlock
 72
     1
 94
      127
  0
MATERIAL
  5
44
102
{ACAD_REACTORS
330
43
102
}
330
43
100
AcDbMaterial
  1
ByLayer
 72
     1
 94
      127
  0
MATERIAL
  5
46
102
{ACAD_REACTORS
330
43
102
}
330
43
100
AcDbMaterial
  1
Global
 72
     1
 94
      127
  0
MLEADERSTYLE
  5
6C
102
{ACAD_REACTORS
330
6B
102
}
330
6B
100
AcDbMLeaderStyle
179
     2
170
     2
171
     1
172
     0
 90
        2
 40
0.0
 41
0.0
173
     1
 91
-1056964608
340
14
 92
       -2
290
     1
 42
0.09
291
     1
 43
0.36
  3
Standard
341
0
 44
0.18
300

342
11
174
     1
178
     6
175
     1
176
     0
 93
-1056964608
 45
0.18
292
     0
297
     0
 46
0.18
343
0
 94
-1056964608
 47
1.0
 49
1.0
140
1.0
293
     1
141
0.0
294
     1
177
     0
142
1.0
295
     0
296
     0
143
0.125
271
     0
272
     9
273
     9
298
     0
  0
MLINESTYLE
  5
18
102
{ACAD_REACTORS
330
17
102
}
330
17
100
AcDbMlineStyle
  2
Standard
 70
     0
  3

 62
   256
 51
90.0
 52
90.0
 71
     2
 49
0.5
 62
   256
  6
BYLAYER
 49
-0.5
 62
   256
  6
BYLAYER
  0
ACDBPLACEHOLDER
  5
F
102
{ACAD_REACTORS
330
E
102
}
330
E
  0
SCALE
  5
48
102
{ACAD_REACTORS
330
47
102
}
330
47
100
AcDbScale
 70
     0
300
1:1
140
1.0
141
1.0
290
     1
  0
SCALE
  5
49
102
{ACAD_REACTORS
330
47
102
}
330
47
100
AcDbScale
 70
     0
300
1:2
140
1.0
141
2.0
290
     0
  0
SCALE
  5
4A
102
{ACAD_REACTORS
330
47
102
}
330
47
100
AcDbScale
 70
     0
300
1:4
140
1.0
141
4.0
290
     0
  0
SCALE
  5
4B
102
{ACAD_REACTORS
330
47
102
}
330
47
100
AcDbScale
 70
     0
300
1:5
140
1.0
141
5.0
290
     0
  0
SCALE
  5
4C
102
{ACAD_REACTORS
330
47
102
}
330
47
100
AcDbScale
 70
     0
300
1:8
140
1.0
141
8.0
290
     0
  0
SCALE
  5
4D
102
{ACAD_REACTORS
330
47
102
}
330
47
100
AcDbScale
 70
     0
300
1:10
140
1.0
141
10.0
290
     0
  0
SCALE
  5
4E
102
{ACAD_REACTORS
330
47
102
}
330
47
100
AcDbScale
 70
     0
300
1:16
140
1.0
141
16.0
290
     0
  0
SCALE
  5
4F
102
{ACAD_REACTORS
330
47
102
}
330
47
100
AcDbScale
 70
     0
300
1:20
140
1.0
141
20.0
290
     0
  0
SCALE
  5
50
102
{ACAD_REACTORS
330
47
102
}
330
47
100
AcDbScale
 70
     0
300
1:30
140
1.0
141
30.0
290
     0
  0
SCALE
  5
51
102
{ACAD_REACTORS
330
47
102
}
330
47
100
AcDbScale
 70
     0
300
1:40
140
1.0
141
40.0
290
     0
  0
SCALE
  5
52
102
{ACAD_REACTORS
330
47
102
}
330
47
100
AcDbScale
 70
     0
300
1:50
140
1.0
141
50.0
290
     0
  0
SCALE
  5
53
102
{ACAD_REACTORS
330
47
102
}
330
47
100
AcDbScale
 70
     0
300
1:100
140
1.0
141
100.0
290
     0
  0
SCALE
  5
54
102
{ACAD_REACTORS
330
47
102
}
330
47
100
AcDbScale
 70
     0
300
2:1
140
2.0
141
1.0
290
     0
  0
SCALE
  5
55
102
{ACAD_REACTORS
330
47
102
}
330
47
100
AcDbScale
 70
     0
300
4:1
140
4.0
141
1.0
290
     0
  0
SCALE
  5
56
102
{ACAD_REACTORS
330
47
102
}
330
47
100
AcDbScale
 70
     0
300
8:1
140
8.0
141
1.0
290
     0
  0
SCALE
  5
57
102
{ACAD_REACTORS
330
47
102
}
330
47
100
AcDbScale
 70
     0
300
10:1
140
10.0
141
1.0
290
     0
  0
SCALE
  5
58
102
{ACAD_REACTORS
330
47
102
}
330
47
100
AcDbScale
 70
     0
300
100:1
140
100.0
141
1.0
290
     0
  0
SCALE
  5
59
102
{ACAD_REACTORS
330
47
102
}
330
47
100
AcDbScale
 70
     0
300
1/128" = 1'-0"
140
0.0078125
141
12.0
290
     0
  0
SCALE
  5
5A
102
{ACAD_REACTORS
330
47
102
}
330
47
100
AcDbScale
 70
     0
300
1/64" = 1'-0"
140
0.015625
141
12.0
290
     0
  0
SCALE
  5
5B
102
{ACAD_REACTORS
330
47
102
}
330
47
100
AcDbScale
 70
     0
300
1/32" = 1'-0"
140
0.03125
141
12.0
290
     0
  0
SCALE
  5
5C
102
{ACAD_REACTORS
330
47
102
}
330
47
100
AcDbScale
 70
     0
300
1/16" = 1'-0"
140
0.0625
141
12.0
290
     0
  0
SCALE
  5
5D
102
{ACAD_REACTORS
330
47
102
}
330
47
100
AcDbScale
 70
     0
300
3/32" = 1'-0"
140
0.09375
141
12.0
290
     0
  0
SCALE
  5
5E
102
{ACAD_REACTORS
330
47
102
}
330
47
100
AcDbScale
 70
     0
300
1/8" = 1'-0"
140
0.125
141
12.0
290
     0
  0
SCALE
  5
5F
102
{ACAD_REACTORS
330
47
102
}
330
47
100
AcDbScale
 70
     0
300
3/16" = 1'-0"
140
0.1875
141
12.0
290
     0
  0
SCALE
  5
60
102
{ACAD_REACTORS
330
47
102
}
330
47
100
AcDbScale
 70
     0
300
1/4" = 1'-0"
140
0.25
141
12.0
290
     0
  0
SCALE
  5
61
102
{ACAD_REACTORS
330
47
102
}
330
47
100
AcDbScale
 70
     0
300
3/8" = 1'-0"
140
0.375
141
12.0
290
     0
  0
SCALE
  5
62
102
{ACAD_REACTORS
330
47
102
}
330
47
100
AcDbScale
 70
     0
300
1/2" = 1'-0"
140
0.5
141
12.0
290
     0
  0
SCALE
  5
63
102
{ACAD_REACTORS
330
47
102
}
330
47
100
AcDbScale
 70
     0
300
3/4" = 1'-0"
140
0.75
141
12.0
290
     0
  0
SCALE
  5
64
102
{ACAD_REACTORS
330
47
102
}
330
47
100
AcDbScale
 70
     0
300
1" = 1'-0"
140
1.0
141
12.0
290
     0
  0
SCALE
  5
65
102
{ACAD_REACTORS
330
47
102
}
330
47
100
AcDbScale
 70
     0
300
1-1/2" = 1'-0"
140
1.5
141
12.0
290
     0
  0
SCALE
  5
66
102
{ACAD_REACTORS
330
47
102
}
330
47
100
AcDbScale
 70
     0
300
3" = 1'-0"
140
3.0
141
12.0
290
     0
  0
SCALE
  5
67
102
{ACAD_REACTORS
330
47
102
}
330
47
100
AcDbScale
 70
     0
300
6" = 1'-0"
140
6.0
141
12.0
290
     0
  0
SCALE
  5
68
102
{ACAD_REACTORS
330
47
102
}
330
47
100
AcDbScale
 70
     0
300
1'-0" = 1'-0"
140
12.0
141
12.0
290
     0
  0
TABLESTYLE
  5
6A
102
{ACAD_REACTORS
330
69
102
}
102
{ACAD_XDICTIONARY
360
179
102
}
330
69
100
AcDbTableStyle
  3
Standard
 70
     0
 71
     0
 40
0.06
 41
0.06
280
     0
281
     0
  7
Standard
140
0.18
170
     2
 62
     0
 63
   257
283
     0
 90
        4
 91
        0
  1

274
    -2
284
     1
 64
     0
275
    -2
285
     1
 65
     0
276
    -2
286
     1
 66
     0
277
    -2
287
     1
 67
     0
278
    -2
288
     1
 68
     0
279
    -2
289
     1
 69
     0
  7
Standard
140
0.25
170
     5
 62
     0
 63
   257
283
     0
 90
        4
 91
        0
  1

274
    -2
284
     1
 64
     0
275
    -2
285
     1
 65
     0
276
    -2
286
     1
 66
     0
277
    -2
287
     1
 67
     0
278
    -2
288
     1
 68
     0
279
    -2
289
     1
 69
     0
  7
Standard
140
0.18
170
     5
 62
     0
 63
   257
283
     0
 90
        4
 91
        0
  1

274
    -2
284
     1
 64
     0
275
    -2
285
     1
 65
     0
276
    -2
286
     1
 66
     0
277
    -2
287
     1
 67
     0
278
    -2
288
     1
 68
     0
279
    -2
289
     1
 69
     0
  0
VISUALSTYLE
  5
2F
102
{ACAD_REACTORS
330
2A
102
}
330
2A
100
AcDbVisualStyle
  2
2dWireframe
 70
     4
177
     3
291
     0
 70
    58
 90
        0
176
     1
 90
        2
176
     1
 90
        0
176
     1
 90
        0
176
     1
 40
0.6
176
     1
 40
30.0
176
     1
 62
     7
420
 16777215
176
     1
 90
        1
176
     1
 90
        4
176
     1
 62
     7
176
     1
 62
   257
176
     1
 90
        1
176
     1
 90
        1
176
     1
 40
1.0
176
     1
 90
        0
176
     1
 62
   257
176
     1
 40
1.0
176
     1
 90
        1
176
     1
 90
        6
176
     1
 90
        2
176
     1
 62
     7
176
     1
 90
        5
176
     1
 90
        0
176
     1
 90
        0
176
     1
290
     0
176
     1
 90
        1
176
     1
 40
0.0
176
     1
 90
        0
176
     1
290
     1
176
     1
290
     1
176
     1
290
     0
176
     1
290
     0
176
     1
290
     0
176
     1
290
     0
176
     1
290
     0
176
     1
290
     0
176
     1
290
     0
176
     1
 90
       50
176
     1
 40
0.0
176
     1
 40
1.0
176
     1
 90
        0
176
     1
 62
    18
420
        0
176
     1
 90
       50
176
     1
 90
        3
176
     1
 62
     5
420
      255
176
     1
290
     0
176
     1
 90
       50
176
     1
 90
       50
176
     1
 90
       50
176
     1
290
     0
176
     1
 90
       50
176
     1
 62
   256
176
     0
 40
1.0
176
     0
 90
        2
176
     1
  1
strokes_ogs.tif
176
     1
290
     0
176
     1
 40
1.0
176
     1
 40
1.0
176
     1
  0
VISUALSTYLE
  5
32
102
{ACAD_REACTORS
330
2A
102
}
330
2A
100
AcDbVisualStyle
  2
Basic
 70
     7
177
     3
291
     1
 70
    58
 90
        1
176
     1
 90
        0
176
     1
 90
        1
176
     1
 90
        0
176
     1
 40
0.6
176
     1
 40
30.0
176
     1
 62
     7
420
 16777215
176
     1
 90
        0
176
     1
 90
        4
176
     1
 62
     7
176
     1
 62
   257
176
     1
 90
        1
176
     1
 90
        1
176
     1
 40
1.0
176
     1
 90
        8
176
     1
 62
     7
176
     1
 40
1.0
176
     1
 90
        1
176
     1
 90
        6
176
     1
 90
        2
176
     1
 62
     7
176
     1
 90
        5
176
     1
 90
        0
176
     1
 90
        0
176
     1
290
     0
176
     1
 90
        1
176
     1
 40
0.0
176
     1
 90
        0
176
     1
290
     0
176
     1
290
     1
176
     1
290
     1
176
     1
290
     0
176
     1
290
     0
176
     1
290
     0
176
     1
290
     0
176
     1
290
     0
176
     1
290
     0
176
     1
 90
       50
176
     1
 40
0.0
176
     1
 40
1.0
176
     1
 90
        0
176
     1
 62
    18
420
        0
176
     1
 90
       50
176
     1
 90
        3
176
     1
 62
     5
420
      255
176
     1
290
     0
176
     1
 90
       50
176
     1
 90
       50
176
     1
 90
       50
176
     1
290
     0
176
     1
 90
       50
176
     1
 62
   256
176
     0
 40
1.0
176
     0
 90
        2
176
     1
  1
strokes_ogs.tif
176
     1
290
     0
176
     1
 40
1.0
176
     1
 40
1.0
176
     1
  0
VISUALSTYLE
  5
36
102
{ACAD_REACTORS
330
2A
102
}
330
2A
100
AcDbVisualStyle
  2
Brighten
 70
    12
177
     3
291
     1
 70
    58
 90
        2
176
     1
 90
        2
176
     1
 90
        0
176
     1
 90
        0
176
     1
 40
0.6
176
     1
 40
30.0
176
     1
 62
     7
420
 16777215
176
     1
 90
        1
176
     1
 90
        4
176
     1
 62
     7
176
     1
 62
   257
176
     1
 90
        1
176
     1
 90
        1
176
     1
 40
1.0
176
     1
 90
        8
176
     1
 62
     7
176
     1
 40
1.0
176
     1
 90
        1
176
     1
 90
        6
176
     1
 90
        2
176
     1
 62
     7
176
     1
 90
        5
176
     1
 90
        0
176
     1
 90
        0
176
     1
290
     0
176
     1
 90
        1
176
     1
 40
50.0
176
     1
 90
        0
176
     1
290
     0
176
     1
290
     1
176
     1
290
     1
176
     1
290
     0
176
     1
290
     0
176
     1
290
     0
176
     1
290
     0
176
     1
290
     0
176
     1
290
     0
176
     1
 90
       50
176
     1
 40
0.0
176
     1
 40
1.0
176
     1
 90
        0
176
     1
 62
    18
420
        0
176
     1
 90
       50
176
     1
 90
        3
176
     1
 62
     5
420
      255
176
     1
290
     0
176
     1
 90
       50
176
     1
 90
       50
176
     1
 90
       50
176
     1
290
     0
176
     1
 90
       50
176
     1
 62
   256
176
     0
 40
1.0
176
     0
 90
        2
176
     1
  1
strokes_ogs.tif
176
     1
290
     0
176
     1
 40
1.0
176
     1
 40
1.0
176
     1
  0
VISUALSTYLE
  5
3A
102
{ACAD_REACTORS
330
2A
102
}
330
2A
100
AcDbVisualStyle
  2
ColorChange
 70
    16
177
     3
291
     1
 70
    58
 90
        2
176
     1
 90
        2
176
     1
 90
        3
176
     1
 90
        0
176
     1
 40
0.6
176
     1
 40
30.0
176
     1
 62
     8
420
  8421504
176
     1
 90
        1
176
     1
 90
        4
176
     1
 62
     7
176
     1
 62
   257
176
     1
 90
        1
176
     1
 90
        1
176
     1
 40
1.0
176
     1
 90
        8
176
     1
 62
     8
420
  8421504
176
     1
 40
1.0
176
     1
 90
        1
176
     1
 90
        6
176
     1
 90
        2
176
     1
 62
     7
176
     1
 90
        5
176
     1
 90
        0
176
     1
 90
        0
176
     1
290
     0
176
     1
 90
        1
176
     1
 40
0.0
176
     1
 90
        0
176
     1
290
     0
176
     1
290
     1
176
     1
290
     1
176
     1
290
     0
176
     1
290
     0
176
     1
290
     0
176
     1
290
     0
176
     1
290
     0
176
     1
290
     0
176
     1
 90
       50
176
     1
 40
0.0
176
     1
 40
1.0
176
     1
 90
        0
176
     1
 62
    18
420
        0
176
     1
 90
       50
176
     1
 90
        3
176
     1
 62
     5
420
      255
176
     1
290
     0
176
     1
 90
       50
176
     1
 90
       50
176
     1
 90
       50
176
     1
290
     0
176
     1
 90
       50
176
     1
 62
   256
176
     0
 40
1.0
176
     0
 90
        2
176
     1
  1
strokes_ogs.tif
176
     1
290
     0
176
     1
 40
1.0
176
     1
 40
1.0
176
     1
  0
VISUALSTYLE
  5
34
102
{ACAD_REACTORS
330
2A
102
}
330
2A
100
AcDbVisualStyle
  2
Conceptual
 70
     9
177
     3
291
     0
 70
    58
 90
        3
176
     1
 90
        2
176
     1
 90
        0
176
     1
 90
        0
176
     1
 40
0.6
176
     1
 40
30.0
176
     1
 62
     7
420
 16777215
176
     1
 90
        2
176
     1
 90
        2
176
     1
 62
     7
176
     1
 62
   257
176
     1
 90
        1
176
     1
 90
        1
176
     1
 40
179.0
176
     1
 90
        8
176
     1
 62
     7
176
     1
 40
1.0
176
     1
 90
        1
176
     1
 90
        6
176
     1
 90
        2
176
     1
 62
     7
176
     1
 90
        3
176
     1
 90
        0
176
     1
 90
        0
176
     1
290
     0
176
     1
 90
        1
176
     1
 40
0.0
176
     1
 90
        0
176
     1
290
     0
176
     1
290
     1
176
     1
290
     1
176
     1
290
     0
176
     1
290
     0
176
     1
290
     0
176
     1
290
     0
176
     1
290
     0
176
     1
290
     0
176
     1
 90
       50
176
     1
 40
0.0
176
     1
 40
1.0
176
     1
 90
        0
176
     1
 62
    18
420
        0
176
     1
 90
       50
176
     1
 90
        3
176
     1
 62
     5
420
      255
176
     1
290
     0
176
     1
 90
       50
176
     1
 90
       50
176
     1
 90
       50
176
     1
290
     0
176
     1
 90
       50
176
     1
 62
   256
176
     0
 40
1.0
176
     0
 90
        2
176
     1
  1
strokes_ogs.tif
176
     1
290
     0
176
     1
 40
1.0
176
     1
 40
1.0
176
     1
  0
VISUALSTYLE
  5
35
102
{ACAD_REACTORS
330
2A
102
}
330
2A
100
AcDbVisualStyle
  2
Dim
 70
    11
177
     3
291
     1
 70
    58
 90
        2
176
     1
 90
        2
176
     1
 90
        0
176
     1
 90
        0
176
     1
 40
0.6
176
     1
 40
30.0
176
     1
 62
     7
420
 16777215
176
     1
 90
        1
176
     1
 90
        4
176
     1
 62
     7
176
     1
 62
   257
176
     1
 90
        1
176
     1
 90
        1
176
     1
 40
1.0
176
     1
 90
        8
176
     1
 62
     7
176
     1
 40
1.0
176
     1
 90
        1
176
     1
 90
        6
176
     1
 90
        2
176
     1
 62
     7
176
     1
 90
        5
176
     1
 90
        0
176
     1
 90
        0
176
     1
290
     0
176
     1
 90
        1
176
     1
 40
-50.0
176
     1
 90
        0
176
     1
290
     0
176
     1
290
     1
176
     1
290
     1
176
     1
290
     0
176
     1
290
     0
176
     1
290
     0
176
     1
290
     0
176
     1
290
     0
176
     1
290
     0
176
     1
 90
       50
176
     1
 40
0.0
176
     1
 40
1.0
176
     1
 90
        0
176
     1
 62
    18
420
        0
176
     1
 90
       50
176
     1
 90
        3
176
     1
 62
     5
420
      255
176
     1
290
     0
176
     1
 90
       50
176
     1
 90
       50
176
     1
 90
       50
176
     1
290
     0
176
     1
 90
       50
176
     1
 62
   256
176
     0
 40
1.0
176
     0
 90
        2
176
     1
  1
strokes_ogs.tif
176
     1
290
     0
176
     1
 40
1.0
176
     1
 40
1.0
176
     1
  0
VISUALSTYLE
  5
3D
102
{ACAD_REACTORS
330
2A
102
}
330
2A
100
AcDbVisualStyle
  2
EdgeColorOff
 70
    22
177
     3
291
     1
 70
    58
 90
        2
176
     0
 90
        2
176
     0
 90
        0
176
     0
 90
        0
176
     0
 40
0.6
176
     0
 40
30.0
176
     0
 62
     7
420
 16777215
176
     0
 90
        1
176
     0
 90
        4
176
     0
 62
     7
176
     0
 62
   257
176
     0
 90
        1
176
     0
 90
        1
176
     0
 40
1.0
176
     0
 90
        8
176
     2
 62
     7
176
     0
 40
1.0
176
     0
 90
        1
176
     0
 90
        6
176
     0
 90
        2
176
     0
 62
     7
176
     0
 90
        5
176
     0
 90
        0
176
     0
 90
        0
176
     0
290
     0
176
     0
 90
        1
176
     0
 40
0.0
176
     0
 90
        0
176
     0
290
     0
176
     0
290
     1
176
     0
290
     1
176
     0
290
     0
176
     0
290
     0
176
     0
290
     0
176
     0
290
     0
176
     0
290
     0
176
     0
290
     0
176
     0
 90
       50
176
     0
 40
0.0
176
     0
 40
1.0
176
     0
 90
        0
176
     0
 62
    18
420
        0
176
     0
 90
       50
176
     0
 90
        3
176
     0
 62
     5
420
      255
176
     0
290
     0
176
     0
 90
       50
176
     0
 90
       50
176
     0
 90
       50
176
     0
290
     0
176
     0
 90
       50
176
     0
 62
   256
176
     0
 40
1.0
176
     0
 90
        2
176
     0
  1
strokes_ogs.tif
176
     0
290
     0
176
     0
 40
1.0
176
     0
 40
1.0
176
     0
  0
VISUALSTYLE
  5
39
102
{ACAD_REACTORS
330
2A
102
}
330
2A
100
AcDbVisualStyle
  2
Facepattern
 70
    15
177
     3
291
     1
 70
    58
 90
        2
176
     1
 90
        2
176
     1
 90
        0
176
     1
 90
        0
176
     1
 40
0.6
176
     1
 40
30.0
176
     1
 62
     7
420
 16777215
176
     1
 90
        1
176
     1
 90
        4
176
     1
 62
     7
176
     1
 62
   257
176
     1
 90
        1
176
     1
 90
        1
176
     1
 40
1.0
176
     1
 90
        8
176
     1
 62
     7
176
     1
 40
1.0
176
     1
 90
        1
176
     1
 90
        6
176
     1
 90
        2
176
     1
 62
     7
176
     1
 90
        5
176
     1
 90
        0
176
     1
 90
        0
176
     1
290
     0
176
     1
 90
        1
176
     1
 40
0.0
176
     1
 90
        0
176
     1
290
     0
176
     1
290
     1
176
     1
290
     1
176
     1
290
     0
176
     1
290
     0
176
     1
290
     0
176
     1
290
     0
176
     1
290
     0
176
     1
290
     0
176
     1
 90
       50
176
     1
 40
0.0
176
     1
 40
1.0
176
     1
 90
        0
176
     1
 62
    18
420
        0
176
     1
 90
       50
176
     1
 90
        3
176
     1
 62
     5
420
      255
176
     1
290
     0
176
     1
 90
       50
176
     1
 90
       50
176
     1
 90
       50
176
     1
290
     0
176
     1
 90
       50
176
     1
 62
   256
176
     0
 40
1.0
176
     0
 90
        2
176
     1
  1
strokes_ogs.tif
176
     1
290
     0
176
     1
 40
1.0
176
     1
 40
1.0
176
     1
  0
VISUALSTYLE
  5
2B
102
{ACAD_REACTORS
330
2A
102
}
330
2A
100
AcDbVisualStyle
  2
Flat
 70
     0
177
     3
291
     1
 70
    58
 90
        2
176
     1
 90
        1
176
     1
 90
        1
176
     1
 90
        2
176
     1
 40
0.6
176
     1
 40
30.0
176
     1
 62
     7
420
 16777215
176
     1
 90
        0
176
     1
 90
        0
176
     1
 62
     7
176
     1
 62
   257
176
     1
 90
        1
176
     1
 90
        1
176
     1
 40
1.0
176
     1
 90
        8
176
     1
 62
     7
176
     1
 40
1.0
176
     1
 90
        1
176
     1
 90
        6
176
     1
 90
        2
176
     1
 62
     7
176
     1
 90
        5
176
     1
 90
        0
176
     1
 90
        0
176
     1
290
     0
176
     1
 90
       13
176
     1
 40
0.0
176
     1
 90
        0
176
     1
290
     0
176
     1
290
     1
176
     1
290
     1
176
     1
290
     0
176
     1
290
     0
176
     1
290
     0
176
     1
290
     0
176
     1
290
     0
176
     1
290
     0
176
     1
 90
       50
176
     1
 40
0.0
176
     1
 40
1.0
176
     1
 90
        0
176
     1
 62
    18
420
        0
176
     1
 90
       50
176
     1
 90
        3
176
     1
 62
     5
420
      255
176
     1
290
     0
176
     1
 90
       50
176
     1
 90
       50
176
     1
 90
       50
176
     1
290
     0
176
     1
 90
       50
176
     1
 62
   256
176
     0
 40
1.0
176
     0
 90
        2
176
     1
  1
strokes_ogs.tif
176
     1
290
     0
176
     1
 40
1.0
176
     1
 40
1.0
176
     1
  0
VISUALSTYLE
  5
2C
102
{ACAD_REACTORS
330
2A
102
}
330
2A
100
AcDbVisualStyle
  2
FlatWithEdges
 70
     1
177
     3
291
     1
 70
    58
 90
        2
176
     1
 90
        1
176
     1
 90
        1
176
     1
 90
        2
176
     1
 40
0.6
176
     1
 40
30.0
176
     1
 62
     7
420
 16777215
176
     1
 90
        1
176
     1
 90
        0
176
     1
 62
     7
176
     1
 62
   257
176
     1
 90
        1
176
     1
 90
        1
176
     1
 40
1.0
176
     1
 90
        0
176
     1
 62
   257
176
     1
 40
1.0
176
     1
 90
        1
176
     1
 90
        6
176
     1
 90
        2
176
     1
 62
     7
176
     1
 90
        5
176
     1
 90
        0
176
     1
 90
        0
176
     1
290
     0
176
     1
 90
       13
176
     1
 40
0.0
176
     1
 90
        0
176
     1
290
     0
176
     1
290
     1
176
     1
290
     1
176
     1
290
     0
176
     1
290
     0
176
     1
290
     0
176
     1
290
     0
176
     1
290
     0
176
     1
290
     0
176
     1
 90
       50
176
     1
 40
0.0
176
     1
 40
1.0
176
     1
 90
        0
176
     1
 62
    18
420
        0
176
     1
 90
       50
176
     1
 90
        3
176
     1
 62
     5
420
      255
176
     1
290
     0
176
     1
 90
       50
176
     1
 90
       50
176
     1
 90
       50
176
     1
290
     0
176
     1
 90
       50
176
     1
 62
   256
176
     0
 40
1.0
176
     0
 90
        2
176
     1
  1
strokes_ogs.tif
176
     1
290
     0
176
     1
 40
1.0
176
     1
 40
1.0
176
     1
  0
VISUALSTYLE
  5
2D
102
{ACAD_REACTORS
330
2A
102
}
330
2A
100
AcDbVisualStyle
  2
Gouraud
 70
     2
177
     3
291
     1
 70
    58
 90
        2
176
     1
 90
        2
176
     1
 90
        1
176
     1
 90
        2
176
     1
 40
0.6
176
     1
 40
30.0
176
     1
 62
     7
420
 16777215
176
     1
 90
        0
176
     1
 90
        0
176
     1
 62
     7
176
     1
 62
   257
176
     1
 90
        1
176
     1
 90
        1
176
     1
 40
1.0
176
     1
 90
        0
176
     1
 62
     7
176
     1
 40
1.0
176
     1
 90
        1
176
     1
 90
        6
176
     1
 90
        2
176
     1
 62
     7
176
     1
 90
        5
176
     1
 90
        0
176
     1
 90
        0
176
     1
290
     0
176
     1
 90
       13
176
     1
 40
0.0
176
     1
 90
        0
176
     1
290
     0
176
     1
290
     1
176
     1
290
     1
176
     1
290
     0
176
     1
290
     0
176
     1
290
     0
176
     1
290
     0
176
     1
290
     0
176
     1
290
     0
176
     1
 90
       50
176
     1
 40
0.0
176
     1
 40
1.0
176
     1
 90
        0
176
     1
 62
    18
420
        0
176
     1
 90
       50
176
     1
 90
        3
176
     1
 62
     5
420
      255
176
     1
290
     0
176
     1
 90
       50
176
     1
 90
       50
176
     1
 90
       50
176
     1
290
     0
176
     1
 90
       50
176
     1
 62
   256
176
     0
 40
1.0
176
     0
 90
        2
176
     1
  1
strokes_ogs.tif
176
     1
290
     0
176
     1
 40
1.0
176
     1
 40
1.0
176
     1
  0
VISUALSTYLE
  5
2E
102
{ACAD_REACTORS
330
2A
102
}
330
2A
100
AcDbVisualStyle
  2
GouraudWithEdges
 70
     3
177
     3
291
     1
 70
    58
 90
        2
176
     1
 90
        2
176
     1
 90
        1
176
     1
 90
        2
176
     1
 40
0.6
176
     1
 40
30.0
176
     1
 62
     7
420
 16777215
176
     1
 90
        1
176
     1
 90
        0
176
     1
 62
     7
176
     1
 62
   257
176
     1
 90
        1
176
     1
 90
        1
176
     1
 40
1.0
176
     1
 90
        0
176
     1
 62
   257
176
     1
 40
1.0
176
     1
 90
        1
176
     1
 90
        6
176
     1
 90
        2
176
     1
 62
     7
176
     1
 90
        5
176
     1
 90
        0
176
     1
 90
        0
176
     1
290
     0
176
     1
 90
       13
176
     1
 40
0.0
176
     1
 90
        0
176
     1
290
     0
176
     1
290
     1
176
     1
290
     1
176
     1
290
     0
176
     1
290
     0
176
     1
290
     0
176
     1
290
     0
176
     1
290
     0
176
     1
290
     0
176
     1
 90
       50
176
     1
 40
0.0
176
     1
 40
1.0
176
     1
 90
        0
176
     1
 62
    18
420
        0
176
     1
 90
       50
176
     1
 90
        3
176
     1
 62
     5
420
      255
176
     1
290
     0
176
     1
 90
       50
176
     1
 90
       50
176
     1
 90
       50
176
     1
290
     0
176
     1
 90
       50
176
     1
 62
   256
176
     0
 40
1.0
176
     0
 90
        2
176
     1
  1
strokes_ogs.tif
176
     1
290
     0
176
     1
 40
1.0
176
     1
 40
1.0
176
     1
  0
VISUALSTYLE
  5
31
102
{ACAD_REACTORS
330
2A
102
}
330
2A
100
AcDbVisualStyle
  2
Hidden
 70
     6
177
     3
291
     0
 70
    58
 90
        1
176
     1
 90
        2
176
     1
 90
        2
176
     1
 90
        0
176
     1
 40
0.6
176
     1
 40
30.0
176
     1
 62
     7
420
 16777215
176
     1
 90
        2
176
     1
 90
        2
176
     1
 62
     7
176
     1
 62
   257
176
     1
 90
        2
176
     1
 90
        1
176
     1
 40
40.0
176
     1
 90
        0
176
     1
 62
   257
176
     1
 40
1.0
176
     1
 90
        1
176
     1
 90
        6
176
     1
 90
        2
176
     1
 62
     7
176
     1
 90
        3
176
     1
 90
        0
176
     1
 90
        0
176
     1
290
     0
176
     1
 90
        1
176
     1
 40
0.0
176
     1
 90
        0
176
     1
290
     0
176
     1
290
     1
176
     1
290
     1
176
     1
290
     0
176
     1
290
     0
176
     1
290
     0
176
     1
290
     0
176
     1
290
     0
176
     1
290
     0
176
     1
 90
       50
176
     1
 40
0.0
176
     1
 40
1.0
176
     1
 90
        0
176
     1
 62
    18
420
        0
176
     1
 90
       50
176
     1
 90
        3
176
     1
 62
     5
420
      255
176
     1
290
     0
176
     1
 90
       50
176
     1
 90
       50
176
     1
 90
       50
176
     1
290
     0
176
     1
 90
       50
176
     1
 62
   256
176
     0
 40
1.0
176
     0
 90
        2
176
     1
  1
strokes_ogs.tif
176
     1
290
     0
176
     1
 40
1.0
176
     1
 40
1.0
176
     1
  0
VISUALSTYLE
  5
3B
102
{ACAD_REACTORS
330
2A
102
}
330
2A
100
AcDbVisualStyle
  2
JitterOff
 70
    20
177
     3
291
     1
 70
    58
 90
        2
176
     0
 90
        2
176
     0
 90
        0
176
     0
 90
        0
176
     0
 40
0.6
176
     0
 40
30.0
176
     0
 62
     7
420
 16777215
176
     0
 90
        1
176
     0
 90
        4
176
     0
 62
     7
176
     0
 62
   257
176
     0
 90
        1
176
     0
 90
        1
176
     0
 40
1.0
176
     0
 90
       10
176
     2
 62
     7
176
     0
 40
1.0
176
     0
 90
        1
176
     0
 90
        6
176
     0
 90
        2
176
     0
 62
     7
176
     0
 90
        5
176
     0
 90
        0
176
     0
 90
        0
176
     0
290
     0
176
     0
 90
        1
176
     0
 40
0.0
176
     0
 90
        0
176
     0
290
     0
176
     0
290
     1
176
     0
290
     1
176
     0
290
     0
176
     0
290
     0
176
     0
290
     0
176
     0
290
     0
176
     0
290
     0
176
     0
290
     0
176
     0
 90
       50
176
     0
 40
0.0
176
     0
 40
1.0
176
     0
 90
        0
176
     0
 62
    18
420
        0
176
     0
 90
       50
176
     0
 90
        3
176
     0
 62
     5
420
      255
176
     0
290
     0
176
     0
 90
       50
176
     0
 90
       50
176
     0
 90
       50
176
     0
290
     0
176
     0
 90
       50
176
     0
 62
   256
176
     0
 40
1.0
176
     0
 90
        2
176
     0
  1
strokes_ogs.tif
176
     0
290
     0
176
     0
 40
1.0
176
     0
 40
1.0
176
     0
  0
VISUALSTYLE
  5
38
102
{ACAD_REACTORS
330
2A
102
}
330
2A
100
AcDbVisualStyle
  2
Linepattern
 70
    14
177
     3
291
     1
 70
    58
 90
        2
176
     1
 90
        2
176
     1
 90
        0
176
     1
 90
        0
176
     1
 40
0.6
176
     1
 40
30.0
176
     1
 62
     7
420
 16777215
176
     1
 90
        1
176
     1
 90
        4
176
     1
 62
     7
176
     1
 62
   257
176
     1
 90
        7
176
     1
 90
        7
176
     1
 40
1.0
176
     1
 90
        8
176
     1
 62
     7
176
     1
 40
1.0
176
     1
 90
        1
176
     1
 90
        6
176
     1
 90
        2
176
     1
 62
     7
176
     1
 90
        5
176
     1
 90
        0
176
     1
 90
        0
176
     1
290
     0
176
     1
 90
        1
176
     1
 40
0.0
176
     1
 90
        0
176
     1
290
     0
176
     1
290
     1
176
     1
290
     1
176
     1
290
     0
176
     1
290
     0
176
     1
290
     0
176
     1
290
     0
176
     1
290
     0
176
     1
290
     0
176
     1
 90
       50
176
     1
 40
0.0
176
     1
 40
1.0
176
     1
 90
        0
176
     1
 62
    18
420
        0
176
     1
 90
       50
176
     1
 90
        3
176
     1
 62
     5
420
      255
176
     1
290
     0
176
     1
 90
       50
176
     1
 90
       50
176
     1
 90
       50
176
     1
290
     0
176
     1
 90
       50
176
     1
 62
   256
176
     0
 40
1.0
176
     0
 90
        2
176
     1
  1
strokes_ogs.tif
176
     1
290
     0
176
     1
 40
1.0
176
     1
 40
1.0
176
     1
  0
VISUALSTYLE
  5
3C
102
{ACAD_REACTORS
330
2A
102
}
330
2A
100
AcDbVisualStyle
  2
OverhangOff
 70
    21
177
     3
291
     1
 70
    58
 90
        2
176
     0
 90
        2
176
     0
 90
        0
176
     0
 90
        0
176
     0
 40
0.6
176
     0
 40
30.0
176
     0
 62
     7
420
 16777215
176
     0
 90
        1
176
     0
 90
        4
176
     0
 62
     7
176
     0
 62
   257
176
     0
 90
        1
176
     0
 90
        1
176
     0
 40
1.0
176
     0
 90
        9
176
     2
 62
     7
176
     0
 40
1.0
176
     0
 90
        1
176
     0
 90
        6
176
     0
 90
        2
176
     0
 62
     7
176
     0
 90
        5
176
     0
 90
        0
176
     0
 90
        0
176
     0
290
     0
176
     0
 90
        1
176
     0
 40
0.0
176
     0
 90
        0
176
     0
290
     0
176
     0
290
     1
176
     0
290
     1
176
     0
290
     0
176
     0
290
     0
176
     0
290
     0
176
     0
290
     0
176
     0
290
     0
176
     0
290
     0
176
     0
 90
       50
176
     0
 40
0.0
176
     0
 40
1.0
176
     0
 90
        0
176
     0
 62
    18
420
        0
176
     0
 90
       50
176
     0
 90
        3
176
     0
 62
     5
420
      255
176
     0
290
     0
176
     0
 90
       50
176
     0
 90
       50
176
     0
 90
       50
176
     0
290
     0
176
     0
 90
       50
176
     0
 62
   256
176
     0
 40
1.0
176
     0
 90
        2
176
     0
  1
strokes_ogs.tif
176
     0
290
     0
176
     0
 40
1.0
176
     0
 40
1.0
176
     0
  0
VISUALSTYLE
  5
33
102
{ACAD_REACTORS
330
2A
102
}
330
2A
100
AcDbVisualStyle
  2
Realistic
 70
     8
177
     3
291
     0
 70
    58
 90
        2
176
     1
 90
        3
176
     1
 90
        0
176
     1
 90
        2
176
     1
 40
0.6
176
     1
 40
30.0
176
     1
 62
     7
420
 16777215
176
     1
 90
        0
176
     1
 90
        0
176
     1
 62
     7
176
     1
 62
   257
176
     1
 90
        1
176
     1
 90
        1
176
     1
 40
1.0
176
     1
 90
        8
176
     1
 62
   257
176
     1
 40
1.0
176
     1
 90
        1
176
     1
 90
        6
176
     1
 90
        2
176
     1
 62
     7
176
     1
 90
        3
176
     1
 90
        0
176
     1
 90
        0
176
     1
290
     0
176
     1
 90
       13
176
     1
 40
0.0
176
     1
 90
        0
176
     1
290
     0
176
     1
290
     1
176
     1
290
     1
176
     1
290
     0
176
     1
290
     0
176
     1
290
     0
176
     1
290
     0
176
     1
290
     0
176
     1
290
     0
176
     1
 90
       50
176
     1
 40
0.0
176
     1
 40
1.0
176
     1
 90
        0
176
     1
 62
    18
420
        0
176
     1
 90
       50
176
     1
 90
        3
176
     1
 62
     5
420
      255
176
     1
290
     0
176
     1
 90
       50
176
     1
 90
       50
176
     1
 90
       50
176
     1
290
     0
176
     1
 90
       50
176
     1
 62
   256
176
     0
 40
1.0
176
     0
 90
        2
176
     1
  1
strokes_ogs.tif
176
     1
290
     0
176
     1
 40
1.0
176
     1
 40
1.0
176
     1
  0
VISUALSTYLE
  5
42
102
{ACAD_REACTORS
330
2A
102
}
330
2A
100
AcDbVisualStyle
  2
Shaded
 70
    27
177
     3
291
     0
 70
    58
 90
        2
176
     1
 90
        2
176
     1
 90
        1
176
     1
 90
        2
176
     1
 40
0.6
176
     1
 40
30.0
176
     1
 62
     7
420
 16777215
176
     1
 90
        0
176
     1
 90
        4
176
     1
 62
     7
176
     1
 62
   257
176
     1
 90
        1
176
     1
 90
        1
176
     1
 40
1.0
176
     1
 90
        8
176
     1
 62
   257
176
     1
 40
1.0
176
     1
 90
        1
176
     1
 90
        6
176
     1
 90
        2
176
     1
 62
     8
420
  7895160
176
     1
 90
        3
176
     1
 90
        0
176
     1
 90
        0
176
     1
290
     0
176
     1
 90
        5
176
     1
 40
0.0
176
     1
 90
        0
176
     1
290
     0
176
     1
290
     1
176
     1
290
     1
176
     1
290
     0
176
     1
290
     0
176
     1
290
     0
176
     1
290
     0
176
     1
290
     0
176
     1
290
     0
176
     1
 90
       50
176
     1
 40
0.0
176
     1
 40
1.0
176
     1
 90
        0
176
     1
 62
    18
420
        0
176
     1
 90
       50
176
     1
 90
        3
176
     1
 62
     5
420
      255
176
     1
290
     0
176
     1
 90
       50
176
     1
 90
       50
176
     1
 90
       50
176
     1
290
     0
176
     1
 90
       50
176
     1
 62
   256
176
     0
 40
1.0
176
     0
 90
        2
176
     1
  1
strokes_ogs.tif
176
     1
290
     0
176
     1
 40
1.0
176
     1
 40
1.0
176
     1
  0
VISUALSTYLE
  5
41
102
{ACAD_REACTORS
330
2A
102
}
330
2A
100
AcDbVisualStyle
  2
Shaded with edges
 70
    26
177
     3
291
     0
 70
    58
 90
        2
176
     1
 90
        2
176
     1
 90
        1
176
     1
 90
        2
176
     1
 40
0.6
176
     1
 40
30.0
176
     1
 62
     7
420
 16777215
176
     1
 90
        1
176
     1
 90
       10
176
     1
 62
     7
176
     1
 62
   257
176
     1
 90
        2
176
     1
 90
        1
176
     1
 40
1.0
176
     1
 90
        8
176
     1
 62
   257
176
     1
 40
1.0
176
     1
 90
        1
176
     1
 90
        6
176
     1
 90
        2
176
     1
 62
     7
176
     1
 90
        3
176
     1
 90
        0
176
     1
 90
        0
176
     1
290
     0
176
     1
 90
        5
176
     1
 40
0.0
176
     1
 90
        0
176
     1
290
     0
176
     1
290
     1
176
     1
290
     1
176
     1
290
     0
176
     1
290
     0
176
     1
290
     0
176
     1
290
     0
176
     1
290
     0
176
     1
290
     0
176
     1
 90
       50
176
     1
 40
0.0
176
     1
 40
1.0
176
     1
 90
        0
176
     1
 62
    18
420
        0
176
     1
 90
       50
176
     1
 90
        3
176
     1
 62
     5
420
      255
176
     1
290
     0
176
     1
 90
       50
176
     1
 90
       50
176
     1
 90
       50
176
     1
290
     0
176
     1
 90
       50
176
     1
 62
   256
176
     0
 40
1.0
176
     0
 90
        2
176
     1
  1
strokes_ogs.tif
176
     1
290
     0
176
     1
 40
1.0
176
     1
 40
1.0
176
     1
  0
VISUALSTYLE
  5
3E
102
{ACAD_REACTORS
330
2A
102
}
330
2A
100
AcDbVisualStyle
  2
Shades of Gray
 70
    23
177
     3
291
     0
 70
    58
 90
        2
176
     1
 90
        2
176
     1
 90
        3
176
     1
 90
        0
176
     1
 40
0.6
176
     1
 40
30.0
176
     1
 62
     7
420
 16777215
176
     1
 90
        2
176
     1
 90
        2
176
     1
 62
     7
176
     1
 62
     7
176
     1
 90
        1
176
     1
 90
        1
176
     1
 40
40.0
176
     1
 90
        8
176
     1
 62
     7
176
     1
 40
1.0
176
     1
 90
        1
176
     1
 90
        6
176
     1
 90
        2
176
     1
 62
     7
176
     1
 90
        3
176
     1
 90
        0
176
     1
 90
        0
176
     1
290
     0
176
     1
 90
        1
176
     1
 40
0.0
176
     1
 90
        0
176
     1
290
     0
176
     1
290
     1
176
     1
290
     1
176
     1
290
     0
176
     1
290
     0
176
     1
290
     0
176
     1
290
     0
176
     1
290
     0
176
     1
290
     0
176
     1
 90
       50
176
     1
 40
0.0
176
     1
 40
1.0
176
     1
 90
        0
176
     1
 62
    18
420
        0
176
     1
 90
       50
176
     1
 90
        3
176
     1
 62
     5
420
      255
176
     1
290
     0
176
     1
 90
       50
176
     1
 90
       50
176
     1
 90
       50
176
     1
290
     0
176
     1
 90
       50
176
     1
 62
   256
176
     0
 40
1.0
176
     0
 90
        2
176
     1
  1
strokes_ogs.tif
176
     1
290
     0
176
     1
 40
1.0
176
     1
 40
1.0
176
     1
  0
VISUALSTYLE
  5
3F
102
{ACAD_REACTORS
330
2A
102
}
330
2A
100
AcDbVisualStyle
  2
Sketchy
 70
    24
177
     3
291
     0
 70
    58
 90
        1
176
     1
 90
        2
176
     1
 90
        2
176
     1
 90
        0
176
     1
 40
0.6
176
     1
 40
30.0
176
     1
 62
     7
420
 16777215
176
     1
 90
        2
176
     1
 90
        2
176
     1
 62
     7
176
     1
 62
     7
176
     1
 90
        1
176
     1
 90
        1
176
     1
 40
40.0
176
     1
 90
       11
176
     1
 62
     7
176
     1
 40
1.0
176
     1
 90
        1
176
     1
 90
        6
176
     1
 90
        2
176
     1
 62
     7
176
     1
 90
        6
176
     1
 90
        0
176
     1
 90
        0
176
     1
290
     0
176
     1
 90
        1
176
     1
 40
0.0
176
     1
 90
        0
176
     1
290
     0
176
     1
290
     1
176
     1
290
     1
176
     1
290
     0
176
     1
290
     0
176
     1
290
     0
176
     1
290
     0
176
     1
290
     0
176
     1
290
     0
176
     1
 90
       50
176
     1
 40
0.0
176
     1
 40
1.0
176
     1
 90
        0
176
     1
 62
    18
420
        0
176
     1
 90
       50
176
     1
 90
        3
176
     1
 62
     5
420
      255
176
     1
290
     0
176
     1
 90
       50
176
     1
 90
       50
176
     1
 90
       50
176
     1
290
     0
176
     1
 90
       50
176
     1
 62
   256
176
     0
 40
1.0
176
     0
 90
        2
176
     1
  1
strokes_ogs.tif
176
     1
290
     0
176
     1
 40
1.0
176
     1
 40
1.0
176
     1
  0
VISUALSTYLE
  5
37
102
{ACAD_REACTORS
330
2A
102
}
330
2A
100
AcDbVisualStyle
  2
Thicken
 70
    13
177
     3
291
     1
 70
    58
 90
        2
176
     1
 90
        2
176
     1
 90
        0
176
     1
 90
        0
176
     1
 40
0.6
176
     1
 40
30.0
176
     1
 62
     7
420
 16777215
176
     1
 90
        1
176
     1
 90
        4
176
     1
 62
     7
176
     1
 62
   257
176
     1
 90
        1
176
     1
 90
        1
176
     1
 40
1.0
176
     1
 90
       12
176
     1
 62
     7
176
     1
 40
1.0
176
     1
 90
        1
176
     1
 90
        6
176
     1
 90
        2
176
     1
 62
     7
176
     1
 90
        5
176
     1
 90
        0
176
     1
 90
        0
176
     1
290
     0
176
     1
 90
        1
176
     1
 40
0.0
176
     1
 90
        0
176
     1
290
     0
176
     1
290
     1
176
     1
290
     1
176
     1
290
     0
176
     1
290
     0
176
     1
290
     0
176
     1
290
     0
176
     1
290
     0
176
     1
290
     0
176
     1
 90
       50
176
     1
 40
0.0
176
     1
 40
1.0
176
     1
 90
        0
176
     1
 62
    18
420
        0
176
     1
 90
       50
176
     1
 90
        3
176
     1
 62
     5
420
      255
176
     1
290
     0
176
     1
 90
       50
176
     1
 90
       50
176
     1
 90
       50
176
     1
290
     0
176
     1
 90
       50
176
     1
 62
   256
176
     0
 40
1.0
176
     0
 90
        2
176
     1
  1
strokes_ogs.tif
176
     1
290
     0
176
     1
 40
1.0
176
     1
 40
1.0
176
     1
  0
VISUALSTYLE
  5
30
102
{ACAD_REACTORS
330
2A
102
}
330
2A
100
AcDbVisualStyle
  2
Wireframe
 70
     5
177
     3
291
     0
 70
    58
 90
        0
176
     1
 90
        2
176
     1
 90
        0
176
     1
 90
        0
176
     1
 40
0.6
176
     1
 40
30.0
176
     1
 62
     7
420
 16777215
176
     1
 90
        1
176
     1
 90
        4
176
     1
 62
     7
176
     1
 62
   257
176
     1
 90
        1
176
     1
 90
        1
176
     1
 40
1.0
176
     1
 90
        0
176
     1
 62
   257
176
     1
 40
1.0
176
     1
 90
        1
176
     1
 90
        6
176
     1
 90
        2
176
     1
 62
     7
176
     1
 90
        3
176
     1
 90
        0
176
     1
 90
        0
176
     1
290
     0
176
     1
 90
        1
176
     1
 40
0.0
176
     1
 90
        0
176
     1
290
     0
176
     1
290
     1
176
     1
290
     1
176
     1
290
     0
176
     1
290
     0
176
     1
290
     0
176
     1
290
     0
176
     1
290
     0
176
     1
290
     0
176
     1
 90
       50
176
     1
 40
0.0
176
     1
 40
1.0
176
     1
 90
        0
176
     1
 62
    18
420
        0
176
     1
 90
       50
176
     1
 90
        3
176
     1
 62
     5
420
      255
176
     1
290
     0
176
     1
 90
       50
176
     1
 90
       50
176
     1
 90
       50
176
     1
290
     0
176
     1
 90
       50
176
     1
 62
   256
176
     0
 40
1.0
176
     0
 90
        2
176
     1
  1
strokes_ogs.tif
176
     1
290
     0
176
     1
 40
1.0
176
     1
 40
1.0
176
     1
  0
VISUALSTYLE
  5
40
102
{ACAD_REACTORS
330
2A
102
}
330
2A
100
AcDbVisualStyle
  2
X-Ray
 70
    25
177
     3
291
     0
 70
    58
 90
        2
176
     1
 90
        2
176
     1
 90
        1
176
     1
 90
        1
176
     1
 40
0.5
176
     1
 40
30.0
176
     1
 62
     7
420
 16777215
176
     1
 90
        1
176
     1
 90
        0
176
     1
 62
     7
176
     1
 62
   257
176
     1
 90
        1
176
     1
 90
        1
176
     1
 40
1.0
176
     1
 90
        8
176
     1
 62
     7
176
     1
 40
1.0
176
     1
 90
        1
176
     1
 90
        6
176
     1
 90
        2
176
     1
 62
     7
176
     1
 90
        3
176
     1
 90
        0
176
     1
 90
        0
176
     1
290
     0
176
     1
 90
       13
176
     1
 40
0.0
176
     1
 90
        0
176
     1
290
     0
176
     1
290
     1
176
     1
290
     1
176
     1
290
     0
176
     1
290
     0
176
     1
290
     0
176
     1
290
     0
176
     1
290
     0
176
     1
290
     0
176
     1
 90
       50
176
     1
 40
0.0
176
     1
 40
1.0
176
     1
 90
        0
176
     1
 62
    18
420
        0
176
     1
 90
       50
176
     1
 90
        3
176
     1
 62
     5
420
      255
176
     1
290
     0
176
     1
 90
       50
176
     1
 90
       50
176
     1
 90
       50
176
     1
290
     0
176
     1
 90
       50
176
     1
 62
   256
176
     0
 40
1.0
176
     0
 90
        2
176
     1
  1
strokes_ogs.tif
176
     1
290
     0
176
     1
 40
1.0
176
     1
 40
1.0
176
     1
  0
DICTIONARYVAR
  5
178
102
{ACAD_REACTORS
330
177
102
}
330
177
100
DictionaryVariables
280
     0
  1
1:1
  0
DICTIONARYVAR
  5
17D
102
{ACAD_REACTORS
330
177
102
}
330
177
100
DictionaryVariables
280
     0
  1
Standard
  0
DICTIONARYVAR
  5
17C
102
{ACAD_REACTORS
330
177
102
}
330
177
100
DictionaryVariables
280
     0
  1
Standard
  0
DICTIONARY
  5
179
330
6A
100
AcDbDictionary
280
     1
281
     1
  3
ACAD_ROUNDTRIP_2008_TABLESTYLE_CELLSTYLEMAP
360
17A
  0
CELLSTYLEMAP
  5
17A
102
{ACAD_REACTORS
330
179
102
}
330
179
100
AcDbCellStyleMap
 90
        3
300
CELLSTYLE
  1
TABLEFORMAT_BEGIN
 90
        5
170
     1
 91
        0
 92
    32768
 62
   257
 93
        1
300
CONTENTFORMAT
  1
CONTENTFORMAT_BEGIN
 90
        0
 91
        0
 92
        4
 93
        0
300

 40
0.0
140
1.0
 94
        5
 62
     0
340
11
144
0.25
309
CONTENTFORMAT_END
171
     1
301
MARGIN
  1
CELLMARGIN_BEGIN
 40
0.06
 40
0.06
 40
0.06
 40
0.06
 40
0.06
 40
0.06
309
CELLMARGIN_END
 94
        6
 95
        1
302
GRIDFORMAT
  1
GRIDFORMAT_BEGIN
 90
        0
 91
        1
 62
     0
 92
       -2
340
14
 93
        0
 40
0.045
309
GRIDFORMAT_END
 95
        2
302
GRIDFORMAT
  1
GRIDFORMAT_BEGIN
 90
        0
 91
        1
 62
     0
 92
       -2
340
14
 93
        0
 40
0.045
309
GRIDFORMAT_END
 95
        4
302
GRIDFORMAT
  1
GRIDFORMAT_BEGIN
 90
        0
 91
        1
 62
     0
 92
       -2
340
14
 93
        0
 40
0.045
309
GRIDFORMAT_END
 95
        8
302
GRIDFORMAT
  1
GRIDFORMAT_BEGIN
 90
        0
 91
        1
 62
     0
 92
       -2
340
14
 93
        0
 40
0.045
309
GRIDFORMAT_END
 95
       16
302
GRIDFORMAT
  1
GRIDFORMAT_BEGIN
 90
        0
 91
        1
 62
     0
 92
       -2
340
14
 93
        0
 40
0.045
309
GRIDFORMAT_END
 95
       32
302
GRIDFORMAT
  1
GRIDFORMAT_BEGIN
 90
        0
 91
        1
 62
     0
 92
       -2
340
14
 93
        0
 40
0.045
309
GRIDFORMAT_END
309
TABLEFORMAT_END
  1
CELLSTYLE_BEGIN
 90
        1
 91
        1
300
_TITLE
309
CELLSTYLE_END
300
CELLSTYLE
  1
TABLEFORMAT_BEGIN
 90
        5
170
     1
 91
        0
 92
        0
 62
   257
 93
        1
300
CONTENTFORMAT
  1
CONTENTFORMAT_BEGIN
 90
        0
 91
        0
 92
        4
 93
        0
300

 40
0.0
140
1.0
 94
        5
 62
     0
340
11
144
0.18
309
CONTENTFORMAT_END
171
     1
301
MARGIN
  1
CELLMARGIN_BEGIN
 40
0.06
 40
0.06
 40
0.06
 40
0.06
 40
0.06
 40
0.06
309
CELLMARGIN_END
 94
        6
 95
        1
302
GRIDFORMAT
  1
GRIDFORMAT_BEGIN
 90
        0
 91
        1
 62
     0
 92
       -2
340
14
 93
        0
 40
0.045
309
GRIDFORMAT_END
 95
        2
302
GRIDFORMAT
  1
GRIDFORMAT_BEGIN
 90
        0
 91
        1
 62
     0
 92
       -2
340
14
 93
        0
 40
0.045
309
GRIDFORMAT_END
 95
        4
302
GRIDFORMAT
  1
GRIDFORMAT_BEGIN
 90
        0
 91
        1
 62
     0
 92
       -2
340
14
 93
        0
 40
0.045
309
GRIDFORMAT_END
 95
        8
302
GRIDFORMAT
  1
GRIDFORMAT_BEGIN
 90
        0
 91
        1
 62
     0
 92
       -2
340
14
 93
        0
 40
0.045
309
GRIDFORMAT_END
 95
       16
302
GRIDFORMAT
  1
GRIDFORMAT_BEGIN
 90
        0
 91
        1
 62
     0
 92
       -2
340
14
 93
        0
 40
0.045
309
GRIDFORMAT_END
 95
       32
302
GRIDFORMAT
  1
GRIDFORMAT_BEGIN
 90
        0
 91
        1
 62
     0
 92
       -2
340
14
 93
        0
 40
0.045
309
GRIDFORMAT_END
309
TABLEFORMAT_END
  1
CELLSTYLE_BEGIN
 90
        2
 91
        1
300
_HEADER
309
CELLSTYLE_END
300
CELLSTYLE
  1
TABLEFORMAT_BEGIN
 90
        5
170
     1
 91
        0
 92
        0
 62
   257
 93
        1
300
CONTENTFORMAT
  1
CONTENTFORMAT_BEGIN
 90
        0
 91
        0
 92
        4
 93
        0
300

 40
0.0
140
1.0
 94
        2
 62
     0
340
11
144
0.18
309
CONTENTFORMAT_END
171
     1
301
MARGIN
  1
CELLMARGIN_BEGIN
 40
0.06
 40
0.06
 40
0.06
 40
0.06
 40
0.06
 40
0.06
309
CELLMARGIN_END
 94
        6
 95
        1
302
GRIDFORMAT
  1
GRIDFORMAT_BEGIN
 90
        0
 91
        1
 62
     0
 92
       -2
340
14
 93
        0
 40
0.045
309
GRIDFORMAT_END
 95
        2
302
GRIDFORMAT
  1
GRIDFORMAT_BEGIN
 90
        0
 91
        1
 62
     0
 92
       -2
340
14
 93
        0
 40
0.045
309
GRIDFORMAT_END
 95
        4
302
GRIDFORMAT
  1
GRIDFORMAT_BEGIN
 90
        0
 91
        1
 62
     0
 92
       -2
340
14
 93
        0
 40
0.045
309
GRIDFORMAT_END
 95
        8
302
GRIDFORMAT
  1
GRIDFORMAT_BEGIN
 90
        0
 91
        1
 62
     0
 92
       -2
340
14
 93
        0
 40
0.045
309
GRIDFORMAT_END
 95
       16
302
GRIDFORMAT
  1
GRIDFORMAT_BEGIN
 90
        0
 91
        1
 62
     0
 92
       -2
340
14
 93
        0
 40
0.045
309
GRIDFORMAT_END
 95
       32
302
GRIDFORMAT
  1
GRIDFORMAT_BEGIN
 90
        0
 91
        1
 62
     0
 92
       -2
340
14
 93
        0
 40
0.045
309
GRIDFORMAT_END
309
TABLEFORMAT_END
  1
CELLSTYLE_BEGIN
 90
        3
 91
        2
300
_DATA
309
CELLSTYLE_END
  0
ENDSEC
  0
EOF