0
SECTION
  2
HEADER
  9
$ACADVER
  1
AC1027
  9
$ACADMAINTVER
 70
     8
  9
$DWGCODEPAGE
  3
ANSI_1252
  9
$REQUIREDVERSIONS
160
                 0
  9
$COMMENTS
  1
File was created by Cadenas
  9
$CUSTOMPROPERTYTAG
  1
NN
  9
$CUSTOMPROPERTY
  1
UNISPHERE ll Flange Bearing - Inch 4-Bolt Non-Expansion
  9
$CUSTOMPROPERTYTAG
  1
NT
  9
$CUSTOMPROPERTY
  1
Unisphere II
  9
$CUSTOMPROPERTYTAG
  1
NB
  9
$CUSTOMPROPERTY
  1
048054
  9
$CUSTOMPROPERTYTAG
  1
NBSYN
  9
$CUSTOMPROPERTY
  1
$PN.
  9
$CUSTOMPROPERTYTAG
  1
LINA
  9
$CUSTOMPROPERTY
  1
048054
  9
$CUSTOMPROPERTYTAG
  1
SS
  9
$CUSTOMPROPERTY
  1
1-3/4
  9
$CUSTOMPROPERTYTAG
  1
TYPE
  9
$CUSTOMPROPERTY
  1
Expansion Type
  9
$CUSTOMPROPERTYTAG
  1
PN
  9
$CUSTOMPROPERTY
  1
048054
  9
$CUSTOMPROPERTYTAG
  1
DESCRIPTION
  9
$CUSTOMPROPERTY
  1
F4B-UN2-112E
  9
$CUSTOMPROPERTYTAG
  1
WEIGHT
  9
$CUSTOMPROPERTY
  1
6.7
  9
$CUSTOMPROPERTYTAG
  1
A
  9
$CUSTOMPROPERTY
  1
1-29/32
  9
$CUSTOMPROPERTYTAG
  1
B
  9
$CUSTOMPROPERTY
  1
5-1/8
  9
$CUSTOMPROPERTYTAG
  1
C
  9
$CUSTOMPROPERTY
  1
2-5/32
  9
$CUSTOMPROPERTYTAG
  1
D
  9
$CUSTOMPROPERTY
  1
3-29/32
  9
$CUSTOMPROPERTYTAG
  1
F
  9
$CUSTOMPROPERTY
  1
1/2
  9
$CUSTOMPROPERTYTAG
  1
H
  9
$CUSTOMPROPERTY
  1
3/4
  9
$CUSTOMPROPERTYTAG
  1
J
  9
$CUSTOMPROPERTY
  1
23/32
  9
$CUSTOMPROPERTYTAG
  1
K
  9
$CUSTOMPROPERTY
  1
5-1/2
  9
$CUSTOMPROPERTYTAG
  1
L
  9
$CUSTOMPROPERTY
  1
3
  9
$CUSTOMPROPERTYTAG
  1
M
  9
$CUSTOMPROPERTY
  1
5/32
  9
$CUSTOMPROPERTYTAG
  1
N
  9
$CUSTOMPROPERTY
  1
2-3/4
  9
$CUSTOMPROPERTYTAG
  1
MRPM
  9
$CUSTOMPROPERTY
  1
2800
  9
$CUSTOMPROPERTYTAG
  1
CS
  9
$CUSTOMPROPERTY
  1
23600
  9
$CUSTOMPROPERTYTAG
  1
CD
  9
$CUSTOMPROPERTY
  1
20800
  9
$CUSTOMPROPERTYTAG
  1
RN
  9
$CUSTOMPROPERTY
  1
17
  9
$CUSTOMPROPERTYTAG
  1
RM
  9
$CUSTOMPROPERTY
  1
0.4291
  9
$CUSTOMPROPERTYTAG
  1
PD
  9
$CUSTOMPROPERTY
  1
2.665
  9
$CUSTOMPROPERTYTAG
  1
RC
  9
$CUSTOMPROPERTY
  1
0.0014-0.0022
  9
$CUSTOMPROPERTYTAG
  1
CSS
  9
$CUSTOMPROPERTY
  1
5/16-18x5/8
  9
$CUSTOMPROPERTYTAG
  1
CST
  9
$CUSTOMPROPERTY
  1
165
  9
$CUSTOMPROPERTYTAG
  1
MH
  9
$CUSTOMPROPERTY
  1
C.I. ASTM A48 CLASS 30
  9
$CUSTOMPROPERTYTAG
  1
MIR
  9
$CUSTOMPROPERTY
  1
4118 Case Carb.
  9
$CUSTOMPROPERTYTAG
  1
MOR
  9
$CUSTOMPROPERTY
  1
E52100 Steel
  9
$CUSTOMPROPERTYTAG
  1
MR
  9
$CUSTOMPROPERTY
  1
Polyamide
  9
$CUSTOMPROPERTYTAG
  1
MRO
  9
$CUSTOMPROPERTY
  1
E52100 Steel
  9
$CUSTOMPROPERTYTAG
  1
SM
  9
$CUSTOMPROPERTY
  1
2°
  9
$CUSTOMPROPERTYTAG
  1
COMPANY
  9
$CUSTOMPROPERTY
  1
baldor
  9
$INSBASE
 10
0.0
 20
0.0
 30
0.0
  9
$EXTMIN
 10
1.000000000000000E+20
 20
1.000000000000000E+20
 30
1.000000000000000E+20
  9
$EXTMAX
 10
-1.000000000000000E+20
 20
-1.000000000000000E+20
 30
-1.000000000000000E+20
  9
$LIMMIN
 10
0.0
 20
0.0
  9
$LIMMAX
 10
12.0
 20
9.0
  9
$ORTHOMODE
 70
     0
  9
$REGENMODE
 70
     1
  9
$FILLMODE
 70
     1
  9
$QTEXTMODE
 70
     0
  9
$MIRRTEXT
 70
     1
  9
$LTSCALE
 40
1.0
  9
$ATTMODE
 70
     1
  9
$TEXTSIZE
 40
0.2
  9
$TRACEWID
 40
0.05
  9
$TEXTSTYLE
  7
Standard
  9
$CLAYER
  8
0
  9
$CELTYPE
  6
ByLayer
  9
$CECOLOR
 62
   256
  9
$CELTSCALE
 40
1.0
  9
$DISPSILH
 70
     0
  9
$DIMSCALE
 40
1.0
  9
$DIMASZ
 40
0.18
  9
$DIMEXO
 40
0.0625
  9
$DIMDLI
 40
0.38
  9
$DIMRND
 40
0.0
  9
$DIMDLE
 40
0.0
  9
$DIMEXE
 40
0.18
  9
$DIMTP
 40
0.0
  9
$DIMTM
 40
0.0
  9
$DIMTXT
 40
0.18
  9
$DIMCEN
 40
0.09
  9
$DIMTSZ
 40
0.0
  9
$DIMTOL
 70
     0
  9
$DIMLIM
 70
     0
  9
$DIMTIH
 70
     1
  9
$DIMTOH
 70
     1
  9
$DIMSE1
 70
     0
  9
$DIMSE2
 70
     0
  9
$DIMTAD
 70
     0
  9
$DIMZIN
 70
     0
  9
$DIMBLK
  1

  9
$DIMASO
 70
     1
  9
$DIMSHO
 70
     1
  9
$DIMPOST
  1

  9
$DIMAPOST
  1

  9
$DIMALT
 70
     0
  9
$DIMALTD
 70
     2
  9
$DIMALTF
 40
25.4
  9
$DIMLFAC
 40
1.0
  9
$DIMTOFL
 70
     0
  9
$DIMTVP
 40
0.0
  9
$DIMTIX
 70
     0
  9
$DIMSOXD
 70
     0
  9
$DIMSAH
 70
     0
  9
$DIMBLK1
  1

  9
$DIMBLK2
  1

  9
$DIMSTYLE
  2
Standard
  9
$DIMCLRD
 70
     0
  9
$DIMCLRE
 70
     0
  9
$DIMCLRT
 70
     0
  9
$DIMTFAC
 40
1.0
  9
$DIMGAP
 40
0.09
  9
$DIMJUST
 70
     0
  9
$DIMSD1
 70
     0
  9
$DIMSD2
 70
     0
  9
$DIMTOLJ
 70
     1
  9
$DIMTZIN
 70
     0
  9
$DIMALTZ
 70
     0
  9
$DIMALTTZ
 70
     0
  9
$DIMUPT
 70
     0
  9
$DIMDEC
 70
     4
  9
$DIMTDEC
 70
     4
  9
$DIMALTU
 70
     2
  9
$DIMALTTD
 70
     2
  9
$DIMTXSTY
  7
Standard
  9
$DIMAUNIT
 70
     0
  9
$DIMADEC
 70
     0
  9
$DIMALTRND
 40
0.0
  9
$DIMAZIN
 70
     0
  9
$DIMDSEP
 70
    46
  9
$DIMATFIT
 70
     3
  9
$DIMFRAC
 70
     0
  9
$DIMLDRBLK
  1

  9
$DIMLUNIT
 70
     2
  9
$DIMLWD
 70
    -2
  9
$DIMLWE
 70
    -2
  9
$DIMTMOVE
 70
     0
  9
$DIMFXL
 40
1.0
  9
$DIMFXLON
 70
     0
  9
$DIMJOGANG
 40
0.7853981633974483
  9
$DIMTFILL
 70
     0
  9
$DIMTFILLCLR
 70
     0
  9
$DIMARCSYM
 70
     0
  9
$DIMLTYPE
  6

  9
$DIMLTEX1
  6

  9
$DIMLTEX2
  6

  9
$DIMTXTDIRECTION
 70
     0
  9
$LUNITS
 70
     2
  9
$LUPREC
 70
     4
  9
$SKETCHINC
 40
0.1
  9
$FILLETRAD
 40
0.5
  9
$AUNITS
 70
     0
  9
$AUPREC
 70
     0
  9
$MENU
  1
.
  9
$ELEVATION
 40
0.0
  9
$PELEVATION
 40
0.0
  9
$THICKNESS
 40
0.0
  9
$LIMCHECK
 70
     0
  9
$CHAMFERA
 40
0.0
  9
$CHAMFERB
 40
0.0
  9
$CHAMFERC
 40
0.0
  9
$CHAMFERD
 40
0.0
  9
$SKPOLY
 70
     0
  9
$TDCREATE
 40
2458169.003277673
  9
$TDUCREATE
 40
2458168.961611007
  9
$TDUPDATE
 40
2458169.003277673
  9
$TDUUPDATE
 40
2458168.961611007
  9
$TDINDWG
 40
0.0000000116
  9
$TDUSRTIMER
 40
0.0000000116
  9
$USRTIMER
 70
     1
  9
$ANGBASE
 50
0.0
  9
$ANGDIR
 70
     0
  9
$PDMODE
 70
     0
  9
$PDSIZE
 40
0.0
  9
$PLINEWID
 40
0.0
  9
$SPLFRAME
 70
     0
  9
$SPLINETYPE
 70
     6
  9
$SPLINESEGS
 70
     8
  9
$HANDSEED
  5
162
  9
$SURFTAB1
 70
     6
  9
$SURFTAB2
 70
     6
  9
$SURFTYPE
 70
     6
  9
$SURFU
 70
     6
  9
$SURFV
 70
     6
  9
$UCSBASE
  2

  9
$UCSNAME
  2

  9
$UCSORG
 10
0.0
 20
0.0
 30
0.0
  9
$UCSXDIR
 10
1.0
 20
0.0
 30
0.0
  9
$UCSYDIR
 10
0.0
 20
1.0
 30
0.0
  9
$UCSORTHOREF
  2

  9
$UCSORTHOVIEW
 70
     0
  9
$UCSORGTOP
 10
0.0
 20
0.0
 30
0.0
  9
$UCSORGBOTTOM
 10
0.0
 20
0.0
 30
0.0
  9
$UCSORGLEFT
 10
0.0
 20
0.0
 30
0.0
  9
$UCSORGRIGHT
 10
0.0
 20
0.0
 30
0.0
  9
$UCSORGFRONT
 10
0.0
 20
0.0
 30
0.0
  9
$UCSORGBACK
 10
0.0
 20
0.0
 30
0.0
  9
$PUCSBASE
  2

  9
$PUCSNAME
  2

  9
$PUCSORG
 10
0.0
 20
0.0
 30
0.0
  9
$PUCSXDIR
 10
1.0
 20
0.0
 30
0.0
  9
$PUCSYDIR
 10
0.0
 20
1.0
 30
0.0
  9
$PUCSORTHOREF
  2

  9
$PUCSORTHOVIEW
 70
     0
  9
$PUCSORGTOP
 10
0.0
 20
0.0
 30
0.0
  9
$PUCSORGBOTTOM
 10
0.0
 20
0.0
 30
0.0
  9
$PUCSORGLEFT
 10
0.0
 20
0.0
 30
0.0
  9
$PUCSORGRIGHT
 10
0.0
 20
0.0
 30
0.0
  9
$PUCSORGFRONT
 10
0.0
 20
0.0
 30
0.0
  9
$PUCSORGBACK
 10
0.0
 20
0.0
 30
0.0
  9
$USERI1
 70
     0
  9
$USERI2
 70
     0
  9
$USERI3
 70
     0
  9
$USERI4
 70
     0
  9
$USERI5
 70
     0
  9
$USERR1
 40
0.0
  9
$USERR2
 40
0.0
  9
$USERR3
 40
0.0
  9
$USERR4
 40
0.0
  9
$USERR5
 40
0.0
  9
$WORLDVIEW
 70
     1
  9
$SHADEDGE
 70
     3
  9
$SHADEDIF
 70
    70
  9
$TILEMODE
 70
     1
  9
$MAXACTVP
 70
    64
  9
$PINSBASE
 10
0.0
 20
0.0
 30
0.0
  9
$PLIMCHECK
 70
     0
  9
$PEXTMIN
 10
1.000000000000000E+20
 20
1.000000000000000E+20
 30
1.000000000000000E+20
  9
$PEXTMAX
 10
-1.000000000000000E+20
 20
-1.000000000000000E+20
 30
-1.000000000000000E+20
  9
$PLIMMIN
 10
0.0
 20
0.0
  9
$PLIMMAX
 10
12.0
 20
9.0
  9
$UNITMODE
 70
     0
  9
$VISRETAIN
 70
     1
  9
$PLINEGEN
 70
     0
  9
$PSLTSCALE
 70
     1
  9
$TREEDEPTH
 70
  3020
  9
$CMLSTYLE
  2
Standard
  9
$CMLJUST
 70
     0
  9
$CMLSCALE
 40
1.0
  9
$PROXYGRAPHICS
 70
     1
  9
$MEASUREMENT
 70
     0
  9
$CELWEIGHT
370
    -1
  9
$ENDCAPS
280
     0
  9
$JOINSTYLE
280
     0
  9
$LWDISPLAY
290
     0
  9
$INSUNITS
 70
     1
  9
$HYPERLINKBASE
  1

  9
$STYLESHEET
  1

  9
$XEDIT
290
     1
  9
$CEPSNTYPE
380
     0
  9
$PSTYLEMODE
290
     1
  9
$FINGERPRINTGUID
  2
{0FF6B9D8-AEA5-4C41-82B9-8DC9139B6831}
  9
$VERSIONGUID
  2
{FAEB1C32-E019-11D5-929B-00C0DF256EC4}
  9
$EXTNAMES
290
     1
  9
$PSVPSCALE
 40
0.0
  9
$OLESTARTUP
290
     0
  9
$SORTENTS
280
   127
  9
$INDEXCTL
280
     0
  9
$HIDETEXT
280
     1
  9
$XCLIPFRAME
280
     2
  9
$HALOGAP
280
     0
  9
$OBSCOLOR
 70
   257
  9
$OBSLTYPE
280
     0
  9
$INTERSECTIONDISPLAY
280
     0
  9
$INTERSECTIONCOLOR
 70
   257
  9
$DIMASSOC
280
     2
  9
$PROJECTNAME
  1

  9
$CAMERADISPLAY
290
     0
  9
$LENSLENGTH
 40
50.0
  9
$CAMERAHEIGHT
 40
0.0
  9
$STEPSPERSEC
 40
2.0
  9
$STEPSIZE
 40
6.0
  9
$3DDWFPREC
 40
2.0
  9
$PSOLWIDTH
 40
0.25
  9
$PSOLHEIGHT
 40
4.0
  9
$LOFTANG1
 40
1.570796326794897
  9
$LOFTANG2
 40
1.570796326794897
  9
$LOFTMAG1
 40
0.0
  9
$LOFTMAG2
 40
0.0
  9
$LOFTPARAM
 70
     7
  9
$LOFTNORMALS
280
     1
  9
$LATITUDE
 40
37.795
  9
$LONGITUDE
 40
-122.394
  9
$NORTHDIRECTION
 40
0.0
  9
$TIMEZONE
 70
 -8000
  9
$LIGHTGLYPHDISPLAY
280
     1
  9
$TILEMODELIGHTSYNCH
280
     1
  9
$CMATERIAL
347
44
  9
$SOLIDHIST
280
     0
  9
$SHOWHIST
280
     1
  9
$DWFFRAME
280
     2
  9
$DGNFRAME
280
     2
  9
$REALWORLDSCALE
290
     1
  9
$INTERFERECOLOR
 62
   256
  9
$CSHADOW
280
     0
  9
$SHADOWPLANELOCATION
 40
0.0
  0
ENDSEC
  0
SECTION
  2
CLASSES
  0
CLASS
  1
ACDBDICTIONARYWDFLT
  2
AcDbDictionaryWithDefault
  3
ObjectDBX Classes
 90
        0
 91
        4
280
     0
281
     0
  0
CLASS
  1
VISUALSTYLE
  2
AcDbVisualStyle
  3
ObjectDBX Classes
 90
     4095
 91
        4
280
     0
281
     0
  0
CLASS
  1
MATERIAL
  2
AcDbMaterial
  3
ObjectDBX Classes
 90
     1153
 91
        4
280
     0
281
     0
  0
CLASS
  1
SCALE
  2
AcDbScale
  3
ObjectDBX Classes
 90
     1153
 91
        4
280
     0
281
     0
  0
CLASS
  1
TABLESTYLE
  2
AcDbTableStyle
  3
ObjectDBX Classes
 90
     4095
 91
        4
280
     0
281
     0
  0
CLASS
  1
MLEADERSTYLE
  2
AcDbMLeaderStyle
  3
ACDB_MLEADERSTYLE_CLASS
 90
     4095
 91
        4
280
     0
281
     0
  0
CLASS
  1
SUN
  2
AcDbSun
  3
SCENEOE
 90
     1153
 91
        4
280
     0
281
     0
  0
CLASS
  1
DICTIONARYVAR
  2
AcDbDictionaryVar
  3
ObjectDBX Classes
 90
        0
 91
        4
280
     0
281
     0
  0
CLASS
  1
CELLSTYLEMAP
  2
AcDbCellStyleMap
  3
ObjectDBX Classes
 90
     1152
 91
        4
280
     0
281
     0
  0
ENDSEC
  0
SECTION
  2
TABLES
  0
TABLE
  2
VPORT
  5
8
330
0
100
AcDbSymbolTable
 70
     1
  0
VPORT
  5
29
330
8
100
AcDbSymbolTableRecord
100
AcDbViewportTableRecord
  2
*Active
 70
     0
 10
0.0
 20
0.0
 11
1.0
 21
1.0
 12
0.0
 22
-1.078125
 13
0.0
 23
0.0
 14
0.5
 24
0.5
 15
0.5
 25
0.5
 16
0.0
 26
0.0
 36
1.0
 17
0.0
 27
0.0
 37
0.0
 40
2.419312499999999
 41
2.160737812911727
 42
50.0
 43
0.0
 44
0.0
 50
0.0
 51
0.0
 71
     0
 72
   100
 73
     1
 74
     3
 75
     0
 76
     0
 77
     0
 78
     0
281
     0
 65
     1
110
0.0
120
0.0
130
0.0
111
1.0
121
0.0
131
0.0
112
0.0
122
1.0
132
0.0
 79
     0
146
0.0
348
2F
 60
     3
 61
     5
292
     1
282
     1
141
0.0
142
0.0
 63
   250
361
6D
  0
ENDTAB
  0
TABLE
  2
LTYPE
  5
5
330
0
100
AcDbSymbolTable
 70
     3
  0
LTYPE
  5
14
330
5
100
AcDbSymbolTableRecord
100
AcDbLinetypeTableRecord
  2
ByBlock
 70
     0
  3

 72
    65
 73
     0
 40
0.0
  0
LTYPE
  5
15
330
5
100
AcDbSymbolTableRecord
100
AcDbLinetypeTableRecord
  2
ByLayer
 70
     0
  3

 72
    65
 73
     0
 40
0.0
  0
LTYPE
  5
16
330
5
100
AcDbSymbolTableRecord
100
AcDbLinetypeTableRecord
  2
Continuous
 70
     0
  3
Solid line
 72
    65
 73
     0
 40
0.0
  0
LTYPE
  5
AA
330
5
100
AcDbSymbolTableRecord
100
AcDbLinetypeTableRecord
  2
Dashed
 70
     0
  3

 72
    65
 73
     2
 40
2.0
 49
1.0
 74
     0
 49
-1.0
 74
     0
  0
LTYPE
  5
B1
330
5
100
AcDbSymbolTableRecord
100
AcDbLinetypeTableRecord
  2
Center
 70
     0
  3

 72
    65
 73
     4
 40
1.5
 49
0.45
 74
     0
 49
-0.5
 74
     0
 49
0.05
 74
     0
 49
-0.5
 74
     0
  0
ENDTAB
  0
TABLE
  2
LAYER
  5
2
330
0
100
AcDbSymbolTable
 70
     7
  0
LAYER
  5
10
330
2
100
AcDbSymbolTableRecord
100
AcDbLayerTableRecord
  2
0
 70
     0
 62
     7
  6
Continuous
370
    -3
390
F
347
46
348
0
  0
LAYER
  5
72
330
2
100
AcDbSymbolTableRecord
100
AcDbLayerTableRecord
  2
AM_6
 70
     0
 62
    -2
  6
Continuous
370
    35
390
F
347
46
348
0
  0
LAYER
  5
AB
330
2
100
AcDbSymbolTableRecord
100
AcDbLayerTableRecord
  2
AM_9
 70
     0
 62
     6
  6
Dashed
370
    25
390
F
347
46
348
0
  0
LAYER
  5
B2
330
2
100
AcDbSymbolTableRecord
100
AcDbLayerTableRecord
  2
AM_7
 70
     0
 62
     7
  6
Center
370
    25
390
F
347
46
348
0
  0
LAYER
  5
B4
330
2
100
AcDbSymbolTableRecord
100
AcDbLayerTableRecord
  2
AM_4
 70
     0
 62
     7
  6
Continuous
370
    50
390
F
347
46
348
0
  0
LAYER
  5
106
330
2
100
AcDbSymbolTableRecord
100
AcDbLayerTableRecord
  2
AM_5
 70
     0
 62
     3
  6
Continuous
370
    25
390
F
347
46
348
0
  0
LAYER
  5
155
330
2
100
AcDbSymbolTableRecord
100
AcDbLayerTableRecord
  2
ConnectionPoints
 70
     0
 62
     7
  6
Continuous
370
    50
390
F
347
46
348
0
  0
ENDTAB
  0
TABLE
  2
STYLE
  5
3
330
0
100
AcDbSymbolTable
 70
     1
  0
STYLE
  5
11
330
3
100
AcDbSymbolTableRecord
100
AcDbTextStyleTableRecord
  2
Standard
 70
     0
 40
0.0
 41
1.0
 50
0.0
 71
     0
 42
0.2
  3
txt
  4

  0
ENDTAB
  0
TABLE
  2
VIEW
  5
6
330
0
100
AcDbSymbolTable
 70
     0
  0
ENDTAB
  0
TABLE
  2
UCS
  5
7
330
0
100
AcDbSymbolTable
 70
     0
  0
ENDTAB
  0
TABLE
  2
APPID
  5
9
330
0
100
AcDbSymbolTable
 70
     1
  0
APPID
  5
12
330
9
100
AcDbSymbolTableRecord
100
AcDbRegAppTableRecord
  2
ACAD
 70
     0
  0
ENDTAB
  0
TABLE
  2
DIMSTYLE
  5
A
330
0
100
AcDbSymbolTable
 70
     1
100
AcDbDimStyleTable
  0
DIMSTYLE
105
27
330
A
100
AcDbSymbolTableRecord
100
AcDbDimStyleTableRecord
  2
Standard
 70
     0
178
     0
340
11
  0
ENDTAB
  0
TABLE
  2
BLOCK_RECORD
  5
1
330
0
100
AcDbSymbolTable
 70
     5
  0
BLOCK_RECORD
  5
1F
330
1
100
AcDbSymbolTableRecord
100
AcDbBlockTableRecord
  2
*Model_Space
340
22
 70
     0
280
     1
281
     0
  0
BLOCK_RECORD
  5
1B
330
1
100
AcDbSymbolTableRecord
100
AcDbBlockTableRecord
  2
*Paper_Space
340
1E
 70
     0
280
     1
281
     0
  0
BLOCK_RECORD
  5
23
330
1
100
AcDbSymbolTableRecord
100
AcDbBlockTableRecord
  2
*Paper_Space0
340
26
 70
     0
280
     1
281
     0
  0
BLOCK_RECORD
  5
6E
330
1
100
AcDbSymbolTableRecord
100
AcDbBlockTableRecord
  2
1_048054_4
340
0
102
{BLKREFS
331
6F
102
}
 70
     0
280
     1
281
     0
  0
BLOCK_RECORD
  5
98
330
1
100
AcDbSymbolTableRecord
100
AcDbBlockTableRecord
  2
2_405020c_Inch_0_in_048054_4
340
0
102
{BLKREFS
331
99
102
}
 70
     0
280
     1
281
     0
  0
BLOCK_RECORD
  5
C0
330
1
100
AcDbSymbolTableRecord
100
AcDbBlockTableRecord
  2
3_421246_0_in_048054_4
340
0
102
{BLKREFS
331
C1
102
}
 70
     0
280
     1
281
     0
  0
BLOCK_RECORD
  5
108
330
1
100
AcDbSymbolTableRecord
100
AcDbBlockTableRecord
  2
4_048054B_0_in_048054_4
340
0
102
{BLKREFS
331
109
102
}
 70
     0
280
     1
281
     0
  0
ENDTAB
  0
ENDSEC
  0
SECTION
  2
BLOCKS
  0
BLOCK
  5
20
330
1F
100
AcDbEntity
  8
0
100
AcDbBlockBegin
  2
*Model_Space
 70
     0
 10
0.0
 20
0.0
 30
0.0
  3
*Model_Space
  1

  0
ENDBLK
  5
21
330
1F
100
AcDbEntity
  8
0
100
AcDbBlockEnd
  0
BLOCK
  5
1C
330
1B
100
AcDbEntity
 67
     1
  8
0
100
AcDbBlockBegin
  2
*Paper_Space
 70
     0
 10
0.0
 20
0.0
 30
0.0
  3
*Paper_Space
  1

  0
ENDBLK
  5
1D
330
1B
100
AcDbEntity
 67
     1
  8
0
100
AcDbBlockEnd
  0
BLOCK
  5
24
330
23
100
AcDbEntity
  8
0
100
AcDbBlockBegin
  2
*Paper_Space0
 70
     0
 10
0.0
 20
0.0
 30
0.0
  3
*Paper_Space0
  1

  0
ENDBLK
  5
25
330
23
100
AcDbEntity
  8
0
100
AcDbBlockEnd
  0
BLOCK
  5
70
330
6E
100
AcDbEntity
  8
0
100
AcDbBlockBegin
  2
1_048054_4
 70
     2
 10
0.0
 20
0.0
 30
0.0
  3
1_048054_4
  1

  0
ATTDEF
  5
73
330
6E
100
AcDbEntity
  8
AM_6
100
AcDbText
 10
7.5625
 20
0.1078125
 30
0.0
 40
0.5
  1
UNISPHERE ll Flange Bearing - Inch 4-Bolt Non-Expansion
100
AcDbAttributeDefinition
  3

  2
NN
 70
     8
280
     0
  0
ATTDEF
  5
74
330
6E
100
AcDbEntity
  8
AM_6
100
AcDbText
 10
7.5625
 20
-0.3921875
 30
0.0
 40
0.5
  1
Unisphere II
100
AcDbAttributeDefinition
  3

  2
NT
 70
     8
280
     0
  0
ATTDEF
  5
75
330
6E
100
AcDbEntity
  8
AM_6
100
AcDbText
 10
7.5625
 20
-0.8921875
 30
0.0
 40
0.5
  1
048054
100
AcDbAttributeDefinition
  3

  2
NB
 70
     8
280
     0
  0
ATTDEF
  5
76
330
6E
100
AcDbEntity
  8
AM_6
100
AcDbText
 10
7.5625
 20
-1.3921875
 30
0.0
 40
0.5
  1
$PN.
100
AcDbAttributeDefinition
  3

  2
NBSYN
 70
     8
280
     0
  0
ATTDEF
  5
77
330
6E
100
AcDbEntity
  8
AM_6
100
AcDbText
 10
7.5625
 20
-1.8921875
 30
0.0
 40
0.5
  1
048054
100
AcDbAttributeDefinition
  3

  2
LINA
 70
     8
280
     0
  0
ATTDEF
  5
78
330
6E
100
AcDbEntity
  8
AM_6
100
AcDbText
 10
7.5625
 20
-2.3921875
 30
0.0
 40
0.5
  1
1-3/4
100
AcDbAttributeDefinition
  3

  2
SS
 70
     8
280
     0
  0
ATTDEF
  5
79
330
6E
100
AcDbEntity
  8
AM_6
100
AcDbText
 10
7.5625
 20
-2.8921875
 30
0.0
 40
0.5
  1
Expansion Type
100
AcDbAttributeDefinition
  3

  2
TYPE
 70
     8
280
     0
  0
ATTDEF
  5
7A
330
6E
100
AcDbEntity
  8
AM_6
100
AcDbText
 10
7.5625
 20
-3.3921875
 30
0.0
 40
0.5
  1
048054
100
AcDbAttributeDefinition
  3

  2
PN
 70
     8
280
     0
  0
ATTDEF
  5
7B
330
6E
100
AcDbEntity
  8
AM_6
100
AcDbText
 10
7.5625
 20
-3.8921875
 30
0.0
 40
0.5
  1
F4B-UN2-112E
100
AcDbAttributeDefinition
  3

  2
DESCRIPTION
 70
     8
280
     0
  0
ATTDEF
  5
7C
330
6E
100
AcDbEntity
  8
AM_6
100
AcDbText
 10
7.5625
 20
-4.3921875
 30
0.0
 40
0.5
  1
6.7
100
AcDbAttributeDefinition
  3

  2
WEIGHT
 70
     8
280
     0
  0
ATTDEF
  5
7D
330
6E
100
AcDbEntity
  8
AM_6
100
AcDbText
 10
7.5625
 20
-4.8921875
 30
0.0
 40
0.5
  1
1-29/32
100
AcDbAttributeDefinition
  3

  2
A
 70
     8
280
     0
  0
ATTDEF
  5
7E
330
6E
100
AcDbEntity
  8
AM_6
100
AcDbText
 10
7.5625
 20
-5.3921875
 30
0.0
 40
0.5
  1
5-1/8
100
AcDbAttributeDefinition
  3

  2
B
 70
     8
280
     0
  0
ATTDEF
  5
7F
330
6E
100
AcDbEntity
  8
AM_6
100
AcDbText
 10
7.5625
 20
-5.8921875
 30
0.0
 40
0.5
  1
2-5/32
100
AcDbAttributeDefinition
  3

  2
C
 70
     8
280
     0
  0
ATTDEF
  5
80
330
6E
100
AcDbEntity
  8
AM_6
100
AcDbText
 10
7.5625
 20
-6.3921875
 30
0.0
 40
0.5
  1
3-29/32
100
AcDbAttributeDefinition
  3

  2
D
 70
     8
280
     0
  0
ATTDEF
  5
81
330
6E
100
AcDbEntity
  8
AM_6
100
AcDbText
 10
7.5625
 20
-6.8921875
 30
0.0
 40
0.5
  1
1/2
100
AcDbAttributeDefinition
  3

  2
F
 70
     8
280
     0
  0
ATTDEF
  5
82
330
6E
100
AcDbEntity
  8
AM_6
100
AcDbText
 10
7.5625
 20
-7.3921875
 30
0.0
 40
0.5
  1
3/4
100
AcDbAttributeDefinition
  3

  2
H
 70
     8
280
     0
  0
ATTDEF
  5
83
330
6E
100
AcDbEntity
  8
AM_6
100
AcDbText
 10
7.5625
 20
-7.8921875
 30
0.0
 40
0.5
  1
23/32
100
AcDbAttributeDefinition
  3

  2
J
 70
     8
280
     0
  0
ATTDEF
  5
84
330
6E
100
AcDbEntity
  8
AM_6
100
AcDbText
 10
7.5625
 20
-8.3921875
 30
0.0
 40
0.5
  1
5-1/2
100
AcDbAttributeDefinition
  3

  2
K
 70
     8
280
     0
  0
ATTDEF
  5
85
330
6E
100
AcDbEntity
  8
AM_6
100
AcDbText
 10
7.5625
 20
-8.8921875
 30
0.0
 40
0.5
  1
3
100
AcDbAttributeDefinition
  3

  2
L
 70
     8
280
     0
  0
ATTDEF
  5
86
330
6E
100
AcDbEntity
  8
AM_6
100
AcDbText
 10
7.5625
 20
-9.3921875
 30
0.0
 40
0.5
  1
5/32
100
AcDbAttributeDefinition
  3

  2
M
 70
     8
280
     0
  0
ATTDEF
  5
87
330
6E
100
AcDbEntity
  8
AM_6
100
AcDbText
 10
7.5625
 20
-9.8921875
 30
0.0
 40
0.5
  1
2-3/4
100
AcDbAttributeDefinition
  3

  2
N
 70
     8
280
     0
  0
ATTDEF
  5
88
330
6E
100
AcDbEntity
  8
AM_6
100
AcDbText
 10
7.5625
 20
-10.3921875
 30
0.0
 40
0.5
  1
2800
100
AcDbAttributeDefinition
  3

  2
MRPM
 70
     8
280
     0
  0
ATTDEF
  5
89
330
6E
100
AcDbEntity
  8
AM_6
100
AcDbText
 10
7.5625
 20
-10.8921875
 30
0.0
 40
0.5
  1
23600
100
AcDbAttributeDefinition
  3

  2
CS
 70
     8
280
     0
  0
ATTDEF
  5
8A
330
6E
100
AcDbEntity
  8
AM_6
100
AcDbText
 10
7.5625
 20
-11.3921875
 30
0.0
 40
0.5
  1
20800
100
AcDbAttributeDefinition
  3

  2
CD
 70
     8
280
     0
  0
ATTDEF
  5
8B
330
6E
100
AcDbEntity
  8
AM_6
100
AcDbText
 10
7.5625
 20
-11.8921875
 30
0.0
 40
0.5
  1
17
100
AcDbAttributeDefinition
  3

  2
RN
 70
     8
280
     0
  0
ATTDEF
  5
8C
330
6E
100
AcDbEntity
  8
AM_6
100
AcDbText
 10
7.5625
 20
-12.3921875
 30
0.0
 40
0.5
  1
0.4291
100
AcDbAttributeDefinition
  3

  2
RM
 70
     8
280
     0
  0
ATTDEF
  5
8D
330
6E
100
AcDbEntity
  8
AM_6
100
AcDbText
 10
7.5625
 20
-12.8921875
 30
0.0
 40
0.5
  1
2.665
100
AcDbAttributeDefinition
  3

  2
PD
 70
     8
280
     0
  0
ATTDEF
  5
8E
330
6E
100
AcDbEntity
  8
AM_6
100
AcDbText
 10
7.5625
 20
-13.3921875
 30
0.0
 40
0.5
  1
0.0014-0.0022
100
AcDbAttributeDefinition
  3

  2
RC
 70
     8
280
     0
  0
ATTDEF
  5
8F
330
6E
100
AcDbEntity
  8
AM_6
100
AcDbText
 10
7.5625
 20
-13.8921875
 30
0.0
 40
0.5
  1
5/16-18x5/8
100
AcDbAttributeDefinition
  3

  2
CSS
 70
     8
280
     0
  0
ATTDEF
  5
90
330
6E
100
AcDbEntity
  8
AM_6
100
AcDbText
 10
7.5625
 20
-14.3921875
 30
0.0
 40
0.5
  1
165
100
AcDbAttributeDefinition
  3

  2
CST
 70
     8
280
     0
  0
ATTDEF
  5
91
330
6E
100
AcDbEntity
  8
AM_6
100
AcDbText
 10
7.5625
 20
-14.8921875
 30
0.0
 40
0.5
  1
C.I. ASTM A48 CLASS 30
100
AcDbAttributeDefinition
  3

  2
MH
 70
     8
280
     0
  0
ATTDEF
  5
92
330
6E
100
AcDbEntity
  8
AM_6
100
AcDbText
 10
7.5625
 20
-15.3921875
 30
0.0
 40
0.5
  1
4118 Case Carb.
100
AcDbAttributeDefinition
  3

  2
MIR
 70
     8
280
     0
  0
ATTDEF
  5
93
330
6E
100
AcDbEntity
  8
AM_6
100
AcDbText
 10
7.5625
 20
-15.8921875
 30
0.0
 40
0.5
  1
E52100 Steel
100
AcDbAttributeDefinition
  3

  2
MOR
 70
     8
280
     0
  0
ATTDEF
  5
94
330
6E
100
AcDbEntity
  8
AM_6
100
AcDbText
 10
7.5625
 20
-16.3921875
 30
0.0
 40
0.5
  1
Polyamide
100
AcDbAttributeDefinition
  3

  2
MR
 70
     8
280
     0
  0
ATTDEF
  5
95
330
6E
100
AcDbEntity
  8
AM_6
100
AcDbText
 10
7.5625
 20
-16.8921875
 30
0.0
 40
0.5
  1
E52100 Steel
100
AcDbAttributeDefinition
  3

  2
MRO
 70
     8
280
     0
  0
ATTDEF
  5
96
330
6E
100
AcDbEntity
  8
AM_6
100
AcDbText
 10
7.5625
 20
-17.3921875
 30
0.0
 40
0.5
  1
2°
100
AcDbAttributeDefinition
  3

  2
SM
 70
     8
280
     0
  0
ATTDEF
  5
97
330
6E
100
AcDbEntity
  8
AM_6
100
AcDbText
 10
7.5625
 20
-17.8921875
 30
0.0
 40
0.5
  1
baldor
100
AcDbAttributeDefinition
  3

  2
COMPANY
 70
     8
280
     0
  0
INSERT
  5
99
330
6E
100
AcDbEntity
  8
0
100
AcDbBlockReference
  2
2_405020c_Inch_0_in_048054_4
 10
0.0
 20
0.0
 30
0.0
  0
INSERT
  5
C1
330
6E
100
AcDbEntity
  8
0
100
AcDbBlockReference
  2
3_421246_0_in_048054_4
 10
0.0
 20
0.0
 30
0.0
  0
INSERT
  5
109
330
6E
100
AcDbEntity
  8
0
100
AcDbBlockReference
  2
4_048054B_0_in_048054_4
 10
0.0
 20
0.0
 30
0.0
  0
ENDBLK
  5
71
330
6E
100
AcDbEntity
  8
0
100
AcDbBlockEnd
  0
BLOCK
  5
9A
330
98
100
AcDbEntity
  8
0
100
AcDbBlockBegin
  2
2_405020c_Inch_0_in_048054_4
 70
     2
 10
0.0
 20
0.0
 30
0.0
  3
2_405020c_Inch_0_in_048054_4
  1

  0
ATTDEF
  5
9C
330
98
100
AcDbEntity
  8
AM_6
100
AcDbText
 10
5.1476825
 20
-0.2125913692769581
 30
0.0
 40
0.5
  1
405020C -Inch
100
AcDbAttributeDefinition
  3

  2
NN
 70
     8
280
     0
  0
ATTDEF
  5
9D
330
98
100
AcDbEntity
  8
AM_6
100
AcDbText
 10
5.1476825
 20
-0.7125913692769581
 30
0.0
 40
0.5
  1
Grease fitting
100
AcDbAttributeDefinition
  3

  2
NT
 70
     8
280
     0
  0
ATTDEF
  5
9E
330
98
100
AcDbEntity
  8
AM_6
100
AcDbText
 10
5.1476825
 20
-1.212591369276958
 30
0.0
 40
0.5
  1
405020c-Inch
100
AcDbAttributeDefinition
  3

  2
NB
 70
     8
280
     0
  0
ATTDEF
  5
9F
330
98
100
AcDbEntity
  8
AM_6
100
AcDbText
 10
5.1476825
 20
-1.712591369276958
 30
0.0
 40
0.5
  1
$MN.-Inch
100
AcDbAttributeDefinition
  3

  2
NBSYN
 70
     8
280
     0
  0
ATTDEF
  5
A0
330
98
100
AcDbEntity
  8
AM_6
100
AcDbText
 10
5.1476825
 20
-2.212591369276958
 30
0.0
 40
0.5
  1
405020c
100
AcDbAttributeDefinition
  3

  2
LINA
 70
     8
280
     0
  0
ATTDEF
  5
A1
330
98
100
AcDbEntity
  8
AM_6
100
AcDbText
 10
5.1476825
 20
-2.712591369276958
 30
0.0
 40
0.5
  1
405020c
100
AcDbAttributeDefinition
  3

  2
MN
 70
     8
280
     0
  0
ATTDEF
  5
A2
330
98
100
AcDbEntity
  8
AM_6
100
AcDbText
 10
5.1476825
 20
-3.212591369276958
 30
0.0
 40
0.5
  1
0.230
100
AcDbAttributeDefinition
  3

  2
NDR
 70
     8
280
     0
  0
ATTDEF
  5
A3
330
98
100
AcDbEntity
  8
AM_6
100
AcDbText
 10
5.1476825
 20
-3.712591369276958
 30
0.0
 40
0.5
  1
0.210
100
AcDbAttributeDefinition
  3

  2
KDR
 70
     8
280
     0
  0
ATTDEF
  5
A4
330
98
100
AcDbEntity
  8
AM_6
100
AcDbText
 10
5.1476825
 20
-4.212591369276958
 30
0.0
 40
0.5
  1
0.157
100
AcDbAttributeDefinition
  3

  2
BZE
 70
     8
280
     0
  0
ATTDEF
  5
A5
330
98
100
AcDbEntity
  8
AM_6
100
AcDbText
 10
5.1476825
 20
-4.712591369276958
 30
0.0
 40
0.5
  1
9/32
100
AcDbAttributeDefinition
  3

  2
WAF
 70
     8
280
     0
  0
ATTDEF
  5
A6
330
98
100
AcDbEntity
  8
AM_6
100
AcDbText
 10
5.1476825
 20
-5.212591369276958
 30
0.0
 40
0.5
  1
0.2813
100
AcDbAttributeDefinition
  3

  2
WAF1
 70
     8
280
     0
  0
ATTDEF
  5
A7
330
98
100
AcDbEntity
  8
AM_6
100
AcDbText
 10
5.1476825
 20
-5.712591369276958
 30
0.0
 40
0.5
  1
0.545
100
AcDbAttributeDefinition
  3

  2
BL
 70
     8
280
     0
  0
ATTDEF
  5
A8
330
98
100
AcDbEntity
  8
AM_6
100
AcDbText
 10
5.1476825
 20
-6.212591369276958
 30
0.0
 40
0.5
  1
0.200
100
AcDbAttributeDefinition
  3

  2
TL
 70
     8
280
     0
  0
ATTDEF
  5
A9
330
98
100
AcDbEntity
  8
AM_6
100
AcDbText
 10
5.1476825
 20
-6.712591369276958
 30
0.0
 40
0.5
  1
baldor
100
AcDbAttributeDefinition
  3

  2
COMPANY
 70
     8
280
     0
  0
CIRCLE
  5
AC
330
98
100
AcDbEntity
  8
AM_9
100
AcDbCircle
 10
0.0
 20
-0.3749999999999998
 30
0.0
 40
0.1000886227036577
  0
CIRCLE
  5
AD
330
98
100
AcDbEntity
  8
AM_9
100
AcDbCircle
 10
0.0
 20
-0.3749999999999998
 30
0.0
 40
0.1104162595939891
  0
CIRCLE
  5
AE
330
98
100
AcDbEntity
  8
AM_9
100
AcDbCircle
 10
0.0
 20
-0.3749999999999998
 30
0.0
 40
0.1163438171532771
  0
CIRCLE
  5
AF
330
98
100
AcDbEntity
  8
AM_9
100
AcDbCircle
 10
0.0
 20
-0.3749999999999998
 30
0.0
 40
0.1093294505797714
  0
CIRCLE
  5
B0
330
98
100
AcDbEntity
  8
AM_9
100
AcDbCircle
 10
0.0
 20
-0.3749999999999998
 30
0.0
 40
0.0946847896390988
  0
LINE
  5
B3
330
98
100
AcDbEntity
  8
AM_7
100
AcDbLine
 10
-0.1476825000000001
 20
-0.3749999999999998
 30
0.0
 11
0.1476825
 21
-0.3749999999999998
 31
0.0
  0
LINE
  5
B5
330
98
100
AcDbEntity
  8
AM_4
100
AcDbLine
 10
0.0
 20
-0.2125913692769581
 30
0.0
 11
-0.14065
 21
-0.2937956846384789
 31
0.0
  0
LINE
  5
B6
330
98
100
AcDbEntity
  8
AM_4
100
AcDbLine
 10
-0.14065
 20
-0.2937956846384789
 30
0.0
 11
-0.14065
 21
-0.4562043153615207
 31
0.0
  0
LINE
  5
B7
330
98
100
AcDbEntity
  8
AM_4
100
AcDbLine
 10
0.14065
 20
-0.4562043153615207
 30
0.0
 11
0.14065
 21
-0.2937956846384789
 31
0.0
  0
LINE
  5
B8
330
98
100
AcDbEntity
  8
AM_4
100
AcDbLine
 10
0.14065
 20
-0.2937956846384789
 30
0.0
 11
0.0
 21
-0.2125913692769581
 31
0.0
  0
LINE
  5
B9
330
98
100
AcDbEntity
  8
AM_4
100
AcDbLine
 10
-0.14065
 20
-0.4562043153615207
 30
0.0
 11
0.0
 21
-0.5374086307230416
 31
0.0
  0
LINE
  5
BA
330
98
100
AcDbEntity
  8
AM_4
100
AcDbLine
 10
0.0
 20
-0.5374086307230416
 30
0.0
 11
0.14065
 21
-0.4562043153615207
 31
0.0
  0
CIRCLE
  5
BB
330
98
100
AcDbEntity
  8
AM_4
100
AcDbCircle
 10
0.0
 20
-0.3749999999999998
 30
0.0
 40
0.135926521995058
  0
CIRCLE
  5
BC
330
98
100
AcDbEntity
  8
AM_4
100
AcDbCircle
 10
0.0
 20
-0.3749999999999998
 30
0.0
 40
0.13195176466768
  0
CIRCLE
  5
BD
330
98
100
AcDbEntity
  8
AM_4
100
AcDbCircle
 10
0.0
 20
-0.3749999999999998
 30
0.0
 40
0.080806429716728
  0
CIRCLE
  5
BE
330
98
100
AcDbEntity
  8
AM_4
100
AcDbCircle
 10
0.0
 20
-0.3749999999999998
 30
0.0
 40
0.1038190510530391
  0
CIRCLE
  5
BF
330
98
100
AcDbEntity
  8
AM_4
100
AcDbCircle
 10
0.0000000000000001
 20
-0.3749999999999998
 30
0.0
 40
0.1406500000000001
  0
ENDBLK
  5
9B
330
98
100
AcDbEntity
  8
0
100
AcDbBlockEnd
  0
BLOCK
  5
C2
330
C0
100
AcDbEntity
  8
0
100
AcDbBlockBegin
  2
3_421246_0_in_048054_4
 70
     2
 10
0.0
 20
0.0
 30
0.0
  3
3_421246_0_in_048054_4
  1

  0
ATTDEF
  5
C4
330
C0
100
AcDbEntity
  8
AM_6
100
AcDbText
 10
6.5
 20
-0.0937500000000001
 30
0.0
 40
0.5
  1
Unisphere II Insert With Seal - Inch
100
AcDbAttributeDefinition
  3

  2
NN
 70
     8
280
     0
  0
ATTDEF
  5
C5
330
C0
100
AcDbEntity
  8
AM_6
100
AcDbText
 10
6.5
 20
-0.59375
 30
0.0
 40
0.5
  1
Unisphere II
100
AcDbAttributeDefinition
  3

  2
NT
 70
     8
280
     0
  0
ATTDEF
  5
C6
330
C0
100
AcDbEntity
  8
AM_6
100
AcDbText
 10
6.5
 20
-1.09375
 30
0.0
 40
0.5
  1
421246
100
AcDbAttributeDefinition
  3

  2
NB
 70
     8
280
     0
  0
ATTDEF
  5
C7
330
C0
100
AcDbEntity
  8
AM_6
100
AcDbText
 10
6.5
 20
-1.59375
 30
0.0
 40
0.5
  1
$PN.
100
AcDbAttributeDefinition
  3

  2
NBSYN
 70
     8
280
     0
  0
ATTDEF
  5
C8
330
C0
100
AcDbEntity
  8
AM_6
100
AcDbText
 10
6.5
 20
-2.09375
 30
0.0
 40
0.5
  1
421246
100
AcDbAttributeDefinition
  3

  2
LINA
 70
     8
280
     0
  0
ATTDEF
  5
C9
330
C0
100
AcDbEntity
  8
AM_6
100
AcDbText
 10
6.5
 20
-2.59375
 30
0.0
 40
0.5
  1
1-3/4
100
AcDbAttributeDefinition
  3

  2
SS
 70
     8
280
     0
  0
ATTDEF
  5
CA
330
C0
100
AcDbEntity
  8
AM_6
100
AcDbText
 10
6.5
 20
-3.09375
 30
0.0
 40
0.5
  1
1.75000
100
AcDbAttributeDefinition
  3

  2
SS1
 70
     8
280
     0
  0
ATTDEF
  5
CB
330
C0
100
AcDbEntity
  8
AM_6
100
AcDbText
 10
6.5
 20
-3.59375
 30
0.0
 40
0.5
  1
3.3465
100
AcDbAttributeDefinition
  3

  2
A
 70
     8
280
     0
  0
ATTDEF
  5
CC
330
C0
100
AcDbEntity
  8
AM_6
100
AcDbText
 10
6.5
 20
-4.09375
 30
0.0
 40
0.5
  1
3.00000
100
AcDbAttributeDefinition
  3

  2
A1
 70
     8
280
     0
  0
ATTDEF
  5
CD
330
C0
100
AcDbEntity
  8
AM_6
100
AcDbText
 10
6.5
 20
-4.59375
 30
0.0
 40
0.5
  1
0.9455
100
AcDbAttributeDefinition
  3

  2
B
 70
     8
280
     0
  0
ATTDEF
  5
CE
330
C0
100
AcDbEntity
  8
AM_6
100
AcDbText
 10
6.5
 20
-5.09375
 30
0.0
 40
0.5
  1
0.94550
100
AcDbAttributeDefinition
  3

  2
B1
 70
     8
280
     0
  0
ATTDEF
  5
CF
330
C0
100
AcDbEntity
  8
AM_6
100
AcDbText
 10
6.5
 20
-5.59375
 30
0.0
 40
0.5
  1
1-29/32
100
AcDbAttributeDefinition
  3

  2
C
 70
     8
280
     0
  0
ATTDEF
  5
D0
330
C0
100
AcDbEntity
  8
AM_6
100
AcDbText
 10
6.5
 20
-6.09375
 30
0.0
 40
0.5
  1
1.90625
100
AcDbAttributeDefinition
  3

  2
C1
 70
     8
280
     0
  0
ATTDEF
  5
D1
330
C0
100
AcDbEntity
  8
AM_6
100
AcDbText
 10
6.5
 20
-6.59375
 30
0.0
 40
0.5
  1
0.578
100
AcDbAttributeDefinition
  3

  2
D
 70
     8
280
     0
  0
ATTDEF
  5
D2
330
C0
100
AcDbEntity
  8
AM_6
100
AcDbText
 10
6.5
 20
-7.09375
 30
0.0
 40
0.5
  1
0.57800
100
AcDbAttributeDefinition
  3

  2
D1
 70
     8
280
     0
  0
ATTDEF
  5
D3
330
C0
100
AcDbEntity
  8
AM_6
100
AcDbText
 10
6.5
 20
-7.59375
 30
0.0
 40
0.5
  1
0.317
100
AcDbAttributeDefinition
  3

  2
E
 70
     8
280
     0
  0
ATTDEF
  5
D4
330
C0
100
AcDbEntity
  8
AM_6
100
AcDbText
 10
6.5
 20
-8.09375
 30
0.0
 40
0.5
  1
0.31700
100
AcDbAttributeDefinition
  3

  2
E1
 70
     8
280
     0
  0
ATTDEF
  5
D5
330
C0
100
AcDbEntity
  8
AM_6
100
AcDbText
 10
6.5
 20
-8.59375
 30
0.0
 40
0.5
  1
421246
100
AcDbAttributeDefinition
  3

  2
PN
 70
     8
280
     0
  0
ATTDEF
  5
D6
330
C0
100
AcDbEntity
  8
AM_6
100
AcDbText
 10
6.5
 20
-9.09375
 30
0.0
 40
0.5
  1
baldor
100
AcDbAttributeDefinition
  3

  2
COMPANY
 70
     8
280
     0
  0
ELLIPSE
  5
D7
330
C0
100
AcDbEntity
  8
AM_9
100
AcDbEllipse
 10
-0.7842766476306049
 20
-1.683
 30
0.0
 11
-2.646907059066210E-17
 21
-0.144090909090909
 31
0.0
210
0.0
220
0.0
230
1.0
 40
0.4226182617406919
 41
4.259577387732818
 42
5.165200573036561
  0
ELLIPSE
  5
D8
330
C0
100
AcDbEntity
  8
AM_9
100
AcDbEllipse
 10
-0.7842766476306038
 20
-1.683
 30
0.0
 11
-2.646907059066198E-17
 21
-0.1440909090909084
 31
0.0
210
0.0
220
0.0
230
1.0
 40
0.4226182617407015
 41
1.117984734143024
 42
2.02360791944677
  0
LINE
  5
D9
330
C0
100
AcDbEntity
  8
AM_9
100
AcDbLine
 10
-1.330441522121579
 20
-1.827090909090909
 30
0.0
 11
-0.7929456463771903
 21
-1.827090909090909
 31
0.0
  0
LINE
  5
DA
330
C0
100
AcDbEntity
  8
AM_9
100
AcDbLine
 10
-0.7929456463771903
 20
-1.538909090909091
 30
0.0
 11
-1.330441522121579
 21
-1.538909090909091
 31
0.0
  0
LWPOLYLINE
  5
DB
330
C0
100
AcDbEntity
  8
AM_9
100
AcDbPolyline
 90
        9
 70
     0
 43
0.0
 10
-0.793023205003587
 20
-1.538909091203294
 10
-0.7968797451411853
 20
-1.539221084553023
 10
-0.8064321727385828
 20
-1.542757435219114
 10
-0.8149986739140445
 20
-1.55018390935622
 10
-0.8225011214942614
 20
-1.561239327790897
 10
-0.8288883314789832
 20
-1.575805121639045
 10
-0.8340749796837221
 20
-1.593349285197431
 10
-0.8368064171787299
 20
-1.606193924301266
 10
-0.8390350902372746
 20
-1.619960875390703
  0
LWPOLYLINE
  5
DC
330
C0
100
AcDbEntity
  8
AM_9
100
AcDbPolyline
 90
        9
 70
     0
 43
0.0
 10
-0.7930154222227329
 20
-1.827090908796706
 10
-0.7890618694853556
 20
-1.826778915446978
 10
-0.7784726849313227
 20
-1.823242564780886
 10
-0.7678006804589059
 20
-1.81581609064378
 10
-0.7573766001869731
 20
-1.804760672209103
 10
-0.7475190892105996
 20
-1.790194878360955
 10
-0.7387281808270265
 20
-1.772650714802569
 10
-0.7337627824727793
 20
-1.759806075698734
 10
-0.7295182050239328
 20
-1.746039124609297
  0
ELLIPSE
  5
DD
330
C0
100
AcDbEntity
  8
AM_9
100
AcDbEllipse
 10
-1.330441522121578
 20
-1.683
 30
0.0
 11
-2.646907059066194E-17
 21
-0.1440909090909082
 31
0.0
210
0.0
220
0.0
230
1.0
 40
0.4226182617406937
 41
0.3011678983065345
 42
2.836156515309448
  0
LINE
  5
DE
330
C0
100
AcDbEntity
  8
AM_9
100
AcDbLine
 10
-1.302045507657719
 20
-1.555533923448508
 30
0.0
 11
-1.323003927003857
 21
-1.529392768140652
 31
0.0
  0
LINE
  5
DF
330
C0
100
AcDbEntity
  8
AM_9
100
AcDbLine
 10
-1.323166414583119
 20
-1.836809900437304
 30
0.0
 11
-1.302045507657719
 21
-1.810466076551492
 31
0.0
  0
LWPOLYLINE
  5
E0
330
C0
100
AcDbEntity
  8
AM_9
100
AcDbPolyline
 90
        8
 70
     0
 43
0.0
 10
0.1295695135868683
 20
-1.746039124609301
 10
0.1313288519555609
 20
-1.742928580676853
 10
0.1405401015351209
 20
-1.721761393726959
 10
0.1457679788682944
 20
-1.699257398159412
 10
0.1467438885707071
 20
-1.678178803315976
 10
0.144110044732421
 20
-1.657245575236684
 10
0.1383050192051335
 20
-1.638022832271301
 10
0.1295695135868683
 20
-1.619960875390699
  0
LWPOLYLINE
  5
E1
330
C0
100
AcDbEntity
  8
AM_9
100
AcDbPolyline
 90
        8
 70
     0
 43
0.0
 10
-0.1295695135868683
 20
-1.619960875390699
 10
-0.1313288519555609
 20
-1.623071419323147
 10
-0.1405401015351209
 20
-1.644238606273041
 10
-0.1457679788682944
 20
-1.666742601840588
 10
-0.1467438885707071
 20
-1.687821196684024
 10
-0.144110044732421
 20
-1.708754424763316
 10
-0.1383050192051335
 20
-1.727977167728699
 10
-0.1295695135868683
 20
-1.746039124609301
  0
LWPOLYLINE
  5
E2
330
C0
100
AcDbEntity
  8
AM_9
100
AcDbPolyline
 90
        8
 70
     0
 43
0.0
 10
-0.7295182050239329
 20
-1.619960875390703
 10
-0.7363973472277225
 20
-1.599060477591445
 10
-0.744864256797263
 20
-1.580549522790302
 10
-0.7545483548551511
 20
-1.564978334709044
 10
-0.7650185192738753
 20
-1.552740049919687
 10
-0.7758458829731586
 20
-1.544242115361233
 10
-0.7866321893492718
 20
-1.539675650944879
 10
-0.793023205003587
 20
-1.538909091203294
  0
LWPOLYLINE
  5
E3
330
C0
100
AcDbEntity
  8
AM_9
100
AcDbPolyline
 90
        8
 70
     0
 43
0.0
 10
-0.8390350902372748
 20
-1.619960875390703
 10
-0.8397804295350197
 20
-1.624651071546758
 10
-0.8422645071848683
 20
-1.645863481555383
 10
-0.8435971339328342
 20
-1.668351708889313
 10
-0.8437868362586394
 20
-1.689379236752333
 10
-0.8430056327870218
 20
-1.710215632582057
 10
-0.8414252930480184
 20
-1.728673406439014
 10
-0.8390350902372748
 20
-1.746039124609297
  0
LWPOLYLINE
  5
E4
330
C0
100
AcDbEntity
  8
AM_9
100
AcDbPolyline
 90
        8
 70
     0
 43
0.0
 10
-0.8390350902372746
 20
-1.746039124609297
 10
-0.8353739796777737
 20
-1.766939522408555
 10
-0.8305050704015089
 20
-1.785450477209698
 10
-0.8243966772906791
 20
-1.801021665290957
 10
-0.8170849209489921
 20
-1.813259950080313
 10
-0.8086262588448021
 20
-1.821757884638767
 10
-0.7991782173351002
 20
-1.826324349055121
 10
-0.7930154222227329
 20
-1.827090908796706
  0
LWPOLYLINE
  5
E5
330
C0
100
AcDbEntity
  8
AM_9
100
AcDbPolyline
 90
        8
 70
     0
 43
0.0
 10
-0.7295182050239329
 20
-1.746039124609297
 10
-0.7250392876887956
 20
-1.729919382196273
 10
-0.7218308538483966
 20
-1.712829287596027
 10
-0.7198856600356677
 20
-1.691386996437636
 10
-0.7201269904469397
 20
-1.669677672978701
 10
-0.7223648972650275
 20
-1.649722923576312
 10
-0.7263727298023471
 20
-1.630671420494064
 10
-0.7295182050239328
 20
-1.619960875390703
  0
LINE
  5
E6
330
C0
100
AcDbEntity
  8
AM_9
100
AcDbLine
 10
0.875
 20
-2.0
 30
0.0
 11
0.875
 21
-0.0937500000000001
 31
0.0
  0
LINE
  5
E7
330
C0
100
AcDbEntity
  8
AM_9
100
AcDbLine
 10
-0.875
 20
-0.0937500000000001
 30
0.0
 11
-0.875
 21
-2.0
 31
0.0
  0
LINE
  5
E8
330
C0
100
AcDbEntity
  8
AM_9
100
AcDbLine
 10
1.071428571428571
 20
-1.366
 30
0.0
 11
1.071428571428571
 21
-1.03925
 31
0.0
  0
LINE
  5
E9
330
C0
100
AcDbEntity
  8
AM_9
100
AcDbLine
 10
-1.071428571428571
 20
-1.03925
 30
0.0
 11
-1.071428571428571
 21
-1.366
 31
0.0
  0
LINE
  5
EA
330
C0
100
AcDbEntity
  8
AM_9
100
AcDbLine
 10
-1.48
 20
-1.366
 30
0.0
 11
1.479999999996189
 21
-1.366
 31
0.0
  0
ARC
  5
EB
330
C0
100
AcDbEntity
  8
AM_9
100
AcDbCircle
 10
1.48
 20
-1.386
 30
0.0
 40
0.0199999999999996
100
AcDbArc
 50
0.0
 51
90.0
  0
ARC
  5
EC
330
C0
100
AcDbEntity
  8
AM_9
100
AcDbCircle
 10
-1.48
 20
-1.386
 30
0.0
 40
0.0199999999999996
100
AcDbArc
 50
90.0
 51
180.0
  0
LINE
  5
ED
330
C0
100
AcDbEntity
  8
AM_9
100
AcDbLine
 10
-1.48
 20
-1.03925
 30
0.0
 11
1.479999999996189
 21
-1.03925
 31
0.0
  0
ARC
  5
EE
330
C0
100
AcDbEntity
  8
AM_9
100
AcDbCircle
 10
1.48
 20
-1.01925
 30
0.0
 40
0.0200000000000002
100
AcDbArc
 50
270.0
 51
0.0
  0
ARC
  5
EF
330
C0
100
AcDbEntity
  8
AM_9
100
AcDbCircle
 10
-1.48
 20
-1.01925
 30
0.0
 40
0.0200000000000002
100
AcDbArc
 50
180.0
 51
270.0
  0
LINE
  5
F0
330
C0
100
AcDbEntity
  8
AM_9
100
AcDbLine
 10
-1.5
 20
-1.386
 30
0.0
 11
1.5
 21
-1.386
 31
0.0
  0
LINE
  5
F1
330
C0
100
AcDbEntity
  8
AM_9
100
AcDbLine
 10
1.5
 20
-1.4375
 30
0.0
 11
1.5
 21
-1.386
 31
0.0
  0
LINE
  5
F2
330
C0
100
AcDbEntity
  8
AM_9
100
AcDbLine
 10
-1.5
 20
-1.386
 30
0.0
 11
-1.5
 21
-1.4375
 31
0.0
  0
LINE
  5
F3
330
C0
100
AcDbEntity
  8
AM_9
100
AcDbLine
 10
-1.48
 20
-0.0937500000000001
 30
0.0
 11
1.479999999996189
 21
-0.0937500000000001
 31
0.0
  0
ARC
  5
F4
330
C0
100
AcDbEntity
  8
AM_9
100
AcDbCircle
 10
1.479999999999999
 20
-0.1137500000000005
 30
0.0
 40
0.0200000000000005
100
AcDbArc
 50
0.0
 51
90.0
  0
ARC
  5
F5
330
C0
100
AcDbEntity
  8
AM_9
100
AcDbCircle
 10
-1.479999999999999
 20
-0.1137500000000005
 30
0.0
 40
0.0200000000000005
100
AcDbArc
 50
90.0
 51
180.0
  0
LINE
  5
F6
330
C0
100
AcDbEntity
  8
AM_9
100
AcDbLine
 10
-1.5
 20
-1.01925
 30
0.0
 11
1.5
 21
-1.01925
 31
0.0
  0
LINE
  5
F7
330
C0
100
AcDbEntity
  8
AM_9
100
AcDbLine
 10
-1.5
 20
-0.1137500000000003
 30
0.0
 11
1.5
 21
-0.1137500000000003
 31
0.0
  0
LINE
  5
F8
330
C0
100
AcDbEntity
  8
AM_9
100
AcDbLine
 10
1.5
 20
-1.01925
 30
0.0
 11
1.5
 21
-0.1137500000000003
 31
0.0
  0
LINE
  5
F9
330
C0
100
AcDbEntity
  8
AM_9
100
AcDbLine
 10
-1.5
 20
-0.1137500000000003
 30
0.0
 11
-1.5
 21
-1.01925
 31
0.0
  0
LINE
  5
FA
330
C0
100
AcDbEntity
  8
AM_7
100
AcDbLine
 10
-0.1512954545454545
 20
-1.683
 30
0.0
 11
0.1512954545454545
 21
-1.683
 31
0.0
  0
ELLIPSE
  5
FB
330
C0
100
AcDbEntity
  8
AM_4
100
AcDbEllipse
 10
-1.330441522121579
 20
-1.683
 30
0.0
 11
-2.646907059066210E-17
 21
-0.144090909090909
 31
0.0
210
0.0
220
0.0
230
1.0
 40
0.4226182617407003
 41
2.836156515309431
 42
6.584353205486137
  0
LWPOLYLINE
  5
FC
330
C0
100
AcDbEntity
  8
AM_4
100
AcDbPolyline
 90
       15
 70
     0
 43
0.0
 10
-1.323187455613634
 20
-1.529163858171479
 10
-1.318896648619769
 20
-1.534889232254954
 10
-1.308626526787563
 20
-1.552010833315213
 10
-1.299578266127851
 20
-1.572282510010768
 10
-1.291708862820514
 20
-1.596441492157005
 10
-1.285783399854541
 20
-1.622781339981732
 10
-1.281911698273843
 20
-1.651976320217747
 10
-1.280535188091796
 20
-1.68200223026974
 10
-1.281808532291184
 20
-1.71282601100276
 10
-1.285710507053002
 20
-1.742809524331772
 10
-1.292139005332953
 20
-1.771103145907301
 10
-1.300798246844279
 20
-1.79682429468768
 10
-1.311094893294082
 20
-1.818582317547393
 10
-1.322783859988265
 20
-1.836329348669702
 10
-1.323196371307692
 20
-1.836847264876885
  0
LWPOLYLINE
  5
FD
330
C0
100
AcDbEntity
  8
AM_4
100
AcDbPolyline
 90
       19
 70
     0
 43
0.0
 10
-1.323196371307692
 20
-1.836847264876885
 10
-1.334772632725322
 20
-1.84878456436168
 10
-1.34715404910563
 20
-1.856507991650382
 10
-1.358811417839408
 20
-1.859084144642311
 10
-1.37005286986337
 20
-1.857031742720584
 10
-1.380291270730845
 20
-1.85058571344421
 10
-1.389609609415864
 20
-1.840051475868869
 10
-1.397972490320805
 20
-1.825435099628488
 10
-1.405112862611551
 20
-1.807414576556069
 10
-1.411218390234878
 20
-1.785388298034833
 10
-1.415906693522356
 20
-1.760829372939314
 10
-1.41930143403756
 20
-1.732956628159418
 10
-1.421150133458168
 20
-1.703771620078963
 10
-1.421436156801759
 20
-1.673037585259015
 10
-1.420085645425384
 20
-1.642580124070082
 10
-1.417038387367134
 20
-1.613001657434117
 10
-1.412296859996867
 20
-1.585446717024226
 10
-1.40739482482204
 20
-1.565912776792545
 10
-1.401454748763984
 20
-1.548550116467423
  0
LWPOLYLINE
  5
FE
330
C0
100
AcDbEntity
  8
AM_4
100
AcDbPolyline
 90
       39
 70
     0
 43
0.0
 10
-0.1208936319185983
 20
-1.561736122582613
 10
-0.1027769743899663
 20
-1.54435369489722
 10
-0.0817848508173465
 20
-1.529554747864499
 10
-0.0565157719224432
 20
-1.517328369743817
 10
-0.0286074220964493
 20
-1.509504408887057
 10
-0.0020099714737489
 20
-1.506901706002408
 10
0.0254547578315722
 20
-1.508956481215946
 10
0.0507558206072214
 20
-1.515258646000659
 10
0.0753388625001167
 20
-1.525914212372455
 10
0.0976719561994284
 20
-1.540296770550832
 10
0.1179345893983667
 20
-1.558530659312439
 10
0.1354088792014924
 20
-1.580238470929225
 10
0.1495642275542831
 20
-1.605098510329192
 10
0.1598080352657171
 20
-1.632577587393749
 10
0.1656308294206822
 20
-1.662145621279176
 10
0.1665666144246512
 20
-1.692446669919625
 10
0.1623624623884845
 20
-1.723336857448579
 10
0.1532389880332123
 20
-1.752500446605829
 10
0.1388700740729799
 20
-1.780481612170106
 10
0.1207549166950672
 20
-1.804417821710883
 10
0.0980200200212033
 20
-1.825436756846892
 10
0.0738014454233958
 20
-1.840898402185795
 10
0.0463415523897486
 20
-1.852162346356559
 10
0.0197920397934754
 20
-1.857864010788869
 10
-0.0082006226370884
 20
-1.858897635048561
 10
-0.0341235357235761
 20
-1.855377869047989
 10
-0.0598104941801223
 20
-1.847374825436725
 10
-0.0832864775350544
 20
-1.835541140110217
 10
-0.105114882782804
 20
-1.819677488504208
 10
-0.1244095248752363
 20
-1.800233814477171
 10
-0.1407811205647292
 20
-1.77737984701279
 10
-0.1536356503867968
 20
-1.751519059359611
 10
-0.1623984317040947
 20
-1.723175491312153
 10
-0.16651622884362
 20
-1.693387511485478
 10
-0.1656685790443853
 20
-1.662481757730426
 10
-0.1597831386942192
 20
-1.632489897989984
 10
-0.1486107073630342
 20
-1.603093242031411
 10
-0.1363525187313444
 20
-1.581637714274063
 10
-0.1208936320155046
 20
-1.561736122521377
  0
LWPOLYLINE
  5
FF
330
C0
100
AcDbEntity
  8
AM_4
100
AcDbPolyline
 90
        9
 70
     0
 43
0.0
 10
-1.401454748763984
 20
-1.548550116467423
 10
-1.394067377749889
 20
-1.533027713122916
 10
-1.385613682186324
 20
-1.520792053206907
 10
-1.375251785780118
 20
-1.511658246902545
 10
-1.363977950829841
 20
-1.50725720497258
 10
-1.352616427066556
 20
-1.50772207258318
 10
-1.34103360871963
 20
-1.512665556182616
 10
-1.329717872232925
 20
-1.521838044334114
 10
-1.323187455613634
 20
-1.529163858171479
  0
LINE
  5
100
330
C0
100
AcDbEntity
  8
AM_4
100
AcDbLine
 10
1.5
 20
-1.961875
 30
0.0
 11
1.5
 21
-1.4375
 31
0.0
  0
LINE
  5
101
330
C0
100
AcDbEntity
  8
AM_4
100
AcDbLine
 10
-1.5
 20
-1.4375
 30
0.0
 11
-1.5
 21
-1.961875
 31
0.0
  0
LINE
  5
102
330
C0
100
AcDbEntity
  8
AM_4
100
AcDbLine
 10
-1.461875
 20
-2.0
 30
0.0
 11
1.46187499999995
 21
-2.0
 31
0.0
  0
LINE
  5
103
330
C0
100
AcDbEntity
  8
AM_4
100
AcDbLine
 10
-1.5
 20
-1.961875
 30
0.0
 11
1.5
 21
-1.961875
 31
0.0
  0
ARC
  5
104
330
C0
100
AcDbEntity
  8
AM_4
100
AcDbCircle
 10
1.461875
 20
-1.961875
 30
0.0
 40
0.0381249999999995
100
AcDbArc
 50
270.0
 51
0.0
  0
ARC
  5
105
330
C0
100
AcDbEntity
  8
AM_4
100
AcDbCircle
 10
-1.461875
 20
-1.961875
 30
0.0
 40
0.0381249999999995
100
AcDbArc
 50
180.0
 51
270.0
  0
ARC
  5
107
330
C0
100
AcDbEntity
  8
AM_5
100
AcDbCircle
 10
-0.0000000000000002
 20
-1.683
 30
0.0
 40
0.1440909090909092
100
AcDbArc
 50
75.0
 51
14.99999999999994
  0
ENDBLK
  5
C3
330
C0
100
AcDbEntity
  8
0
100
AcDbBlockEnd
  0
BLOCK
  5
10A
330
108
100
AcDbEntity
  8
0
100
AcDbBlockBegin
  2
4_048054B_0_in_048054_4
 70
     2
 10
0.0
 20
0.0
 30
0.0
  3
4_048054B_0_in_048054_4
  1

  0
ATTDEF
  5
10C
330
108
100
AcDbEntity
  8
AM_6
100
AcDbText
 10
7.5625
 20
0.1078125
 30
0.0
 40
0.5
  1
Unisphere II -4 Bolt Flange Bearing - Inch - Body
100
AcDbAttributeDefinition
  3

  2
NN
 70
     8
280
     0
  0
ATTDEF
  5
10D
330
108
100
AcDbEntity
  8
AM_6
100
AcDbText
 10
7.5625
 20
-0.3921875
 30
0.0
 40
0.5
  1
Unisphere II
100
AcDbAttributeDefinition
  3

  2
NT
 70
     8
280
     0
  0
ATTDEF
  5
10E
330
108
100
AcDbEntity
  8
AM_6
100
AcDbText
 10
7.5625
 20
-0.8921875
 30
0.0
 40
0.5
  1
048054B
100
AcDbAttributeDefinition
  3

  2
NB
 70
     8
280
     0
  0
ATTDEF
  5
10F
330
108
100
AcDbEntity
  8
AM_6
100
AcDbText
 10
7.5625
 20
-1.3921875
 30
0.0
 40
0.5
  1
$PN.
100
AcDbAttributeDefinition
  3

  2
NBSYN
 70
     8
280
     0
  0
ATTDEF
  5
110
330
108
100
AcDbEntity
  8
AM_6
100
AcDbText
 10
7.5625
 20
-1.8921875
 30
0.0
 40
0.5
  1
048054B
100
AcDbAttributeDefinition
  3

  2
LINA
 70
     8
280
     0
  0
ATTDEF
  5
111
330
108
100
AcDbEntity
  8
AM_6
100
AcDbText
 10
7.5625
 20
-2.3921875
 30
0.0
 40
0.5
  1
1-3/4
100
AcDbAttributeDefinition
  3

  2
SS
 70
     8
280
     0
  0
ATTDEF
  5
112
330
108
100
AcDbEntity
  8
AM_6
100
AcDbText
 10
7.5625
 20
-2.8921875
 30
0.0
 40
0.5
  1
1.75000
100
AcDbAttributeDefinition
  3

  2
SS1
 70
     8
280
     0
  0
ATTDEF
  5
113
330
108
100
AcDbEntity
  8
AM_6
100
AcDbText
 10
7.5625
 20
-3.3921875
 30
0.0
 40
0.5
  1
Expansion Type
100
AcDbAttributeDefinition
  3

  2
TYPE
 70
     8
280
     0
  0
ATTDEF
  5
114
330
108
100
AcDbEntity
  8
AM_6
100
AcDbText
 10
7.5625
 20
-3.8921875
 30
0.0
 40
0.5
  1
048037B
100
AcDbAttributeDefinition
  3

  2
PNNE
 70
     8
280
     0
  0
ATTDEF
  5
115
330
108
100
AcDbEntity
  8
AM_6
100
AcDbText
 10
7.5625
 20
-4.3921875
 30
0.0
 40
0.5
  1
048054B
100
AcDbAttributeDefinition
  3

  2
PNE
 70
     8
280
     0
  0
ATTDEF
  5
116
330
108
100
AcDbEntity
  8
AM_6
100
AcDbText
 10
7.5625
 20
-4.8921875
 30
0.0
 40
0.5
  1
F4B-UN2-112
100
AcDbAttributeDefinition
  3

  2
DESCRIPTIONNE
 70
     8
280
     0
  0
ATTDEF
  5
117
330
108
100
AcDbEntity
  8
AM_6
100
AcDbText
 10
7.5625
 20
-5.3921875
 30
0.0
 40
0.5
  1
F4B-UN2-112E
100
AcDbAttributeDefinition
  3

  2
DESCRIPTIONE
 70
     8
280
     0
  0
ATTDEF
  5
118
330
108
100
AcDbEntity
  8
AM_6
100
AcDbText
 10
7.5625
 20
-5.8921875
 30
0.0
 40
0.5
  1
6.7
100
AcDbAttributeDefinition
  3

  2
WEIGHT
 70
     8
280
     0
  0
ATTDEF
  5
119
330
108
100
AcDbEntity
  8
AM_6
100
AcDbText
 10
7.5625
 20
-6.3921875
 30
0.0
 40
0.5
  1
1-29/32
100
AcDbAttributeDefinition
  3

  2
A
 70
     8
280
     0
  0
ATTDEF
  5
11A
330
108
100
AcDbEntity
  8
AM_6
100
AcDbText
 10
7.5625
 20
-6.8921875
 30
0.0
 40
0.5
  1
1.90625
100
AcDbAttributeDefinition
  3

  2
A1
 70
     8
280
     0
  0
ATTDEF
  5
11B
330
108
100
AcDbEntity
  8
AM_6
100
AcDbText
 10
7.5625
 20
-7.3921875
 30
0.0
 40
0.5
  1
5-1/8
100
AcDbAttributeDefinition
  3

  2
B
 70
     8
280
     0
  0
ATTDEF
  5
11C
330
108
100
AcDbEntity
  8
AM_6
100
AcDbText
 10
7.5625
 20
-7.8921875
 30
0.0
 40
0.5
  1
5.12500
100
AcDbAttributeDefinition
  3

  2
B1
 70
     8
280
     0
  0
ATTDEF
  5
11D
330
108
100
AcDbEntity
  8
AM_6
100
AcDbText
 10
7.5625
 20
-8.3921875
 30
0.0
 40
0.5
  1
2-5/32
100
AcDbAttributeDefinition
  3

  2
C
 70
     8
280
     0
  0
ATTDEF
  5
11E
330
108
100
AcDbEntity
  8
AM_6
100
AcDbText
 10
7.5625
 20
-8.8921875
 30
0.0
 40
0.5
  1
2.15625
100
AcDbAttributeDefinition
  3

  2
C1
 70
     8
280
     0
  0
ATTDEF
  5
11F
330
108
100
AcDbEntity
  8
AM_6
100
AcDbText
 10
7.5625
 20
-9.3921875
 30
0.0
 40
0.5
  1
3-29/32
100
AcDbAttributeDefinition
  3

  2
D
 70
     8
280
     0
  0
ATTDEF
  5
120
330
108
100
AcDbEntity
  8
AM_6
100
AcDbText
 10
7.5625
 20
-9.8921875
 30
0.0
 40
0.5
  1
3.90625
100
AcDbAttributeDefinition
  3

  2
D1
 70
     8
280
     0
  0
ATTDEF
  5
121
330
108
100
AcDbEntity
  8
AM_6
100
AcDbText
 10
7.5625
 20
-10.3921875
 30
0.0
 40
0.5
  1
1/2
100
AcDbAttributeDefinition
  3

  2
F
 70
     8
280
     0
  0
ATTDEF
  5
122
330
108
100
AcDbEntity
  8
AM_6
100
AcDbText
 10
7.5625
 20
-10.8921875
 30
0.0
 40
0.5
  1
0.50000
100
AcDbAttributeDefinition
  3

  2
F1
 70
     8
280
     0
  0
ATTDEF
  5
123
330
108
100
AcDbEntity
  8
AM_6
100
AcDbText
 10
7.5625
 20
-11.3921875
 30
0.0
 40
0.5
  1
3/4
100
AcDbAttributeDefinition
  3

  2
H
 70
     8
280
     0
  0
ATTDEF
  5
124
330
108
100
AcDbEntity
  8
AM_6
100
AcDbText
 10
7.5625
 20
-11.8921875
 30
0.0
 40
0.5
  1
0.75000
100
AcDbAttributeDefinition
  3

  2
H1
 70
     8
280
     0
  0
ATTDEF
  5
125
330
108
100
AcDbEntity
  8
AM_6
100
AcDbText
 10
7.5625
 20
-12.3921875
 30
0.0
 40
0.5
  1
23/32
100
AcDbAttributeDefinition
  3

  2
J
 70
     8
280
     0
  0
ATTDEF
  5
126
330
108
100
AcDbEntity
  8
AM_6
100
AcDbText
 10
7.5625
 20
-12.8921875
 30
0.0
 40
0.5
  1
0.71875
100
AcDbAttributeDefinition
  3

  2
J1
 70
     8
280
     0
  0
ATTDEF
  5
127
330
108
100
AcDbEntity
  8
AM_6
100
AcDbText
 10
7.5625
 20
-13.3921875
 30
0.0
 40
0.5
  1
5-1/2
100
AcDbAttributeDefinition
  3

  2
K
 70
     8
280
     0
  0
ATTDEF
  5
128
330
108
100
AcDbEntity
  8
AM_6
100
AcDbText
 10
7.5625
 20
-13.8921875
 30
0.0
 40
0.5
  1
5.50000
100
AcDbAttributeDefinition
  3

  2
K1
 70
     8
280
     0
  0
ATTDEF
  5
129
330
108
100
AcDbEntity
  8
AM_6
100
AcDbText
 10
7.5625
 20
-14.3921875
 30
0.0
 40
0.5
  1
3
100
AcDbAttributeDefinition
  3

  2
L
 70
     8
280
     0
  0
ATTDEF
  5
12A
330
108
100
AcDbEntity
  8
AM_6
100
AcDbText
 10
7.5625
 20
-14.8921875
 30
0.0
 40
0.5
  1
3.00000
100
AcDbAttributeDefinition
  3

  2
L1
 70
     8
280
     0
  0
ATTDEF
  5
12B
330
108
100
AcDbEntity
  8
AM_6
100
AcDbText
 10
7.5625
 20
-15.3921875
 30
0.0
 40
0.5
  1
5/32
100
AcDbAttributeDefinition
  3

  2
M
 70
     8
280
     0
  0
ATTDEF
  5
12C
330
108
100
AcDbEntity
  8
AM_6
100
AcDbText
 10
7.5625
 20
-15.8921875
 30
0.0
 40
0.5
  1
0.15625
100
AcDbAttributeDefinition
  3

  2
M1
 70
     8
280
     0
  0
ATTDEF
  5
12D
330
108
100
AcDbEntity
  8
AM_6
100
AcDbText
 10
7.5625
 20
-16.3921875
 30
0.0
 40
0.5
  1
2-3/4
100
AcDbAttributeDefinition
  3

  2
N
 70
     8
280
     0
  0
ATTDEF
  5
12E
330
108
100
AcDbEntity
  8
AM_6
100
AcDbText
 10
7.5625
 20
-16.8921875
 30
0.0
 40
0.5
  1
2.75000
100
AcDbAttributeDefinition
  3

  2
N1
 70
     8
280
     0
  0
ATTDEF
  5
12F
330
108
100
AcDbEntity
  8
AM_6
100
AcDbText
 10
7.5625
 20
-17.3921875
 30
0.0
 40
0.5
  1
baldor
100
AcDbAttributeDefinition
  3

  2
COMPANY
 70
     8
280
     0
  0
LINE
  5
130
330
108
100
AcDbEntity
  8
AM_9
100
AcDbLine
 10
1.5
 20
-1.4375
 30
0.0
 11
1.5
 21
0.0
 31
0.0
  0
LINE
  5
131
330
108
100
AcDbEntity
  8
AM_9
100
AcDbLine
 10
-1.5
 20
0.0
 30
0.0
 11
-1.5
 21
-1.4375
 31
0.0
  0
LINE
  5
132
330
108
100
AcDbEntity
  8
AM_9
100
AcDbLine
 10
-1.802081095271439
 20
-0.7499999999999999
 30
0.0
 11
-1.802081095271439
 21
-0.3749999999999999
 31
0.0
  0
LINE
  5
133
330
108
100
AcDbEntity
  8
AM_9
100
AcDbLine
 10
0.640625
 20
-0.3749999999999999
 30
0.0
 11
-0.640625
 21
-0.3749999999999999
 31
0.0
  0
LINE
  5
134
330
108
100
AcDbEntity
  8
AM_9
100
AcDbLine
 10
1.802081095271436
 20
-0.3749999999999999
 30
0.0
 11
1.802081095271436
 21
-0.7499999999999999
 31
0.0
  0
LINE
  5
135
330
108
100
AcDbEntity
  8
AM_9
100
AcDbLine
 10
2.050000000000001
 20
-0.7499999999999998
 30
0.0
 11
2.050000000000001
 21
-0.3749999999999999
 31
0.0
  0
LINE
  5
136
330
108
100
AcDbEntity
  8
AM_9
100
AcDbLine
 10
-2.050000000000001
 20
-0.3749999999999999
 30
0.0
 11
-2.050000000000001
 21
-0.7499999999999998
 31
0.0
  0
LINE
  5
137
330
108
100
AcDbEntity
  8
AM_9
100
AcDbLine
 10
2.203125
 20
-0.7499999999999998
 30
0.0
 11
2.203125
 21
0.0000000000000001
 31
0.0
  0
LINE
  5
138
330
108
100
AcDbEntity
  8
AM_9
100
AcDbLine
 10
1.703125
 20
0.0000000000000001
 30
0.0
 11
1.703125
 21
-0.7499999999999998
 31
0.0
  0
LINE
  5
139
330
108
100
AcDbEntity
  8
AM_9
100
AcDbLine
 10
-1.703125
 20
-0.7499999999999998
 30
0.0
 11
-1.703125
 21
0.0000000000000001
 31
0.0
  0
LINE
  5
13A
330
108
100
AcDbEntity
  8
AM_9
100
AcDbLine
 10
-2.203125
 20
0.0000000000000001
 30
0.0
 11
-2.203125
 21
-0.7499999999999998
 31
0.0
  0
LINE
  5
13B
330
108
100
AcDbEntity
  8
AM_9
100
AcDbLine
 10
2.472076022144459
 20
-0.7499999999999998
 30
0.0
 11
2.472076022144459
 21
-0.3749999999999998
 31
0.0
  0
LINE
  5
13C
330
108
100
AcDbEntity
  8
AM_9
100
AcDbLine
 10
2.0625
 20
-0.3749999999999998
 30
0.0
 11
2.5625
 21
-0.3749999999999998
 31
0.0
  0
LINE
  5
13D
330
108
100
AcDbEntity
  8
AM_9
100
AcDbLine
 10
-2.5625
 20
-0.3749999999999998
 30
0.0
 11
-2.0625
 21
-0.3749999999999999
 31
0.0
  0
LINE
  5
13E
330
108
100
AcDbEntity
  8
AM_9
100
AcDbLine
 10
-2.472076022144435
 20
-0.7499999999999998
 30
0.0
 11
-2.472076022144435
 21
-0.3749999999999998
 31
0.0
  0
LINE
  5
13F
330
108
100
AcDbEntity
  8
AM_7
100
AcDbLine
 10
0.0
 20
0.1078125
 30
0.0
 11
0.0
 21
-2.2640625
 31
0.0
  0
LINE
  5
140
330
108
100
AcDbEntity
  8
AM_7
100
AcDbLine
 10
-1.953125
 20
0.0750000000000001
 30
0.0
 11
-1.953125
 21
-1.575
 31
0.0
  0
LINE
  5
141
330
108
100
AcDbEntity
  8
AM_7
100
AcDbLine
 10
1.953125
 20
0.0749999999999999
 30
0.0
 11
1.953125
 21
-1.575
 31
0.0
  0
LINE
  5
142
330
108
100
AcDbEntity
  8
AM_4
100
AcDbLine
 10
-2.05
 20
-1.4375
 30
0.0
 11
2.050000000000001
 21
-1.4375
 31
0.0
  0
LINE
  5
143
330
108
100
AcDbEntity
  8
AM_4
100
AcDbLine
 10
2.050000000000001
 20
-1.4375
 30
0.0
 11
2.050000000000001
 21
-0.7499999999999998
 31
0.0
  0
LINE
  5
144
330
108
100
AcDbEntity
  8
AM_4
100
AcDbLine
 10
-2.050000000000001
 20
-0.7499999999999998
 30
0.0
 11
-2.050000000000001
 21
-1.4375
 31
0.0
  0
LINE
  5
145
330
108
100
AcDbEntity
  8
AM_4
100
AcDbLine
 10
-0.640625
 20
-0.7499999999999998
 30
0.0
 11
-0.640625
 21
0.0000000000000002
 31
0.0
  0
LINE
  5
146
330
108
100
AcDbEntity
  8
AM_4
100
AcDbLine
 10
0.640625
 20
-0.7499999999999998
 30
0.0
 11
-0.640625
 21
-0.7499999999999998
 31
0.0
  0
LINE
  5
147
330
108
100
AcDbEntity
  8
AM_4
100
AcDbLine
 10
0.640625
 20
-0.7499999999999998
 30
0.0
 11
0.6406249999999997
 21
0.0000000000000002
 31
0.0
  0
LINE
  5
148
330
108
100
AcDbEntity
  8
AM_4
100
AcDbLine
 10
-0.9772429207035987
 20
-0.7499999999999998
 30
0.0
 11
-2.5625
 21
-0.7499999999999998
 31
0.0
  0
LINE
  5
149
330
108
100
AcDbEntity
  8
AM_4
100
AcDbLine
 10
-0.9772429207035987
 20
-0.3749999999999998
 30
0.0
 11
-0.9772429207035987
 21
-0.7499999999999998
 31
0.0
  0
LINE
  5
14A
330
108
100
AcDbEntity
  8
AM_4
100
AcDbLine
 10
2.5625
 20
-0.7499999999999998
 30
0.0
 11
0.9772429207035993
 21
-0.7499999999999998
 31
0.0
  0
LINE
  5
14B
330
108
100
AcDbEntity
  8
AM_4
100
AcDbLine
 10
0.9772429207035993
 20
-0.7499999999999998
 30
0.0
 11
0.9772429207035992
 21
-0.3749999999999998
 31
0.0
  0
LINE
  5
14C
330
108
100
AcDbEntity
  8
AM_4
100
AcDbLine
 10
-0.640625
 20
-0.3749999999999998
 30
0.0
 11
-2.0625
 21
-0.3749999999999998
 31
0.0
  0
LINE
  5
14D
330
108
100
AcDbEntity
  8
AM_4
100
AcDbLine
 10
2.5625
 20
0.0000000000000001
 30
0.0
 11
-2.5625
 21
0.0000000000000001
 31
0.0
  0
LINE
  5
14E
330
108
100
AcDbEntity
  8
AM_4
100
AcDbLine
 10
1.77571178182438
 20
-0.7499999999999998
 30
0.0
 11
1.77571178182438
 21
-0.3749999999999998
 31
0.0
  0
LINE
  5
14F
330
108
100
AcDbEntity
  8
AM_4
100
AcDbLine
 10
2.5625
 20
-0.7499999999999998
 30
0.0
 11
2.5625
 21
0.0000000000000001
 31
0.0
  0
LINE
  5
150
330
108
100
AcDbEntity
  8
AM_4
100
AcDbLine
 10
2.0625
 20
-0.3749999999999998
 30
0.0
 11
0.640625
 21
-0.3749999999999998
 31
0.0
  0
LINE
  5
151
330
108
100
AcDbEntity
  8
AM_4
100
AcDbLine
 10
2.0625
 20
-0.3749999999999998
 30
0.0
 11
2.0625
 21
0.0000000000000002
 31
0.0
  0
LINE
  5
152
330
108
100
AcDbEntity
  8
AM_4
100
AcDbLine
 10
-2.5625
 20
-0.7499999999999998
 30
0.0
 11
-2.5625
 21
0.0000000000000001
 31
0.0
  0
LINE
  5
153
330
108
100
AcDbEntity
  8
AM_4
100
AcDbLine
 10
-1.775711781824318
 20
-0.7499999999999998
 30
0.0
 11
-1.775711781824318
 21
-0.3749999999999998
 31
0.0
  0
LINE
  5
154
330
108
100
AcDbEntity
  8
AM_4
100
AcDbLine
 10
-2.0625
 20
-0.3749999999999998
 30
0.0
 11
-2.0625
 21
0.0000000000000002
 31
0.0
  0
ENDBLK
  5
10B
330
108
100
AcDbEntity
  8
0
100
AcDbBlockEnd
  0
ENDSEC
  0
SECTION
  2
ENTITIES
  0
INSERT
  5
6F
330
1F
100
AcDbEntity
  8
0
100
AcDbBlockReference
  2
1_048054_4
 10
0.0
 20
0.0
 30
0.0
  0
POINT
  5
156
330
1F
100
AcDbEntity
  8
ConnectionPoints
100
AcDbPoint
 10
0.0
 20
-2.0
 30
0.0000000000000001
  0
POINT
  5
157
330
1F
100
AcDbEntity
  8
ConnectionPoints
100
AcDbPoint
 10
0.0
 20
-0.3749999999999999
 30
2.205
  0
POINT
  5
158
330
1F
100
AcDbEntity
  8
ConnectionPoints
100
AcDbPoint
 10
0.0
 20
-2.0
 30
0.0000000000000001
  0
ENDSEC
  0
SECTION
  2
OBJECTS
  0
DICTIONARY
  5
C
330
0
100
AcDbDictionary
281
     1
  3
ACAD_DETAILVIEWSTYLE
350
160
  3
ACAD_GROUP
350
D
  3
ACAD_LAYOUT
350
1A
  3
ACAD_MATERIAL
350
43
  3
ACAD_MLEADERSTYLE
350
6B
  3
ACAD_MLINESTYLE
350
17
  3
ACAD_PLOTSETTINGS
350
19
  3
ACAD_PLOTSTYLENAME
350
E
  3
ACAD_SCALELIST
350
47
  3
ACAD_SECTIONVIEWSTYLE
350
161
  3
ACAD_TABLESTYLE
350
69
  3
ACAD_VISUALSTYLE
350
2A
  3
ACDB_RECOMPOSE_DATA
350
15D
  3
AcDbVariableDictionary
350
159
  0
SUN
  5
6D
330
29
100
AcDbSun
 90
        1
290
     0
 63
     7
421
 16777215
 40
1.0
291
     1
 91
  2455826
 92
 54000000
292
     0
 70
     2
 71
   256
280
     1
  0
DICTIONARY
  5
160
102
{ACAD_REACTORS
330
C
102
}
330
C
100
AcDbDictionary
281
     1
  0
DICTIONARY
  5
D
102
{ACAD_REACTORS
330
C
102
}
330
C
100
AcDbDictionary
281
     1
  0
DICTIONARY
  5
1A
102
{ACAD_REACTORS
330
C
102
}
330
C
100
AcDbDictionary
281
     1
  3
Layout1
350
1E
  3
Layout2
350
26
  3
Model
350
22
  0
DICTIONARY
  5
43
102
{ACAD_REACTORS
330
C
102
}
330
C
100
AcDbDictionary
281
     1
  3
ByBlock
350
45
  3
ByLayer
350
44
  3
Global
350
46
  0
DICTIONARY
  5
6B
102
{ACAD_REACTORS
330
C
102
}
330
C
100
AcDbDictionary
281
     1
  3
Standard
350
6C
  0
DICTIONARY
  5
17
102
{ACAD_REACTORS
330
C
102
}
330
C
100
AcDbDictionary
281
     1
  3
Standard
350
18
  0
DICTIONARY
  5
19
102
{ACAD_REACTORS
330
C
102
}
330
C
100
AcDbDictionary
281
     1
  0
ACDBDICTIONARYWDFLT
  5
E
102
{ACAD_REACTORS
330
C
102
}
330
C
100
AcDbDictionary
281
     1
  3
Normal
350
F
100
AcDbDictionaryWithDefault
340
F
  0
DICTIONARY
  5
47
102
{ACAD_REACTORS
330
C
102
}
330
C
100
AcDbDictionary
281
     1
  3
A0
350
48
  3
A1
350
49
  3
A2
350
4A
  3
A3
350
4B
  3
A4
350
4C
  3
A5
350
4D
  3
A6
350
4E
  3
A7
350
4F
  3
A8
350
50
  3
A9
350
51
  3
B0
350
52
  3
B1
350
53
  3
B2
350
54
  3
B3
350
55
  3
B4
350
56
  3
B5
350
57
  3
B6
350
58
  3
B7
350
59
  3
B8
350
5A
  3
B9
350
5B
  3
C0
350
5C
  3
C1
350
5D
  3
C2
350
5E
  3
C3
350
5F
  3
C4
350
60
  3
C5
350
61
  3
C6
350
62
  3
C7
350
63
  3
C8
350
64
  3
C9
350
65
  3
D0
350
66
  3
D1
350
67
  3
D2
350
68
  0
DICTIONARY
  5
161
102
{ACAD_REACTORS
330
C
102
}
330
C
100
AcDbDictionary
281
     1
  0
DICTIONARY
  5
69
102
{ACAD_REACTORS
330
C
102
}
330
C
100
AcDbDictionary
281
     1
  3
Standard
350
6A
  0
DICTIONARY
  5
2A
102
{ACAD_REACTORS
330
C
102
}
330
C
100
AcDbDictionary
281
     1
  3
2dWireframe
350
2F
  3
Basic
350
32
  3
Brighten
350
36
  3
ColorChange
350
3A
  3
Conceptual
350
34
  3
Dim
350
35
  3
EdgeColorOff
350
3D
  3
Facepattern
350
39
  3
Flat
350
2B
  3
FlatWithEdges
350
2C
  3
Gouraud
350
2D
  3
GouraudWithEdges
350
2E
  3
Hidden
350
31
  3
JitterOff
350
3B
  3
Linepattern
350
38
  3
OverhangOff
350
3C
  3
Realistic
350
33
  3
Shaded
350
42
  3
Shaded with edges
350
41
  3
Shades of Gray
350
3E
  3
Sketchy
350
3F
  3
Thicken
350
37
  3
Wireframe
350
30
  3
X-Ray
350
40
  0
XRECORD
  5
15D
102
{ACAD_REACTORS
330
C
102
}
330
C
100
AcDbXrecord
280
     1
 90
        1
330
6A
  0
DICTIONARY
  5
159
102
{ACAD_REACTORS
330
C
102
}
330
C
100
AcDbDictionary
281
     1
  3
CANNOSCALE
350
15A
  3
CMLEADERSTYLE
350
15F
  3
CTABLESTYLE
350
15E
  0
LAYOUT
  5
1E
102
{ACAD_REACTORS
330
1A
102
}
330
1A
100
AcDbPlotSettings
  1

  2
none_device
  4

  6

 40
0.0
 41
0.0
 42
0.0
 43
0.0
 44
0.0
 45
0.0
 46
0.0
 47
0.0
 48
0.0
 49
0.0
140
0.0
141
0.0
142
1.0
143
1.0
 70
   688
 72
     0
 73
     0
 74
     5
  7

 75
    16
 76
     0
 77
     2
 78
   300
147
1.0
148
0.0
149
0.0
100
AcDbLayout
  1
Layout1
 70
     1
 71
     1
 10
0.0
 20
0.0
 11
12.0
 21
9.0
 12
0.0
 22
0.0
 32
0.0
 14
1.000000000000000E+20
 24
1.000000000000000E+20
 34
1.000000000000000E+20
 15
-1.000000000000000E+20
 25
-1.000000000000000E+20
 35
-1.000000000000000E+20
146
0.0
 13
0.0
 23
0.0
 33
0.0
 16
1.0
 26
0.0
 36
0.0
 17
0.0
 27
1.0
 37
0.0
 76
     0
330
1B
  0
LAYOUT
  5
26
102
{ACAD_REACTORS
330
1A
102
}
330
1A
100
AcDbPlotSettings
  1

  2
none_device
  4

  6

 40
0.0
 41
0.0
 42
0.0
 43
0.0
 44
0.0
 45
0.0
 46
0.0
 47
0.0
 48
0.0
 49
0.0
140
0.0
141
0.0
142
1.0
143
1.0
 70
   688
 72
     0
 73
     0
 74
     5
  7

 75
    16
 76
     0
 77
     2
 78
   300
147
1.0
148
0.0
149
0.0
100
AcDbLayout
  1
Layout2
 70
     1
 71
     2
 10
0.0
 20
0.0
 11
0.0
 21
0.0
 12
0.0
 22
0.0
 32
0.0
 14
0.0
 24
0.0
 34
0.0
 15
0.0
 25
0.0
 35
0.0
146
0.0
 13
0.0
 23
0.0
 33
0.0
 16
1.0
 26
0.0
 36
0.0
 17
0.0
 27
1.0
 37
0.0
 76
     0
330
23
  0
LAYOUT
  5
22
102
{ACAD_REACTORS
330
1A
102
}
330
1A
100
AcDbPlotSettings
  1

  2
none_device
  4
Letter_(8.50_x_11.00_Inches)
  6

 40
6.35
 41
6.35
 42
6.35000508
 43
6.35000508
 44
215.9
 45
279.4
 46
0.0
 47
0.0
 48
0.0
 49
0.0
140
0.0
141
0.0
142
1.0
143
1.0
 70
  1712
 72
     0
 73
     0
 74
     0
  7

 75
     0
 76
     0
 77
     2
 78
   300
147
1.0
148
0.0
149
0.0
100
AcDbLayout
  1
Model
 70
     1
 71
     0
 10
0.0
 20
0.0
 11
12.0
 21
9.0
 12
0.0
 22
0.0
 32
0.0
 14
1.000000000000000E+20
 24
1.000000000000000E+20
 34
1.000000000000000E+20
 15
-1.000000000000000E+20
 25
-1.000000000000000E+20
 35
-1.000000000000000E+20
146
0.0
 13
0.0
 23
0.0
 33
0.0
 16
1.0
 26
0.0
 36
0.0
 17
0.0
 27
1.0
 37
0.0
 76
     0
330
1F
331
29
  0
MATERIAL
  5
45
102
{ACAD_REACTORS
330
43
102
}
330
43
100
AcDbMaterial
  1
ByBlock
 72
     1
 94
      127
  0
MATERIAL
  5
44
102
{ACAD_REACTORS
330
43
102
}
330
43
100
AcDbMaterial
  1
ByLayer
 72
     1
 94
      127
  0
MATERIAL
  5
46
102
{ACAD_REACTORS
330
43
102
}
330
43
100
AcDbMaterial
  1
Global
 72
     1
 94
      127
  0
MLEADERSTYLE
  5
6C
102
{ACAD_REACTORS
330
6B
102
}
330
6B
100
AcDbMLeaderStyle
179
     2
170
     2
171
     1
172
     0
 90
        2
 40
0.0
 41
0.0
173
     1
 91
-1056964608
340
14
 92
       -2
290
     1
 42
0.09
291
     1
 43
0.36
  3
Standard
341
0
 44
0.18
300

342
11
174
     1
178
     6
175
     1
176
     0
 93
-1056964608
 45
0.18
292
     0
297
     0
 46
0.18
343
0
 94
-1056964608
 47
1.0
 49
1.0
140
1.0
293
     1
141
0.0
294
     1
177
     0
142
1.0
295
     0
296
     0
143
0.125
271
     0
272
     9
273
     9
298
     0
  0
MLINESTYLE
  5
18
102
{ACAD_REACTORS
330
17
102
}
330
17
100
AcDbMlineStyle
  2
Standard
 70
     0
  3

 62
   256
 51
90.0
 52
90.0
 71
     2
 49
0.5
 62
   256
  6
BYLAYER
 49
-0.5
 62
   256
  6
BYLAYER
  0
ACDBPLACEHOLDER
  5
F
102
{ACAD_REACTORS
330
E
102
}
330
E
  0
SCALE
  5
48
102
{ACAD_REACTORS
330
47
102
}
330
47
100
AcDbScale
 70
     0
300
1:1
140
1.0
141
1.0
290
     1
  0
SCALE
  5
49
102
{ACAD_REACTORS
330
47
102
}
330
47
100
AcDbScale
 70
     0
300
1:2
140
1.0
141
2.0
290
     0
  0
SCALE
  5
4A
102
{ACAD_REACTORS
330
47
102
}
330
47
100
AcDbScale
 70
     0
300
1:4
140
1.0
141
4.0
290
     0
  0
SCALE
  5
4B
102
{ACAD_REACTORS
330
47
102
}
330
47
100
AcDbScale
 70
     0
300
1:5
140
1.0
141
5.0
290
     0
  0
SCALE
  5
4C
102
{ACAD_REACTORS
330
47
102
}
330
47
100
AcDbScale
 70
     0
300
1:8
140
1.0
141
8.0
290
     0
  0
SCALE
  5
4D
102
{ACAD_REACTORS
330
47
102
}
330
47
100
AcDbScale
 70
     0
300
1:10
140
1.0
141
10.0
290
     0
  0
SCALE
  5
4E
102
{ACAD_REACTORS
330
47
102
}
330
47
100
AcDbScale
 70
     0
300
1:16
140
1.0
141
16.0
290
     0
  0
SCALE
  5
4F
102
{ACAD_REACTORS
330
47
102
}
330
47
100
AcDbScale
 70
     0
300
1:20
140
1.0
141
20.0
290
     0
  0
SCALE
  5
50
102
{ACAD_REACTORS
330
47
102
}
330
47
100
AcDbScale
 70
     0
300
1:30
140
1.0
141
30.0
290
     0
  0
SCALE
  5
51
102
{ACAD_REACTORS
330
47
102
}
330
47
100
AcDbScale
 70
     0
300
1:40
140
1.0
141
40.0
290
     0
  0
SCALE
  5
52
102
{ACAD_REACTORS
330
47
102
}
330
47
100
AcDbScale
 70
     0
300
1:50
140
1.0
141
50.0
290
     0
  0
SCALE
  5
53
102
{ACAD_REACTORS
330
47
102
}
330
47
100
AcDbScale
 70
     0
300
1:100
140
1.0
141
100.0
290
     0
  0
SCALE
  5
54
102
{ACAD_REACTORS
330
47
102
}
330
47
100
AcDbScale
 70
     0
300
2:1
140
2.0
141
1.0
290
     0
  0
SCALE
  5
55
102
{ACAD_REACTORS
330
47
102
}
330
47
100
AcDbScale
 70
     0
300
4:1
140
4.0
141
1.0
290
     0
  0
SCALE
  5
56
102
{ACAD_REACTORS
330
47
102
}
330
47
100
AcDbScale
 70
     0
300
8:1
140
8.0
141
1.0
290
     0
  0
SCALE
  5
57
102
{ACAD_REACTORS
330
47
102
}
330
47
100
AcDbScale
 70
     0
300
10:1
140
10.0
141
1.0
290
     0
  0
SCALE
  5
58
102
{ACAD_REACTORS
330
47
102
}
330
47
100
AcDbScale
 70
     0
300
100:1
140
100.0
141
1.0
290
     0
  0
SCALE
  5
59
102
{ACAD_REACTORS
330
47
102
}
330
47
100
AcDbScale
 70
     0
300
1/128" = 1'-0"
140
0.0078125
141
12.0
290
     0
  0
SCALE
  5
5A
102
{ACAD_REACTORS
330
47
102
}
330
47
100
AcDbScale
 70
     0
300
1/64" = 1'-0"
140
0.015625
141
12.0
290
     0
  0
SCALE
  5
5B
102
{ACAD_REACTORS
330
47
102
}
330
47
100
AcDbScale
 70
     0
300
1/32" = 1'-0"
140
0.03125
141
12.0
290
     0
  0
SCALE
  5
5C
102
{ACAD_REACTORS
330
47
102
}
330
47
100
AcDbScale
 70
     0
300
1/16" = 1'-0"
140
0.0625
141
12.0
290
     0
  0
SCALE
  5
5D
102
{ACAD_REACTORS
330
47
102
}
330
47
100
AcDbScale
 70
     0
300
3/32" = 1'-0"
140
0.09375
141
12.0
290
     0
  0
SCALE
  5
5E
102
{ACAD_REACTORS
330
47
102
}
330
47
100
AcDbScale
 70
     0
300
1/8" = 1'-0"
140
0.125
141
12.0
290
     0
  0
SCALE
  5
5F
102
{ACAD_REACTORS
330
47
102
}
330
47
100
AcDbScale
 70
     0
300
3/16" = 1'-0"
140
0.1875
141
12.0
290
     0
  0
SCALE
  5
60
102
{ACAD_REACTORS
330
47
102
}
330
47
100
AcDbScale
 70
     0
300
1/4" = 1'-0"
140
0.25
141
12.0
290
     0
  0
SCALE
  5
61
102
{ACAD_REACTORS
330
47
102
}
330
47
100
AcDbScale
 70
     0
300
3/8" = 1'-0"
140
0.375
141
12.0
290
     0
  0
SCALE
  5
62
102
{ACAD_REACTORS
330
47
102
}
330
47
100
AcDbScale
 70
     0
300
1/2" = 1'-0"
140
0.5
141
12.0
290
     0
  0
SCALE
  5
63
102
{ACAD_REACTORS
330
47
102
}
330
47
100
AcDbScale
 70
     0
300
3/4" = 1'-0"
140
0.75
141
12.0
290
     0
  0
SCALE
  5
64
102
{ACAD_REACTORS
330
47
102
}
330
47
100
AcDbScale
 70
     0
300
1" = 1'-0"
140
1.0
141
12.0
290
     0
  0
SCALE
  5
65
102
{ACAD_REACTORS
330
47
102
}
330
47
100
AcDbScale
 70
     0
300
1-1/2" = 1'-0"
140
1.5
141
12.0
290
     0
  0
SCALE
  5
66
102
{ACAD_REACTORS
330
47
102
}
330
47
100
AcDbScale
 70
     0
300
3" = 1'-0"
140
3.0
141
12.0
290
     0
  0
SCALE
  5
67
102
{ACAD_REACTORS
330
47
102
}
330
47
100
AcDbScale
 70
     0
300
6" = 1'-0"
140
6.0
141
12.0
290
     0
  0
SCALE
  5
68
102
{ACAD_REACTORS
330
47
102
}
330
47
100
AcDbScale
 70
     0
300
1'-0" = 1'-0"
140
12.0
141
12.0
290
     0
  0
TABLESTYLE
  5
6A
102
{ACAD_REACTORS
330
69
102
}
102
{ACAD_XDICTIONARY
360
15B
102
}
330
69
100
AcDbTableStyle
  3
Standard
 70
     0
 71
     0
 40
0.06
 41
0.06
280
     0
281
     0
  7
Standard
140
0.18
170
     2
 62
     0
 63
   257
283
     0
 90
        4
 91
        0
  1

274
    -2
284
     1
 64
     0
275
    -2
285
     1
 65
     0
276
    -2
286
     1
 66
     0
277
    -2
287
     1
 67
     0
278
    -2
288
     1
 68
     0
279
    -2
289
     1
 69
     0
  7
Standard
140
0.25
170
     5
 62
     0
 63
   257
283
     0
 90
        4
 91
        0
  1

274
    -2
284
     1
 64
     0
275
    -2
285
     1
 65
     0
276
    -2
286
     1
 66
     0
277
    -2
287
     1
 67
     0
278
    -2
288
     1
 68
     0
279
    -2
289
     1
 69
     0
  7
Standard
140
0.18
170
     5
 62
     0
 63
   257
283
     0
 90
        4
 91
        0
  1

274
    -2
284
     1
 64
     0
275
    -2
285
     1
 65
     0
276
    -2
286
     1
 66
     0
277
    -2
287
     1
 67
     0
278
    -2
288
     1
 68
     0
279
    -2
289
     1
 69
     0
  0
VISUALSTYLE
  5
2F
102
{ACAD_REACTORS
330
2A
102
}
330
2A
100
AcDbVisualStyle
  2
2dWireframe
 70
     4
177
     3
291
     0
 70
    58
 90
        0
176
     1
 90
        2
176
     1
 90
        0
176
     1
 90
        0
176
     1
 40
0.6
176
     1
 40
30.0
176
     1
 62
     7
420
 16777215
176
     1
 90
        1
176
     1
 90
        4
176
     1
 62
     7
176
     1
 62
   257
176
     1
 90
        1
176
     1
 90
        1
176
     1
 40
1.0
176
     1
 90
        0
176
     1
 62
   257
176
     1
 40
1.0
176
     1
 90
        1
176
     1
 90
        6
176
     1
 90
        2
176
     1
 62
     7
176
     1
 90
        5
176
     1
 90
        0
176
     1
 90
        0
176
     1
290
     0
176
     1
 90
        1
176
     1
 40
0.0
176
     1
 90
        0
176
     1
290
     1
176
     1
290
     1
176
     1
290
     0
176
     1
290
     0
176
     1
290
     0
176
     1
290
     0
176
     1
290
     0
176
     1
290
     0
176
     1
290
     0
176
     1
 90
       50
176
     1
 40
0.0
176
     1
 40
1.0
176
     1
 90
        0
176
     1
 62
    18
420
        0
176
     1
 90
       50
176
     1
 90
        3
176
     1
 62
     5
420
      255
176
     1
290
     0
176
     1
 90
       50
176
     1
 90
       50
176
     1
 90
       50
176
     1
290
     0
176
     1
 90
       50
176
     1
 62
   256
176
     0
 40
1.0
176
     0
 90
        2
176
     1
  1
strokes_ogs.tif
176
     1
290
     0
176
     1
 40
1.0
176
     1
 40
1.0
176
     1
  0
VISUALSTYLE
  5
32
102
{ACAD_REACTORS
330
2A
102
}
330
2A
100
AcDbVisualStyle
  2
Basic
 70
     7
177
     3
291
     1
 70
    58
 90
        1
176
     1
 90
        0
176
     1
 90
        1
176
     1
 90
        0
176
     1
 40
0.6
176
     1
 40
30.0
176
     1
 62
     7
420
 16777215
176
     1
 90
        0
176
     1
 90
        4
176
     1
 62
     7
176
     1
 62
   257
176
     1
 90
        1
176
     1
 90
        1
176
     1
 40
1.0
176
     1
 90
        8
176
     1
 62
     7
176
     1
 40
1.0
176
     1
 90
        1
176
     1
 90
        6
176
     1
 90
        2
176
     1
 62
     7
176
     1
 90
        5
176
     1
 90
        0
176
     1
 90
        0
176
     1
290
     0
176
     1
 90
        1
176
     1
 40
0.0
176
     1
 90
        0
176
     1
290
     0
176
     1
290
     1
176
     1
290
     1
176
     1
290
     0
176
     1
290
     0
176
     1
290
     0
176
     1
290
     0
176
     1
290
     0
176
     1
290
     0
176
     1
 90
       50
176
     1
 40
0.0
176
     1
 40
1.0
176
     1
 90
        0
176
     1
 62
    18
420
        0
176
     1
 90
       50
176
     1
 90
        3
176
     1
 62
     5
420
      255
176
     1
290
     0
176
     1
 90
       50
176
     1
 90
       50
176
     1
 90
       50
176
     1
290
     0
176
     1
 90
       50
176
     1
 62
   256
176
     0
 40
1.0
176
     0
 90
        2
176
     1
  1
strokes_ogs.tif
176
     1
290
     0
176
     1
 40
1.0
176
     1
 40
1.0
176
     1
  0
VISUALSTYLE
  5
36
102
{ACAD_REACTORS
330
2A
102
}
330
2A
100
AcDbVisualStyle
  2
Brighten
 70
    12
177
     3
291
     1
 70
    58
 90
        2
176
     1
 90
        2
176
     1
 90
        0
176
     1
 90
        0
176
     1
 40
0.6
176
     1
 40
30.0
176
     1
 62
     7
420
 16777215
176
     1
 90
        1
176
     1
 90
        4
176
     1
 62
     7
176
     1
 62
   257
176
     1
 90
        1
176
     1
 90
        1
176
     1
 40
1.0
176
     1
 90
        8
176
     1
 62
     7
176
     1
 40
1.0
176
     1
 90
        1
176
     1
 90
        6
176
     1
 90
        2
176
     1
 62
     7
176
     1
 90
        5
176
     1
 90
        0
176
     1
 90
        0
176
     1
290
     0
176
     1
 90
        1
176
     1
 40
50.0
176
     1
 90
        0
176
     1
290
     0
176
     1
290
     1
176
     1
290
     1
176
     1
290
     0
176
     1
290
     0
176
     1
290
     0
176
     1
290
     0
176
     1
290
     0
176
     1
290
     0
176
     1
 90
       50
176
     1
 40
0.0
176
     1
 40
1.0
176
     1
 90
        0
176
     1
 62
    18
420
        0
176
     1
 90
       50
176
     1
 90
        3
176
     1
 62
     5
420
      255
176
     1
290
     0
176
     1
 90
       50
176
     1
 90
       50
176
     1
 90
       50
176
     1
290
     0
176
     1
 90
       50
176
     1
 62
   256
176
     0
 40
1.0
176
     0
 90
        2
176
     1
  1
strokes_ogs.tif
176
     1
290
     0
176
     1
 40
1.0
176
     1
 40
1.0
176
     1
  0
VISUALSTYLE
  5
3A
102
{ACAD_REACTORS
330
2A
102
}
330
2A
100
AcDbVisualStyle
  2
ColorChange
 70
    16
177
     3
291
     1
 70
    58
 90
        2
176
     1
 90
        2
176
     1
 90
        3
176
     1
 90
        0
176
     1
 40
0.6
176
     1
 40
30.0
176
     1
 62
     8
420
  8421504
176
     1
 90
        1
176
     1
 90
        4
176
     1
 62
     7
176
     1
 62
   257
176
     1
 90
        1
176
     1
 90
        1
176
     1
 40
1.0
176
     1
 90
        8
176
     1
 62
     8
420
  8421504
176
     1
 40
1.0
176
     1
 90
        1
176
     1
 90
        6
176
     1
 90
        2
176
     1
 62
     7
176
     1
 90
        5
176
     1
 90
        0
176
     1
 90
        0
176
     1
290
     0
176
     1
 90
        1
176
     1
 40
0.0
176
     1
 90
        0
176
     1
290
     0
176
     1
290
     1
176
     1
290
     1
176
     1
290
     0
176
     1
290
     0
176
     1
290
     0
176
     1
290
     0
176
     1
290
     0
176
     1
290
     0
176
     1
 90
       50
176
     1
 40
0.0
176
     1
 40
1.0
176
     1
 90
        0
176
     1
 62
    18
420
        0
176
     1
 90
       50
176
     1
 90
        3
176
     1
 62
     5
420
      255
176
     1
290
     0
176
     1
 90
       50
176
     1
 90
       50
176
     1
 90
       50
176
     1
290
     0
176
     1
 90
       50
176
     1
 62
   256
176
     0
 40
1.0
176
     0
 90
        2
176
     1
  1
strokes_ogs.tif
176
     1
290
     0
176
     1
 40
1.0
176
     1
 40
1.0
176
     1
  0
VISUALSTYLE
  5
34
102
{ACAD_REACTORS
330
2A
102
}
330
2A
100
AcDbVisualStyle
  2
Conceptual
 70
     9
177
     3
291
     0
 70
    58
 90
        3
176
     1
 90
        2
176
     1
 90
        0
176
     1
 90
        0
176
     1
 40
0.6
176
     1
 40
30.0
176
     1
 62
     7
420
 16777215
176
     1
 90
        2
176
     1
 90
        2
176
     1
 62
     7
176
     1
 62
   257
176
     1
 90
        1
176
     1
 90
        1
176
     1
 40
179.0
176
     1
 90
        8
176
     1
 62
     7
176
     1
 40
1.0
176
     1
 90
        1
176
     1
 90
        6
176
     1
 90
        2
176
     1
 62
     7
176
     1
 90
        3
176
     1
 90
        0
176
     1
 90
        0
176
     1
290
     0
176
     1
 90
        1
176
     1
 40
0.0
176
     1
 90
        0
176
     1
290
     0
176
     1
290
     1
176
     1
290
     1
176
     1
290
     0
176
     1
290
     0
176
     1
290
     0
176
     1
290
     0
176
     1
290
     0
176
     1
290
     0
176
     1
 90
       50
176
     1
 40
0.0
176
     1
 40
1.0
176
     1
 90
        0
176
     1
 62
    18
420
        0
176
     1
 90
       50
176
     1
 90
        3
176
     1
 62
     5
420
      255
176
     1
290
     0
176
     1
 90
       50
176
     1
 90
       50
176
     1
 90
       50
176
     1
290
     0
176
     1
 90
       50
176
     1
 62
   256
176
     0
 40
1.0
176
     0
 90
        2
176
     1
  1
strokes_ogs.tif
176
     1
290
     0
176
     1
 40
1.0
176
     1
 40
1.0
176
     1
  0
VISUALSTYLE
  5
35
102
{ACAD_REACTORS
330
2A
102
}
330
2A
100
AcDbVisualStyle
  2
Dim
 70
    11
177
     3
291
     1
 70
    58
 90
        2
176
     1
 90
        2
176
     1
 90
        0
176
     1
 90
        0
176
     1
 40
0.6
176
     1
 40
30.0
176
     1
 62
     7
420
 16777215
176
     1
 90
        1
176
     1
 90
        4
176
     1
 62
     7
176
     1
 62
   257
176
     1
 90
        1
176
     1
 90
        1
176
     1
 40
1.0
176
     1
 90
        8
176
     1
 62
     7
176
     1
 40
1.0
176
     1
 90
        1
176
     1
 90
        6
176
     1
 90
        2
176
     1
 62
     7
176
     1
 90
        5
176
     1
 90
        0
176
     1
 90
        0
176
     1
290
     0
176
     1
 90
        1
176
     1
 40
-50.0
176
     1
 90
        0
176
     1
290
     0
176
     1
290
     1
176
     1
290
     1
176
     1
290
     0
176
     1
290
     0
176
     1
290
     0
176
     1
290
     0
176
     1
290
     0
176
     1
290
     0
176
     1
 90
       50
176
     1
 40
0.0
176
     1
 40
1.0
176
     1
 90
        0
176
     1
 62
    18
420
        0
176
     1
 90
       50
176
     1
 90
        3
176
     1
 62
     5
420
      255
176
     1
290
     0
176
     1
 90
       50
176
     1
 90
       50
176
     1
 90
       50
176
     1
290
     0
176
     1
 90
       50
176
     1
 62
   256
176
     0
 40
1.0
176
     0
 90
        2
176
     1
  1
strokes_ogs.tif
176
     1
290
     0
176
     1
 40
1.0
176
     1
 40
1.0
176
     1
  0
VISUALSTYLE
  5
3D
102
{ACAD_REACTORS
330
2A
102
}
330
2A
100
AcDbVisualStyle
  2
EdgeColorOff
 70
    22
177
     3
291
     1
 70
    58
 90
        2
176
     0
 90
        2
176
     0
 90
        0
176
     0
 90
        0
176
     0
 40
0.6
176
     0
 40
30.0
176
     0
 62
     7
420
 16777215
176
     0
 90
        1
176
     0
 90
        4
176
     0
 62
     7
176
     0
 62
   257
176
     0
 90
        1
176
     0
 90
        1
176
     0
 40
1.0
176
     0
 90
        8
176
     2
 62
     7
176
     0
 40
1.0
176
     0
 90
        1
176
     0
 90
        6
176
     0
 90
        2
176
     0
 62
     7
176
     0
 90
        5
176
     0
 90
        0
176
     0
 90
        0
176
     0
290
     0
176
     0
 90
        1
176
     0
 40
0.0
176
     0
 90
        0
176
     0
290
     0
176
     0
290
     1
176
     0
290
     1
176
     0
290
     0
176
     0
290
     0
176
     0
290
     0
176
     0
290
     0
176
     0
290
     0
176
     0
290
     0
176
     0
 90
       50
176
     0
 40
0.0
176
     0
 40
1.0
176
     0
 90
        0
176
     0
 62
    18
420
        0
176
     0
 90
       50
176
     0
 90
        3
176
     0
 62
     5
420
      255
176
     0
290
     0
176
     0
 90
       50
176
     0
 90
       50
176
     0
 90
       50
176
     0
290
     0
176
     0
 90
       50
176
     0
 62
   256
176
     0
 40
1.0
176
     0
 90
        2
176
     0
  1
strokes_ogs.tif
176
     0
290
     0
176
     0
 40
1.0
176
     0
 40
1.0
176
     0
  0
VISUALSTYLE
  5
39
102
{ACAD_REACTORS
330
2A
102
}
330
2A
100
AcDbVisualStyle
  2
Facepattern
 70
    15
177
     3
291
     1
 70
    58
 90
        2
176
     1
 90
        2
176
     1
 90
        0
176
     1
 90
        0
176
     1
 40
0.6
176
     1
 40
30.0
176
     1
 62
     7
420
 16777215
176
     1
 90
        1
176
     1
 90
        4
176
     1
 62
     7
176
     1
 62
   257
176
     1
 90
        1
176
     1
 90
        1
176
     1
 40
1.0
176
     1
 90
        8
176
     1
 62
     7
176
     1
 40
1.0
176
     1
 90
        1
176
     1
 90
        6
176
     1
 90
        2
176
     1
 62
     7
176
     1
 90
        5
176
     1
 90
        0
176
     1
 90
        0
176
     1
290
     0
176
     1
 90
        1
176
     1
 40
0.0
176
     1
 90
        0
176
     1
290
     0
176
     1
290
     1
176
     1
290
     1
176
     1
290
     0
176
     1
290
     0
176
     1
290
     0
176
     1
290
     0
176
     1
290
     0
176
     1
290
     0
176
     1
 90
       50
176
     1
 40
0.0
176
     1
 40
1.0
176
     1
 90
        0
176
     1
 62
    18
420
        0
176
     1
 90
       50
176
     1
 90
        3
176
     1
 62
     5
420
      255
176
     1
290
     0
176
     1
 90
       50
176
     1
 90
       50
176
     1
 90
       50
176
     1
290
     0
176
     1
 90
       50
176
     1
 62
   256
176
     0
 40
1.0
176
     0
 90
        2
176
     1
  1
strokes_ogs.tif
176
     1
290
     0
176
     1
 40
1.0
176
     1
 40
1.0
176
     1
  0
VISUALSTYLE
  5
2B
102
{ACAD_REACTORS
330
2A
102
}
330
2A
100
AcDbVisualStyle
  2
Flat
 70
     0
177
     3
291
     1
 70
    58
 90
        2
176
     1
 90
        1
176
     1
 90
        1
176
     1
 90
        2
176
     1
 40
0.6
176
     1
 40
30.0
176
     1
 62
     7
420
 16777215
176
     1
 90
        0
176
     1
 90
        0
176
     1
 62
     7
176
     1
 62
   257
176
     1
 90
        1
176
     1
 90
        1
176
     1
 40
1.0
176
     1
 90
        8
176
     1
 62
     7
176
     1
 40
1.0
176
     1
 90
        1
176
     1
 90
        6
176
     1
 90
        2
176
     1
 62
     7
176
     1
 90
        5
176
     1
 90
        0
176
     1
 90
        0
176
     1
290
     0
176
     1
 90
       13
176
     1
 40
0.0
176
     1
 90
        0
176
     1
290
     0
176
     1
290
     1
176
     1
290
     1
176
     1
290
     0
176
     1
290
     0
176
     1
290
     0
176
     1
290
     0
176
     1
290
     0
176
     1
290
     0
176
     1
 90
       50
176
     1
 40
0.0
176
     1
 40
1.0
176
     1
 90
        0
176
     1
 62
    18
420
        0
176
     1
 90
       50
176
     1
 90
        3
176
     1
 62
     5
420
      255
176
     1
290
     0
176
     1
 90
       50
176
     1
 90
       50
176
     1
 90
       50
176
     1
290
     0
176
     1
 90
       50
176
     1
 62
   256
176
     0
 40
1.0
176
     0
 90
        2
176
     1
  1
strokes_ogs.tif
176
     1
290
     0
176
     1
 40
1.0
176
     1
 40
1.0
176
     1
  0
VISUALSTYLE
  5
2C
102
{ACAD_REACTORS
330
2A
102
}
330
2A
100
AcDbVisualStyle
  2
FlatWithEdges
 70
     1
177
     3
291
     1
 70
    58
 90
        2
176
     1
 90
        1
176
     1
 90
        1
176
     1
 90
        2
176
     1
 40
0.6
176
     1
 40
30.0
176
     1
 62
     7
420
 16777215
176
     1
 90
        1
176
     1
 90
        0
176
     1
 62
     7
176
     1
 62
   257
176
     1
 90
        1
176
     1
 90
        1
176
     1
 40
1.0
176
     1
 90
        0
176
     1
 62
   257
176
     1
 40
1.0
176
     1
 90
        1
176
     1
 90
        6
176
     1
 90
        2
176
     1
 62
     7
176
     1
 90
        5
176
     1
 90
        0
176
     1
 90
        0
176
     1
290
     0
176
     1
 90
       13
176
     1
 40
0.0
176
     1
 90
        0
176
     1
290
     0
176
     1
290
     1
176
     1
290
     1
176
     1
290
     0
176
     1
290
     0
176
     1
290
     0
176
     1
290
     0
176
     1
290
     0
176
     1
290
     0
176
     1
 90
       50
176
     1
 40
0.0
176
     1
 40
1.0
176
     1
 90
        0
176
     1
 62
    18
420
        0
176
     1
 90
       50
176
     1
 90
        3
176
     1
 62
     5
420
      255
176
     1
290
     0
176
     1
 90
       50
176
     1
 90
       50
176
     1
 90
       50
176
     1
290
     0
176
     1
 90
       50
176
     1
 62
   256
176
     0
 40
1.0
176
     0
 90
        2
176
     1
  1
strokes_ogs.tif
176
     1
290
     0
176
     1
 40
1.0
176
     1
 40
1.0
176
     1
  0
VISUALSTYLE
  5
2D
102
{ACAD_REACTORS
330
2A
102
}
330
2A
100
AcDbVisualStyle
  2
Gouraud
 70
     2
177
     3
291
     1
 70
    58
 90
        2
176
     1
 90
        2
176
     1
 90
        1
176
     1
 90
        2
176
     1
 40
0.6
176
     1
 40
30.0
176
     1
 62
     7
420
 16777215
176
     1
 90
        0
176
     1
 90
        0
176
     1
 62
     7
176
     1
 62
   257
176
     1
 90
        1
176
     1
 90
        1
176
     1
 40
1.0
176
     1
 90
        0
176
     1
 62
     7
176
     1
 40
1.0
176
     1
 90
        1
176
     1
 90
        6
176
     1
 90
        2
176
     1
 62
     7
176
     1
 90
        5
176
     1
 90
        0
176
     1
 90
        0
176
     1
290
     0
176
     1
 90
       13
176
     1
 40
0.0
176
     1
 90
        0
176
     1
290
     0
176
     1
290
     1
176
     1
290
     1
176
     1
290
     0
176
     1
290
     0
176
     1
290
     0
176
     1
290
     0
176
     1
290
     0
176
     1
290
     0
176
     1
 90
       50
176
     1
 40
0.0
176
     1
 40
1.0
176
     1
 90
        0
176
     1
 62
    18
420
        0
176
     1
 90
       50
176
     1
 90
        3
176
     1
 62
     5
420
      255
176
     1
290
     0
176
     1
 90
       50
176
     1
 90
       50
176
     1
 90
       50
176
     1
290
     0
176
     1
 90
       50
176
     1
 62
   256
176
     0
 40
1.0
176
     0
 90
        2
176
     1
  1
strokes_ogs.tif
176
     1
290
     0
176
     1
 40
1.0
176
     1
 40
1.0
176
     1
  0
VISUALSTYLE
  5
2E
102
{ACAD_REACTORS
330
2A
102
}
330
2A
100
AcDbVisualStyle
  2
GouraudWithEdges
 70
     3
177
     3
291
     1
 70
    58
 90
        2
176
     1
 90
        2
176
     1
 90
        1
176
     1
 90
        2
176
     1
 40
0.6
176
     1
 40
30.0
176
     1
 62
     7
420
 16777215
176
     1
 90
        1
176
     1
 90
        0
176
     1
 62
     7
176
     1
 62
   257
176
     1
 90
        1
176
     1
 90
        1
176
     1
 40
1.0
176
     1
 90
        0
176
     1
 62
   257
176
     1
 40
1.0
176
     1
 90
        1
176
     1
 90
        6
176
     1
 90
        2
176
     1
 62
     7
176
     1
 90
        5
176
     1
 90
        0
176
     1
 90
        0
176
     1
290
     0
176
     1
 90
       13
176
     1
 40
0.0
176
     1
 90
        0
176
     1
290
     0
176
     1
290
     1
176
     1
290
     1
176
     1
290
     0
176
     1
290
     0
176
     1
290
     0
176
     1
290
     0
176
     1
290
     0
176
     1
290
     0
176
     1
 90
       50
176
     1
 40
0.0
176
     1
 40
1.0
176
     1
 90
        0
176
     1
 62
    18
420
        0
176
     1
 90
       50
176
     1
 90
        3
176
     1
 62
     5
420
      255
176
     1
290
     0
176
     1
 90
       50
176
     1
 90
       50
176
     1
 90
       50
176
     1
290
     0
176
     1
 90
       50
176
     1
 62
   256
176
     0
 40
1.0
176
     0
 90
        2
176
     1
  1
strokes_ogs.tif
176
     1
290
     0
176
     1
 40
1.0
176
     1
 40
1.0
176
     1
  0
VISUALSTYLE
  5
31
102
{ACAD_REACTORS
330
2A
102
}
330
2A
100
AcDbVisualStyle
  2
Hidden
 70
     6
177
     3
291
     0
 70
    58
 90
        1
176
     1
 90
        2
176
     1
 90
        2
176
     1
 90
        0
176
     1
 40
0.6
176
     1
 40
30.0
176
     1
 62
     7
420
 16777215
176
     1
 90
        2
176
     1
 90
        2
176
     1
 62
     7
176
     1
 62
   257
176
     1
 90
        2
176
     1
 90
        1
176
     1
 40
40.0
176
     1
 90
        0
176
     1
 62
   257
176
     1
 40
1.0
176
     1
 90
        1
176
     1
 90
        6
176
     1
 90
        2
176
     1
 62
     7
176
     1
 90
        3
176
     1
 90
        0
176
     1
 90
        0
176
     1
290
     0
176
     1
 90
        1
176
     1
 40
0.0
176
     1
 90
        0
176
     1
290
     0
176
     1
290
     1
176
     1
290
     1
176
     1
290
     0
176
     1
290
     0
176
     1
290
     0
176
     1
290
     0
176
     1
290
     0
176
     1
290
     0
176
     1
 90
       50
176
     1
 40
0.0
176
     1
 40
1.0
176
     1
 90
        0
176
     1
 62
    18
420
        0
176
     1
 90
       50
176
     1
 90
        3
176
     1
 62
     5
420
      255
176
     1
290
     0
176
     1
 90
       50
176
     1
 90
       50
176
     1
 90
       50
176
     1
290
     0
176
     1
 90
       50
176
     1
 62
   256
176
     0
 40
1.0
176
     0
 90
        2
176
     1
  1
strokes_ogs.tif
176
     1
290
     0
176
     1
 40
1.0
176
     1
 40
1.0
176
     1
  0
VISUALSTYLE
  5
3B
102
{ACAD_REACTORS
330
2A
102
}
330
2A
100
AcDbVisualStyle
  2
JitterOff
 70
    20
177
     3
291
     1
 70
    58
 90
        2
176
     0
 90
        2
176
     0
 90
        0
176
     0
 90
        0
176
     0
 40
0.6
176
     0
 40
30.0
176
     0
 62
     7
420
 16777215
176
     0
 90
        1
176
     0
 90
        4
176
     0
 62
     7
176
     0
 62
   257
176
     0
 90
        1
176
     0
 90
        1
176
     0
 40
1.0
176
     0
 90
       10
176
     2
 62
     7
176
     0
 40
1.0
176
     0
 90
        1
176
     0
 90
        6
176
     0
 90
        2
176
     0
 62
     7
176
     0
 90
        5
176
     0
 90
        0
176
     0
 90
        0
176
     0
290
     0
176
     0
 90
        1
176
     0
 40
0.0
176
     0
 90
        0
176
     0
290
     0
176
     0
290
     1
176
     0
290
     1
176
     0
290
     0
176
     0
290
     0
176
     0
290
     0
176
     0
290
     0
176
     0
290
     0
176
     0
290
     0
176
     0
 90
       50
176
     0
 40
0.0
176
     0
 40
1.0
176
     0
 90
        0
176
     0
 62
    18
420
        0
176
     0
 90
       50
176
     0
 90
        3
176
     0
 62
     5
420
      255
176
     0
290
     0
176
     0
 90
       50
176
     0
 90
       50
176
     0
 90
       50
176
     0
290
     0
176
     0
 90
       50
176
     0
 62
   256
176
     0
 40
1.0
176
     0
 90
        2
176
     0
  1
strokes_ogs.tif
176
     0
290
     0
176
     0
 40
1.0
176
     0
 40
1.0
176
     0
  0
VISUALSTYLE
  5
38
102
{ACAD_REACTORS
330
2A
102
}
330
2A
100
AcDbVisualStyle
  2
Linepattern
 70
    14
177
     3
291
     1
 70
    58
 90
        2
176
     1
 90
        2
176
     1
 90
        0
176
     1
 90
        0
176
     1
 40
0.6
176
     1
 40
30.0
176
     1
 62
     7
420
 16777215
176
     1
 90
        1
176
     1
 90
        4
176
     1
 62
     7
176
     1
 62
   257
176
     1
 90
        7
176
     1
 90
        7
176
     1
 40
1.0
176
     1
 90
        8
176
     1
 62
     7
176
     1
 40
1.0
176
     1
 90
        1
176
     1
 90
        6
176
     1
 90
        2
176
     1
 62
     7
176
     1
 90
        5
176
     1
 90
        0
176
     1
 90
        0
176
     1
290
     0
176
     1
 90
        1
176
     1
 40
0.0
176
     1
 90
        0
176
     1
290
     0
176
     1
290
     1
176
     1
290
     1
176
     1
290
     0
176
     1
290
     0
176
     1
290
     0
176
     1
290
     0
176
     1
290
     0
176
     1
290
     0
176
     1
 90
       50
176
     1
 40
0.0
176
     1
 40
1.0
176
     1
 90
        0
176
     1
 62
    18
420
        0
176
     1
 90
       50
176
     1
 90
        3
176
     1
 62
     5
420
      255
176
     1
290
     0
176
     1
 90
       50
176
     1
 90
       50
176
     1
 90
       50
176
     1
290
     0
176
     1
 90
       50
176
     1
 62
   256
176
     0
 40
1.0
176
     0
 90
        2
176
     1
  1
strokes_ogs.tif
176
     1
290
     0
176
     1
 40
1.0
176
     1
 40
1.0
176
     1
  0
VISUALSTYLE
  5
3C
102
{ACAD_REACTORS
330
2A
102
}
330
2A
100
AcDbVisualStyle
  2
OverhangOff
 70
    21
177
     3
291
     1
 70
    58
 90
        2
176
     0
 90
        2
176
     0
 90
        0
176
     0
 90
        0
176
     0
 40
0.6
176
     0
 40
30.0
176
     0
 62
     7
420
 16777215
176
     0
 90
        1
176
     0
 90
        4
176
     0
 62
     7
176
     0
 62
   257
176
     0
 90
        1
176
     0
 90
        1
176
     0
 40
1.0
176
     0
 90
        9
176
     2
 62
     7
176
     0
 40
1.0
176
     0
 90
        1
176
     0
 90
        6
176
     0
 90
        2
176
     0
 62
     7
176
     0
 90
        5
176
     0
 90
        0
176
     0
 90
        0
176
     0
290
     0
176
     0
 90
        1
176
     0
 40
0.0
176
     0
 90
        0
176
     0
290
     0
176
     0
290
     1
176
     0
290
     1
176
     0
290
     0
176
     0
290
     0
176
     0
290
     0
176
     0
290
     0
176
     0
290
     0
176
     0
290
     0
176
     0
 90
       50
176
     0
 40
0.0
176
     0
 40
1.0
176
     0
 90
        0
176
     0
 62
    18
420
        0
176
     0
 90
       50
176
     0
 90
        3
176
     0
 62
     5
420
      255
176
     0
290
     0
176
     0
 90
       50
176
     0
 90
       50
176
     0
 90
       50
176
     0
290
     0
176
     0
 90
       50
176
     0
 62
   256
176
     0
 40
1.0
176
     0
 90
        2
176
     0
  1
strokes_ogs.tif
176
     0
290
     0
176
     0
 40
1.0
176
     0
 40
1.0
176
     0
  0
VISUALSTYLE
  5
33
102
{ACAD_REACTORS
330
2A
102
}
330
2A
100
AcDbVisualStyle
  2
Realistic
 70
     8
177
     3
291
     0
 70
    58
 90
        2
176
     1
 90
        3
176
     1
 90
        0
176
     1
 90
        2
176
     1
 40
0.6
176
     1
 40
30.0
176
     1
 62
     7
420
 16777215
176
     1
 90
        0
176
     1
 90
        0
176
     1
 62
     7
176
     1
 62
   257
176
     1
 90
        1
176
     1
 90
        1
176
     1
 40
1.0
176
     1
 90
        8
176
     1
 62
   257
176
     1
 40
1.0
176
     1
 90
        1
176
     1
 90
        6
176
     1
 90
        2
176
     1
 62
     7
176
     1
 90
        3
176
     1
 90
        0
176
     1
 90
        0
176
     1
290
     0
176
     1
 90
       13
176
     1
 40
0.0
176
     1
 90
        0
176
     1
290
     0
176
     1
290
     1
176
     1
290
     1
176
     1
290
     0
176
     1
290
     0
176
     1
290
     0
176
     1
290
     0
176
     1
290
     0
176
     1
290
     0
176
     1
 90
       50
176
     1
 40
0.0
176
     1
 40
1.0
176
     1
 90
        0
176
     1
 62
    18
420
        0
176
     1
 90
       50
176
     1
 90
        3
176
     1
 62
     5
420
      255
176
     1
290
     0
176
     1
 90
       50
176
     1
 90
       50
176
     1
 90
       50
176
     1
290
     0
176
     1
 90
       50
176
     1
 62
   256
176
     0
 40
1.0
176
     0
 90
        2
176
     1
  1
strokes_ogs.tif
176
     1
290
     0
176
     1
 40
1.0
176
     1
 40
1.0
176
     1
  0
VISUALSTYLE
  5
42
102
{ACAD_REACTORS
330
2A
102
}
330
2A
100
AcDbVisualStyle
  2
Shaded
 70
    27
177
     3
291
     0
 70
    58
 90
        2
176
     1
 90
        2
176
     1
 90
        1
176
     1
 90
        2
176
     1
 40
0.6
176
     1
 40
30.0
176
     1
 62
     7
420
 16777215
176
     1
 90
        0
176
     1
 90
        4
176
     1
 62
     7
176
     1
 62
   257
176
     1
 90
        1
176
     1
 90
        1
176
     1
 40
1.0
176
     1
 90
        8
176
     1
 62
   257
176
     1
 40
1.0
176
     1
 90
        1
176
     1
 90
        6
176
     1
 90
        2
176
     1
 62
     8
420
  7895160
176
     1
 90
        3
176
     1
 90
        0
176
     1
 90
        0
176
     1
290
     0
176
     1
 90
        5
176
     1
 40
0.0
176
     1
 90
        0
176
     1
290
     0
176
     1
290
     1
176
     1
290
     1
176
     1
290
     0
176
     1
290
     0
176
     1
290
     0
176
     1
290
     0
176
     1
290
     0
176
     1
290
     0
176
     1
 90
       50
176
     1
 40
0.0
176
     1
 40
1.0
176
     1
 90
        0
176
     1
 62
    18
420
        0
176
     1
 90
       50
176
     1
 90
        3
176
     1
 62
     5
420
      255
176
     1
290
     0
176
     1
 90
       50
176
     1
 90
       50
176
     1
 90
       50
176
     1
290
     0
176
     1
 90
       50
176
     1
 62
   256
176
     0
 40
1.0
176
     0
 90
        2
176
     1
  1
strokes_ogs.tif
176
     1
290
     0
176
     1
 40
1.0
176
     1
 40
1.0
176
     1
  0
VISUALSTYLE
  5
41
102
{ACAD_REACTORS
330
2A
102
}
330
2A
100
AcDbVisualStyle
  2
Shaded with edges
 70
    26
177
     3
291
     0
 70
    58
 90
        2
176
     1
 90
        2
176
     1
 90
        1
176
     1
 90
        2
176
     1
 40
0.6
176
     1
 40
30.0
176
     1
 62
     7
420
 16777215
176
     1
 90
        1
176
     1
 90
       10
176
     1
 62
     7
176
     1
 62
   257
176
     1
 90
        2
176
     1
 90
        1
176
     1
 40
1.0
176
     1
 90
        8
176
     1
 62
   257
176
     1
 40
1.0
176
     1
 90
        1
176
     1
 90
        6
176
     1
 90
        2
176
     1
 62
     7
176
     1
 90
        3
176
     1
 90
        0
176
     1
 90
        0
176
     1
290
     0
176
     1
 90
        5
176
     1
 40
0.0
176
     1
 90
        0
176
     1
290
     0
176
     1
290
     1
176
     1
290
     1
176
     1
290
     0
176
     1
290
     0
176
     1
290
     0
176
     1
290
     0
176
     1
290
     0
176
     1
290
     0
176
     1
 90
       50
176
     1
 40
0.0
176
     1
 40
1.0
176
     1
 90
        0
176
     1
 62
    18
420
        0
176
     1
 90
       50
176
     1
 90
        3
176
     1
 62
     5
420
      255
176
     1
290
     0
176
     1
 90
       50
176
     1
 90
       50
176
     1
 90
       50
176
     1
290
     0
176
     1
 90
       50
176
     1
 62
   256
176
     0
 40
1.0
176
     0
 90
        2
176
     1
  1
strokes_ogs.tif
176
     1
290
     0
176
     1
 40
1.0
176
     1
 40
1.0
176
     1
  0
VISUALSTYLE
  5
3E
102
{ACAD_REACTORS
330
2A
102
}
330
2A
100
AcDbVisualStyle
  2
Shades of Gray
 70
    23
177
     3
291
     0
 70
    58
 90
        2
176
     1
 90
        2
176
     1
 90
        3
176
     1
 90
        0
176
     1
 40
0.6
176
     1
 40
30.0
176
     1
 62
     7
420
 16777215
176
     1
 90
        2
176
     1
 90
        2
176
     1
 62
     7
176
     1
 62
     7
176
     1
 90
        1
176
     1
 90
        1
176
     1
 40
40.0
176
     1
 90
        8
176
     1
 62
     7
176
     1
 40
1.0
176
     1
 90
        1
176
     1
 90
        6
176
     1
 90
        2
176
     1
 62
     7
176
     1
 90
        3
176
     1
 90
        0
176
     1
 90
        0
176
     1
290
     0
176
     1
 90
        1
176
     1
 40
0.0
176
     1
 90
        0
176
     1
290
     0
176
     1
290
     1
176
     1
290
     1
176
     1
290
     0
176
     1
290
     0
176
     1
290
     0
176
     1
290
     0
176
     1
290
     0
176
     1
290
     0
176
     1
 90
       50
176
     1
 40
0.0
176
     1
 40
1.0
176
     1
 90
        0
176
     1
 62
    18
420
        0
176
     1
 90
       50
176
     1
 90
        3
176
     1
 62
     5
420
      255
176
     1
290
     0
176
     1
 90
       50
176
     1
 90
       50
176
     1
 90
       50
176
     1
290
     0
176
     1
 90
       50
176
     1
 62
   256
176
     0
 40
1.0
176
     0
 90
        2
176
     1
  1
strokes_ogs.tif
176
     1
290
     0
176
     1
 40
1.0
176
     1
 40
1.0
176
     1
  0
VISUALSTYLE
  5
3F
102
{ACAD_REACTORS
330
2A
102
}
330
2A
100
AcDbVisualStyle
  2
Sketchy
 70
    24
177
     3
291
     0
 70
    58
 90
        1
176
     1
 90
        2
176
     1
 90
        2
176
     1
 90
        0
176
     1
 40
0.6
176
     1
 40
30.0
176
     1
 62
     7
420
 16777215
176
     1
 90
        2
176
     1
 90
        2
176
     1
 62
     7
176
     1
 62
     7
176
     1
 90
        1
176
     1
 90
        1
176
     1
 40
40.0
176
     1
 90
       11
176
     1
 62
     7
176
     1
 40
1.0
176
     1
 90
        1
176
     1
 90
        6
176
     1
 90
        2
176
     1
 62
     7
176
     1
 90
        6
176
     1
 90
        0
176
     1
 90
        0
176
     1
290
     0
176
     1
 90
        1
176
     1
 40
0.0
176
     1
 90
        0
176
     1
290
     0
176
     1
290
     1
176
     1
290
     1
176
     1
290
     0
176
     1
290
     0
176
     1
290
     0
176
     1
290
     0
176
     1
290
     0
176
     1
290
     0
176
     1
 90
       50
176
     1
 40
0.0
176
     1
 40
1.0
176
     1
 90
        0
176
     1
 62
    18
420
        0
176
     1
 90
       50
176
     1
 90
        3
176
     1
 62
     5
420
      255
176
     1
290
     0
176
     1
 90
       50
176
     1
 90
       50
176
     1
 90
       50
176
     1
290
     0
176
     1
 90
       50
176
     1
 62
   256
176
     0
 40
1.0
176
     0
 90
        2
176
     1
  1
strokes_ogs.tif
176
     1
290
     0
176
     1
 40
1.0
176
     1
 40
1.0
176
     1
  0
VISUALSTYLE
  5
37
102
{ACAD_REACTORS
330
2A
102
}
330
2A
100
AcDbVisualStyle
  2
Thicken
 70
    13
177
     3
291
     1
 70
    58
 90
        2
176
     1
 90
        2
176
     1
 90
        0
176
     1
 90
        0
176
     1
 40
0.6
176
     1
 40
30.0
176
     1
 62
     7
420
 16777215
176
     1
 90
        1
176
     1
 90
        4
176
     1
 62
     7
176
     1
 62
   257
176
     1
 90
        1
176
     1
 90
        1
176
     1
 40
1.0
176
     1
 90
       12
176
     1
 62
     7
176
     1
 40
1.0
176
     1
 90
        1
176
     1
 90
        6
176
     1
 90
        2
176
     1
 62
     7
176
     1
 90
        5
176
     1
 90
        0
176
     1
 90
        0
176
     1
290
     0
176
     1
 90
        1
176
     1
 40
0.0
176
     1
 90
        0
176
     1
290
     0
176
     1
290
     1
176
     1
290
     1
176
     1
290
     0
176
     1
290
     0
176
     1
290
     0
176
     1
290
     0
176
     1
290
     0
176
     1
290
     0
176
     1
 90
       50
176
     1
 40
0.0
176
     1
 40
1.0
176
     1
 90
        0
176
     1
 62
    18
420
        0
176
     1
 90
       50
176
     1
 90
        3
176
     1
 62
     5
420
      255
176
     1
290
     0
176
     1
 90
       50
176
     1
 90
       50
176
     1
 90
       50
176
     1
290
     0
176
     1
 90
       50
176
     1
 62
   256
176
     0
 40
1.0
176
     0
 90
        2
176
     1
  1
strokes_ogs.tif
176
     1
290
     0
176
     1
 40
1.0
176
     1
 40
1.0
176
     1
  0
VISUALSTYLE
  5
30
102
{ACAD_REACTORS
330
2A
102
}
330
2A
100
AcDbVisualStyle
  2
Wireframe
 70
     5
177
     3
291
     0
 70
    58
 90
        0
176
     1
 90
        2
176
     1
 90
        0
176
     1
 90
        0
176
     1
 40
0.6
176
     1
 40
30.0
176
     1
 62
     7
420
 16777215
176
     1
 90
        1
176
     1
 90
        4
176
     1
 62
     7
176
     1
 62
   257
176
     1
 90
        1
176
     1
 90
        1
176
     1
 40
1.0
176
     1
 90
        0
176
     1
 62
   257
176
     1
 40
1.0
176
     1
 90
        1
176
     1
 90
        6
176
     1
 90
        2
176
     1
 62
     7
176
     1
 90
        3
176
     1
 90
        0
176
     1
 90
        0
176
     1
290
     0
176
     1
 90
        1
176
     1
 40
0.0
176
     1
 90
        0
176
     1
290
     0
176
     1
290
     1
176
     1
290
     1
176
     1
290
     0
176
     1
290
     0
176
     1
290
     0
176
     1
290
     0
176
     1
290
     0
176
     1
290
     0
176
     1
 90
       50
176
     1
 40
0.0
176
     1
 40
1.0
176
     1
 90
        0
176
     1
 62
    18
420
        0
176
     1
 90
       50
176
     1
 90
        3
176
     1
 62
     5
420
      255
176
     1
290
     0
176
     1
 90
       50
176
     1
 90
       50
176
     1
 90
       50
176
     1
290
     0
176
     1
 90
       50
176
     1
 62
   256
176
     0
 40
1.0
176
     0
 90
        2
176
     1
  1
strokes_ogs.tif
176
     1
290
     0
176
     1
 40
1.0
176
     1
 40
1.0
176
     1
  0
VISUALSTYLE
  5
40
102
{ACAD_REACTORS
330
2A
102
}
330
2A
100
AcDbVisualStyle
  2
X-Ray
 70
    25
177
     3
291
     0
 70
    58
 90
        2
176
     1
 90
        2
176
     1
 90
        1
176
     1
 90
        1
176
     1
 40
0.5
176
     1
 40
30.0
176
     1
 62
     7
420
 16777215
176
     1
 90
        1
176
     1
 90
        0
176
     1
 62
     7
176
     1
 62
   257
176
     1
 90
        1
176
     1
 90
        1
176
     1
 40
1.0
176
     1
 90
        8
176
     1
 62
     7
176
     1
 40
1.0
176
     1
 90
        1
176
     1
 90
        6
176
     1
 90
        2
176
     1
 62
     7
176
     1
 90
        3
176
     1
 90
        0
176
     1
 90
        0
176
     1
290
     0
176
     1
 90
       13
176
     1
 40
0.0
176
     1
 90
        0
176
     1
290
     0
176
     1
290
     1
176
     1
290
     1
176
     1
290
     0
176
     1
290
     0
176
     1
290
     0
176
     1
290
     0
176
     1
290
     0
176
     1
290
     0
176
     1
 90
       50
176
     1
 40
0.0
176
     1
 40
1.0
176
     1
 90
        0
176
     1
 62
    18
420
        0
176
     1
 90
       50
176
     1
 90
        3
176
     1
 62
     5
420
      255
176
     1
290
     0
176
     1
 90
       50
176
     1
 90
       50
176
     1
 90
       50
176
     1
290
     0
176
     1
 90
       50
176
     1
 62
   256
176
     0
 40
1.0
176
     0
 90
        2
176
     1
  1
strokes_ogs.tif
176
     1
290
     0
176
     1
 40
1.0
176
     1
 40
1.0
176
     1
  0
DICTIONARYVAR
  5
15A
102
{ACAD_REACTORS
330
159
102
}
330
159
100
DictionaryVariables
280
     0
  1
1:1
  0
DICTIONARYVAR
  5
15F
102
{ACAD_REACTORS
330
159
102
}
330
159
100
DictionaryVariables
280
     0
  1
Standard
  0
DICTIONARYVAR
  5
15E
102
{ACAD_REACTORS
330
159
102
}
330
159
100
DictionaryVariables
280
     0
  1
Standard
  0
DICTIONARY
  5
15B
330
6A
100
AcDbDictionary
280
     1
281
     1
  3
ACAD_ROUNDTRIP_2008_TABLESTYLE_CELLSTYLEMAP
360
15C
  0
CELLSTYLEMAP
  5
15C
102
{ACAD_REACTORS
330
15B
102
}
330
15B
100
AcDbCellStyleMap
 90
        3
300
CELLSTYLE
  1
TABLEFORMAT_BEGIN
 90
        5
170
     1
 91
        0
 92
    32768
 62
   257
 93
        1
300
CONTENTFORMAT
  1
CONTENTFORMAT_BEGIN
 90
        0
 91
        0
 92
        4
 93
        0
300

 40
0.0
140
1.0
 94
        5
 62
     0
340
11
144
0.25
309
CONTENTFORMAT_END
171
     1
301
MARGIN
  1
CELLMARGIN_BEGIN
 40
0.06
 40
0.06
 40
0.06
 40
0.06
 40
0.06
 40
0.06
309
CELLMARGIN_END
 94
        6
 95
        1
302
GRIDFORMAT
  1
GRIDFORMAT_BEGIN
 90
        0
 91
        1
 62
     0
 92
       -2
340
14
 93
        0
 40
0.045
309
GRIDFORMAT_END
 95
        2
302
GRIDFORMAT
  1
GRIDFORMAT_BEGIN
 90
        0
 91
        1
 62
     0
 92
       -2
340
14
 93
        0
 40
0.045
309
GRIDFORMAT_END
 95
        4
302
GRIDFORMAT
  1
GRIDFORMAT_BEGIN
 90
        0
 91
        1
 62
     0
 92
       -2
340
14
 93
        0
 40
0.045
309
GRIDFORMAT_END
 95
        8
302
GRIDFORMAT
  1
GRIDFORMAT_BEGIN
 90
        0
 91
        1
 62
     0
 92
       -2
340
14
 93
        0
 40
0.045
309
GRIDFORMAT_END
 95
       16
302
GRIDFORMAT
  1
GRIDFORMAT_BEGIN
 90
        0
 91
        1
 62
     0
 92
       -2
340
14
 93
        0
 40
0.045
309
GRIDFORMAT_END
 95
       32
302
GRIDFORMAT
  1
GRIDFORMAT_BEGIN
 90
        0
 91
        1
 62
     0
 92
       -2
340
14
 93
        0
 40
0.045
309
GRIDFORMAT_END
309
TABLEFORMAT_END
  1
CELLSTYLE_BEGIN
 90
        1
 91
        1
300
_TITLE
309
CELLSTYLE_END
300
CELLSTYLE
  1
TABLEFORMAT_BEGIN
 90
        5
170
     1
 91
        0
 92
        0
 62
   257
 93
        1
300
CONTENTFORMAT
  1
CONTENTFORMAT_BEGIN
 90
        0
 91
        0
 92
        4
 93
        0
300

 40
0.0
140
1.0
 94
        5
 62
     0
340
11
144
0.18
309
CONTENTFORMAT_END
171
     1
301
MARGIN
  1
CELLMARGIN_BEGIN
 40
0.06
 40
0.06
 40
0.06
 40
0.06
 40
0.06
 40
0.06
309
CELLMARGIN_END
 94
        6
 95
        1
302
GRIDFORMAT
  1
GRIDFORMAT_BEGIN
 90
        0
 91
        1
 62
     0
 92
       -2
340
14
 93
        0
 40
0.045
309
GRIDFORMAT_END
 95
        2
302
GRIDFORMAT
  1
GRIDFORMAT_BEGIN
 90
        0
 91
        1
 62
     0
 92
       -2
340
14
 93
        0
 40
0.045
309
GRIDFORMAT_END
 95
        4
302
GRIDFORMAT
  1
GRIDFORMAT_BEGIN
 90
        0
 91
        1
 62
     0
 92
       -2
340
14
 93
        0
 40
0.045
309
GRIDFORMAT_END
 95
        8
302
GRIDFORMAT
  1
GRIDFORMAT_BEGIN
 90
        0
 91
        1
 62
     0
 92
       -2
340
14
 93
        0
 40
0.045
309
GRIDFORMAT_END
 95
       16
302
GRIDFORMAT
  1
GRIDFORMAT_BEGIN
 90
        0
 91
        1
 62
     0
 92
       -2
340
14
 93
        0
 40
0.045
309
GRIDFORMAT_END
 95
       32
302
GRIDFORMAT
  1
GRIDFORMAT_BEGIN
 90
        0
 91
        1
 62
     0
 92
       -2
340
14
 93
        0
 40
0.045
309
GRIDFORMAT_END
309
TABLEFORMAT_END
  1
CELLSTYLE_BEGIN
 90
        2
 91
        1
300
_HEADER
309
CELLSTYLE_END
300
CELLSTYLE
  1
TABLEFORMAT_BEGIN
 90
        5
170
     1
 91
        0
 92
        0
 62
   257
 93
        1
300
CONTENTFORMAT
  1
CONTENTFORMAT_BEGIN
 90
        0
 91
        0
 92
        4
 93
        0
300

 40
0.0
140
1.0
 94
        2
 62
     0
340
11
144
0.18
309
CONTENTFORMAT_END
171
     1
301
MARGIN
  1
CELLMARGIN_BEGIN
 40
0.06
 40
0.06
 40
0.06
 40
0.06
 40
0.06
 40
0.06
309
CELLMARGIN_END
 94
        6
 95
        1
302
GRIDFORMAT
  1
GRIDFORMAT_BEGIN
 90
        0
 91
        1
 62
     0
 92
       -2
340
14
 93
        0
 40
0.045
309
GRIDFORMAT_END
 95
        2
302
GRIDFORMAT
  1
GRIDFORMAT_BEGIN
 90
        0
 91
        1
 62
     0
 92
       -2
340
14
 93
        0
 40
0.045
309
GRIDFORMAT_END
 95
        4
302
GRIDFORMAT
  1
GRIDFORMAT_BEGIN
 90
        0
 91
        1
 62
     0
 92
       -2
340
14
 93
        0
 40
0.045
309
GRIDFORMAT_END
 95
        8
302
GRIDFORMAT
  1
GRIDFORMAT_BEGIN
 90
        0
 91
        1
 62
     0
 92
       -2
340
14
 93
        0
 40
0.045
309
GRIDFORMAT_END
 95
       16
302
GRIDFORMAT
  1
GRIDFORMAT_BEGIN
 90
        0
 91
        1
 62
     0
 92
       -2
340
14
 93
        0
 40
0.045
309
GRIDFORMAT_END
 95
       32
302
GRIDFORMAT
  1
GRIDFORMAT_BEGIN
 90
        0
 91
        1
 62
     0
 92
       -2
340
14
 93
        0
 40
0.045
309
GRIDFORMAT_END
309
TABLEFORMAT_END
  1
CELLSTYLE_BEGIN
 90
        3
 91
        2
300
_DATA
309
CELLSTYLE_END
  0
ENDSEC
  0
EOF