0
SECTION
  2
HEADER
  9
$ACADVER
  1
AC1027
  9
$ACADMAINTVER
 70
     8
  9
$DWGCODEPAGE
  3
ANSI_1252
  9
$REQUIREDVERSIONS
160
                 0
  9
$COMMENTS
  1
File was created by Cadenas
  9
$CUSTOMPROPERTYTAG
  1
NN
  9
$CUSTOMPROPERTY
  1
Unisphere II Pillow Block Inch Bore
  9
$CUSTOMPROPERTYTAG
  1
NT
  9
$CUSTOMPROPERTY
  1
Unisphere II
  9
$CUSTOMPROPERTYTAG
  1
NB
  9
$CUSTOMPROPERTY
  1
048027
  9
$CUSTOMPROPERTYTAG
  1
NBSYN
  9
$CUSTOMPROPERTY
  1
$PN.
  9
$CUSTOMPROPERTYTAG
  1
LINA
  9
$CUSTOMPROPERTY
  1
048027
  9
$CUSTOMPROPERTYTAG
  1
SS
  9
$CUSTOMPROPERTY
  1
2-3/4
  9
$CUSTOMPROPERTYTAG
  1
TYPE
  9
$CUSTOMPROPERTY
  1
Expansion Type
  9
$CUSTOMPROPERTYTAG
  1
PN
  9
$CUSTOMPROPERTY
  1
048027
  9
$CUSTOMPROPERTYTAG
  1
DESCRIPTION
  9
$CUSTOMPROPERTY
  1
P2B-UN2-212E
  9
$CUSTOMPROPERTYTAG
  1
WEIGHT
  9
$CUSTOMPROPERTY
  1
19.0
  9
$CUSTOMPROPERTYTAG
  1
A
  9
$CUSTOMPROPERTY
  1
2-29/64
  9
$CUSTOMPROPERTYTAG
  1
B
  9
$CUSTOMPROPERTY
  1
10-7/16
  9
$CUSTOMPROPERTYTAG
  1
C
  9
$CUSTOMPROPERTY
  1
2-9/16
  9
$CUSTOMPROPERTYTAG
  1
DMIN
  9
$CUSTOMPROPERTY
  1
7-13/16
  9
$CUSTOMPROPERTYTAG
  1
DMAX
  9
$CUSTOMPROPERTY
  1
8-7/16
  9
$CUSTOMPROPERTYTAG
  1
E
  9
$CUSTOMPROPERTY
  1
3/16
  9
$CUSTOMPROPERTYTAG
  1
F
  9
$CUSTOMPROPERTY
  1
3/4
  9
$CUSTOMPROPERTYTAG
  1
G
  9
$CUSTOMPROPERTY
  1
1-1/8
  9
$CUSTOMPROPERTYTAG
  1
H
  9
$CUSTOMPROPERTY
  1
2-1/4
  9
$CUSTOMPROPERTYTAG
  1
J
  9
$CUSTOMPROPERTY
  1
6-7/16
  9
$CUSTOMPROPERTYTAG
  1
L
  9
$CUSTOMPROPERTY
  1
4-23/32
  9
$CUSTOMPROPERTYTAG
  1
M
  9
$CUSTOMPROPERTY
  1
3-1/4
  9
$CUSTOMPROPERTYTAG
  1
R
  9
$CUSTOMPROPERTY
  1
49/64
  9
$CUSTOMPROPERTYTAG
  1
S
  9
$CUSTOMPROPERTY
  1
1-11/16
  9
$CUSTOMPROPERTYTAG
  1
MRPM
  9
$CUSTOMPROPERTY
  1
1700
  9
$CUSTOMPROPERTYTAG
  1
CS
  9
$CUSTOMPROPERTY
  1
53000
  9
$CUSTOMPROPERTYTAG
  1
CD
  9
$CUSTOMPROPERTY
  1
41500
  9
$CUSTOMPROPERTYTAG
  1
RN
  9
$CUSTOMPROPERTY
  1
20
  9
$CUSTOMPROPERTYTAG
  1
RM
  9
$CUSTOMPROPERTY
  1
0.5748
  9
$CUSTOMPROPERTYTAG
  1
PD
  9
$CUSTOMPROPERTY
  1
4.197
  9
$CUSTOMPROPERTYTAG
  1
RC
  9
$CUSTOMPROPERTY
  1
0.0020-0.0031
  9
$CUSTOMPROPERTYTAG
  1
CSS
  9
$CUSTOMPROPERTY
  1
1/2-13x7/8
  9
$CUSTOMPROPERTYTAG
  1
CST
  9
$CUSTOMPROPERTY
  1
620
  9
$CUSTOMPROPERTYTAG
  1
MH
  9
$CUSTOMPROPERTY
  1
Ductile Iron Grade 65-45-12 ASTM A536
  9
$CUSTOMPROPERTYTAG
  1
MIR
  9
$CUSTOMPROPERTY
  1
4118 Case Carb.
  9
$CUSTOMPROPERTYTAG
  1
MOR
  9
$CUSTOMPROPERTY
  1
E52100 Steel
  9
$CUSTOMPROPERTYTAG
  1
MR
  9
$CUSTOMPROPERTY
  1
Polyamide
  9
$CUSTOMPROPERTYTAG
  1
MRO
  9
$CUSTOMPROPERTY
  1
E52100 Steel
  9
$CUSTOMPROPERTYTAG
  1
SM
  9
$CUSTOMPROPERTY
  1
2°
  9
$CUSTOMPROPERTYTAG
  1
COMPANY
  9
$CUSTOMPROPERTY
  1
baldor
  9
$INSBASE
 10
0.0
 20
0.0
 30
0.0
  9
$EXTMIN
 10
1.000000000000000E+20
 20
1.000000000000000E+20
 30
1.000000000000000E+20
  9
$EXTMAX
 10
-1.000000000000000E+20
 20
-1.000000000000000E+20
 30
-1.000000000000000E+20
  9
$LIMMIN
 10
0.0
 20
0.0
  9
$LIMMAX
 10
12.0
 20
9.0
  9
$ORTHOMODE
 70
     0
  9
$REGENMODE
 70
     1
  9
$FILLMODE
 70
     1
  9
$QTEXTMODE
 70
     0
  9
$MIRRTEXT
 70
     1
  9
$LTSCALE
 40
1.0
  9
$ATTMODE
 70
     1
  9
$TEXTSIZE
 40
0.2
  9
$TRACEWID
 40
0.05
  9
$TEXTSTYLE
  7
Standard
  9
$CLAYER
  8
0
  9
$CELTYPE
  6
ByLayer
  9
$CECOLOR
 62
   256
  9
$CELTSCALE
 40
1.0
  9
$DISPSILH
 70
     0
  9
$DIMSCALE
 40
1.0
  9
$DIMASZ
 40
0.18
  9
$DIMEXO
 40
0.0625
  9
$DIMDLI
 40
0.38
  9
$DIMRND
 40
0.0
  9
$DIMDLE
 40
0.0
  9
$DIMEXE
 40
0.18
  9
$DIMTP
 40
0.0
  9
$DIMTM
 40
0.0
  9
$DIMTXT
 40
0.18
  9
$DIMCEN
 40
0.09
  9
$DIMTSZ
 40
0.0
  9
$DIMTOL
 70
     0
  9
$DIMLIM
 70
     0
  9
$DIMTIH
 70
     1
  9
$DIMTOH
 70
     1
  9
$DIMSE1
 70
     0
  9
$DIMSE2
 70
     0
  9
$DIMTAD
 70
     0
  9
$DIMZIN
 70
     0
  9
$DIMBLK
  1

  9
$DIMASO
 70
     1
  9
$DIMSHO
 70
     1
  9
$DIMPOST
  1

  9
$DIMAPOST
  1

  9
$DIMALT
 70
     0
  9
$DIMALTD
 70
     2
  9
$DIMALTF
 40
25.4
  9
$DIMLFAC
 40
1.0
  9
$DIMTOFL
 70
     0
  9
$DIMTVP
 40
0.0
  9
$DIMTIX
 70
     0
  9
$DIMSOXD
 70
     0
  9
$DIMSAH
 70
     0
  9
$DIMBLK1
  1

  9
$DIMBLK2
  1

  9
$DIMSTYLE
  2
Standard
  9
$DIMCLRD
 70
     0
  9
$DIMCLRE
 70
     0
  9
$DIMCLRT
 70
     0
  9
$DIMTFAC
 40
1.0
  9
$DIMGAP
 40
0.09
  9
$DIMJUST
 70
     0
  9
$DIMSD1
 70
     0
  9
$DIMSD2
 70
     0
  9
$DIMTOLJ
 70
     1
  9
$DIMTZIN
 70
     0
  9
$DIMALTZ
 70
     0
  9
$DIMALTTZ
 70
     0
  9
$DIMUPT
 70
     0
  9
$DIMDEC
 70
     4
  9
$DIMTDEC
 70
     4
  9
$DIMALTU
 70
     2
  9
$DIMALTTD
 70
     2
  9
$DIMTXSTY
  7
Standard
  9
$DIMAUNIT
 70
     0
  9
$DIMADEC
 70
     0
  9
$DIMALTRND
 40
0.0
  9
$DIMAZIN
 70
     0
  9
$DIMDSEP
 70
    46
  9
$DIMATFIT
 70
     3
  9
$DIMFRAC
 70
     0
  9
$DIMLDRBLK
  1

  9
$DIMLUNIT
 70
     2
  9
$DIMLWD
 70
    -2
  9
$DIMLWE
 70
    -2
  9
$DIMTMOVE
 70
     0
  9
$DIMFXL
 40
1.0
  9
$DIMFXLON
 70
     0
  9
$DIMJOGANG
 40
0.7853981633974483
  9
$DIMTFILL
 70
     0
  9
$DIMTFILLCLR
 70
     0
  9
$DIMARCSYM
 70
     0
  9
$DIMLTYPE
  6

  9
$DIMLTEX1
  6

  9
$DIMLTEX2
  6

  9
$DIMTXTDIRECTION
 70
     0
  9
$LUNITS
 70
     2
  9
$LUPREC
 70
     4
  9
$SKETCHINC
 40
0.1
  9
$FILLETRAD
 40
0.5
  9
$AUNITS
 70
     0
  9
$AUPREC
 70
     0
  9
$MENU
  1
.
  9
$ELEVATION
 40
0.0
  9
$PELEVATION
 40
0.0
  9
$THICKNESS
 40
0.0
  9
$LIMCHECK
 70
     0
  9
$CHAMFERA
 40
0.0
  9
$CHAMFERB
 40
0.0
  9
$CHAMFERC
 40
0.0
  9
$CHAMFERD
 40
0.0
  9
$SKPOLY
 70
     0
  9
$TDCREATE
 40
2458169.002983079
  9
$TDUCREATE
 40
2458168.961316412
  9
$TDUPDATE
 40
2458169.002983253
  9
$TDUUPDATE
 40
2458168.961316586
  9
$TDINDWG
 40
0.0000000116
  9
$TDUSRTIMER
 40
0.0000000116
  9
$USRTIMER
 70
     1
  9
$ANGBASE
 50
0.0
  9
$ANGDIR
 70
     0
  9
$PDMODE
 70
     0
  9
$PDSIZE
 40
0.0
  9
$PLINEWID
 40
0.0
  9
$SPLFRAME
 70
     0
  9
$SPLINETYPE
 70
     6
  9
$SPLINESEGS
 70
     8
  9
$HANDSEED
  5
201
  9
$SURFTAB1
 70
     6
  9
$SURFTAB2
 70
     6
  9
$SURFTYPE
 70
     6
  9
$SURFU
 70
     6
  9
$SURFV
 70
     6
  9
$UCSBASE
  2

  9
$UCSNAME
  2

  9
$UCSORG
 10
0.0
 20
0.0
 30
0.0
  9
$UCSXDIR
 10
1.0
 20
0.0
 30
0.0
  9
$UCSYDIR
 10
0.0
 20
1.0
 30
0.0
  9
$UCSORTHOREF
  2

  9
$UCSORTHOVIEW
 70
     0
  9
$UCSORGTOP
 10
0.0
 20
0.0
 30
0.0
  9
$UCSORGBOTTOM
 10
0.0
 20
0.0
 30
0.0
  9
$UCSORGLEFT
 10
0.0
 20
0.0
 30
0.0
  9
$UCSORGRIGHT
 10
0.0
 20
0.0
 30
0.0
  9
$UCSORGFRONT
 10
0.0
 20
0.0
 30
0.0
  9
$UCSORGBACK
 10
0.0
 20
0.0
 30
0.0
  9
$PUCSBASE
  2

  9
$PUCSNAME
  2

  9
$PUCSORG
 10
0.0
 20
0.0
 30
0.0
  9
$PUCSXDIR
 10
1.0
 20
0.0
 30
0.0
  9
$PUCSYDIR
 10
0.0
 20
1.0
 30
0.0
  9
$PUCSORTHOREF
  2

  9
$PUCSORTHOVIEW
 70
     0
  9
$PUCSORGTOP
 10
0.0
 20
0.0
 30
0.0
  9
$PUCSORGBOTTOM
 10
0.0
 20
0.0
 30
0.0
  9
$PUCSORGLEFT
 10
0.0
 20
0.0
 30
0.0
  9
$PUCSORGRIGHT
 10
0.0
 20
0.0
 30
0.0
  9
$PUCSORGFRONT
 10
0.0
 20
0.0
 30
0.0
  9
$PUCSORGBACK
 10
0.0
 20
0.0
 30
0.0
  9
$USERI1
 70
     0
  9
$USERI2
 70
     0
  9
$USERI3
 70
     0
  9
$USERI4
 70
     0
  9
$USERI5
 70
     0
  9
$USERR1
 40
0.0
  9
$USERR2
 40
0.0
  9
$USERR3
 40
0.0
  9
$USERR4
 40
0.0
  9
$USERR5
 40
0.0
  9
$WORLDVIEW
 70
     1
  9
$SHADEDGE
 70
     3
  9
$SHADEDIF
 70
    70
  9
$TILEMODE
 70
     1
  9
$MAXACTVP
 70
    64
  9
$PINSBASE
 10
0.0
 20
0.0
 30
0.0
  9
$PLIMCHECK
 70
     0
  9
$PEXTMIN
 10
1.000000000000000E+20
 20
1.000000000000000E+20
 30
1.000000000000000E+20
  9
$PEXTMAX
 10
-1.000000000000000E+20
 20
-1.000000000000000E+20
 30
-1.000000000000000E+20
  9
$PLIMMIN
 10
0.0
 20
0.0
  9
$PLIMMAX
 10
12.0
 20
9.0
  9
$UNITMODE
 70
     0
  9
$VISRETAIN
 70
     1
  9
$PLINEGEN
 70
     0
  9
$PSLTSCALE
 70
     1
  9
$TREEDEPTH
 70
  3020
  9
$CMLSTYLE
  2
Standard
  9
$CMLJUST
 70
     0
  9
$CMLSCALE
 40
1.0
  9
$PROXYGRAPHICS
 70
     1
  9
$MEASUREMENT
 70
     0
  9
$CELWEIGHT
370
    -1
  9
$ENDCAPS
280
     0
  9
$JOINSTYLE
280
     0
  9
$LWDISPLAY
290
     0
  9
$INSUNITS
 70
     1
  9
$HYPERLINKBASE
  1

  9
$STYLESHEET
  1

  9
$XEDIT
290
     1
  9
$CEPSNTYPE
380
     0
  9
$PSTYLEMODE
290
     1
  9
$FINGERPRINTGUID
  2
{29E26445-61D5-4CA0-A643-855B76B1DF01}
  9
$VERSIONGUID
  2
{FAEB1C32-E019-11D5-929B-00C0DF256EC4}
  9
$EXTNAMES
290
     1
  9
$PSVPSCALE
 40
0.0
  9
$OLESTARTUP
290
     0
  9
$SORTENTS
280
   127
  9
$INDEXCTL
280
     0
  9
$HIDETEXT
280
     1
  9
$XCLIPFRAME
280
     2
  9
$HALOGAP
280
     0
  9
$OBSCOLOR
 70
   257
  9
$OBSLTYPE
280
     0
  9
$INTERSECTIONDISPLAY
280
     0
  9
$INTERSECTIONCOLOR
 70
   257
  9
$DIMASSOC
280
     2
  9
$PROJECTNAME
  1

  9
$CAMERADISPLAY
290
     0
  9
$LENSLENGTH
 40
50.0
  9
$CAMERAHEIGHT
 40
0.0
  9
$STEPSPERSEC
 40
2.0
  9
$STEPSIZE
 40
6.0
  9
$3DDWFPREC
 40
2.0
  9
$PSOLWIDTH
 40
0.25
  9
$PSOLHEIGHT
 40
4.0
  9
$LOFTANG1
 40
1.570796326794897
  9
$LOFTANG2
 40
1.570796326794897
  9
$LOFTMAG1
 40
0.0
  9
$LOFTMAG2
 40
0.0
  9
$LOFTPARAM
 70
     7
  9
$LOFTNORMALS
280
     1
  9
$LATITUDE
 40
37.795
  9
$LONGITUDE
 40
-122.394
  9
$NORTHDIRECTION
 40
0.0
  9
$TIMEZONE
 70
 -8000
  9
$LIGHTGLYPHDISPLAY
280
     1
  9
$TILEMODELIGHTSYNCH
280
     1
  9
$CMATERIAL
347
44
  9
$SOLIDHIST
280
     0
  9
$SHOWHIST
280
     1
  9
$DWFFRAME
280
     2
  9
$DGNFRAME
280
     2
  9
$REALWORLDSCALE
290
     1
  9
$INTERFERECOLOR
 62
   256
  9
$CSHADOW
280
     0
  9
$SHADOWPLANELOCATION
 40
0.0
  0
ENDSEC
  0
SECTION
  2
CLASSES
  0
CLASS
  1
ACDBDICTIONARYWDFLT
  2
AcDbDictionaryWithDefault
  3
ObjectDBX Classes
 90
        0
 91
        4
280
     0
281
     0
  0
CLASS
  1
VISUALSTYLE
  2
AcDbVisualStyle
  3
ObjectDBX Classes
 90
     4095
 91
        4
280
     0
281
     0
  0
CLASS
  1
MATERIAL
  2
AcDbMaterial
  3
ObjectDBX Classes
 90
     1153
 91
        4
280
     0
281
     0
  0
CLASS
  1
SCALE
  2
AcDbScale
  3
ObjectDBX Classes
 90
     1153
 91
        4
280
     0
281
     0
  0
CLASS
  1
TABLESTYLE
  2
AcDbTableStyle
  3
ObjectDBX Classes
 90
     4095
 91
        4
280
     0
281
     0
  0
CLASS
  1
MLEADERSTYLE
  2
AcDbMLeaderStyle
  3
ACDB_MLEADERSTYLE_CLASS
 90
     4095
 91
        4
280
     0
281
     0
  0
CLASS
  1
SUN
  2
AcDbSun
  3
SCENEOE
 90
     1153
 91
        4
280
     0
281
     0
  0
CLASS
  1
DICTIONARYVAR
  2
AcDbDictionaryVar
  3
ObjectDBX Classes
 90
        0
 91
        4
280
     0
281
     0
  0
CLASS
  1
CELLSTYLEMAP
  2
AcDbCellStyleMap
  3
ObjectDBX Classes
 90
     1152
 91
        4
280
     0
281
     0
  0
ENDSEC
  0
SECTION
  2
TABLES
  0
TABLE
  2
VPORT
  5
8
330
0
100
AcDbSymbolTable
 70
     1
  0
VPORT
  5
29
330
8
100
AcDbSymbolTableRecord
100
AcDbViewportTableRecord
  2
*Active
 70
     0
 10
0.0
 20
0.0
 11
1.0
 21
1.0
 12
0.0
 22
-0.1066407500000004
 13
0.0
 23
0.0
 14
0.5
 24
0.5
 15
0.5
 25
0.5
 16
0.0
 26
0.0
 36
1.0
 17
0.0
 27
0.0
 37
0.0
 40
3.092672129999999
 41
3.463024708021669
 42
50.0
 43
0.0
 44
0.0
 50
0.0
 51
0.0
 71
     0
 72
   100
 73
     1
 74
     3
 75
     0
 76
     0
 77
     0
 78
     0
281
     0
 65
     1
110
0.0
120
0.0
130
0.0
111
1.0
121
0.0
131
0.0
112
0.0
122
1.0
132
0.0
 79
     0
146
0.0
348
2F
 60
     3
 61
     5
292
     1
282
     1
141
0.0
142
0.0
 63
   250
361
6D
  0
ENDTAB
  0
TABLE
  2
LTYPE
  5
5
330
0
100
AcDbSymbolTable
 70
     3
  0
LTYPE
  5
14
330
5
100
AcDbSymbolTableRecord
100
AcDbLinetypeTableRecord
  2
ByBlock
 70
     0
  3

 72
    65
 73
     0
 40
0.0
  0
LTYPE
  5
15
330
5
100
AcDbSymbolTableRecord
100
AcDbLinetypeTableRecord
  2
ByLayer
 70
     0
  3

 72
    65
 73
     0
 40
0.0
  0
LTYPE
  5
16
330
5
100
AcDbSymbolTableRecord
100
AcDbLinetypeTableRecord
  2
Continuous
 70
     0
  3
Solid line
 72
    65
 73
     0
 40
0.0
  0
LTYPE
  5
B2
330
5
100
AcDbSymbolTableRecord
100
AcDbLinetypeTableRecord
  2
Dashed
 70
     0
  3

 72
    65
 73
     2
 40
2.0
 49
1.0
 74
     0
 49
-1.0
 74
     0
  0
LTYPE
  5
D7
330
5
100
AcDbSymbolTableRecord
100
AcDbLinetypeTableRecord
  2
Center
 70
     0
  3

 72
    65
 73
     4
 40
1.5
 49
0.45
 74
     0
 49
-0.5
 74
     0
 49
0.05
 74
     0
 49
-0.5
 74
     0
  0
ENDTAB
  0
TABLE
  2
LAYER
  5
2
330
0
100
AcDbSymbolTable
 70
     7
  0
LAYER
  5
10
330
2
100
AcDbSymbolTableRecord
100
AcDbLayerTableRecord
  2
0
 70
     0
 62
     7
  6
Continuous
370
    -3
390
F
347
46
348
0
  0
LAYER
  5
72
330
2
100
AcDbSymbolTableRecord
100
AcDbLayerTableRecord
  2
AM_6
 70
     0
 62
    -2
  6
Continuous
370
    35
390
F
347
46
348
0
  0
LAYER
  5
B3
330
2
100
AcDbSymbolTableRecord
100
AcDbLayerTableRecord
  2
AM_9
 70
     0
 62
     6
  6
Dashed
370
    25
390
F
347
46
348
0
  0
LAYER
  5
D8
330
2
100
AcDbSymbolTableRecord
100
AcDbLayerTableRecord
  2
AM_7
 70
     0
 62
     7
  6
Center
370
    25
390
F
347
46
348
0
  0
LAYER
  5
DA
330
2
100
AcDbSymbolTableRecord
100
AcDbLayerTableRecord
  2
AM_4
 70
     0
 62
     7
  6
Continuous
370
    50
390
F
347
46
348
0
  0
LAYER
  5
E8
330
2
100
AcDbSymbolTableRecord
100
AcDbLayerTableRecord
  2
AM_5
 70
     0
 62
     3
  6
Continuous
370
    25
390
F
347
46
348
0
  0
LAYER
  5
1F4
330
2
100
AcDbSymbolTableRecord
100
AcDbLayerTableRecord
  2
ConnectionPoints
 70
     0
 62
     7
  6
Continuous
370
    50
390
F
347
46
348
0
  0
ENDTAB
  0
TABLE
  2
STYLE
  5
3
330
0
100
AcDbSymbolTable
 70
     1
  0
STYLE
  5
11
330
3
100
AcDbSymbolTableRecord
100
AcDbTextStyleTableRecord
  2
Standard
 70
     0
 40
0.0
 41
1.0
 50
0.0
 71
     0
 42
0.2
  3
txt
  4

  0
ENDTAB
  0
TABLE
  2
VIEW
  5
6
330
0
100
AcDbSymbolTable
 70
     0
  0
ENDTAB
  0
TABLE
  2
UCS
  5
7
330
0
100
AcDbSymbolTable
 70
     0
  0
ENDTAB
  0
TABLE
  2
APPID
  5
9
330
0
100
AcDbSymbolTable
 70
     1
  0
APPID
  5
12
330
9
100
AcDbSymbolTableRecord
100
AcDbRegAppTableRecord
  2
ACAD
 70
     0
  0
ENDTAB
  0
TABLE
  2
DIMSTYLE
  5
A
330
0
100
AcDbSymbolTable
 70
     1
100
AcDbDimStyleTable
  0
DIMSTYLE
105
27
330
A
100
AcDbSymbolTableRecord
100
AcDbDimStyleTableRecord
  2
Standard
 70
     0
178
     0
340
11
  0
ENDTAB
  0
TABLE
  2
BLOCK_RECORD
  5
1
330
0
100
AcDbSymbolTable
 70
     5
  0
BLOCK_RECORD
  5
1F
330
1
100
AcDbSymbolTableRecord
100
AcDbBlockTableRecord
  2
*Model_Space
340
22
 70
     0
280
     1
281
     0
  0
BLOCK_RECORD
  5
1B
330
1
100
AcDbSymbolTableRecord
100
AcDbBlockTableRecord
  2
*Paper_Space
340
1E
 70
     0
280
     1
281
     0
  0
BLOCK_RECORD
  5
23
330
1
100
AcDbSymbolTableRecord
100
AcDbBlockTableRecord
  2
*Paper_Space0
340
26
 70
     0
280
     1
281
     0
  0
BLOCK_RECORD
  5
6E
330
1
100
AcDbSymbolTableRecord
100
AcDbBlockTableRecord
  2
1_048027_4
340
0
102
{BLKREFS
331
6F
102
}
 70
     0
280
     1
281
     0
  0
BLOCK_RECORD
  5
9B
330
1
100
AcDbSymbolTableRecord
100
AcDbBlockTableRecord
  2
2_421253_0_in_048027_4
340
0
102
{BLKREFS
331
9C
102
}
 70
     0
280
     1
281
     0
  0
BLOCK_RECORD
  5
EA
330
1
100
AcDbSymbolTableRecord
100
AcDbBlockTableRecord
  2
3_405020c_Inch_0_in_048027_4
340
0
102
{BLKREFS
331
EB
102
}
 70
     0
280
     1
281
     0
  0
BLOCK_RECORD
  5
145
330
1
100
AcDbSymbolTableRecord
100
AcDbBlockTableRecord
  2
4_048027B_0_in_048027_4
340
0
102
{BLKREFS
331
146
102
}
 70
     0
280
     1
281
     0
  0
ENDTAB
  0
ENDSEC
  0
SECTION
  2
BLOCKS
  0
BLOCK
  5
20
330
1F
100
AcDbEntity
  8
0
100
AcDbBlockBegin
  2
*Model_Space
 70
     0
 10
0.0
 20
0.0
 30
0.0
  3
*Model_Space
  1

  0
ENDBLK
  5
21
330
1F
100
AcDbEntity
  8
0
100
AcDbBlockEnd
  0
BLOCK
  5
1C
330
1B
100
AcDbEntity
 67
     1
  8
0
100
AcDbBlockBegin
  2
*Paper_Space
 70
     0
 10
0.0
 20
0.0
 30
0.0
  3
*Paper_Space
  1

  0
ENDBLK
  5
1D
330
1B
100
AcDbEntity
 67
     1
  8
0
100
AcDbBlockEnd
  0
BLOCK
  5
24
330
23
100
AcDbEntity
  8
0
100
AcDbBlockBegin
  2
*Paper_Space0
 70
     0
 10
0.0
 20
0.0
 30
0.0
  3
*Paper_Space0
  1

  0
ENDBLK
  5
25
330
23
100
AcDbEntity
  8
0
100
AcDbBlockEnd
  0
BLOCK
  5
70
330
6E
100
AcDbEntity
  8
0
100
AcDbBlockBegin
  2
1_048027_4
 70
     2
 10
0.0
 20
0.0
 30
0.0
  3
1_048027_4
  1

  0
ATTDEF
  5
73
330
6E
100
AcDbEntity
  8
AM_6
100
AcDbText
 10
10.25
 20
1.409375
 30
0.0
 40
0.5
  1
Unisphere II Pillow Block Inch Bore
100
AcDbAttributeDefinition
  3

  2
NN
 70
     8
280
     0
  0
ATTDEF
  5
74
330
6E
100
AcDbEntity
  8
AM_6
100
AcDbText
 10
10.25
 20
0.909375
 30
0.0
 40
0.5
  1
Unisphere II
100
AcDbAttributeDefinition
  3

  2
NT
 70
     8
280
     0
  0
ATTDEF
  5
75
330
6E
100
AcDbEntity
  8
AM_6
100
AcDbText
 10
10.25
 20
0.409375
 30
0.0
 40
0.5
  1
048027
100
AcDbAttributeDefinition
  3

  2
NB
 70
     8
280
     0
  0
ATTDEF
  5
76
330
6E
100
AcDbEntity
  8
AM_6
100
AcDbText
 10
10.25
 20
-0.090625
 30
0.0
 40
0.5
  1
$PN.
100
AcDbAttributeDefinition
  3

  2
NBSYN
 70
     8
280
     0
  0
ATTDEF
  5
77
330
6E
100
AcDbEntity
  8
AM_6
100
AcDbText
 10
10.25
 20
-0.590625
 30
0.0
 40
0.5
  1
048027
100
AcDbAttributeDefinition
  3

  2
LINA
 70
     8
280
     0
  0
ATTDEF
  5
78
330
6E
100
AcDbEntity
  8
AM_6
100
AcDbText
 10
10.25
 20
-1.090625
 30
0.0
 40
0.5
  1
2-3/4
100
AcDbAttributeDefinition
  3

  2
SS
 70
     8
280
     0
  0
ATTDEF
  5
79
330
6E
100
AcDbEntity
  8
AM_6
100
AcDbText
 10
10.25
 20
-1.590625
 30
0.0
 40
0.5
  1
Expansion Type
100
AcDbAttributeDefinition
  3

  2
TYPE
 70
     8
280
     0
  0
ATTDEF
  5
7A
330
6E
100
AcDbEntity
  8
AM_6
100
AcDbText
 10
10.25
 20
-2.090625
 30
0.0
 40
0.5
  1
048027
100
AcDbAttributeDefinition
  3

  2
PN
 70
     8
280
     0
  0
ATTDEF
  5
7B
330
6E
100
AcDbEntity
  8
AM_6
100
AcDbText
 10
10.25
 20
-2.590625
 30
0.0
 40
0.5
  1
P2B-UN2-212E
100
AcDbAttributeDefinition
  3

  2
DESCRIPTION
 70
     8
280
     0
  0
ATTDEF
  5
7C
330
6E
100
AcDbEntity
  8
AM_6
100
AcDbText
 10
10.25
 20
-3.090625
 30
0.0
 40
0.5
  1
19.0
100
AcDbAttributeDefinition
  3

  2
WEIGHT
 70
     8
280
     0
  0
ATTDEF
  5
7D
330
6E
100
AcDbEntity
  8
AM_6
100
AcDbText
 10
10.25
 20
-3.590625
 30
0.0
 40
0.5
  1
2-29/64
100
AcDbAttributeDefinition
  3

  2
A
 70
     8
280
     0
  0
ATTDEF
  5
7E
330
6E
100
AcDbEntity
  8
AM_6
100
AcDbText
 10
10.25
 20
-4.090625
 30
0.0
 40
0.5
  1
10-7/16
100
AcDbAttributeDefinition
  3

  2
B
 70
     8
280
     0
  0
ATTDEF
  5
7F
330
6E
100
AcDbEntity
  8
AM_6
100
AcDbText
 10
10.25
 20
-4.590625
 30
0.0
 40
0.5
  1
2-9/16
100
AcDbAttributeDefinition
  3

  2
C
 70
     8
280
     0
  0
ATTDEF
  5
80
330
6E
100
AcDbEntity
  8
AM_6
100
AcDbText
 10
10.25
 20
-5.090625
 30
0.0
 40
0.5
  1
7-13/16
100
AcDbAttributeDefinition
  3

  2
DMIN
 70
     8
280
     0
  0
ATTDEF
  5
81
330
6E
100
AcDbEntity
  8
AM_6
100
AcDbText
 10
10.25
 20
-5.590625
 30
0.0
 40
0.5
  1
8-7/16
100
AcDbAttributeDefinition
  3

  2
DMAX
 70
     8
280
     0
  0
ATTDEF
  5
82
330
6E
100
AcDbEntity
  8
AM_6
100
AcDbText
 10
10.25
 20
-6.090625
 30
0.0
 40
0.5
  1
3/16
100
AcDbAttributeDefinition
  3

  2
E
 70
     8
280
     0
  0
ATTDEF
  5
83
330
6E
100
AcDbEntity
  8
AM_6
100
AcDbText
 10
10.25
 20
-6.590625
 30
0.0
 40
0.5
  1
3/4
100
AcDbAttributeDefinition
  3

  2
F
 70
     8
280
     0
  0
ATTDEF
  5
84
330
6E
100
AcDbEntity
  8
AM_6
100
AcDbText
 10
10.25
 20
-7.090625
 30
0.0
 40
0.5
  1
1-1/8
100
AcDbAttributeDefinition
  3

  2
G
 70
     8
280
     0
  0
ATTDEF
  5
85
330
6E
100
AcDbEntity
  8
AM_6
100
AcDbText
 10
10.25
 20
-7.590625
 30
0.0
 40
0.5
  1
2-1/4
100
AcDbAttributeDefinition
  3

  2
H
 70
     8
280
     0
  0
ATTDEF
  5
86
330
6E
100
AcDbEntity
  8
AM_6
100
AcDbText
 10
10.25
 20
-8.090625
 30
0.0
 40
0.5
  1
6-7/16
100
AcDbAttributeDefinition
  3

  2
J
 70
     8
280
     0
  0
ATTDEF
  5
87
330
6E
100
AcDbEntity
  8
AM_6
100
AcDbText
 10
10.25
 20
-8.590625
 30
0.0
 40
0.5
  1
4-23/32
100
AcDbAttributeDefinition
  3

  2
L
 70
     8
280
     0
  0
ATTDEF
  5
88
330
6E
100
AcDbEntity
  8
AM_6
100
AcDbText
 10
10.25
 20
-9.090625
 30
0.0
 40
0.5
  1
3-1/4
100
AcDbAttributeDefinition
  3

  2
M
 70
     8
280
     0
  0
ATTDEF
  5
89
330
6E
100
AcDbEntity
  8
AM_6
100
AcDbText
 10
10.25
 20
-9.590625
 30
0.0
 40
0.5
  1
49/64
100
AcDbAttributeDefinition
  3

  2
R
 70
     8
280
     0
  0
ATTDEF
  5
8A
330
6E
100
AcDbEntity
  8
AM_6
100
AcDbText
 10
10.25
 20
-10.090625
 30
0.0
 40
0.5
  1
1-11/16
100
AcDbAttributeDefinition
  3

  2
S
 70
     8
280
     0
  0
ATTDEF
  5
8B
330
6E
100
AcDbEntity
  8
AM_6
100
AcDbText
 10
10.25
 20
-10.590625
 30
0.0
 40
0.5
  1
1700
100
AcDbAttributeDefinition
  3

  2
MRPM
 70
     8
280
     0
  0
ATTDEF
  5
8C
330
6E
100
AcDbEntity
  8
AM_6
100
AcDbText
 10
10.25
 20
-11.090625
 30
0.0
 40
0.5
  1
53000
100
AcDbAttributeDefinition
  3

  2
CS
 70
     8
280
     0
  0
ATTDEF
  5
8D
330
6E
100
AcDbEntity
  8
AM_6
100
AcDbText
 10
10.25
 20
-11.590625
 30
0.0
 40
0.5
  1
41500
100
AcDbAttributeDefinition
  3

  2
CD
 70
     8
280
     0
  0
ATTDEF
  5
8E
330
6E
100
AcDbEntity
  8
AM_6
100
AcDbText
 10
10.25
 20
-12.090625
 30
0.0
 40
0.5
  1
20
100
AcDbAttributeDefinition
  3

  2
RN
 70
     8
280
     0
  0
ATTDEF
  5
8F
330
6E
100
AcDbEntity
  8
AM_6
100
AcDbText
 10
10.25
 20
-12.590625
 30
0.0
 40
0.5
  1
0.5748
100
AcDbAttributeDefinition
  3

  2
RM
 70
     8
280
     0
  0
ATTDEF
  5
90
330
6E
100
AcDbEntity
  8
AM_6
100
AcDbText
 10
10.25
 20
-13.090625
 30
0.0
 40
0.5
  1
4.197
100
AcDbAttributeDefinition
  3

  2
PD
 70
     8
280
     0
  0
ATTDEF
  5
91
330
6E
100
AcDbEntity
  8
AM_6
100
AcDbText
 10
10.25
 20
-13.590625
 30
0.0
 40
0.5
  1
0.0020-0.0031
100
AcDbAttributeDefinition
  3

  2
RC
 70
     8
280
     0
  0
ATTDEF
  5
92
330
6E
100
AcDbEntity
  8
AM_6
100
AcDbText
 10
10.25
 20
-14.090625
 30
0.0
 40
0.5
  1
1/2-13x7/8
100
AcDbAttributeDefinition
  3

  2
CSS
 70
     8
280
     0
  0
ATTDEF
  5
93
330
6E
100
AcDbEntity
  8
AM_6
100
AcDbText
 10
10.25
 20
-14.590625
 30
0.0
 40
0.5
  1
620
100
AcDbAttributeDefinition
  3

  2
CST
 70
     8
280
     0
  0
ATTDEF
  5
94
330
6E
100
AcDbEntity
  8
AM_6
100
AcDbText
 10
10.25
 20
-15.090625
 30
0.0
 40
0.5
  1
Ductile Iron Grade 65-45-12 ASTM A536
100
AcDbAttributeDefinition
  3

  2
MH
 70
     8
280
     0
  0
ATTDEF
  5
95
330
6E
100
AcDbEntity
  8
AM_6
100
AcDbText
 10
10.25
 20
-15.590625
 30
0.0
 40
0.5
  1
4118 Case Carb.
100
AcDbAttributeDefinition
  3

  2
MIR
 70
     8
280
     0
  0
ATTDEF
  5
96
330
6E
100
AcDbEntity
  8
AM_6
100
AcDbText
 10
10.25
 20
-16.090625
 30
0.0
 40
0.5
  1
E52100 Steel
100
AcDbAttributeDefinition
  3

  2
MOR
 70
     8
280
     0
  0
ATTDEF
  5
97
330
6E
100
AcDbEntity
  8
AM_6
100
AcDbText
 10
10.25
 20
-16.590625
 30
0.0
 40
0.5
  1
Polyamide
100
AcDbAttributeDefinition
  3

  2
MR
 70
     8
280
     0
  0
ATTDEF
  5
98
330
6E
100
AcDbEntity
  8
AM_6
100
AcDbText
 10
10.25
 20
-17.090625
 30
0.0
 40
0.5
  1
E52100 Steel
100
AcDbAttributeDefinition
  3

  2
MRO
 70
     8
280
     0
  0
ATTDEF
  5
99
330
6E
100
AcDbEntity
  8
AM_6
100
AcDbText
 10
10.25
 20
-17.590625
 30
0.0
 40
0.5
  1
2°
100
AcDbAttributeDefinition
  3

  2
SM
 70
     8
280
     0
  0
ATTDEF
  5
9A
330
6E
100
AcDbEntity
  8
AM_6
100
AcDbText
 10
10.25
 20
-18.090625
 30
0.0
 40
0.5
  1
baldor
100
AcDbAttributeDefinition
  3

  2
COMPANY
 70
     8
280
     0
  0
INSERT
  5
9C
330
6E
100
AcDbEntity
  8
0
100
AcDbBlockReference
  2
2_421253_0_in_048027_4
 10
0.0
 20
0.0
 30
0.0
  0
INSERT
  5
EB
330
6E
100
AcDbEntity
  8
0
100
AcDbBlockReference
  2
3_405020c_Inch_0_in_048027_4
 10
0.0
 20
0.0
 30
0.0
  0
INSERT
  5
146
330
6E
100
AcDbEntity
  8
0
100
AcDbBlockReference
  2
4_048027B_0_in_048027_4
 10
0.0
 20
0.0
 30
0.0
  0
ENDBLK
  5
71
330
6E
100
AcDbEntity
  8
0
100
AcDbBlockEnd
  0
BLOCK
  5
9D
330
9B
100
AcDbEntity
  8
0
100
AcDbBlockBegin
  2
2_421253_0_in_048027_4
 70
     2
 10
0.0
 20
0.0
 30
0.0
  3
2_421253_0_in_048027_4
  1

  0
ATTDEF
  5
9F
330
9B
100
AcDbEntity
  8
AM_6
100
AcDbText
 10
7.359375
 20
0.9531299999999999
 30
0.0
 40
0.5
  1
Unisphere II Insert With Seal - Inch
100
AcDbAttributeDefinition
  3

  2
NN
 70
     8
280
     0
  0
ATTDEF
  5
A0
330
9B
100
AcDbEntity
  8
AM_6
100
AcDbText
 10
7.359375
 20
0.4531299999999999
 30
0.0
 40
0.5
  1
Unisphere II
100
AcDbAttributeDefinition
  3

  2
NT
 70
     8
280
     0
  0
ATTDEF
  5
A1
330
9B
100
AcDbEntity
  8
AM_6
100
AcDbText
 10
7.359375
 20
-0.0468700000000001
 30
0.0
 40
0.5
  1
421253
100
AcDbAttributeDefinition
  3

  2
NB
 70
     8
280
     0
  0
ATTDEF
  5
A2
330
9B
100
AcDbEntity
  8
AM_6
100
AcDbText
 10
7.359375
 20
-0.5468700000000001
 30
0.0
 40
0.5
  1
$PN.
100
AcDbAttributeDefinition
  3

  2
NBSYN
 70
     8
280
     0
  0
ATTDEF
  5
A3
330
9B
100
AcDbEntity
  8
AM_6
100
AcDbText
 10
7.359375
 20
-1.04687
 30
0.0
 40
0.5
  1
421253
100
AcDbAttributeDefinition
  3

  2
LINA
 70
     8
280
     0
  0
ATTDEF
  5
A4
330
9B
100
AcDbEntity
  8
AM_6
100
AcDbText
 10
7.359375
 20
-1.54687
 30
0.0
 40
0.5
  1
2-3/4
100
AcDbAttributeDefinition
  3

  2
SS
 70
     8
280
     0
  0
ATTDEF
  5
A5
330
9B
100
AcDbEntity
  8
AM_6
100
AcDbText
 10
7.359375
 20
-2.04687
 30
0.0
 40
0.5
  1
2.75000
100
AcDbAttributeDefinition
  3

  2
SS1
 70
     8
280
     0
  0
ATTDEF
  5
A6
330
9B
100
AcDbEntity
  8
AM_6
100
AcDbText
 10
7.359375
 20
-2.54687
 30
0.0
 40
0.5
  1
5.1181
100
AcDbAttributeDefinition
  3

  2
A
 70
     8
280
     0
  0
ATTDEF
  5
A7
330
9B
100
AcDbEntity
  8
AM_6
100
AcDbText
 10
7.359375
 20
-3.04687
 30
0.0
 40
0.5
  1
4.71875
100
AcDbAttributeDefinition
  3

  2
A1
 70
     8
280
     0
  0
ATTDEF
  5
A8
330
9B
100
AcDbEntity
  8
AM_6
100
AcDbText
 10
7.359375
 20
-3.54687
 30
0.0
 40
0.5
  1
1.2705
100
AcDbAttributeDefinition
  3

  2
B
 70
     8
280
     0
  0
ATTDEF
  5
A9
330
9B
100
AcDbEntity
  8
AM_6
100
AcDbText
 10
7.359375
 20
-4.04687
 30
0.0
 40
0.5
  1
1.27050
100
AcDbAttributeDefinition
  3

  2
B1
 70
     8
280
     0
  0
ATTDEF
  5
AA
330
9B
100
AcDbEntity
  8
AM_6
100
AcDbText
 10
7.359375
 20
-4.54687
 30
0.0
 40
0.5
  1
2-29/64
100
AcDbAttributeDefinition
  3

  2
C
 70
     8
280
     0
  0
ATTDEF
  5
AB
330
9B
100
AcDbEntity
  8
AM_6
100
AcDbText
 10
7.359375
 20
-5.04687
 30
0.0
 40
0.5
  1
2.45313
100
AcDbAttributeDefinition
  3

  2
C1
 70
     8
280
     0
  0
ATTDEF
  5
AC
330
9B
100
AcDbEntity
  8
AM_6
100
AcDbText
 10
7.359375
 20
-5.54687
 30
0.0
 40
0.5
  1
0.795
100
AcDbAttributeDefinition
  3

  2
D
 70
     8
280
     0
  0
ATTDEF
  5
AD
330
9B
100
AcDbEntity
  8
AM_6
100
AcDbText
 10
7.359375
 20
-6.04687
 30
0.0
 40
0.5
  1
0.79500
100
AcDbAttributeDefinition
  3

  2
D1
 70
     8
280
     0
  0
ATTDEF
  5
AE
330
9B
100
AcDbEntity
  8
AM_6
100
AcDbText
 10
7.359375
 20
-6.54687
 30
0.0
 40
0.5
  1
0.442
100
AcDbAttributeDefinition
  3

  2
E
 70
     8
280
     0
  0
ATTDEF
  5
AF
330
9B
100
AcDbEntity
  8
AM_6
100
AcDbText
 10
7.359375
 20
-7.04687
 30
0.0
 40
0.5
  1
0.44200
100
AcDbAttributeDefinition
  3

  2
E1
 70
     8
280
     0
  0
ATTDEF
  5
B0
330
9B
100
AcDbEntity
  8
AM_6
100
AcDbText
 10
7.359375
 20
-7.54687
 30
0.0
 40
0.5
  1
421253
100
AcDbAttributeDefinition
  3

  2
PN
 70
     8
280
     0
  0
ATTDEF
  5
B1
330
9B
100
AcDbEntity
  8
AM_6
100
AcDbText
 10
7.359375
 20
-8.04687
 30
0.0
 40
0.5
  1
baldor
100
AcDbAttributeDefinition
  3

  2
COMPANY
 70
     8
280
     0
  0
LINE
  5
B4
330
9B
100
AcDbEntity
  8
AM_9
100
AcDbLine
 10
-2.097856496466849
 20
-1.258909090909091
 30
0.0
 11
-1.246160280421215
 21
-1.258909090909091
 31
0.0
  0
LINE
  5
B5
330
9B
100
AcDbEntity
  8
AM_9
100
AcDbLine
 10
-1.246085310629535
 20
-0.857090909090909
 30
0.0
 11
-2.097856496466849
 21
-0.857090909090909
 31
0.0
  0
LWPOLYLINE
  5
B6
330
9B
100
AcDbEntity
  8
AM_9
100
AcDbPolyline
 90
       17
 70
     0
 43
0.0
 10
-1.294497685490719
 20
-0.9022718012779676
 10
-1.299251784892377
 20
-0.9150558675013769
 10
-1.30632505801307
 20
-0.9408117596355108
 10
-1.311689219296425
 20
-0.9698897899223101
 10
-1.315342254466389
 20
-1.001543238939603
 10
-1.317318534029378
 20
-1.03482154442151
 10
-1.317624392855328
 20
-1.068466496813887
 10
-1.316302232046289
 20
-1.101814078206991
 10
-1.313344989825321
 20
-1.133753710196594
 10
-1.308744842405081
 20
-1.163581492178045
 10
-1.302414167833745
 20
-1.190626215476564
 10
-1.294397757456305
 20
-1.213968231249279
 10
-1.284623094750658
 20
-1.233040416801811
 10
-1.273270217729015
 20
-1.247161800580047
 10
-1.260536497238755
 20
-1.255824265735354
 10
-1.246682505400162
 20
-1.258905469817106
 10
-1.246176442486695
 20
-1.25890909076324
  0
LWPOLYLINE
  5
B7
330
9B
100
AcDbEntity
  8
AM_9
100
AcDbPolyline
 90
        6
 70
     0
 43
0.0
 10
-1.24616597360873
 20
-0.8570909098199758
 10
-1.255407576458089
 20
-0.8583252041606672
 10
-1.268455218552434
 20
-0.8648157974003109
 10
-1.280234603608542
 20
-0.8766305879773881
 10
-1.290547365370505
 20
-0.893569356607247
 10
-1.294497685490719
 20
-0.9022718012779676
  0
LWPOLYLINE
  5
B8
330
9B
100
AcDbEntity
  8
AM_9
100
AcDbPolyline
 90
       11
 70
     0
 43
0.0
 10
-1.246176442486695
 20
-1.25890909076324
 10
-1.232191115685788
 20
-1.256281543332594
 10
-1.217394457388531
 20
-1.248165896251338
 10
-1.202795789838956
 20
-1.234733322623456
 10
-1.188921317881377
 20
-1.216434755560877
 10
-1.176219636164263
 20
-1.193494193423273
 10
-1.165338145616092
 20
-1.1667483526514
 10
-1.156759417869623
 20
-1.136733976803219
 10
-1.150910967998427
 20
-1.104458551356439
 10
-1.148653792231505
 20
-1.081390910281215
 10
-1.1478908118668
 20
-1.058
  0
ELLIPSE
  5
B9
330
9B
100
AcDbEntity
  8
AM_9
100
AcDbEllipse
 10
-2.097856496466849
 20
-1.058000000000001
 30
0.0
 11
-3.690640126521326E-17
 21
-0.20090909090909
 31
0.0
210
0.0
220
0.0
230
1.0
 40
0.4226182617407025
 41
0.2999621020009213
 42
4.149436753065237
  0
LINE
  5
BA
330
9B
100
AcDbEntity
  8
AM_9
100
AcDbLine
 10
-2.058263315416293
 20
-0.880271274966058
 30
0.0
 11
-2.087718078805214
 21
-0.8435327437061694
 31
0.0
  0
LINE
  5
BB
330
9B
100
AcDbEntity
  8
AM_9
100
AcDbLine
 10
-2.087936253629432
 20
-1.272739382825415
 30
0.0
 11
-2.058263315416293
 21
-1.235728725033942
 31
0.0
  0
LWPOLYLINE
  5
BC
330
9B
100
AcDbEntity
  8
AM_9
100
AcDbPolyline
 90
        6
 70
     0
 43
0.0
 10
-2.087985092164181
 20
-0.8431997046656282
 10
-2.08152644455088
 20
-0.8518739660875436
 10
-2.06727176298146
 20
-0.8759865832442322
 10
-2.054756731983399
 20
-0.9045524219779305
 10
-2.043978363472294
 20
-0.9384071196290126
 10
-2.043284621346391
 20
-0.9409988702238462
  0
LWPOLYLINE
  5
BD
330
9B
100
AcDbEntity
  8
AM_9
100
AcDbPolyline
 90
        4
 70
     0
 43
0.0
 10
-2.219369246779995
 20
-0.9549701574529303
 10
-2.213158376974481
 20
-0.9212906693652105
 10
-2.206193039096472
 20
-0.89451029001459
 10
-2.197815895320059
 20
-0.8706884616421957
  0
LWPOLYLINE
  5
BE
330
9B
100
AcDbEntity
  8
AM_9
100
AcDbPolyline
 90
       11
 70
     0
 43
0.0
 10
-1.1478908118668
 20
-1.058
 10
-1.149469451694846
 20
-1.024475714644719
 10
-1.154072233581164
 20
-0.9919012946505861
 10
-1.161517974961151
 20
-0.9612280408306435
 10
-1.171411467886676
 20
-0.9332603951432183
 10
-1.183424711085563
 20
-0.9086545196231036
 10
-1.196952754674624
 20
-0.888237600017308
 10
-1.211523533874116
 20
-0.8725846908478659
 10
-1.226507161705842
 20
-0.8621855293151955
 10
-1.241253292700045
 20
-0.8574426512670371
 10
-1.24616597360873
 20
-0.8570909098199758
  0
LINE
  5
BF
330
9B
100
AcDbEntity
  8
AM_9
100
AcDbLine
 10
1.375
 20
-1.5
 30
0.0
 11
1.375
 21
0.9531299999999998
 31
0.0
  0
LINE
  5
C0
330
9B
100
AcDbEntity
  8
AM_9
100
AcDbLine
 10
-1.375
 20
0.9531299999999998
 30
0.0
 11
-1.375
 21
-1.5
 31
0.0
  0
LINE
  5
C1
330
9B
100
AcDbEntity
  8
AM_9
100
AcDbLine
 10
1.685267857142857
 20
-0.6160000000000002
 30
0.0
 11
1.685267857142857
 21
-0.3173700000000002
 31
0.0
  0
LINE
  5
C2
330
9B
100
AcDbEntity
  8
AM_9
100
AcDbLine
 10
-1.685267857142857
 20
-0.3173700000000002
 30
0.0
 11
-1.685267857142857
 21
-0.6160000000000002
 31
0.0
  0
LINE
  5
C3
330
9B
100
AcDbEntity
  8
AM_9
100
AcDbLine
 10
-2.339375
 20
-0.6160000000000002
 30
0.0
 11
2.339374999998647
 21
-0.6160000000000002
 31
0.0
  0
ARC
  5
C4
330
9B
100
AcDbEntity
  8
AM_9
100
AcDbCircle
 10
2.339375000000001
 20
-0.6359999999999988
 30
0.0
 40
0.0199999999999987
100
AcDbArc
 50
0.0
 51
90.0
  0
ARC
  5
C5
330
9B
100
AcDbEntity
  8
AM_9
100
AcDbCircle
 10
-2.339375000000001
 20
-0.6359999999999988
 30
0.0
 40
0.0199999999999987
100
AcDbArc
 50
90.0
 51
180.0
  0
LINE
  5
C6
330
9B
100
AcDbEntity
  8
AM_9
100
AcDbLine
 10
-2.359375
 20
-0.6359999999999995
 30
0.0
 11
2.359375
 21
-0.6359999999999995
 31
0.0
  0
LWPOLYLINE
  5
C7
330
9B
100
AcDbEntity
  8
AM_9
100
AcDbPolyline
 90
        9
 70
     0
 43
0.0
 10
-2.197815895320059
 20
-0.8706884616421957
 10
-2.187297097236726
 20
-0.849040571208063
 10
-2.175320989484391
 20
-0.8319735982901577
 10
-2.160664392716734
 20
-0.8191730876965286
 10
-2.144794716419544
 20
-0.8129801859728878
 10
-2.128781544607536
 20
-0.8135940407604642
 10
-2.112513132706352
 20
-0.820523803715378
 10
-2.096649955873918
 20
-0.8334471654251309
 10
-2.087985092164181
 20
-0.8431997046656282
  0
LINE
  5
C8
330
9B
100
AcDbEntity
  8
AM_9
100
AcDbLine
 10
2.359375
 20
-0.9686277002666459
 30
0.0
 11
2.359375
 21
-0.6359999999999995
 31
0.0
  0
LINE
  5
C9
330
9B
100
AcDbEntity
  8
AM_9
100
AcDbLine
 10
-2.359375
 20
-0.6359999999999995
 30
0.0
 11
-2.359375
 21
-0.9686277002666459
 31
0.0
  0
LINE
  5
CA
330
9B
100
AcDbEntity
  8
AM_9
100
AcDbLine
 10
2.359375
 20
-0.2973700000000001
 30
0.0
 11
2.359375
 21
0.9331300000000002
 31
0.0
  0
LINE
  5
CB
330
9B
100
AcDbEntity
  8
AM_9
100
AcDbLine
 10
-2.359375
 20
0.9331300000000002
 30
0.0
 11
-2.359375
 21
-0.2973700000000001
 31
0.0
  0
LINE
  5
CC
330
9B
100
AcDbEntity
  8
AM_9
100
AcDbLine
 10
1.927591814052744
 20
0.9331300000000005
 30
0.0
 11
2.359375
 21
0.9331300000000002
 31
0.0
  0
LINE
  5
CD
330
9B
100
AcDbEntity
  8
AM_9
100
AcDbLine
 10
-2.359375
 20
0.9331300000000002
 30
0.0
 11
-1.927591814052744
 21
0.9331300000000005
 31
0.0
  0
LINE
  5
CE
330
9B
100
AcDbEntity
  8
AM_9
100
AcDbLine
 10
2.19748469915739
 20
0.9531299999999998
 30
0.0
 11
2.339374999998647
 21
0.9531299999999998
 31
0.0
  0
LINE
  5
CF
330
9B
100
AcDbEntity
  8
AM_9
100
AcDbLine
 10
-2.339375
 20
0.9531299999999998
 30
0.0
 11
-2.19748469915739
 21
0.9531299999999998
 31
0.0
  0
ARC
  5
D0
330
9B
100
AcDbEntity
  8
AM_9
100
AcDbCircle
 10
2.339375
 20
0.9331299999999999
 30
0.0
 40
0.02
100
AcDbArc
 50
0.0
 51
90.0
  0
ARC
  5
D1
330
9B
100
AcDbEntity
  8
AM_9
100
AcDbCircle
 10
-2.339375
 20
0.9331299999999999
 30
0.0
 40
0.0199999999999999
100
AcDbArc
 50
90.0
 51
180.0
  0
LINE
  5
D2
330
9B
100
AcDbEntity
  8
AM_9
100
AcDbLine
 10
-2.339375
 20
-0.3173700000000004
 30
0.0
 11
2.339374999998646
 21
-0.3173700000000004
 31
0.0
  0
LINE
  5
D3
330
9B
100
AcDbEntity
  8
AM_9
100
AcDbLine
 10
-2.359375
 20
-0.2973700000000001
 30
0.0
 11
2.359375
 21
-0.2973700000000001
 31
0.0
  0
ARC
  5
D4
330
9B
100
AcDbEntity
  8
AM_9
100
AcDbCircle
 10
2.339375
 20
-0.2973700000000006
 30
0.0
 40
0.0199999999999998
100
AcDbArc
 50
270.0
 51
0.0
  0
ARC
  5
D5
330
9B
100
AcDbEntity
  8
AM_9
100
AcDbCircle
 10
-2.339375
 20
-0.2973700000000006
 30
0.0
 40
0.02
100
AcDbArc
 50
180.0
 51
270.0
  0
LWPOLYLINE
  5
D6
330
9B
100
AcDbEntity
  8
AM_9
100
AcDbPolyline
 90
       11
 70
     0
 43
0.0
 10
-0.1625032739678174
 20
-0.881449835461831
 10
-0.1436898158097251
 20
-0.8643015012406196
 10
-0.114213838508073
 20
-0.8437526492890887
 10
-0.0787753667176699
 20
-0.8268124791097374
 10
-0.0397027904888863
 20
-0.8160139213730272
 10
-0.002254614222197
 20
-0.812455872541679
 10
0.036388716089013
 20
-0.8154393869376424
 10
0.0721031077643198
 20
-0.8244220009667454
 10
0.1067889158665741
 20
-0.8395691851386361
 10
0.1382047256010231
 20
-0.8599500799668552
 10
0.1625785309388416
 20
-0.8815262004510381
  0
LINE
  5
D9
330
9B
100
AcDbEntity
  8
AM_7
100
AcDbLine
 10
-0.210954545454544
 20
-1.057999999999998
 30
0.0
 11
0.210954545454543
 21
-1.057999999999998
 31
0.0
  0
ELLIPSE
  5
DB
330
9B
100
AcDbEntity
  8
AM_4
100
AcDbEllipse
 10
-2.097856496466849
 20
-1.058
 30
0.0
 11
-3.690640126521346E-17
 21
-0.2009090909090911
 31
0.0
210
0.0
220
0.0
230
1.0
 40
0.4226182617407002
 41
4.14943675306524
 42
6.583147409180507
  0
LWPOLYLINE
  5
DC
330
9B
100
AcDbEntity
  8
AM_4
100
AcDbPolyline
 90
       11
 70
     0
 43
0.0
 10
-2.043284621346391
 20
-0.9409988702238462
 10
-2.035905031913115
 20
-0.9753085917008419
 10
-2.030702832011629
 20
-1.016002124840839
 10
-2.028920514984783
 20
-1.057825636375396
 10
-2.030758364753613
 20
-1.100632850379274
 10
-2.036175778394968
 20
-1.142238307394062
 10
-2.045031012260694
 20
-1.181446994465076
 10
-2.056929223615632
 20
-1.217060079839333
 10
-2.071092852691799
 20
-1.247209923342798
 10
-2.087184292089429
 20
-1.271791918975132
 10
-2.087994503555956
 20
-1.272812036759649
  0
LWPOLYLINE
  5
DD
330
9B
100
AcDbEntity
  8
AM_4
100
AcDbPolyline
 90
       17
 70
     0
 43
0.0
 10
-2.087994503555956
 20
-1.272812036759649
 10
-2.103804766401473
 20
-1.289133177795725
 10
-2.121017859009134
 20
-1.299894429306838
 10
-2.137394135542527
 20
-1.303517939801555
 10
-2.153249266663522
 20
-1.300639043362676
 10
-2.16780016466987
 20
-1.291545520328892
 10
-2.181097623736547
 20
-1.276658962243325
 10
-2.193052559620707
 20
-1.256029231178841
 10
-2.203293644844372
 20
-1.230579100735303
 10
-2.212024985912783
 20
-1.199633530642496
 10
-2.218736371386155
 20
-1.165137005968513
 10
-2.223559436931513
 20
-1.126209297992376
 10
-2.226156963538134
 20
-1.085478054202219
 10
-2.226491015689125
 20
-1.042750482982265
 10
-2.224468744456813
 20
-1.000446990664553
 10
-2.220015878868219
 20
-0.9594462178480831
 10
-2.219369246779995
 20
-0.9549701574529303
  0
LINE
  5
DE
330
9B
100
AcDbEntity
  8
AM_4
100
AcDbLine
 10
2.359375
 20
-1.4509374
 30
0.0
 11
2.359375
 21
-0.9686277002666459
 31
0.0
  0
LINE
  5
DF
330
9B
100
AcDbEntity
  8
AM_4
100
AcDbLine
 10
-2.359375
 20
-0.9686277002666459
 30
0.0
 11
-2.359375
 21
-1.4509374
 31
0.0
  0
LINE
  5
E0
330
9B
100
AcDbEntity
  8
AM_4
100
AcDbLine
 10
-1.927591814052744
 20
0.9331300000000005
 30
0.0
 11
1.927591814052744
 21
0.9331300000000005
 31
0.0
  0
LINE
  5
E1
330
9B
100
AcDbEntity
  8
AM_4
100
AcDbLine
 10
-2.19748469915739
 20
0.9531299999999998
 30
0.0
 11
2.19748469915739
 21
0.9531299999999998
 31
0.0
  0
LWPOLYLINE
  5
E2
330
9B
100
AcDbEntity
  8
AM_4
100
AcDbPolyline
 90
       30
 70
     0
 43
0.0
 10
0.1625785309388416
 20
-0.8815262004510381
 10
0.1666703409412629
 20
-0.8857835283319994
 10
0.1910205438249203
 20
-0.9163497322758527
 10
0.2106682880852163
 20
-0.9513372615494287
 10
0.2246978465122213
 20
-0.9897598936058679
 10
0.2325153090025588
 20
-1.031062792466881
 10
0.2334806309573593
 20
-1.073196688879097
 10
0.2272763509848344
 20
-1.116093243647088
 10
0.2142562035224266
 20
-1.156484743652889
 10
0.1939646516469522
 20
-1.195174315976642
 10
0.1685088688191835
 20
-1.228233778054121
 10
0.1366934360097616
 20
-1.257202979348469
 10
0.1027596071446634
 20
-1.278552680401925
 10
0.0643806334454118
 20
-1.294055021466631
 10
0.027057918260129
 20
-1.301904128392244
 10
-0.0122484627219413
 20
-1.303218051673572
 10
-0.0488251699694492
 20
-1.298136949693884
 10
-0.0850496562239512
 20
-1.286721144071357
 10
-0.1181220529272779
 20
-1.269897129659392
 10
-0.1488400059976921
 20
-1.247362948245521
 10
-0.1758069501205893
 20
-1.219898691357274
 10
-0.1986185822255487
 20
-1.187635179307397
 10
-0.2163241696346885
 20
-1.151378203315606
 10
-0.2282610118766059
 20
-1.111679394804844
 10
-0.233641123916569
 20
-1.07018599817352
 10
-0.2320780379686297
 20
-1.027193812341094
 10
-0.2235151228038401
 20
-0.9856132656045914
 10
-0.2076082184415068
 20
-0.9449266777880717
 10
-0.1905383656583771
 20
-0.9156364367749876
 10
-0.1691646267020616
 20
-0.8884843042599677
  0
LINE
  5
E3
330
9B
100
AcDbEntity
  8
AM_4
100
AcDbLine
 10
-0.1691646267020616
 20
-0.8884843042599677
 30
0.0
 11
-0.1625032739678174
 21
-0.881449835461831
 31
0.0
  0
LINE
  5
E4
330
9B
100
AcDbEntity
  8
AM_4
100
AcDbLine
 10
-2.3103124
 20
-1.5
 30
0.0
 11
2.310312399998655
 21
-1.5
 31
0.0
  0
LINE
  5
E5
330
9B
100
AcDbEntity
  8
AM_4
100
AcDbLine
 10
-2.359375
 20
-1.4509374
 30
0.0
 11
2.359375
 21
-1.4509374
 31
0.0
  0
ARC
  5
E6
330
9B
100
AcDbEntity
  8
AM_4
100
AcDbCircle
 10
2.310312399999999
 20
-1.450937399999999
 30
0.0
 40
0.049062600000001
100
AcDbArc
 50
270.0
 51
0.0
  0
ARC
  5
E7
330
9B
100
AcDbEntity
  8
AM_4
100
AcDbCircle
 10
-2.310312399999999
 20
-1.450937399999999
 30
0.0
 40
0.0490626000000014
100
AcDbArc
 50
180.0
 51
270.0
  0
ARC
  5
E9
330
9B
100
AcDbEntity
  8
AM_5
100
AcDbCircle
 10
0.0000000000000001
 20
-1.058
 30
0.0
 40
0.2009090909090909
100
AcDbArc
 50
75.00000000000004
 51
15.0
  0
ENDBLK
  5
9E
330
9B
100
AcDbEntity
  8
0
100
AcDbBlockEnd
  0
BLOCK
  5
EC
330
EA
100
AcDbEntity
  8
0
100
AcDbBlockBegin
  2
3_405020c_Inch_0_in_048027_4
 70
     2
 10
0.0
 20
0.0
 30
0.0
  3
3_405020c_Inch_0_in_048027_4
  1

  0
ATTDEF
  5
EE
330
EA
100
AcDbEntity
  8
AM_6
100
AcDbText
 10
6.848478790953982
 20
0.1624086307230419
 30
0.0
 40
0.5
  1
405020C -Inch
100
AcDbAttributeDefinition
  3

  2
NN
 70
     8
280
     0
  0
ATTDEF
  5
EF
330
EA
100
AcDbEntity
  8
AM_6
100
AcDbText
 10
6.848478790953982
 20
-0.3375913692769581
 30
0.0
 40
0.5
  1
Grease fitting
100
AcDbAttributeDefinition
  3

  2
NT
 70
     8
280
     0
  0
ATTDEF
  5
F0
330
EA
100
AcDbEntity
  8
AM_6
100
AcDbText
 10
6.848478790953982
 20
-0.8375913692769581
 30
0.0
 40
0.5
  1
405020c-Inch
100
AcDbAttributeDefinition
  3

  2
NB
 70
     8
280
     0
  0
ATTDEF
  5
F1
330
EA
100
AcDbEntity
  8
AM_6
100
AcDbText
 10
6.848478790953982
 20
-1.337591369276958
 30
0.0
 40
0.5
  1
$MN.-Inch
100
AcDbAttributeDefinition
  3

  2
NBSYN
 70
     8
280
     0
  0
ATTDEF
  5
F2
330
EA
100
AcDbEntity
  8
AM_6
100
AcDbText
 10
6.848478790953982
 20
-1.837591369276958
 30
0.0
 40
0.5
  1
405020c
100
AcDbAttributeDefinition
  3

  2
LINA
 70
     8
280
     0
  0
ATTDEF
  5
F3
330
EA
100
AcDbEntity
  8
AM_6
100
AcDbText
 10
6.848478790953982
 20
-2.337591369276958
 30
0.0
 40
0.5
  1
405020c
100
AcDbAttributeDefinition
  3

  2
MN
 70
     8
280
     0
  0
ATTDEF
  5
F4
330
EA
100
AcDbEntity
  8
AM_6
100
AcDbText
 10
6.848478790953982
 20
-2.837591369276958
 30
0.0
 40
0.5
  1
0.230
100
AcDbAttributeDefinition
  3

  2
NDR
 70
     8
280
     0
  0
ATTDEF
  5
F5
330
EA
100
AcDbEntity
  8
AM_6
100
AcDbText
 10
6.848478790953982
 20
-3.337591369276958
 30
0.0
 40
0.5
  1
0.210
100
AcDbAttributeDefinition
  3

  2
KDR
 70
     8
280
     0
  0
ATTDEF
  5
F6
330
EA
100
AcDbEntity
  8
AM_6
100
AcDbText
 10
6.848478790953982
 20
-3.837591369276958
 30
0.0
 40
0.5
  1
0.157
100
AcDbAttributeDefinition
  3

  2
BZE
 70
     8
280
     0
  0
ATTDEF
  5
F7
330
EA
100
AcDbEntity
  8
AM_6
100
AcDbText
 10
6.848478790953982
 20
-4.337591369276958
 30
0.0
 40
0.5
  1
9/32
100
AcDbAttributeDefinition
  3

  2
WAF
 70
     8
280
     0
  0
ATTDEF
  5
F8
330
EA
100
AcDbEntity
  8
AM_6
100
AcDbText
 10
6.848478790953982
 20
-4.837591369276958
 30
0.0
 40
0.5
  1
0.2813
100
AcDbAttributeDefinition
  3

  2
WAF1
 70
     8
280
     0
  0
ATTDEF
  5
F9
330
EA
100
AcDbEntity
  8
AM_6
100
AcDbText
 10
6.848478790953982
 20
-5.337591369276958
 30
0.0
 40
0.5
  1
0.545
100
AcDbAttributeDefinition
  3

  2
BL
 70
     8
280
     0
  0
ATTDEF
  5
FA
330
EA
100
AcDbEntity
  8
AM_6
100
AcDbText
 10
6.848478790953982
 20
-5.837591369276958
 30
0.0
 40
0.5
  1
0.200
100
AcDbAttributeDefinition
  3

  2
TL
 70
     8
280
     0
  0
ATTDEF
  5
FB
330
EA
100
AcDbEntity
  8
AM_6
100
AcDbText
 10
6.848478790953982
 20
-6.337591369276958
 30
0.0
 40
0.5
  1
baldor
100
AcDbAttributeDefinition
  3

  2
COMPANY
 70
     8
280
     0
  0
ELLIPSE
  5
FC
330
EA
100
AcDbEntity
  8
AM_9
100
AcDbEllipse
 10
1.49375
 20
0.0000000000000002
 30
0.0
 11
-1.838598171376523E-17
 21
-0.1000886227036577
 31
0.0
210
0.0
220
0.0
230
1.0
 40
0.8660254037844382
 41
0.0
 42
6.283185307179586
  0
LINE
  5
FD
330
EA
100
AcDbEntity
  8
AM_9
100
AcDbLine
 10
1.696529369951442
 20
0.0947845106744499
 30
0.0
 11
1.718471576807605
 21
0.081204315361521
 31
0.0
  0
LINE
  5
FE
330
EA
100
AcDbEntity
  8
AM_9
100
AcDbLine
 10
1.654653236521141
 20
0.1218064730422815
 30
0.0
 11
1.696529369951442
 21
0.0947845106744499
 31
0.0
  0
LWPOLYLINE
  5
FF
330
EA
100
AcDbEntity
  8
AM_9
100
AcDbPolyline
 90
        4
 70
     0
 43
0.0
 10
1.718471576807605
 20
0.081204315361521
 10
1.717322372260408
 20
0.0623017518439033
 10
1.716015768908418
 20
0.0312428256208206
 10
1.715556473042282
 20
0.0000000000000002
  0
LWPOLYLINE
  5
100
330
EA
100
AcDbEntity
  8
AM_9
100
AcDbPolyline
 90
        3
 70
     0
 43
0.0
 10
1.700608368030387
 20
-0.0922351516072161
 10
1.68601800873529
 20
-0.1014141150849084
 10
1.654653236521141
 20
-0.1218064730422811
  0
LINE
  5
101
330
EA
100
AcDbEntity
  8
AM_9
100
AcDbLine
 10
1.718471576807605
 20
-0.0812043153615207
 30
0.0
 11
1.700608368030387
 21
-0.0922351516072161
 31
0.0
  0
LWPOLYLINE
  5
102
330
EA
100
AcDbEntity
  8
AM_9
100
AcDbPolyline
 90
        3
 70
     0
 43
0.0
 10
1.715556473042282
 20
0.0000000000000002
 10
1.716325910773516
 20
-0.0406021576807603
 10
1.718471576807605
 20
-0.0812043153615207
  0
LINE
  5
103
330
EA
100
AcDbEntity
  8
AM_9
100
AcDbLine
 10
1.745974702610292
 20
-0.0812043153615207
 30
0.0
 11
1.718471576807605
 21
-0.0812043153615207
 31
0.0
  0
LINE
  5
104
330
EA
100
AcDbEntity
  8
AM_9
100
AcDbLine
 10
1.745974702610292
 20
0.081204315361521
 30
0.0
 11
1.718471576807605
 21
0.081204315361521
 31
0.0
  0
LWPOLYLINE
  5
105
330
EA
100
AcDbEntity
  8
AM_9
100
AcDbPolyline
 90
        3
 70
     0
 43
0.0
 10
1.687986569854474
 20
-0.1218064730422811
 10
1.71766875038381
 20
-0.1015053942019009
 10
1.745974702610292
 20
-0.0812043153615207
  0
LWPOLYLINE
  5
106
330
EA
100
AcDbEntity
  8
AM_9
100
AcDbPolyline
 90
        3
 70
     0
 43
0.0
 10
1.745974702610292
 20
-0.0812043153615207
 10
1.748113571097526
 20
-0.0407847159147453
 10
1.748889806375615
 20
0.0000000000000002
  0
LWPOLYLINE
  5
107
330
EA
100
AcDbEntity
  8
AM_9
100
AcDbPolyline
 90
        3
 70
     0
 43
0.0
 10
1.745974702610292
 20
0.081204315361521
 10
1.717798871512444
 20
0.1014141150849087
 10
1.687986569854474
 20
0.1218064730422815
  0
LWPOLYLINE
  5
108
330
EA
100
AcDbEntity
  8
AM_9
100
AcDbPolyline
 90
        4
 70
     0
 43
0.0
 10
1.748889806375615
 20
0.0000000000000002
 10
1.748433178075432
 20
0.0311508759219517
 10
1.747123907157489
 20
0.0623017518439033
 10
1.745974702610292
 20
0.081204315361521
  0
LWPOLYLINE
  5
109
330
EA
100
AcDbEntity
  8
AM_9
100
AcDbPolyline
 90
        3
 70
     0
 43
0.0
 10
1.596665103765323
 20
0.1624086307230419
 10
1.624840934863171
 20
0.1421988309996542
 10
1.654653236521141
 20
0.1218064730422815
  0
LWPOLYLINE
  5
10A
330
EA
100
AcDbEntity
  8
AM_9
100
AcDbPolyline
 90
        3
 70
     0
 43
0.0
 10
1.654653236521141
 20
-0.1218064730422811
 10
1.624971055991805
 20
-0.1421075518826614
 10
1.596665103765323
 20
-0.1624086307230415
  0
LINE
  5
10B
330
EA
100
AcDbEntity
  8
AM_9
100
AcDbLine
 10
1.493737797620407
 20
-0.1102543821984235
 30
0.0
 11
1.588293009571996
 21
-0.116173055438642
 31
0.0
  0
LINE
  5
10C
330
EA
100
AcDbEntity
  8
AM_9
100
AcDbLine
 10
1.588293009571996
 20
0.1161730554386423
 30
0.0
 11
1.493737797620407
 21
0.1102543821984238
 31
0.0
  0
LINE
  5
10D
330
EA
100
AcDbEntity
  8
AM_9
100
AcDbLine
 10
1.687986569854474
 20
0.1218064730422815
 30
0.0
 11
1.676991592818778
 21
0.1290696357313804
 31
0.0
  0
LINE
  5
10E
330
EA
100
AcDbEntity
  8
AM_9
100
AcDbLine
 10
1.677162985101192
 20
-0.1289574178406935
 30
0.0
 11
1.687986569854474
 21
-0.1218064730422811
 31
0.0
  0
ELLIPSE
  5
10F
330
EA
100
AcDbEntity
  8
AM_9
100
AcDbEllipse
 10
1.627083333333344
 20
0.0000000000000614
 30
0.0
 11
8.612328614999604E-18
 21
0.1406499999999321
 31
0.0
210
0.0
220
0.0
230
1.0
 40
0.8660254037844993
 41
3.547334406742285
 42
5.877582900738882
  0
ELLIPSE
  5
110
330
EA
100
AcDbEntity
  8
AM_9
100
AcDbEllipse
 10
1.642743608043448
 20
0.0000000000000001
 30
0.0
 11
6.694498085252792E-18
 21
0.1093294505797714
 31
0.0
210
0.0
220
0.0
230
1.0
 40
0.8660254037843937
 41
3.131026496520065
 42
6.283185307179586
  0
LWPOLYLINE
  5
111
330
EA
100
AcDbEntity
  8
AM_9
100
AcDbPolyline
 90
        4
 70
     0
 43
0.0
 10
1.611138083875631
 20
-0.0712851865685597
 10
1.609230252544029
 20
-0.0691255375182417
 10
1.601887593808235
 20
-0.0592283214933914
 10
1.600070311338962
 20
-0.0562886698167459
  0
LWPOLYLINE
  5
112
330
EA
100
AcDbEntity
  8
AM_9
100
AcDbPolyline
 90
       27
 70
     0
 43
0.0
 10
1.660421277573112
 20
0.0946847896390989
 10
1.664602202382115
 20
0.0945353190578615
 10
1.675409560318846
 20
0.0927478649797663
 10
1.685960062267029
 20
0.0889587128749952
 10
1.695908133528669
 20
0.0833132438633245
 10
1.705046729092088
 20
0.0759938978125457
 10
1.713234669572958
 20
0.0671695008731367
 10
1.720340838012474
 20
0.0570081376970462
 10
1.72623330300329
 20
0.0456974641722565
 10
1.730788212804184
 20
0.0334540961170621
 10
1.733902025842132
 20
0.0205237469000977
 10
1.735501746326939
 20
0.0071758689389534
 10
1.735552027387782
 20
-0.006304719151262
 10
1.734059126239819
 20
-0.0196277792302103
 10
1.731072646358564
 20
-0.0325056091685307
 10
1.726683333249371
 20
-0.044668382845283
 10
1.721018235346787
 20
-0.0558720319246393
 10
1.714232353580073
 20
-0.0659076552801067
 10
1.706496083644813
 20
-0.0746084166988861
 10
1.697978368183858
 20
-0.0818515505028361
 10
1.688826787723265
 20
-0.0875521663980835
 10
1.679149325669353
 20
-0.0916449709855069
 10
1.669010703238687
 20
-0.0940525170381492
 10
1.658469760622558
 20
-0.0946522417597299
 10
1.647679586521633
 20
-0.0932885252984366
 10
1.637041746360767
 20
-0.089908016808454
 10
1.628228181650978
 20
-0.0854258672248697
  0
LWPOLYLINE
  5
113
330
EA
100
AcDbEntity
  8
AM_9
100
AcDbPolyline
 90
        4
 70
     0
 43
0.0
 10
1.631881042147216
 20
0.0874818532769707
 10
1.639635580684123
 20
0.0909275281478047
 10
1.649682012307028
 20
0.0936947704767079
 10
1.660421277573112
 20
0.0946847896390989
  0
LINE
  5
114
330
EA
100
AcDbEntity
  8
AM_9
100
AcDbLine
 10
1.602103196524999
 20
0.0595619115795207
 30
0.0
 11
1.60347509502449
 21
0.0616156250941009
 31
0.0
  0
ELLIPSE
  5
115
330
EA
100
AcDbEntity
  8
AM_9
100
AcDbEllipse
 10
1.67098673411663
 20
0.0000000000000001
 30
0.0
 11
6.084620899749632E-18
 21
0.09936940028726621
 31
0.0
210
0.0
220
0.0
230
1.0
 40
0.866025403784441
 41
2.201405349610302
 42
7.211089758351272
  0
ELLIPSE
  5
116
330
EA
100
AcDbEntity
  8
AM_9
100
AcDbEllipse
 10
1.70516214438732
 20
0.0000000000000013
 30
0.0
 11
8.036249332247433E-18
 21
0.1312419113468893
 31
0.0
210
0.0
220
0.0
230
1.0
 40
0.8660254037844418
 41
2.385390592321534
 42
7.086229085921643
  0
ELLIPSE
  5
117
330
EA
100
AcDbEntity
  8
AM_9
100
AcDbEllipse
 10
1.705162144387498
 20
-0.0000000000000479
 30
0.0
 11
8.036249332251992E-18
 21
0.1312419113469638
 31
0.0
210
0.0
220
0.0
230
1.0
 40
0.8660254037851922
 41
0.823511720909802
 42
0.9401873039796944
  0
ELLIPSE
  5
118
330
EA
100
AcDbEntity
  8
AM_9
100
AcDbEllipse
 10
1.705162144387321
 20
0.000000000000018
 30
0.0
 11
8.036249332249115E-18
 21
0.1312419113469168
 31
0.0
210
0.0
220
0.0
230
1.0
 40
0.8660254037843418
 41
2.201405349610359
 42
2.362979946428912
  0
ELLIPSE
  5
119
330
EA
100
AcDbEntity
  8
AM_9
100
AcDbEllipse
 10
1.72549587914307
 20
0.0000000000000002
 30
0.0
 11
8.079715312105935E-18
 21
0.1319517646676797
 31
0.0
210
0.0
220
0.0
230
1.0
 40
0.8660254037844374
 41
3.967571964592128
 42
5.457205996177252
  0
ELLIPSE
  5
11A
330
EA
100
AcDbEntity
  8
AM_9
100
AcDbEllipse
 10
1.593750000000002
 20
0.0000000000000011
 30
0.0
 11
8.612328615003877E-18
 21
0.1406500000000019
 31
0.0
210
0.0
220
0.0
230
1.0
 40
0.866025403784439
 41
0.0
 42
6.283185307179586
  0
ELLIPSE
  5
11B
330
EA
100
AcDbEntity
  8
AM_9
100
AcDbEllipse
 10
1.59375
 20
0.0000000000000002
 30
0.0
 11
7.124004163867288E-18
 21
0.1163438171532771
 31
0.0
210
0.0
220
0.0
230
1.0
 40
0.866025403784433
 41
0.0
 42
6.283185307179586
  0
ELLIPSE
  5
11C
330
EA
100
AcDbEntity
  8
AM_9
100
AcDbEllipse
 10
1.498913818445166
 20
0.0000000000000001
 30
0.0
 11
6.761045944280104E-18
 21
0.1104162595939892
 31
0.0
210
0.0
220
0.0
230
1.0
 40
0.8660254037844664
 41
0.0
 42
6.283185307179586
  0
LWPOLYLINE
  5
11D
330
EA
100
AcDbEntity
  8
AM_4
100
AcDbPolyline
 90
        3
 70
     0
 43
0.0
 10
1.676991592818778
 20
0.1290696357313804
 10
1.65676551386267
 20
0.1421075518826617
 10
1.624168229568011
 20
0.1624086307230419
  0
LWPOLYLINE
  5
11E
330
EA
100
AcDbEntity
  8
AM_4
100
AcDbPolyline
 90
        3
 70
     0
 43
0.0
 10
1.624168229568011
 20
-0.1624086307230415
 10
1.656621797640326
 20
-0.1421988309996539
 10
1.677162985101192
 20
-0.1289574178406935
  0
LWPOLYLINE
  5
11F
330
EA
100
AcDbEntity
  8
AM_4
100
AcDbPolyline
 90
        4
 70
     0
 43
0.0
 10
1.471943526957719
 20
0.0000000000000002
 10
1.472400155257902
 20
0.0311508759219517
 10
1.473709426175845
 20
0.0623017518439033
 10
1.474858630723042
 20
0.081204315361521
  0
LWPOLYLINE
  5
120
330
EA
100
AcDbEntity
  8
AM_4
100
AcDbPolyline
 90
        3
 70
     0
 43
0.0
 10
1.474858630723042
 20
-0.0812043153615207
 10
1.472719762235808
 20
-0.0407847159147453
 10
1.471943526957719
 20
0.0000000000000002
  0
LINE
  5
121
330
EA
100
AcDbEntity
  8
AM_4
100
AcDbLine
 10
1.502361756525729
 20
-0.0812043153615207
 30
0.0
 11
1.474858630723042
 21
-0.0812043153615207
 31
0.0
  0
LWPOLYLINE
  5
122
330
EA
100
AcDbEntity
  8
AM_4
100
AcDbPolyline
 90
        3
 70
     0
 43
0.0
 10
1.53284676347886
 20
-0.1218064730422811
 10
1.503164582949524
 20
-0.1015053942019009
 10
1.474858630723042
 20
-0.0812043153615207
  0
LWPOLYLINE
  5
123
330
EA
100
AcDbEntity
  8
AM_4
100
AcDbPolyline
 90
        3
 70
     0
 43
0.0
 10
1.596665103765323
 20
-0.1624086307230415
 10
1.564211535693008
 20
-0.1421988309996538
 10
1.53284676347886
 20
-0.1218064730422811
  0
LINE
  5
124
330
EA
100
AcDbEntity
  8
AM_4
100
AcDbLine
 10
1.624168229568011
 20
-0.1624086307230415
 30
0.0
 11
1.596665103765323
 21
-0.1624086307230415
 31
0.0
  0
LWPOLYLINE
  5
125
330
EA
100
AcDbEntity
  8
AM_4
100
AcDbPolyline
 90
        3
 70
     0
 43
0.0
 10
1.566180096812193
 20
-0.1218064730422811
 10
1.595862277341529
 20
-0.1421075518826614
 10
1.624168229568011
 20
-0.1624086307230415
  0
LWPOLYLINE
  5
126
330
EA
100
AcDbEntity
  8
AM_4
100
AcDbPolyline
 90
        3
 70
     0
 43
0.0
 10
1.505276860291053
 20
0.0000000000000002
 10
1.504507422559818
 20
-0.0406021576807603
 10
1.502361756525729
 20
-0.0812043153615207
  0
LWPOLYLINE
  5
127
330
EA
100
AcDbEntity
  8
AM_4
100
AcDbPolyline
 90
        3
 70
     0
 43
0.0
 10
1.502361756525729
 20
-0.0812043153615207
 10
1.534815324598045
 20
-0.1014141150849084
 10
1.566180096812193
 20
-0.1218064730422811
  0
LINE
  5
128
330
EA
100
AcDbEntity
  8
AM_4
100
AcDbLine
 10
1.624168229568011
 20
0.1624086307230419
 30
0.0
 11
1.596665103765323
 21
0.1624086307230419
 31
0.0
  0
LWPOLYLINE
  5
129
330
EA
100
AcDbEntity
  8
AM_4
100
AcDbPolyline
 90
        3
 70
     0
 43
0.0
 10
1.53284676347886
 20
0.1218064730422814
 10
1.564067819470665
 20
0.1421075518826617
 10
1.596665103765323
 20
0.1624086307230419
  0
LWPOLYLINE
  5
12A
330
EA
100
AcDbEntity
  8
AM_4
100
AcDbPolyline
 90
        3
 70
     0
 43
0.0
 10
1.474858630723042
 20
0.081204315361521
 10
1.50303446182089
 20
0.1014141150849087
 10
1.53284676347886
 20
0.1218064730422814
  0
LINE
  5
12B
330
EA
100
AcDbEntity
  8
AM_4
100
AcDbLine
 10
1.502361756525729
 20
0.081204315361521
 30
0.0
 11
1.474858630723042
 21
0.081204315361521
 31
0.0
  0
LWPOLYLINE
  5
12C
330
EA
100
AcDbEntity
  8
AM_4
100
AcDbPolyline
 90
        3
 70
     0
 43
0.0
 10
1.624168229568011
 20
0.1624086307230419
 10
1.595992398470163
 20
0.1421988309996542
 10
1.566180096812193
 20
0.1218064730422815
  0
LWPOLYLINE
  5
12D
330
EA
100
AcDbEntity
  8
AM_4
100
AcDbPolyline
 90
        3
 70
     0
 43
0.0
 10
1.566180096812193
 20
0.1218064730422815
 10
1.534959040820388
 20
0.1015053942019012
 10
1.502361756525729
 20
0.081204315361521
  0
LWPOLYLINE
  5
12E
330
EA
100
AcDbEntity
  8
AM_4
100
AcDbPolyline
 90
        4
 70
     0
 43
0.0
 10
1.502361756525729
 20
0.081204315361521
 10
1.503510961072927
 20
0.0623017518439033
 10
1.504817564424916
 20
0.0312428256208206
 10
1.505276860291053
 20
0.0000000000000002
  0
ELLIPSE
  5
12F
330
EA
100
AcDbEntity
  8
AM_4
100
AcDbEllipse
 10
1.627083333333334
 20
-0.0000000000000001
 30
0.0
 11
8.612328615003780E-18
 21
0.1406500000000003
 31
0.0
210
0.0
220
0.0
230
1.0
 40
0.8660254037844377
 41
5.877582900738958
 42
9.830519713922143
  0
ELLIPSE
  5
130
330
EA
100
AcDbEntity
  8
AM_4
100
AcDbEllipse
 10
1.642743608043448
 20
0.0000000000000001
 30
0.0
 11
6.694498085252805E-18
 21
0.1093294505797717
 31
0.0
210
0.0
220
0.0
230
1.0
 40
0.8660254037843922
 41
0.0
 42
3.131026496520065
  0
ELLIPSE
  5
131
330
EA
100
AcDbEntity
  8
AM_4
100
AcDbEllipse
 10
1.670986734116629
 20
0.0000000000000003
 30
0.0
 11
6.084620899749617E-18
 21
0.09936940028726596
 31
0.0
210
0.0
220
0.0
230
1.0
 40
0.866025403784441
 41
0.940187303979485
 42
2.171458851730813
  0
LINE
  5
132
330
EA
100
AcDbEntity
  8
AM_4
100
AcDbLine
 10
1.601481665606296
 20
-0.0585918508151905
 30
0.0
 11
1.613363481889388
 21
-0.0773850548368749
 31
0.0
  0
LINE
  5
133
330
EA
100
AcDbEntity
  8
AM_4
100
AcDbLine
 10
1.613363481889388
 20
0.0773850548368753
 30
0.0
 11
1.601481665606296
 21
0.0585918508151909
 31
0.0
  0
ELLIPSE
  5
134
330
EA
100
AcDbEntity
  8
AM_4
100
AcDbEllipse
 10
1.670986734116014
 20
-0.0000000000004624
 30
0.0
 11
6.084620899701002E-18
 21
0.09936940028647201
 31
0.0
210
0.0
220
0.0
230
1.0
 40
0.8660254037839864
 41
-4.111726455448819
 42
-4.081779957569072
  0
ELLIPSE
  5
135
330
EA
100
AcDbEntity
  8
AM_4
100
AcDbEllipse
 10
1.705162144388223
 20
0.0000000000005841
 30
0.0
 11
8.036249332309839E-18
 21
0.1312419113479085
 31
0.0
210
0.0
220
0.0
230
1.0
 40
0.8660254037855906
 41
-4.123526038456777
 42
-4.081779957569735
  0
LINE
  5
136
330
EA
100
AcDbEntity
  8
AM_4
100
AcDbLine
 10
1.612018303673093
 20
0.0752127627722508
 30
0.0
 11
1.61077987860982
 21
0.0731293506047555
 31
0.0
  0
LWPOLYLINE
  5
137
330
EA
100
AcDbEntity
  8
AM_4
100
AcDbPolyline
 90
       10
 70
     0
 43
0.0
 10
1.715727600930838
 20
0.1359265219950582
 10
1.705145823130669
 20
0.1354364153885752
 10
1.690192916634929
 20
0.1330467851124419
 10
1.675665368378091
 20
0.1287197386552403
 10
1.661758507968778
 20
0.1225289096686182
 10
1.64865360205014
 20
0.114563360171152
 10
1.636523985593542
 20
0.1049287169755897
 10
1.625535851900925
 20
0.0937495752046851
 10
1.615847056921548
 20
0.0811723339727936
 10
1.612018303673093
 20
0.0752127627722508
  0
LWPOLYLINE
  5
138
330
EA
100
AcDbEntity
  8
AM_4
100
AcDbPolyline
 90
       16
 70
     0
 43
0.0
 10
1.612737632104465
 20
-0.0763856428371654
 10
1.621544426930126
 20
-0.0889388671035351
 10
1.632369344640485
 20
-0.1010169832780323
 10
1.644483791764202
 20
-0.1115240104569495
 10
1.657681194194945
 20
-0.1202903460970846
 10
1.671734840023512
 20
-0.1271845943392722
 10
1.686407306816921
 20
-0.1321161857152124
 10
1.701459474397526
 20
-0.1350341116011553
 10
1.716657583103008
 20
-0.1359227434117722
 10
1.731777655883188
 20
-0.1347962763112492
 10
1.746601408218657
 20
-0.131694933240899
 10
1.760924949484521
 20
-0.1266812962661656
 10
1.774560902504899
 20
-0.1198344178592088
 10
1.787331074016492
 20
-0.1112491854474589
 10
1.799064720911403
 20
-0.1010377872529413
 10
1.806683084407152
 20
-0.092864381231355
  0
LWPOLYLINE
  5
139
330
EA
100
AcDbEntity
  8
AM_4
100
AcDbPolyline
 90
        3
 70
     0
 43
0.0
 10
1.610548802580786
 20
-0.0727311735453286
 10
1.612187610372996
 20
-0.0754912080703167
 10
1.612737632104465
 20
-0.0763856428371654
  0
LWPOLYLINE
  5
13A
330
EA
100
AcDbEntity
  8
AM_4
100
AcDbPolyline
 90
        8
 70
     0
 43
0.0
 10
1.805651412418017
 20
0.094056377328565
 10
1.794822480989983
 20
0.1050264844842459
 10
1.782289357710454
 20
0.1149186817360602
 10
1.768753815711885
 20
0.1230177959341794
 10
1.754447569032588
 20
0.1292071773359858
 10
1.739609621692281
 20
0.1334109619731908
 10
1.724477829533566
 20
0.1355915883749082
 10
1.715727600930838
 20
0.1359265219950582
  0
LWPOLYLINE
  5
13B
330
EA
100
AcDbEntity
  8
AM_4
100
AcDbPolyline
 90
        3
 70
     0
 43
0.0
 10
1.809455203681546
 20
0.0895118857476505
 10
1.806138260020031
 20
0.0934974773142844
 10
1.805651412418017
 20
0.094056377328565
  0
ELLIPSE
  5
13C
330
EA
100
AcDbEntity
  8
AM_4
100
AcDbEllipse
 10
1.725495879143069
 20
0.0000000000000002
 30
0.0
 11
8.079715312105948E-18
 21
0.1319517646676799
 31
0.0
210
0.0
220
0.0
230
1.0
 40
0.8660254037844378
 41
5.457205996177248
 42
10.24005049320161
  0
ELLIPSE
  5
13D
330
EA
100
AcDbEntity
  8
AM_4
100
AcDbEllipse
 10
1.705162144387322
 20
0.0000000000000002
 30
0.0
 11
8.036249332247605E-18
 21
0.1312419113468921
 31
0.0
210
0.0
220
0.0
230
1.0
 40
0.8660254037844417
 41
0.9784518331812331
 42
2.159659268722902
  0
ELLIPSE
  5
13E
330
EA
100
AcDbEntity
  8
AM_4
100
AcDbEllipse
 10
1.705162144388215
 20
-0.0000000000005881
 30
0.0
 11
8.036249332310019E-18
 21
0.1312419113479114
 31
0.0
210
0.0
220
0.0
230
1.0
 40
0.8660254037855305
 41
0.940187303979906
 42
0.9784518331813186
  0
ELLIPSE
  5
13F
330
EA
100
AcDbEntity
  8
AM_4
100
AcDbEllipse
 10
1.76625
 20
0.0000000000000002
 30
0.0
 11
-1.484390032546748E-17
 21
-0.08080642971672804
 31
0.0
210
0.0
220
0.0
230
1.0
 40
0.8660254037844377
 41
0.0
 42
6.283185307179586
  0
ELLIPSE
  5
140
330
EA
100
AcDbEntity
  8
AM_4
100
AcDbEllipse
 10
1.758634139106116
 20
0.0000000000000003
 30
0.0
 11
6.357083428131000E-18
 21
0.1038190510530391
 31
0.0
210
0.0
220
0.0
230
1.0
 40
0.8660254037844382
 41
5.697080729313417
 42
10.07375329289272
  0
LINE
  5
141
330
EA
100
AcDbEntity
  8
AM_4
100
AcDbLine
 10
1.824736998028308
 20
0.0703724241776376
 30
0.0
 11
1.809511180726839
 21
0.0894418265240921
 31
0.0
  0
LINE
  5
142
330
EA
100
AcDbEntity
  8
AM_4
100
AcDbLine
 10
1.809511180726839
 20
-0.0894418265240917
 30
0.0
 11
1.824736998028308
 21
-0.0703724241776372
 31
0.0
  0
ELLIPSE
  5
143
330
EA
100
AcDbEntity
  8
AM_4
100
AcDbEllipse
 10
1.725495879155594
 20
-0.0000000000148842
 30
0.0
 11
8.079715310768650E-18
 21
0.1319517646458401
 31
0.0
210
0.0
220
0.0
230
1.0
 40
0.8660254037917342
 41
3.956865186024778
 42
3.967571964596575
  0
ELLIPSE
  5
144
330
EA
100
AcDbEntity
  8
AM_4
100
AcDbEllipse
 10
1.758634139106144
 20
-0.0000000000000187
 30
0.0
 11
6.357083428129418E-18
 21
0.1038190510530133
 31
0.0
210
0.0
220
0.0
230
1.0
 40
0.8660254037843479
 41
3.79056798571305
 42
5.697080729313726
  0
ENDBLK
  5
ED
330
EA
100
AcDbEntity
  8
0
100
AcDbBlockEnd
  0
BLOCK
  5
147
330
145
100
AcDbEntity
  8
0
100
AcDbBlockBegin
  2
4_048027B_0_in_048027_4
 70
     2
 10
0.0
 20
0.0
 30
0.0
  3
4_048027B_0_in_048027_4
  1

  0
ATTDEF
  5
149
330
145
100
AcDbEntity
  8
AM_6
100
AcDbText
 10
10.25
 20
1.409375
 30
0.0
 40
0.5
  1
Unisphere II - Pillow Block Bearing - Inch - Body
100
AcDbAttributeDefinition
  3

  2
NN
 70
     8
280
     0
  0
ATTDEF
  5
14A
330
145
100
AcDbEntity
  8
AM_6
100
AcDbText
 10
10.25
 20
0.909375
 30
0.0
 40
0.5
  1
Unisphere II
100
AcDbAttributeDefinition
  3

  2
NT
 70
     8
280
     0
  0
ATTDEF
  5
14B
330
145
100
AcDbEntity
  8
AM_6
100
AcDbText
 10
10.25
 20
0.409375
 30
0.0
 40
0.5
  1
048027B
100
AcDbAttributeDefinition
  3

  2
NB
 70
     8
280
     0
  0
ATTDEF
  5
14C
330
145
100
AcDbEntity
  8
AM_6
100
AcDbText
 10
10.25
 20
-0.090625
 30
0.0
 40
0.5
  1
$PN.
100
AcDbAttributeDefinition
  3

  2
NBSYN
 70
     8
280
     0
  0
ATTDEF
  5
14D
330
145
100
AcDbEntity
  8
AM_6
100
AcDbText
 10
10.25
 20
-0.590625
 30
0.0
 40
0.5
  1
048027B
100
AcDbAttributeDefinition
  3

  2
LINA
 70
     8
280
     0
  0
ATTDEF
  5
14E
330
145
100
AcDbEntity
  8
AM_6
100
AcDbText
 10
10.25
 20
-1.090625
 30
0.0
 40
0.5
  1
2-3/4
100
AcDbAttributeDefinition
  3

  2
SS
 70
     8
280
     0
  0
ATTDEF
  5
14F
330
145
100
AcDbEntity
  8
AM_6
100
AcDbText
 10
10.25
 20
-1.590625
 30
0.0
 40
0.5
  1
2.75000
100
AcDbAttributeDefinition
  3

  2
SS1
 70
     8
280
     0
  0
ATTDEF
  5
150
330
145
100
AcDbEntity
  8
AM_6
100
AcDbText
 10
10.25
 20
-2.090625
 30
0.0
 40
0.5
  1
Expansion Type
100
AcDbAttributeDefinition
  3

  2
TYPE
 70
     8
280
     0
  0
ATTDEF
  5
151
330
145
100
AcDbEntity
  8
AM_6
100
AcDbText
 10
10.25
 20
-2.590625
 30
0.0
 40
0.5
  1
048010B
100
AcDbAttributeDefinition
  3

  2
PNNE
 70
     8
280
     0
  0
ATTDEF
  5
152
330
145
100
AcDbEntity
  8
AM_6
100
AcDbText
 10
10.25
 20
-3.090625
 30
0.0
 40
0.5
  1
048027B
100
AcDbAttributeDefinition
  3

  2
PNE
 70
     8
280
     0
  0
ATTDEF
  5
153
330
145
100
AcDbEntity
  8
AM_6
100
AcDbText
 10
10.25
 20
-3.590625
 30
0.0
 40
0.5
  1
P2B-UN2-212
100
AcDbAttributeDefinition
  3

  2
DESCRIPTIONNE
 70
     8
280
     0
  0
ATTDEF
  5
154
330
145
100
AcDbEntity
  8
AM_6
100
AcDbText
 10
10.25
 20
-4.090625
 30
0.0
 40
0.5
  1
P2B-UN2-212E
100
AcDbAttributeDefinition
  3

  2
DESCRIPTIONE
 70
     8
280
     0
  0
ATTDEF
  5
155
330
145
100
AcDbEntity
  8
AM_6
100
AcDbText
 10
10.25
 20
-4.590625
 30
0.0
 40
0.5
  1
19.0
100
AcDbAttributeDefinition
  3

  2
WEIGHT
 70
     8
280
     0
  0
ATTDEF
  5
156
330
145
100
AcDbEntity
  8
AM_6
100
AcDbText
 10
10.25
 20
-5.090625
 30
0.0
 40
0.5
  1
2-29/64
100
AcDbAttributeDefinition
  3

  2
A
 70
     8
280
     0
  0
ATTDEF
  5
157
330
145
100
AcDbEntity
  8
AM_6
100
AcDbText
 10
10.25
 20
-5.590625
 30
0.0
 40
0.5
  1
2.45313
100
AcDbAttributeDefinition
  3

  2
A1
 70
     8
280
     0
  0
ATTDEF
  5
158
330
145
100
AcDbEntity
  8
AM_6
100
AcDbText
 10
10.25
 20
-6.090625
 30
0.0
 40
0.5
  1
10-7/16
100
AcDbAttributeDefinition
  3

  2
B
 70
     8
280
     0
  0
ATTDEF
  5
159
330
145
100
AcDbEntity
  8
AM_6
100
AcDbText
 10
10.25
 20
-6.590625
 30
0.0
 40
0.5
  1
10.43750
100
AcDbAttributeDefinition
  3

  2
B1
 70
     8
280
     0
  0
ATTDEF
  5
15A
330
145
100
AcDbEntity
  8
AM_6
100
AcDbText
 10
10.25
 20
-7.090625
 30
0.0
 40
0.5
  1
2-9/16
100
AcDbAttributeDefinition
  3

  2
C
 70
     8
280
     0
  0
ATTDEF
  5
15B
330
145
100
AcDbEntity
  8
AM_6
100
AcDbText
 10
10.25
 20
-7.590625
 30
0.0
 40
0.5
  1
2.56250
100
AcDbAttributeDefinition
  3

  2
C1
 70
     8
280
     0
  0
ATTDEF
  5
15C
330
145
100
AcDbEntity
  8
AM_6
100
AcDbText
 10
10.25
 20
-8.090625
 30
0.0
 40
0.5
  1
7-13/16
100
AcDbAttributeDefinition
  3

  2
DMIN
 70
     8
280
     0
  0
ATTDEF
  5
15D
330
145
100
AcDbEntity
  8
AM_6
100
AcDbText
 10
10.25
 20
-8.590625
 30
0.0
 40
0.5
  1
7.81250
100
AcDbAttributeDefinition
  3

  2
DMIN1
 70
     8
280
     0
  0
ATTDEF
  5
15E
330
145
100
AcDbEntity
  8
AM_6
100
AcDbText
 10
10.25
 20
-9.090625
 30
0.0
 40
0.5
  1
8-7/16
100
AcDbAttributeDefinition
  3

  2
DMAX
 70
     8
280
     0
  0
ATTDEF
  5
15F
330
145
100
AcDbEntity
  8
AM_6
100
AcDbText
 10
10.25
 20
-9.590625
 30
0.0
 40
0.5
  1
8.43750
100
AcDbAttributeDefinition
  3

  2
DMAX1
 70
     8
280
     0
  0
ATTDEF
  5
160
330
145
100
AcDbEntity
  8
AM_6
100
AcDbText
 10
10.25
 20
-10.090625
 30
0.0
 40
0.5
  1
3/16
100
AcDbAttributeDefinition
  3

  2
E
 70
     8
280
     0
  0
ATTDEF
  5
161
330
145
100
AcDbEntity
  8
AM_6
100
AcDbText
 10
10.25
 20
-10.590625
 30
0.0
 40
0.5
  1
0.18750
100
AcDbAttributeDefinition
  3

  2
E1
 70
     8
280
     0
  0
ATTDEF
  5
162
330
145
100
AcDbEntity
  8
AM_6
100
AcDbText
 10
10.25
 20
-11.090625
 30
0.0
 40
0.5
  1
3/4
100
AcDbAttributeDefinition
  3

  2
F
 70
     8
280
     0
  0
ATTDEF
  5
163
330
145
100
AcDbEntity
  8
AM_6
100
AcDbText
 10
10.25
 20
-11.590625
 30
0.0
 40
0.5
  1
0.75000
100
AcDbAttributeDefinition
  3

  2
F1
 70
     8
280
     0
  0
ATTDEF
  5
164
330
145
100
AcDbEntity
  8
AM_6
100
AcDbText
 10
10.25
 20
-12.090625
 30
0.0
 40
0.5
  1
1-1/8
100
AcDbAttributeDefinition
  3

  2
G
 70
     8
280
     0
  0
ATTDEF
  5
165
330
145
100
AcDbEntity
  8
AM_6
100
AcDbText
 10
10.25
 20
-12.590625
 30
0.0
 40
0.5
  1
1.12500
100
AcDbAttributeDefinition
  3

  2
G1
 70
     8
280
     0
  0
ATTDEF
  5
166
330
145
100
AcDbEntity
  8
AM_6
100
AcDbText
 10
10.25
 20
-13.090625
 30
0.0
 40
0.5
  1
2-1/4
100
AcDbAttributeDefinition
  3

  2
H
 70
     8
280
     0
  0
ATTDEF
  5
167
330
145
100
AcDbEntity
  8
AM_6
100
AcDbText
 10
10.25
 20
-13.590625
 30
0.0
 40
0.5
  1
2.25000
100
AcDbAttributeDefinition
  3

  2
H1
 70
     8
280
     0
  0
ATTDEF
  5
168
330
145
100
AcDbEntity
  8
AM_6
100
AcDbText
 10
10.25
 20
-14.090625
 30
0.0
 40
0.5
  1
6-7/16
100
AcDbAttributeDefinition
  3

  2
J
 70
     8
280
     0
  0
ATTDEF
  5
169
330
145
100
AcDbEntity
  8
AM_6
100
AcDbText
 10
10.25
 20
-14.590625
 30
0.0
 40
0.5
  1
6.43750
100
AcDbAttributeDefinition
  3

  2
J1
 70
     8
280
     0
  0
ATTDEF
  5
16A
330
145
100
AcDbEntity
  8
AM_6
100
AcDbText
 10
10.25
 20
-15.090625
 30
0.0
 40
0.5
  1
4-23/32
100
AcDbAttributeDefinition
  3

  2
L
 70
     8
280
     0
  0
ATTDEF
  5
16B
330
145
100
AcDbEntity
  8
AM_6
100
AcDbText
 10
10.25
 20
-15.590625
 30
0.0
 40
0.5
  1
4.71875
100
AcDbAttributeDefinition
  3

  2
L1
 70
     8
280
     0
  0
ATTDEF
  5
16C
330
145
100
AcDbEntity
  8
AM_6
100
AcDbText
 10
10.25
 20
-16.090625
 30
0.0
 40
0.5
  1
3-1/4
100
AcDbAttributeDefinition
  3

  2
M
 70
     8
280
     0
  0
ATTDEF
  5
16D
330
145
100
AcDbEntity
  8
AM_6
100
AcDbText
 10
10.25
 20
-16.590625
 30
0.0
 40
0.5
  1
3.25000
100
AcDbAttributeDefinition
  3

  2
M1
 70
     8
280
     0
  0
ATTDEF
  5
16E
330
145
100
AcDbEntity
  8
AM_6
100
AcDbText
 10
10.25
 20
-17.090625
 30
0.0
 40
0.5
  1
49/64
100
AcDbAttributeDefinition
  3

  2
R
 70
     8
280
     0
  0
ATTDEF
  5
16F
330
145
100
AcDbEntity
  8
AM_6
100
AcDbText
 10
10.25
 20
-17.590625
 30
0.0
 40
0.5
  1
0.76563
100
AcDbAttributeDefinition
  3

  2
R1
 70
     8
280
     0
  0
ATTDEF
  5
170
330
145
100
AcDbEntity
  8
AM_6
100
AcDbText
 10
10.25
 20
-18.090625
 30
0.0
 40
0.5
  1
1-11/16
100
AcDbAttributeDefinition
  3

  2
S
 70
     8
280
     0
  0
ATTDEF
  5
171
330
145
100
AcDbEntity
  8
AM_6
100
AcDbText
 10
10.25
 20
-18.590625
 30
0.0
 40
0.5
  1
1.68750
100
AcDbAttributeDefinition
  3

  2
S1
 70
     8
280
     0
  0
ATTDEF
  5
172
330
145
100
AcDbEntity
  8
AM_6
100
AcDbText
 10
10.25
 20
-19.090625
 30
0.0
 40
0.5
  1
1700
100
AcDbAttributeDefinition
  3

  2
MRP
 70
     8
280
     0
  0
ATTDEF
  5
173
330
145
100
AcDbEntity
  8
AM_6
100
AcDbText
 10
10.25
 20
-19.590625
 30
0.0
 40
0.5
  1
53000
100
AcDbAttributeDefinition
  3

  2
CS
 70
     8
280
     0
  0
ATTDEF
  5
174
330
145
100
AcDbEntity
  8
AM_6
100
AcDbText
 10
10.25
 20
-20.090625
 30
0.0
 40
0.5
  1
41500
100
AcDbAttributeDefinition
  3

  2
CD
 70
     8
280
     0
  0
ATTDEF
  5
175
330
145
100
AcDbEntity
  8
AM_6
100
AcDbText
 10
10.25
 20
-20.590625
 30
0.0
 40
0.5
  1
20
100
AcDbAttributeDefinition
  3

  2
RN
 70
     8
280
     0
  0
ATTDEF
  5
176
330
145
100
AcDbEntity
  8
AM_6
100
AcDbText
 10
10.25
 20
-21.090625
 30
0.0
 40
0.5
  1
0.5748
100
AcDbAttributeDefinition
  3

  2
RM
 70
     8
280
     0
  0
ATTDEF
  5
177
330
145
100
AcDbEntity
  8
AM_6
100
AcDbText
 10
10.25
 20
-21.590625
 30
0.0
 40
0.5
  1
4.197
100
AcDbAttributeDefinition
  3

  2
PDI
 70
     8
280
     0
  0
ATTDEF
  5
178
330
145
100
AcDbEntity
  8
AM_6
100
AcDbText
 10
10.25
 20
-22.090625
 30
0.0
 40
0.5
  1
0.0020-0.0031
100
AcDbAttributeDefinition
  3

  2
RC
 70
     8
280
     0
  0
ATTDEF
  5
179
330
145
100
AcDbEntity
  8
AM_6
100
AcDbText
 10
10.25
 20
-22.590625
 30
0.0
 40
0.5
  1
1/2-13x7/8
100
AcDbAttributeDefinition
  3

  2
COS
 70
     8
280
     0
  0
ATTDEF
  5
17A
330
145
100
AcDbEntity
  8
AM_6
100
AcDbText
 10
10.25
 20
-23.090625
 30
0.0
 40
0.5
  1
620
100
AcDbAttributeDefinition
  3

  2
CT
 70
     8
280
     0
  0
ATTDEF
  5
17B
330
145
100
AcDbEntity
  8
AM_6
100
AcDbText
 10
10.25
 20
-23.590625
 30
0.0
 40
0.5
  1
Ductile Iron Grade 65-45-13 ASTM A536
100
AcDbAttributeDefinition
  3

  2
MH
 70
     8
280
     0
  0
ATTDEF
  5
17C
330
145
100
AcDbEntity
  8
AM_6
100
AcDbText
 10
10.25
 20
-24.090625
 30
0.0
 40
0.5
  1
4118 Case Carb,
100
AcDbAttributeDefinition
  3

  2
MIR
 70
     8
280
     0
  0
ATTDEF
  5
17D
330
145
100
AcDbEntity
  8
AM_6
100
AcDbText
 10
10.25
 20
-24.590625
 30
0.0
 40
0.5
  1
E52100 Steel
100
AcDbAttributeDefinition
  3

  2
MOR
 70
     8
280
     0
  0
ATTDEF
  5
17E
330
145
100
AcDbEntity
  8
AM_6
100
AcDbText
 10
10.25
 20
-25.090625
 30
0.0
 40
0.5
  1
Polyamide
100
AcDbAttributeDefinition
  3

  2
MR
 70
     8
280
     0
  0
ATTDEF
  5
17F
330
145
100
AcDbEntity
  8
AM_6
100
AcDbText
 10
10.25
 20
-25.590625
 30
0.0
 40
0.5
  1
E52100 Steel
100
AcDbAttributeDefinition
  3

  2
MRO
 70
     8
280
     0
  0
ATTDEF
  5
180
330
145
100
AcDbEntity
  8
AM_6
100
AcDbText
 10
10.25
 20
-26.090625
 30
0.0
 40
0.5
  1
2°
100
AcDbAttributeDefinition
  3

  2
SM
 70
     8
280
     0
  0
ATTDEF
  5
181
330
145
100
AcDbEntity
  8
AM_6
100
AcDbText
 10
10.25
 20
-26.590625
 30
0.0
 40
0.5
  1
baldor
100
AcDbAttributeDefinition
  3

  2
COMPANY
 70
     8
280
     0
  0
LINE
  5
182
330
145
100
AcDbEntity
  8
AM_9
100
AcDbLine
 10
-5.114375
 20
-0.3457956179233627
 30
0.0
 11
-5.114375
 21
0.3457956179233625
 31
0.0
  0
LINE
  5
183
330
145
100
AcDbEntity
  8
AM_9
100
AcDbLine
 10
3.181323392545219
 20
1.082220873786408
 30
0.0
 11
3.181323392545219
 21
0.5844678375503178
 31
0.0
  0
LWPOLYLINE
  5
184
330
145
100
AcDbEntity
  8
AM_9
100
AcDbPolyline
 90
        4
 70
     0
 43
0.0
 10
3.181323392546238
 20
0.5844079622364062
 10
3.181334437976104
 20
0.5844368688432382
 10
3.183927617527902
 20
0.5855941794236572
 10
3.186179272888235
 20
0.5865643282369944
  0
LINE
  5
185
330
145
100
AcDbEntity
  8
AM_9
100
AcDbLine
 10
3.181323392545219
 20
-0.5844697410896875
 30
0.0
 11
3.181323392545219
 21
-1.082220873786408
 31
0.0
  0
LINE
  5
186
330
145
100
AcDbEntity
  8
AM_9
100
AcDbLine
 10
-3.187230233201068
 20
0.5870247012404344
 30
0.0
 11
-3.18132339254554
 21
0.5844079622360928
 31
0.0
  0
LINE
  5
187
330
145
100
AcDbEntity
  8
AM_9
100
AcDbLine
 10
-3.18132339254522
 20
0.5845353750476437
 30
0.0
 11
-3.18132339254522
 21
1.082220873786408
 31
0.0
  0
LINE
  5
188
330
145
100
AcDbEntity
  8
AM_9
100
AcDbLine
 10
-3.18132339254522
 20
-1.082220873786408
 30
0.0
 11
-3.18132339254522
 21
-0.584536846156678
 31
0.0
  0
LINE
  5
189
330
145
100
AcDbEntity
  8
AM_9
100
AcDbLine
 10
-3.181323392546522
 20
-0.5844079622365338
 30
0.0
 11
-3.187182618819402
 21
-0.587003892269148
 31
0.0
  0
LINE
  5
18A
330
145
100
AcDbEntity
  8
AM_9
100
AcDbLine
 10
2.359375
 20
-0.6099671052631578
 30
0.0
 11
2.359375
 21
0.609967105263158
 31
0.0
  0
LINE
  5
18B
330
145
100
AcDbEntity
  8
AM_9
100
AcDbLine
 10
-2.359375
 20
0.609967105263158
 30
0.0
 11
-2.359375
 21
-0.6099671052631578
 31
0.0
  0
LINE
  5
18C
330
145
100
AcDbEntity
  8
AM_9
100
AcDbLine
 10
-2.359375
 20
-0.6099671052631578
 30
0.0
 11
2.359375
 21
-0.6099671052631578
 31
0.0
  0
ARC
  5
18D
330
145
100
AcDbEntity
  8
AM_9
100
AcDbCircle
 10
2.423750000000001
 20
-0.609967105263158
 30
0.0
 40
0.0643750000000001
100
AcDbArc
 50
180.0
 51
270.0
  0
ARC
  5
18E
330
145
100
AcDbEntity
  8
AM_9
100
AcDbCircle
 10
-2.42375
 20
-0.6099671052631586
 30
0.0
 40
0.0643749999999993
100
AcDbArc
 50
270.0
 51
0.0
  0
LINE
  5
18F
330
145
100
AcDbEntity
  8
AM_9
100
AcDbLine
 10
-2.359375
 20
0.609967105263158
 30
0.0
 11
2.359375
 21
0.609967105263158
 31
0.0
  0
ARC
  5
190
330
145
100
AcDbEntity
  8
AM_9
100
AcDbCircle
 10
2.42375
 20
0.6099671052631581
 30
0.0
 40
0.0643749999999997
100
AcDbArc
 50
90.0
 51
180.0
  0
ARC
  5
191
330
145
100
AcDbEntity
  8
AM_9
100
AcDbCircle
 10
-2.42375
 20
0.6099671052631579
 30
0.0
 40
0.0643750000000001
100
AcDbArc
 50
0.0
 51
90.0
  0
LINE
  5
192
330
145
100
AcDbEntity
  8
AM_9
100
AcDbLine
 10
-2.711360295076908
 20
-0.6743421052631584
 30
0.0
 11
2.711360295074038
 21
-0.6743421052631584
 31
0.0
  0
ARC
  5
193
330
145
100
AcDbEntity
  8
AM_9
100
AcDbCircle
 10
2.711360294117647
 20
-0.7387171052631571
 30
0.0
 40
0.0643749999999987
100
AcDbArc
 50
0.0
 51
90.0
  0
ARC
  5
194
330
145
100
AcDbEntity
  8
AM_9
100
AcDbCircle
 10
-2.711360294117647
 20
-0.7387171052631571
 30
0.0
 40
0.0643749999999987
100
AcDbArc
 50
90.0
 51
180.0
  0
LINE
  5
195
330
145
100
AcDbEntity
  8
AM_9
100
AcDbLine
 10
-2.775735294117645
 20
-0.7387171052631578
 30
0.0
 11
2.775735294117647
 21
-0.7387171052631578
 31
0.0
  0
LINE
  5
196
330
145
100
AcDbEntity
  8
AM_9
100
AcDbLine
 10
2.775735294117647
 20
-1.065635113268608
 30
0.0
 11
2.775735294117647
 21
-0.7387171052631578
 31
0.0
  0
LINE
  5
197
330
145
100
AcDbEntity
  8
AM_9
100
AcDbLine
 10
-2.775735294117647
 20
-0.7387171052631578
 30
0.0
 11
-2.775735294117647
 21
-1.065635113268608
 31
0.0
  0
LWPOLYLINE
  5
198
330
145
100
AcDbEntity
  8
AM_9
100
AcDbPolyline
 90
        4
 70
     0
 43
0.0
 10
-2.048403818723998
 20
-1.189906597171237
 10
-2.203866136246813
 20
-1.177589472988134
 10
-2.342555701742032
 20
-1.164420308527674
 10
-2.359375
 20
-1.16264252627057
  0
LWPOLYLINE
  5
199
330
145
100
AcDbEntity
  8
AM_9
100
AcDbPolyline
 90
        5
 70
     0
 43
0.0
 10
-1.286930761460295
 20
-1.228797400824033
 10
-1.496382083394148
 20
-1.220735257471534
 10
-1.694445034133166
 20
-1.211492708369623
 10
-1.879612235028546
 20
-1.20114009489777
 10
-2.048403818723998
 20
-1.189906597171237
  0
LWPOLYLINE
  5
19A
330
145
100
AcDbEntity
  8
AM_9
100
AcDbPolyline
 90
        7
 70
     0
 43
0.0
 10
-0.0599929483736405
 20
-1.249742819827347
 10
-0.3016294165270861
 20
-1.248695344567536
 10
-0.5409703026919394
 20
-1.24625467041275
 10
-0.7761940782065073
 20
-1.242439372367027
 10
-1.005510548107125
 20
-1.237278487152234
 10
-1.227174475592779
 20
-1.230811292221085
 10
-1.286930761460295
 20
-1.228797400824033
  0
LINE
  5
19B
330
145
100
AcDbEntity
  8
AM_9
100
AcDbLine
 10
0.0599929483736412
 20
-1.249742819827347
 30
0.0
 11
-0.0599929483736405
 21
-1.249742819827347
 31
0.0
  0
LWPOLYLINE
  5
19C
330
145
100
AcDbEntity
  8
AM_9
100
AcDbPolyline
 90
       13
 70
     0
 43
0.0
 10
2.359375
 20
-1.162642526270571
 10
2.2229569283539
 20
-1.175915707890603
 10
2.069620812224936
 20
-1.188349587596319
 10
1.900533632043726
 20
-1.199849536055375
 10
1.71698224334908
 20
-1.21032803171614
 10
1.520363583040324
 20
-1.219705326899546
 10
1.312174037844001
 20
-1.227910054727082
 10
1.093998055907338
 20
-1.234879772265831
 10
0.8674960881911323
 20
-1.240561435756891
 10
0.6343919514353336
 20
-1.244911804310415
 10
0.3964597088727782
 20
-1.247897768994884
 10
0.1555101685367838
 20
-1.249496604816076
 10
0.0599929483736412
 20
-1.249742819827347
  0
LINE
  5
19D
330
145
100
AcDbEntity
  8
AM_9
100
AcDbLine
 10
-2.711360294117647
 20
0.674342105263158
 30
0.0
 11
2.711360294114777
 21
0.674342105263158
 31
0.0
  0
ARC
  5
19E
330
145
100
AcDbEntity
  8
AM_9
100
AcDbCircle
 10
2.711360294117647
 20
0.7387171052631581
 30
0.0
 40
0.0643750000000002
100
AcDbArc
 50
270.0
 51
0.0
  0
ARC
  5
19F
330
145
100
AcDbEntity
  8
AM_9
100
AcDbCircle
 10
-2.711360294117647
 20
0.7387171052631581
 30
0.0
 40
0.0643750000000005
100
AcDbArc
 50
180.0
 51
270.0
  0
LINE
  5
1A0
330
145
100
AcDbEntity
  8
AM_9
100
AcDbLine
 10
-2.775735294117647
 20
0.7387171052631573
 30
0.0
 11
2.775735294117647
 21
0.7387171052631573
 31
0.0
  0
LINE
  5
1A1
330
145
100
AcDbEntity
  8
AM_9
100
AcDbLine
 10
2.775735294117647
 20
0.7387171052631573
 30
0.0
 11
2.775735294117647
 21
1.065635113268608
 31
0.0
  0
LINE
  5
1A2
330
145
100
AcDbEntity
  8
AM_9
100
AcDbLine
 10
-2.775735294117647
 20
1.065635113268608
 30
0.0
 11
-2.775735294117647
 21
0.7387171052631573
 31
0.0
  0
LINE
  5
1A3
330
145
100
AcDbEntity
  8
AM_9
100
AcDbLine
 10
-2.359375
 20
-1.28125
 30
0.0
 11
2.359375
 21
-1.28125
 31
0.0
  0
LINE
  5
1A4
330
145
100
AcDbEntity
  8
AM_9
100
AcDbLine
 10
-3.183611024935878
 20
-1.076077999520557
 30
0.0
 11
-3.183611024935878
 21
-0.5854298457352406
 31
0.0
  0
LINE
  5
1A5
330
145
100
AcDbEntity
  8
AM_9
100
AcDbLine
 10
3.183611021813891
 20
-1.076078003709664
 30
0.0
 11
3.183611021813891
 21
-0.5854298443479684
 31
0.0
  0
LINE
  5
1A6
330
145
100
AcDbEntity
  8
AM_9
100
AcDbLine
 10
3.183611021813891
 20
0.585429844347969
 30
0.0
 11
3.183611021813891
 21
1.076078003709664
 31
0.0
  0
LINE
  5
1A7
330
145
100
AcDbEntity
  8
AM_9
100
AcDbLine
 10
-3.183611024935878
 20
0.5854298457352414
 30
0.0
 11
-3.183611024935878
 21
1.076077999520557
 31
0.0
  0
LINE
  5
1A8
330
145
100
AcDbEntity
  8
AM_7
100
AcDbLine
 10
0.0
 20
-1.6226565
 30
0.0
 11
0.0
 21
1.409375
 31
0.0
  0
LINE
  5
1A9
330
145
100
AcDbEntity
  8
AM_7
100
AcDbLine
 10
-4.248798076923077
 20
-0.3950120192307697
 30
0.0
 11
-4.248798076923077
 21
0.3950120192307695
 31
0.0
  0
LINE
  5
1AA
330
145
100
AcDbEntity
  8
AM_7
100
AcDbLine
 10
3.44375
 20
-0.65625
 30
0.0
 11
3.44375
 21
0.65625
 31
0.0
  0
LINE
  5
1AB
330
145
100
AcDbEntity
  8
AM_7
100
AcDbLine
 10
-3.876201923076923
 20
-0.3950120192307691
 30
0.0
 11
-3.876201923076923
 21
0.395012019230769
 31
0.0
  0
LINE
  5
1AC
330
145
100
AcDbEntity
  8
AM_7
100
AcDbLine
 10
-5.25
 20
0.0
 30
0.0
 11
-2.7875
 21
0.0
 31
0.0
  0
LINE
  5
1AD
330
145
100
AcDbEntity
  8
AM_7
100
AcDbLine
 10
-3.44375
 20
-0.65625
 30
0.0
 11
-3.44375
 21
0.65625
 31
0.0
  0
LINE
  5
1AE
330
145
100
AcDbEntity
  8
AM_7
100
AcDbLine
 10
3.876201923076923
 20
-0.3950120192307696
 30
0.0
 11
3.876201923076923
 21
0.3950120192307695
 31
0.0
  0
LINE
  5
1AF
330
145
100
AcDbEntity
  8
AM_7
100
AcDbLine
 10
4.248798076923077
 20
-0.3950120192307698
 30
0.0
 11
4.248798076923077
 21
0.3950120192307693
 31
0.0
  0
LINE
  5
1B0
330
145
100
AcDbEntity
  8
AM_7
100
AcDbLine
 10
-4.59375
 20
-0.65625
 30
0.0
 11
-4.59375
 21
0.65625
 31
0.0
  0
LINE
  5
1B1
330
145
100
AcDbEntity
  8
AM_7
100
AcDbLine
 10
2.7875
 20
0.0000000000000001
 30
0.0
 11
5.25
 21
-0.0000000000000001
 31
0.0
  0
LINE
  5
1B2
330
145
100
AcDbEntity
  8
AM_7
100
AcDbLine
 10
4.59375
 20
-0.6562500000000001
 30
0.0
 11
4.59375
 21
0.6562499999999999
 31
0.0
  0
LINE
  5
1B3
330
145
100
AcDbEntity
  8
AM_4
100
AcDbLine
 10
-5.114375
 20
-1.206614077669903
 30
0.0
 11
-5.114375
 21
-0.3457956179233627
 31
0.0
  0
LINE
  5
1B4
330
145
100
AcDbEntity
  8
AM_4
100
AcDbLine
 10
-5.114375
 20
0.3457956179233625
 30
0.0
 11
-5.114375
 21
1.206614077669903
 31
0.0
  0
LINE
  5
1B5
330
145
100
AcDbEntity
  8
AM_4
100
AcDbLine
 10
4.59375
 20
0.625
 30
0.0
 11
3.44375
 21
0.625
 31
0.0
  0
ARC
  5
1B6
330
145
100
AcDbEntity
  8
AM_4
100
AcDbCircle
 10
3.44375
 20
0.0000000000000001
 30
0.0
 40
0.625
100
AcDbArc
 50
90.0
 51
270.0
  0
ARC
  5
1B7
330
145
100
AcDbEntity
  8
AM_4
100
AcDbCircle
 10
3.876201923076923
 20
-0.0000000000000002
 30
0.0
 40
0.3762019230769232
100
AcDbArc
 50
85.41877991472298
 51
274.581220085277
  0
LINE
  5
1B8
330
145
100
AcDbEntity
  8
AM_4
100
AcDbLine
 10
4.218750000000002
 20
0.3750000000000002
 30
0.0
 11
3.90625
 21
0.3750000000000001
 31
0.0
  0
ARC
  5
1B9
330
145
100
AcDbEntity
  8
AM_4
100
AcDbCircle
 10
4.248798076923077
 20
-0.0000000000000001
 30
0.0
 40
0.3762019230769229
100
AcDbArc
 50
265.4187799147232
 51
94.58122008527675
  0
LINE
  5
1BA
330
145
100
AcDbEntity
  8
AM_4
100
AcDbLine
 10
3.90625
 20
-0.3750000000000003
 30
0.0
 11
4.218750000000001
 21
-0.3750000000000001
 31
0.0
  0
LINE
  5
1BB
330
145
100
AcDbEntity
  8
AM_4
100
AcDbLine
 10
3.44375
 20
-0.625
 30
0.0
 11
4.59375
 21
-0.625
 31
0.0
  0
ARC
  5
1BC
330
145
100
AcDbEntity
  8
AM_4
100
AcDbCircle
 10
4.59375
 20
-0.0000000000000001
 30
0.0
 40
0.6249999999999999
100
AcDbArc
 50
270.0
 51
90.0
  0
ARC
  5
1BD
330
145
100
AcDbEntity
  8
AM_4
100
AcDbCircle
 10
-4.59375
 20
0.0000000000000001
 30
0.0
 40
0.625
100
AcDbArc
 50
90.0
 51
270.0
  0
ARC
  5
1BE
330
145
100
AcDbEntity
  8
AM_4
100
AcDbCircle
 10
-4.248798076923077
 20
-0.0000000000000001
 30
0.0
 40
0.3762019230769231
100
AcDbArc
 50
85.41877991472312
 51
274.581220085277
  0
LINE
  5
1BF
330
145
100
AcDbEntity
  8
AM_4
100
AcDbLine
 10
-3.90625
 20
0.3749999999999999
 30
0.0
 11
-4.218750000000001
 21
0.3750000000000001
 31
0.0
  0
ARC
  5
1C0
330
145
100
AcDbEntity
  8
AM_4
100
AcDbCircle
 10
-3.876201923076923
 20
-0.0000000000000001
 30
0.0
 40
0.376201923076923
100
AcDbArc
 50
265.4187799147229
 51
94.5812200852771
  0
LINE
  5
1C1
330
145
100
AcDbEntity
  8
AM_4
100
AcDbLine
 10
-4.218750000000001
 20
-0.3750000000000003
 30
0.0
 11
-3.90625
 21
-0.3750000000000001
 31
0.0
  0
LINE
  5
1C2
330
145
100
AcDbEntity
  8
AM_4
100
AcDbLine
 10
-3.44375
 20
0.625
 30
0.0
 11
-4.59375
 21
0.625
 31
0.0
  0
LINE
  5
1C3
330
145
100
AcDbEntity
  8
AM_4
100
AcDbLine
 10
-4.59375
 20
-0.625
 30
0.0
 11
-3.44375
 21
-0.625
 31
0.0
  0
ARC
  5
1C4
330
145
100
AcDbEntity
  8
AM_4
100
AcDbCircle
 10
-3.44375
 20
-0.0000000000000001
 30
0.0
 40
0.625
100
AcDbArc
 50
270.0
 51
90.0
  0
LINE
  5
1C5
330
145
100
AcDbEntity
  8
AM_4
100
AcDbLine
 10
3.44375
 20
0.6406249999999998
 30
0.0
 11
5.056323392545219
 21
0.6406249999999998
 31
0.0
  0
LINE
  5
1C6
330
145
100
AcDbEntity
  8
AM_4
100
AcDbLine
 10
5.056323392545219
 20
0.6406249999999998
 30
0.0
 11
5.056323392545218
 21
1.206614077669903
 31
0.0
  0
LWPOLYLINE
  5
1C7
330
145
100
AcDbEntity
  8
AM_4
100
AcDbPolyline
 90
       19
 70
     0
 43
0.0
 10
3.181323392545218
 20
1.082220873786408
 10
3.188458333623196
 20
1.093062455863635
 10
3.209808855647328
 20
1.103821526954928
 10
3.245212468253215
 20
1.114416204032777
 10
3.29439972857164
 20
1.12476585520738
 10
3.3569962918515
 20
1.134791713384007
 10
3.432525760449396
 20
1.144417475728155
 10
3.520413309503359
 20
1.153569884376192
 10
3.619990061697134
 20
1.16217928397193
 10
3.73049817782044
 20
1.170180151785948
 10
3.851096624382956
 20
1.177511596383125
 10
3.980867574387005
 20
1.18411782104323
 10
4.118823392545217
 20
1.189948548407652
 10
4.263914151781405
 20
1.194959403120457
 10
4.415035623809588
 20
1.199112249551645
 10
4.57103768297799
 20
1.202375482032317
 10
4.730733059419721
 20
1.204724265392902
 10
4.892906374893357
 20
1.206140723973791
 10
5.056323392545217
 20
1.206614077669903
  0
LWPOLYLINE
  5
1C8
330
145
100
AcDbEntity
  8
AM_4
100
AcDbPolyline
 90
       11
 70
     0
 43
0.0
 10
3.186890175054693
 20
0.5868759843050879
 10
3.191375007243874
 20
0.5888185235336482
 10
3.204080480628876
 20
0.5941208174852998
 10
3.221849123374018
 20
0.600982771931256
 10
3.244596836724188
 20
0.6088829182874465
 10
3.268323689985255
 20
0.6161431552274274
 10
3.295732678144632
 20
0.6232957548318756
 10
3.326754957099605
 20
0.6298512130350584
 10
3.362108341401992
 20
0.6354068682558269
 10
3.401152842639362
 20
0.6392130215684628
 10
3.44375
 20
0.6406249999999997
  0
LWPOLYLINE
  5
1C9
330
145
100
AcDbEntity
  8
AM_4
100
AcDbPolyline
 90
        3
 70
     0
 43
0.0
 10
3.186859599835286
 20
-0.5868626014053144
 10
3.183234031809118
 20
-0.5852797750987678
 10
3.181323392546411
 20
-0.5844079622364841
  0
LWPOLYLINE
  5
1CA
330
145
100
AcDbEntity
  8
AM_4
100
AcDbPolyline
 90
       11
 70
     0
 43
0.0
 10
3.44375
 20
-0.6406250000000001
 10
3.397742983981365
 20
-0.6389787793798419
 10
3.355915927190137
 20
-0.6345824729747113
 10
3.318439133852928
 20
-0.6282496139676255
 10
3.284575657540833
 20
-0.6205441122179637
 10
3.255382018651398
 20
-0.6123146188669544
 10
3.230955107547967
 20
-0.6042505476797915
 10
3.213162695493683
 20
-0.5976980918342738
 10
3.199259685746688
 20
-0.5921472757268085
 10
3.18930046451701
 20
-0.5879250160670925
 10
3.187063994577161
 20
-0.5869520297648406
  0
LINE
  5
1CB
330
145
100
AcDbEntity
  8
AM_4
100
AcDbLine
 10
5.056323392545218
 20
-1.206614077669903
 30
0.0
 11
5.056323392545219
 21
-0.6406250000000001
 31
0.0
  0
LINE
  5
1CC
330
145
100
AcDbEntity
  8
AM_4
100
AcDbLine
 10
5.056323392545219
 20
-0.6406250000000001
 30
0.0
 11
3.443750000000001
 21
-0.6406250000000001
 31
0.0
  0
LINE
  5
1CD
330
145
100
AcDbEntity
  8
AM_4
100
AcDbLine
 10
3.181323392545218
 20
-1.082220873786408
 30
0.0
 11
3.187500000000001
 21
-1.065635113268608
 31
0.0
  0
LWPOLYLINE
  5
1CE
330
145
100
AcDbEntity
  8
AM_4
100
AcDbPolyline
 90
       14
 70
     0
 43
0.0
 10
-3.44375
 20
0.6406249999999998
 10
-3.408959610119491
 20
0.6396802625308495
 10
-3.376509325214897
 20
0.6370864009531548
 10
-3.34624285041283
 20
0.6331614970596561
 10
-3.318439133852928
 20
0.6282496139676255
 10
-3.292668424143943
 20
0.6225556498738422
 10
-3.269513425182278
 20
0.6164754712239476
 10
-3.248886029111513
 20
0.6102699744079674
 10
-3.230955107547967
 20
0.6042505476797911
 10
-3.217274275435888
 20
0.5992579010412794
 10
-3.205770430354804
 20
0.5947824098411851
 10
-3.196419369909189
 20
0.5909561457455589
 10
-3.189300461705033
 20
0.5879250148500895
 10
-3.187230233201068
 20
0.5870247012404344
  0
LINE
  5
1CF
330
145
100
AcDbEntity
  8
AM_4
100
AcDbLine
 10
-5.056323392545222
 20
0.6406249999999998
 30
0.0
 11
-5.056323392545222
 21
1.206614077669903
 31
0.0
  0
LINE
  5
1D0
330
145
100
AcDbEntity
  8
AM_4
100
AcDbLine
 10
-5.056323392545222
 20
0.6406249999999998
 30
0.0
 11
-3.443750000000001
 21
0.6406249999999998
 31
0.0
  0
LINE
  5
1D1
330
145
100
AcDbEntity
  8
AM_4
100
AcDbLine
 10
-3.181323392545219
 20
1.082220873786408
 30
0.0
 11
-3.1875
 21
1.065635113268608
 31
0.0
  0
LINE
  5
1D2
330
145
100
AcDbEntity
  8
AM_4
100
AcDbLine
 10
-3.44375
 20
-0.6406250000000001
 30
0.0
 11
-5.056323392545222
 21
-0.6406250000000001
 31
0.0
  0
LINE
  5
1D3
330
145
100
AcDbEntity
  8
AM_4
100
AcDbLine
 10
-5.056323392545222
 20
-1.206614077669903
 30
0.0
 11
-5.056323392545222
 21
-0.6406250000000001
 31
0.0
  0
LWPOLYLINE
  5
1D4
330
145
100
AcDbEntity
  8
AM_4
100
AcDbPolyline
 90
       19
 70
     0
 43
0.0
 10
-3.181323392545219
 20
-1.082220873786408
 10
-3.188458333623196
 20
-1.093062455863634
 10
-3.209808855647329
 20
-1.103821526954927
 10
-3.245212468253217
 20
-1.114416204032777
 10
-3.294399728571641
 20
-1.12476585520738
 10
-3.356996291851501
 20
-1.134791713384007
 10
-3.432525760449396
 20
-1.144417475728155
 10
-3.520413309503359
 20
-1.153569884376192
 10
-3.619990061697135
 20
-1.16217928397193
 10
-3.730498177820442
 20
-1.170180151785948
 10
-3.851096624382957
 20
-1.177511596383125
 10
-3.980867574387007
 20
-1.18411782104323
 10
-4.118823392545218
 20
-1.189948548407652
 10
-4.263914151781408
 20
-1.194959403120457
 10
-4.415035623809589
 20
-1.199112249551645
 10
-4.571037682977992
 20
-1.202375482032317
 10
-4.730733059419724
 20
-1.204724265392902
 10
-4.892906374893359
 20
-1.206140723973791
 10
-5.056323392545218
 20
-1.206614077669903
  0
LWPOLYLINE
  5
1D5
330
145
100
AcDbEntity
  8
AM_4
100
AcDbPolyline
 90
       13
 70
     0
 43
0.0
 10
-3.187182618819402
 20
-0.587003892269148
 10
-3.1913750005492
 20
-0.5888185206642269
 10
-3.200392160104158
 20
-0.5926037566162952
 10
-3.212241981228088
 20
-0.5973310873119732
 10
-3.227009092811297
 20
-0.6028475124304254
 10
-3.244596819701468
 20
-0.6088829127196626
 10
-3.281473816788702
 20
-0.6197312570682334
 10
-3.303091698532891
 20
-0.6249928880713702
 10
-3.32675494397052
 20
-0.629851210596327
 10
-3.35284256372249
 20
-0.6341425341689846
 10
-3.380992683109294
 20
-0.6375436532518218
 10
-3.411363815287675
 20
-0.6398063285237328
 10
-3.44375
 20
-0.6406250000000001
  0
LWPOLYLINE
  5
1D6
330
145
100
AcDbEntity
  8
AM_4
100
AcDbPolyline
 90
        8
 70
     0
 43
0.0
 10
-2.359375
 20
-1.16264252627057
 10
-2.477836803266524
 20
-1.148631059662915
 10
-2.577440772301421
 20
-1.133987943788877
 10
-2.657428860757815
 20
-1.118824621602012
 10
-2.717192310984425
 20
-1.103256495140027
 10
-2.756276287038868
 20
-1.087402047245588
 10
-2.77438333626382
 20
-1.071381939840351
 10
-2.775735294117647
 20
-1.065635113268608
  0
LWPOLYLINE
  5
1D7
330
145
100
AcDbEntity
  8
AM_4
100
AcDbPolyline
 90
        8
 70
     0
 43
0.0
 10
2.775735294117647
 20
-1.065635113268608
 10
2.765172783306132
 20
-1.081684906343719
 10
2.733565637956681
 20
-1.097612550802398
 10
2.681154407530319
 20
-1.113296827652939
 10
2.608337973137357
 20
-1.128618370078087
 10
2.51567051181129
 20
-1.143460571888584
 10
2.403857278886954
 20
-1.157710474966686
 10
2.359375
 20
-1.162642526270571
  0
LWPOLYLINE
  5
1D8
330
145
100
AcDbEntity
  8
AM_4
100
AcDbPolyline
 90
       19
 70
     0
 43
0.0
 10
-2.775735294117647
 20
-1.065635113268608
 10
-2.765172783306132
 20
-1.049585320193498
 10
-2.733565637956681
 20
-1.033657675734819
 10
-2.681154407530319
 20
-1.017973398884277
 10
-2.608337973137357
 20
-1.00265185645913
 10
-2.515670511811291
 20
-0.9878096546486331
 10
-2.403857278886954
 20
-0.973559751570531
 10
-2.273749240581578
 20
-0.9600105975915748
 10
-2.126336597628048
 20
-0.9472653099547471
 10
-1.962741249249427
 20
-0.9354208879947792
 10
-1.784208254828448
 20
-0.9245674749146441
 10
-1.592096358253826
 20
-0.9147876717413517
 10
-1.387867647058827
 20
-0.906155908682257
 10
-1.173076425052313
 20
-0.8987378786662412
 10
-0.9493573831282393
 20
-0.892590037380855
 10
-0.7184131582808987
 20
-0.8877591736104479
 10
-0.4820013755093154
 20
-0.8842820531452685
 10
-0.2419212712297183
 20
-0.8821851389715993
 10
-0.0000000000000056
 20
-0.8814843898724536
  0
LWPOLYLINE
  5
1D9
330
145
100
AcDbEntity
  8
AM_4
100
AcDbPolyline
 90
       37
 70
     0
 43
0.0
 10
2.775735294117648
 20
1.065635113268608
 10
2.765172783306133
 20
1.049585320193498
 10
2.733565637956682
 20
1.033657675734819
 10
2.68115440753032
 20
1.017973398884277
 10
2.608337973137357
 20
1.00265185645913
 10
2.515670511811291
 20
0.9878096546486332
 10
2.403857278886955
 20
0.9735597515705313
 10
2.273749240581578
 20
0.9600105975915749
 10
2.126336597628048
 20
0.9472653099547472
 10
1.962741249249427
 20
0.9354208879947795
 10
1.784208254828448
 20
0.9245674749146444
 10
1.592096358253826
 20
0.9147876717413519
 10
1.387867647058827
 20
0.9061559086822574
 10
1.173076425052313
 20
0.8987378786662414
 10
0.9493573831282391
 20
0.8925900373808552
 10
0.7184131582808985
 20
0.8877591736104483
 10
0.4820013755093152
 20
0.884282053145269
 10
0.241921271229718
 20
0.8821851389715998
 10
0.0000000000000053
 20
0.8814843898724539
 10
-0.2419212712297075
 20
0.8821851389715998
 10
-0.4820013755093048
 20
0.8842820531452689
 10
-0.7184131582808883
 20
0.8877591736104481
 10
-0.9493573831282291
 20
0.892590037380855
 10
-1.173076425052303
 20
0.8987378786662412
 10
-1.387867647058818
 20
0.9061559086822569
 10
-1.592096358253817
 20
0.9147876717413516
 10
-1.78420825482844
 20
0.924567474914644
 10
-1.96274124924942
 20
0.935420887994779
 10
-2.126336597628041
 20
0.9472653099547467
 10
-2.273749240581572
 20
0.9600105975915744
 10
-2.403857278886949
 20
0.9735597515705305
 10
-2.515670511811286
 20
0.9878096546486327
 10
-2.608337973137353
 20
1.00265185645913
 10
-2.681154407530317
 20
1.017973398884277
 10
-2.73356563795668
 20
1.033657675734819
 10
-2.765172783306132
 20
1.049585320193497
 10
-2.775735294117648
 20
1.065635113268608
  0
LWPOLYLINE
  5
1DA
330
145
100
AcDbEntity
  8
AM_4
100
AcDbPolyline
 90
       19
 70
     0
 43
0.0
 10
-2.775735294117648
 20
1.065635113268608
 10
-2.765172783306133
 20
1.081684906343719
 10
-2.733565637956682
 20
1.097612550802397
 10
-2.68115440753032
 20
1.113296827652939
 10
-2.608337973137357
 20
1.128618370078087
 10
-2.515670511811291
 20
1.143460571888583
 10
-2.403857278886955
 20
1.157710474966685
 10
-2.273749240581579
 20
1.171259628945642
 10
-2.126336597628048
 20
1.184004916582469
 10
-1.962741249249427
 20
1.195849338542437
 10
-1.784208254828448
 20
1.206702751622572
 10
-1.592096358253826
 20
1.216482554795865
 10
-1.387867647058827
 20
1.225114317854959
 10
-1.173076425052313
 20
1.232532347870975
 10
-0.9493573831282395
 20
1.238680189156361
 10
-0.7184131582808988
 20
1.243511052926768
 10
-0.4820013755093155
 20
1.246988173391948
 10
-0.2419212712297183
 20
1.249085087565617
 10
-0.0000000000000056
 20
1.249785836664763
  0
LWPOLYLINE
  5
1DB
330
145
100
AcDbEntity
  8
AM_4
100
AcDbPolyline
 90
       19
 70
     0
 43
0.0
 10
0.0
 20
1.249785836664763
 10
0.241921271229713
 20
1.249085087565617
 10
0.4820013755093104
 20
1.246988173391948
 10
0.7184131582808941
 20
1.243511052926768
 10
0.9493573831282353
 20
1.238680189156361
 10
1.17307642505231
 20
1.232532347870975
 10
1.387867647058824
 20
1.225114317854959
 10
1.592096358253823
 20
1.216482554795865
 10
1.784208254828446
 20
1.206702751622572
 10
1.962741249249425
 20
1.195849338542437
 10
2.126336597628046
 20
1.18400491658247
 10
2.273749240581577
 20
1.171259628945642
 10
2.403857278886953
 20
1.157710474966686
 10
2.515670511811289
 20
1.143460571888584
 10
2.608337973137357
 20
1.128618370078087
 10
2.681154407530319
 20
1.113296827652939
 10
2.733565637956681
 20
1.097612550802398
 10
2.765172783306132
 20
1.081684906343719
 10
2.775735294117648
 20
1.065635113268608
  0
LINE
  5
1DC
330
145
100
AcDbEntity
  8
AM_4
100
AcDbLine
 10
5.21875
 20
1.28125
 30
0.0
 11
5.21875
 21
-1.28125
 31
0.0
  0
LINE
  5
1DD
330
145
100
AcDbEntity
  8
AM_4
100
AcDbLine
 10
-5.21875
 20
1.28125
 30
0.0
 11
5.21875
 21
1.28125
 31
0.0
  0
LWPOLYLINE
  5
1DE
330
145
100
AcDbEntity
  8
AM_4
100
AcDbPolyline
 90
       19
 70
     0
 43
0.0
 10
-5.114374999999998
 20
1.206614077669903
 10
-5.123471880649285
 20
1.206640427692319
 10
-5.132499528543985
 20
1.206719277219989
 10
-5.141389237832574
 20
1.206850026160395
 10
-5.150073352459615
 20
1.207031679435152
 10
-5.158485781069184
 20
1.207262854553155
 10
-5.166562499999999
 20
1.207541792132168
 10
-5.174242040544139
 20
1.207866369288787
 10
-5.181465956761031
 20
1.208234115794867
 10
-5.188179270286345
 20
1.208642232877443
 10
-5.194330888750542
 20
1.20908761451909
 10
-5.199873994622663
 20
1.209566871096586
 10
-5.204766401520001
 20
1.210076355177993
 10
-5.20897087527195
 20
1.210612189281818
 10
-5.212455417294529
 20
1.211170295386983
 10
-5.21519350811892
 20
1.211746425969036
 10
-5.217164309220649
 20
1.21233619632637
 10
-5.218352821613325
 20
1.212935117950452
 10
-5.21875
 20
1.213538632686084
  0
LINE
  5
1DF
330
145
100
AcDbEntity
  8
AM_4
100
AcDbLine
 10
-5.056323392545222
 20
1.206614077669903
 30
0.0
 11
-5.114375
 21
1.206614077669903
 31
0.0
  0
LWPOLYLINE
  5
1E0
330
145
100
AcDbEntity
  8
AM_4
100
AcDbPolyline
 90
       19
 70
     0
 43
0.0
 10
-5.056323392545222
 20
1.206614077669903
 10
-4.892906374893363
 20
1.206140723973791
 10
-4.730733059419727
 20
1.204724265392902
 10
-4.571037682977995
 20
1.202375482032317
 10
-4.415035623809592
 20
1.199112249551645
 10
-4.263914151781409
 20
1.194959403120457
 10
-4.118823392545221
 20
1.189948548407652
 10
-3.980867574387009
 20
1.18411782104323
 10
-3.851096624382959
 20
1.177511596383125
 10
-3.730498177820444
 20
1.170180151785948
 10
-3.619990061697136
 20
1.16217928397193
 10
-3.52041330950336
 20
1.153569884376192
 10
-3.432525760449397
 20
1.144417475728155
 10
-3.356996291851501
 20
1.134791713384007
 10
-3.294399728571642
 20
1.12476585520738
 10
-3.245212468253217
 20
1.114416204032777
 10
-3.209808855647329
 20
1.103821526954928
 10
-3.188458333623196
 20
1.093062455863635
 10
-3.181323392545219
 20
1.082220873786408
  0
LINE
  5
1E1
330
145
100
AcDbEntity
  8
AM_4
100
AcDbLine
 10
3.187500000000001
 20
1.065635113268608
 30
0.0
 11
3.181323392545218
 21
1.082220873786408
 31
0.0
  0
LINE
  5
1E2
330
145
100
AcDbEntity
  8
AM_4
100
AcDbLine
 10
5.21875
 20
1.206614077669903
 30
0.0
 11
5.056323392545218
 21
1.206614077669903
 31
0.0
  0
LWPOLYLINE
  5
1E3
330
145
100
AcDbEntity
  8
AM_4
100
AcDbPolyline
 90
       19
 70
     0
 43
0.0
 10
0.0
 20
-0.8814843898724536
 10
0.241921271229713
 20
-0.8821851389715993
 10
0.4820013755093104
 20
-0.8842820531452685
 10
0.718413158280894
 20
-0.8877591736104479
 10
0.9493573831282349
 20
-0.8925900373808547
 10
1.173076425052309
 20
-0.8987378786662411
 10
1.387867647058823
 20
-0.9061559086822569
 10
1.592096358253823
 20
-0.9147876717413516
 10
1.784208254828445
 20
-0.924567474914644
 10
1.962741249249424
 20
-0.9354208879947791
 10
2.126336597628046
 20
-0.947265309954747
 10
2.273749240581577
 20
-0.9600105975915747
 10
2.403857278886953
 20
-0.9735597515705309
 10
2.515670511811289
 20
-0.987809654648633
 10
2.608337973137356
 20
-1.00265185645913
 10
2.681154407530318
 20
-1.017973398884277
 10
2.73356563795668
 20
-1.033657675734819
 10
2.765172783306132
 20
-1.049585320193498
 10
2.775735294117647
 20
-1.065635113268608
  0
LWPOLYLINE
  5
1E4
330
145
100
AcDbEntity
  8
AM_4
100
AcDbPolyline
 90
       19
 70
     0
 43
0.0
 10
5.056323392545219
 20
-1.206614077669903
 10
4.892906374893361
 20
-1.206140723973791
 10
4.730733059419726
 20
-1.204724265392902
 10
4.571037682977994
 20
-1.202375482032317
 10
4.415035623809591
 20
-1.199112249551645
 10
4.263914151781409
 20
-1.194959403120457
 10
4.11882339254522
 20
-1.189948548407652
 10
3.980867574387009
 20
-1.18411782104323
 10
3.851096624382959
 20
-1.177511596383125
 10
3.730498177820444
 20
-1.170180151785948
 10
3.619990061697137
 20
-1.16217928397193
 10
3.52041330950336
 20
-1.153569884376192
 10
3.432525760449398
 20
-1.144417475728155
 10
3.356996291851501
 20
-1.134791713384007
 10
3.294399728571642
 20
-1.12476585520738
 10
3.245212468253217
 20
-1.114416204032777
 10
3.209808855647329
 20
-1.103821526954928
 10
3.188458333623196
 20
-1.093062455863635
 10
3.181323392545218
 20
-1.082220873786408
  0
LINE
  5
1E5
330
145
100
AcDbEntity
  8
AM_4
100
AcDbLine
 10
-3.1875
 20
-1.065635113268608
 30
0.0
 11
-3.181323392545219
 21
-1.082220873786408
 31
0.0
  0
LINE
  5
1E6
330
145
100
AcDbEntity
  8
AM_4
100
AcDbLine
 10
-5.114375
 20
-1.206614077669903
 30
0.0
 11
-5.056323392545222
 21
-1.206614077669903
 31
0.0
  0
LWPOLYLINE
  5
1E7
330
145
100
AcDbEntity
  8
AM_4
100
AcDbPolyline
 90
       19
 70
     0
 43
0.0
 10
-5.21875
 20
-1.213538632686084
 10
-5.218352821613325
 20
-1.212935117950452
 10
-5.217164309220649
 20
-1.21233619632637
 10
-5.21519350811892
 20
-1.211746425969036
 10
-5.212455417294529
 20
-1.211170295386983
 10
-5.20897087527195
 20
-1.210612189281818
 10
-5.204766401520001
 20
-1.210076355177993
 10
-5.199873994622663
 20
-1.209566871096586
 10
-5.194330888750542
 20
-1.20908761451909
 10
-5.188179270286345
 20
-1.208642232877443
 10
-5.181465956761031
 20
-1.208234115794867
 10
-5.174242040544139
 20
-1.207866369288788
 10
-5.166562499999999
 20
-1.207541792132168
 10
-5.158485781069184
 20
-1.207262854553155
 10
-5.150073352459615
 20
-1.207031679435153
 10
-5.141389237832574
 20
-1.206850026160395
 10
-5.132499528543984
 20
-1.206719277219989
 10
-5.123471880649285
 20
-1.20664042769232
 10
-5.114374999999998
 20
-1.206614077669903
  0
LINE
  5
1E8
330
145
100
AcDbEntity
  8
AM_4
100
AcDbLine
 10
-5.21875
 20
1.28125
 30
0.0
 11
-5.21875
 21
-1.28125
 31
0.0
  0
LINE
  5
1E9
330
145
100
AcDbEntity
  8
AM_4
100
AcDbLine
 10
2.359375
 20
-1.28125
 30
0.0
 11
5.21875
 21
-1.28125
 31
0.0
  0
LINE
  5
1EA
330
145
100
AcDbEntity
  8
AM_4
100
AcDbLine
 10
-5.21875
 20
-1.28125
 30
0.0
 11
-2.359375
 21
-1.28125
 31
0.0
  0
LINE
  5
1EB
330
145
100
AcDbEntity
  8
AM_4
100
AcDbLine
 10
5.056323392545218
 20
-1.206614077669903
 30
0.0
 11
5.21875
 21
-1.206614077669903
 31
0.0
  0
LINE
  5
1EC
330
145
100
AcDbEntity
  8
AM_4
100
AcDbLine
 10
3.187500000000001
 20
-1.065635113268608
 30
0.0
 11
3.187500000000001
 21
-0.5870888554982414
 31
0.0
  0
LINE
  5
1ED
330
145
100
AcDbEntity
  8
AM_4
100
AcDbLine
 10
3.187500000000001
 20
0.586932928217676
 30
0.0
 11
3.187500000000001
 21
1.065635113268608
 31
0.0
  0
LINE
  5
1EE
330
145
100
AcDbEntity
  8
AM_4
100
AcDbLine
 10
-3.1875
 20
1.065635113268608
 30
0.0
 11
-3.1875
 21
0.587088855476423
 31
0.0
  0
LINE
  5
1EF
330
145
100
AcDbEntity
  8
AM_4
100
AcDbLine
 10
-3.1875
 20
-0.5869329283940687
 30
0.0
 11
-3.1875
 21
-1.065635113268608
 31
0.0
  0
LWPOLYLINE
  5
1F0
330
145
100
AcDbEntity
  8
AM_4
100
AcDbPolyline
 90
       37
 70
     0
 43
0.0
 10
-3.1875
 20
-1.065635113268608
 10
-3.175370600167439
 20
-1.047204423737322
 10
-3.139074712726413
 20
-1.028914002882124
 10
-3.078888571296406
 20
-1.01090305184978
 10
-2.995270228755084
 20
-0.9933086448529552
 10
-2.888856071179323
 20
-0.9762646859526893
 10
-2.7604559745629
 20
-0.959900889967637
 10
-2.611047141171164
 20
-0.9443417952659747
 10
-2.441766662441745
 20
-0.9297058159532202
 10
-2.253902865032123
 20
-0.9161043406693895
 10
-2.048885505875847
 20
-0.9036408848541881
 10
-1.828274890868963
 20
-0.8924103029320098
 10
-1.593750000000004
 20
-0.8824980664124933
 10
-1.347095709298484
 20
-0.8739796134007239
 10
-1.090189206850574
 20
-0.8669197744677041
 10
-0.8249857062642899
 20
-0.8613722792505615
 10
-0.5535035663133459
 20
-0.8573793475375673
 10
-0.277808930008166
 20
-0.8549713679500559
 10
-0.0000000000000059
 20
-0.854166666666666
 10
0.2778089300081543
 20
-0.8549713679500558
 10
0.5535035663133343
 20
-0.8573793475375673
 10
0.8249857062642786
 20
-0.8613722792505611
 10
1.090189206850563
 20
-0.866919774467704
 10
1.347095709298473
 20
-0.8739796134007237
 10
1.593749999999994
 20
-0.8824980664124928
 10
1.828274890868953
 20
-0.8924103029320093
 10
2.048885505875838
 20
-0.9036408848541876
 10
2.253902865032115
 20
-0.916104340669389
 10
2.441766662441738
 20
-0.9297058159532195
 10
2.611047141171157
 20
-0.944341795265974
 10
2.760455974562895
 20
-0.9599008899676363
 10
2.888856071179319
 20
-0.9762646859526887
 10
2.995270228755081
 20
-0.9933086448529544
 10
3.078888571296403
 20
-1.010903051849779
 10
3.139074712726413
 20
-1.028914002882123
 10
3.175370600167439
 20
-1.047204423737321
 10
3.187500000000001
 20
-1.065635113268607
  0
LWPOLYLINE
  5
1F1
330
145
100
AcDbEntity
  8
AM_4
100
AcDbPolyline
 90
       53
 70
     0
 43
0.0
 10
3.187499999998518
 20
0.5871425109155699
 10
3.186511991148421
 20
0.5867103181528976
 10
3.181316125683206
 20
0.584410014916155
 10
3.171680376141711
 20
0.5799814741856925
 10
3.157259734944573
 20
0.573002609170547
 10
3.138276468430009
 20
0.5631041752066468
 10
3.114567428044236
 20
0.5495924337437297
 10
3.086426045210934
 20
0.5317141919856019
 10
3.05693283884728
 20
0.5106742436002304
 10
3.024153010716876
 20
0.4840854854357214
 10
3.000160843116745
 20
0.4622264882249212
 10
2.97499988581481
 20
0.4366912066384603
 10
2.94897681957606
 20
0.4069396645181934
 10
2.933106256735723
 20
0.3868392118274968
 10
2.91714999071569
 20
0.3648188877330286
 10
2.90105338295203
 20
0.3404147302542234
 10
2.885175302879096
 20
0.3136792922098812
 10
2.869859520774504
 20
0.2846945242937577
 10
2.85522864834803
 20
0.2530672030800072
 10
2.841192177751663
 20
0.2175371995322412
 10
2.828643888220594
 20
0.1790107870398332
 10
2.822066643050325
 20
0.1546258960726007
 10
2.816300396145186
 20
0.1292570510550036
 10
2.811348687397006
 20
0.1023076543435671
 10
2.807478456680616
 20
0.0745581235478011
 10
2.80484185629521
 20
0.0468403616644173
 10
2.803399032685411
 20
0.0187357755182578
 10
2.80321434098857
 20
-0.0105357011736421
 10
2.804357017009091
 20
-0.0397115087473092
 10
2.809463981902955
 20
-0.0898979302965052
 10
2.818388839732159
 20
-0.1390101070190961
 10
2.825964670994268
 20
-0.1695283280736722
 10
2.83465868080721
 20
-0.1985148747801705
 10
2.844555439890642
 20
-0.2266403120789886
 10
2.855228315087875
 20
-0.2530664280642402
 10
2.872063961776799
 20
-0.2890970019901029
 10
2.889748903883348
 20
-0.3216880105421218
 10
2.908372108042758
 20
-0.3518145865428828
 10
2.927182856374739
 20
-0.3788915105301772
 10
2.949231211861108
 20
-0.4072675041185052
 10
2.970937189154252
 20
-0.4322765597396848
 10
2.992046005344706
 20
-0.4542729265952907
 10
3.022939434208396
 20
-0.4830432716986833
 10
3.051670315230565
 20
-0.5066299551113226
 10
3.084858334045284
 20
-0.5307180223596903
 10
3.113718255025279
 20
-0.5491274860176253
 10
3.137977325217669
 20
-0.5629417927116976
 10
3.157894111699557
 20
-0.573345555599974
 10
3.172764369726151
 20
-0.5805211508289292
 10
3.182515223013243
 20
-0.5849416910408071
 10
3.186099168006113
 20
-0.5865303921940563
 10
3.187482076204023
 20
-0.5871346880046343
 10
3.187499999999771
 20
-0.587142510916117
  0
LWPOLYLINE
  5
1F2
330
145
100
AcDbEntity
  8
AM_4
100
AcDbPolyline
 90
       37
 70
     0
 43
0.0
 10
3.187500000000001
 20
1.065635113268608
 10
3.175370600167441
 20
1.047204423737322
 10
3.139074712726415
 20
1.028914002882124
 10
3.078888571296407
 20
1.01090305184978
 10
2.995270228755085
 20
0.9933086448529556
 10
2.888856071179324
 20
0.9762646859526897
 10
2.760455974562901
 20
0.9599008899676373
 10
2.611047141171164
 20
0.944341795265975
 10
2.441766662441746
 20
0.9297058159532207
 10
2.253902865032124
 20
0.91610434066939
 10
2.048885505875848
 20
0.9036408848541885
 10
1.828274890868964
 20
0.8924103029320103
 10
1.593750000000004
 20
0.8824980664124937
 10
1.347095709298485
 20
0.8739796134007245
 10
1.090189206850575
 20
0.8669197744677046
 10
0.8249857062642906
 20
0.861372279250562
 10
0.5535035663133465
 20
0.857379347537568
 10
0.2778089300081668
 20
0.8549713679500566
 10
0.0000000000000066
 20
0.8541666666666664
 10
-0.2778089300081536
 20
0.8549713679500565
 10
-0.5535035663133335
 20
0.8573793475375678
 10
-0.8249857062642778
 20
0.8613722792505617
 10
-1.090189206850562
 20
0.8669197744677045
 10
-1.347095709298473
 20
0.8739796134007243
 10
-1.593749999999993
 20
0.8824980664124934
 10
-1.828274890868952
 20
0.8924103029320098
 10
-2.048885505875838
 20
0.9036408848541879
 10
-2.253902865032114
 20
0.9161043406693894
 10
-2.441766662441736
 20
0.92970581595322
 10
-2.611047141171156
 20
0.9443417952659744
 10
-2.760455974562894
 20
0.9599008899676368
 10
-2.888856071179318
 20
0.9762646859526889
 10
-2.99527022875508
 20
0.9933086448529548
 10
-3.078888571296403
 20
1.010903051849779
 10
-3.139074712726412
 20
1.028914002882124
 10
-3.175370600167438
 20
1.047204423737321
 10
-3.1875
 20
1.065635113268607
  0
LWPOLYLINE
  5
1F3
330
145
100
AcDbEntity
  8
AM_4
100
AcDbPolyline
 90
       53
 70
     0
 43
0.0
 10
-3.187499999998516
 20
-0.5871425109155692
 10
-3.186511989620811
 20
-0.5867103174831308
 10
-3.181316121923885
 20
-0.584410013227987
 10
-3.171680370231797
 20
-0.5799814714133487
 10
-3.157259726924675
 20
-0.5730026051610231
 10
-3.138276458402112
 20
-0.563104169766699
 10
-3.11456741609744
 20
-0.5495924265890461
 10
-3.086426031486681
 20
-0.5317141827625932
 10
-3.056932823967157
 20
-0.5106742323301446
 10
-3.024152994947403
 20
-0.4840854717670122
 10
-3.00016082686293
 20
-0.4622264726286274
 10
-2.974999869254432
 20
-0.4366911888647967
 10
-2.948976802941951
 20
-0.4069396442937907
 10
-2.933106241708116
 20
-0.3868391919898835
 10
-2.917149977423613
 20
-0.3648188685465009
 10
-2.901053371536686
 20
-0.3404147120546911
 10
-2.885175293426776
 20
-0.3136792753779536
 10
-2.869859513314471
 20
-0.2846945092545634
 10
-2.855228642869849
 20
-0.2530671903402033
 10
-2.841192174278411
 20
-0.2175371899122812
 10
-2.828643886527567
 20
-0.1790107812223556
 10
-2.822066641576545
 20
-0.154625890146948
 10
-2.81630039490802
 20
-0.1292570450494605
 10
-2.811348686416288
 20
-0.1023076482810371
 10
-2.807478455968669
 20
-0.0745581174721125
 10
-2.804841855853455
 20
-0.0468403556387939
 10
-2.80339903251208
 20
-0.0187357695941361
 10
-2.803214341083201
 20
0.0105357069315955
 10
-2.804357017353218
 20
0.0397115142880731
 10
-2.809463982646414
 20
0.0898979355420684
 10
-2.818388840802845
 20
0.1390101118357568
 10
-2.82596467237319
 20
0.169528333098816
 10
-2.834658682493033
 20
0.1985148799526797
 10
-2.844555441882628
 20
0.2266403173456021
 10
-2.855228317372757
 20
0.2530664333778745
 10
-2.872063964601923
 20
0.2890970075772949
 10
-2.889748907219021
 20
0.3216880162867136
 10
-2.908372111858884
 20
0.3518145923504285
 10
-2.927182860624584
 20
0.3788915163242649
 10
-2.949231216718097
 20
0.4072675100175208
 10
-2.970937194541745
 20
0.4322765656337156
 10
-2.992046011180947
 20
0.454272932398527
 10
-3.022939440566841
 20
0.4830432772386806
 10
-3.051670321912361
 20
0.5066299602823481
 10
-3.084858340726916
 20
0.530718026880529
 10
-3.113718261421683
 20
0.5491274898642723
 10
-3.137977331051381
 20
0.5629417958803908
 10
-3.157894116678649
 20
0.57334555808463
 10
-3.172764373567106
 20
0.5805211526240764
 10
-3.182515225437557
 20
0.5849416921235053
 10
-3.186099168506126
 20
0.5865303924121191
 10
-3.187482076171621
 20
0.5871346879904917
 10
-3.18749999999977
 20
0.5871425109161165
  0
ENDBLK
  5
148
330
145
100
AcDbEntity
  8
0
100
AcDbBlockEnd
  0
ENDSEC
  0
SECTION
  2
ENTITIES
  0
INSERT
  5
6F
330
1F
100
AcDbEntity
  8
0
100
AcDbBlockReference
  2
1_048027_4
 10
0.0
 20
0.0
 30
0.0
  0
POINT
  5
1F5
330
1F
100
AcDbEntity
  8
ConnectionPoints
100
AcDbPoint
 10
1.59375
 20
0.0000000000000002
 30
2.760455974562897
  0
POINT
  5
1F6
330
1F
100
AcDbEntity
  8
ConnectionPoints
100
AcDbPoint
 10
1.59375
 20
0.0000000000000002
 30
2.760455974562897
  0
POINT
  5
1F7
330
1F
100
AcDbEntity
  8
ConnectionPoints
100
AcDbPoint
 10
0.0
 20
-1.5
 30
0.0000000000000001
  0
ENDSEC
  0
SECTION
  2
OBJECTS
  0
DICTIONARY
  5
C
330
0
100
AcDbDictionary
281
     1
  3
ACAD_DETAILVIEWSTYLE
350
1FF
  3
ACAD_GROUP
350
D
  3
ACAD_LAYOUT
350
1A
  3
ACAD_MATERIAL
350
43
  3
ACAD_MLEADERSTYLE
350
6B
  3
ACAD_MLINESTYLE
350
17
  3
ACAD_PLOTSETTINGS
350
19
  3
ACAD_PLOTSTYLENAME
350
E
  3
ACAD_SCALELIST
350
47
  3
ACAD_SECTIONVIEWSTYLE
350
200
  3
ACAD_TABLESTYLE
350
69
  3
ACAD_VISUALSTYLE
350
2A
  3
ACDB_RECOMPOSE_DATA
350
1FC
  3
AcDbVariableDictionary
350
1F8
  0
SUN
  5
6D
330
29
100
AcDbSun
 90
        1
290
     0
 63
     7
421
 16777215
 40
1.0
291
     1
 91
  2455826
 92
 54000000
292
     0
 70
     2
 71
   256
280
     1
  0
DICTIONARY
  5
1FF
102
{ACAD_REACTORS
330
C
102
}
330
C
100
AcDbDictionary
281
     1
  0
DICTIONARY
  5
D
102
{ACAD_REACTORS
330
C
102
}
330
C
100
AcDbDictionary
281
     1
  0
DICTIONARY
  5
1A
102
{ACAD_REACTORS
330
C
102
}
330
C
100
AcDbDictionary
281
     1
  3
Layout1
350
1E
  3
Layout2
350
26
  3
Model
350
22
  0
DICTIONARY
  5
43
102
{ACAD_REACTORS
330
C
102
}
330
C
100
AcDbDictionary
281
     1
  3
ByBlock
350
45
  3
ByLayer
350
44
  3
Global
350
46
  0
DICTIONARY
  5
6B
102
{ACAD_REACTORS
330
C
102
}
330
C
100
AcDbDictionary
281
     1
  3
Standard
350
6C
  0
DICTIONARY
  5
17
102
{ACAD_REACTORS
330
C
102
}
330
C
100
AcDbDictionary
281
     1
  3
Standard
350
18
  0
DICTIONARY
  5
19
102
{ACAD_REACTORS
330
C
102
}
330
C
100
AcDbDictionary
281
     1
  0
ACDBDICTIONARYWDFLT
  5
E
102
{ACAD_REACTORS
330
C
102
}
330
C
100
AcDbDictionary
281
     1
  3
Normal
350
F
100
AcDbDictionaryWithDefault
340
F
  0
DICTIONARY
  5
47
102
{ACAD_REACTORS
330
C
102
}
330
C
100
AcDbDictionary
281
     1
  3
A0
350
48
  3
A1
350
49
  3
A2
350
4A
  3
A3
350
4B
  3
A4
350
4C
  3
A5
350
4D
  3
A6
350
4E
  3
A7
350
4F
  3
A8
350
50
  3
A9
350
51
  3
B0
350
52
  3
B1
350
53
  3
B2
350
54
  3
B3
350
55
  3
B4
350
56
  3
B5
350
57
  3
B6
350
58
  3
B7
350
59
  3
B8
350
5A
  3
B9
350
5B
  3
C0
350
5C
  3
C1
350
5D
  3
C2
350
5E
  3
C3
350
5F
  3
C4
350
60
  3
C5
350
61
  3
C6
350
62
  3
C7
350
63
  3
C8
350
64
  3
C9
350
65
  3
D0
350
66
  3
D1
350
67
  3
D2
350
68
  0
DICTIONARY
  5
200
102
{ACAD_REACTORS
330
C
102
}
330
C
100
AcDbDictionary
281
     1
  0
DICTIONARY
  5
69
102
{ACAD_REACTORS
330
C
102
}
330
C
100
AcDbDictionary
281
     1
  3
Standard
350
6A
  0
DICTIONARY
  5
2A
102
{ACAD_REACTORS
330
C
102
}
330
C
100
AcDbDictionary
281
     1
  3
2dWireframe
350
2F
  3
Basic
350
32
  3
Brighten
350
36
  3
ColorChange
350
3A
  3
Conceptual
350
34
  3
Dim
350
35
  3
EdgeColorOff
350
3D
  3
Facepattern
350
39
  3
Flat
350
2B
  3
FlatWithEdges
350
2C
  3
Gouraud
350
2D
  3
GouraudWithEdges
350
2E
  3
Hidden
350
31
  3
JitterOff
350
3B
  3
Linepattern
350
38
  3
OverhangOff
350
3C
  3
Realistic
350
33
  3
Shaded
350
42
  3
Shaded with edges
350
41
  3
Shades of Gray
350
3E
  3
Sketchy
350
3F
  3
Thicken
350
37
  3
Wireframe
350
30
  3
X-Ray
350
40
  0
XRECORD
  5
1FC
102
{ACAD_REACTORS
330
C
102
}
330
C
100
AcDbXrecord
280
     1
 90
        1
330
6A
  0
DICTIONARY
  5
1F8
102
{ACAD_REACTORS
330
C
102
}
330
C
100
AcDbDictionary
281
     1
  3
CANNOSCALE
350
1F9
  3
CMLEADERSTYLE
350
1FE
  3
CTABLESTYLE
350
1FD
  0
LAYOUT
  5
1E
102
{ACAD_REACTORS
330
1A
102
}
330
1A
100
AcDbPlotSettings
  1

  2
none_device
  4

  6

 40
0.0
 41
0.0
 42
0.0
 43
0.0
 44
0.0
 45
0.0
 46
0.0
 47
0.0
 48
0.0
 49
0.0
140
0.0
141
0.0
142
1.0
143
1.0
 70
   688
 72
     0
 73
     0
 74
     5
  7

 75
    16
 76
     0
 77
     2
 78
   300
147
1.0
148
0.0
149
0.0
100
AcDbLayout
  1
Layout1
 70
     1
 71
     1
 10
0.0
 20
0.0
 11
12.0
 21
9.0
 12
0.0
 22
0.0
 32
0.0
 14
1.000000000000000E+20
 24
1.000000000000000E+20
 34
1.000000000000000E+20
 15
-1.000000000000000E+20
 25
-1.000000000000000E+20
 35
-1.000000000000000E+20
146
0.0
 13
0.0
 23
0.0
 33
0.0
 16
1.0
 26
0.0
 36
0.0
 17
0.0
 27
1.0
 37
0.0
 76
     0
330
1B
  0
LAYOUT
  5
26
102
{ACAD_REACTORS
330
1A
102
}
330
1A
100
AcDbPlotSettings
  1

  2
none_device
  4

  6

 40
0.0
 41
0.0
 42
0.0
 43
0.0
 44
0.0
 45
0.0
 46
0.0
 47
0.0
 48
0.0
 49
0.0
140
0.0
141
0.0
142
1.0
143
1.0
 70
   688
 72
     0
 73
     0
 74
     5
  7

 75
    16
 76
     0
 77
     2
 78
   300
147
1.0
148
0.0
149
0.0
100
AcDbLayout
  1
Layout2
 70
     1
 71
     2
 10
0.0
 20
0.0
 11
0.0
 21
0.0
 12
0.0
 22
0.0
 32
0.0
 14
0.0
 24
0.0
 34
0.0
 15
0.0
 25
0.0
 35
0.0
146
0.0
 13
0.0
 23
0.0
 33
0.0
 16
1.0
 26
0.0
 36
0.0
 17
0.0
 27
1.0
 37
0.0
 76
     0
330
23
  0
LAYOUT
  5
22
102
{ACAD_REACTORS
330
1A
102
}
330
1A
100
AcDbPlotSettings
  1

  2
none_device
  4
Letter_(8.50_x_11.00_Inches)
  6

 40
6.35
 41
6.35
 42
6.35000508
 43
6.35000508
 44
215.9
 45
279.4
 46
0.0
 47
0.0
 48
0.0
 49
0.0
140
0.0
141
0.0
142
1.0
143
1.0
 70
  1712
 72
     0
 73
     0
 74
     0
  7

 75
     0
 76
     0
 77
     2
 78
   300
147
1.0
148
0.0
149
0.0
100
AcDbLayout
  1
Model
 70
     1
 71
     0
 10
0.0
 20
0.0
 11
12.0
 21
9.0
 12
0.0
 22
0.0
 32
0.0
 14
1.000000000000000E+20
 24
1.000000000000000E+20
 34
1.000000000000000E+20
 15
-1.000000000000000E+20
 25
-1.000000000000000E+20
 35
-1.000000000000000E+20
146
0.0
 13
0.0
 23
0.0
 33
0.0
 16
1.0
 26
0.0
 36
0.0
 17
0.0
 27
1.0
 37
0.0
 76
     0
330
1F
331
29
  0
MATERIAL
  5
45
102
{ACAD_REACTORS
330
43
102
}
330
43
100
AcDbMaterial
  1
ByBlock
 72
     1
 94
      127
  0
MATERIAL
  5
44
102
{ACAD_REACTORS
330
43
102
}
330
43
100
AcDbMaterial
  1
ByLayer
 72
     1
 94
      127
  0
MATERIAL
  5
46
102
{ACAD_REACTORS
330
43
102
}
330
43
100
AcDbMaterial
  1
Global
 72
     1
 94
      127
  0
MLEADERSTYLE
  5
6C
102
{ACAD_REACTORS
330
6B
102
}
330
6B
100
AcDbMLeaderStyle
179
     2
170
     2
171
     1
172
     0
 90
        2
 40
0.0
 41
0.0
173
     1
 91
-1056964608
340
14
 92
       -2
290
     1
 42
0.09
291
     1
 43
0.36
  3
Standard
341
0
 44
0.18
300

342
11
174
     1
178
     6
175
     1
176
     0
 93
-1056964608
 45
0.18
292
     0
297
     0
 46
0.18
343
0
 94
-1056964608
 47
1.0
 49
1.0
140
1.0
293
     1
141
0.0
294
     1
177
     0
142
1.0
295
     0
296
     0
143
0.125
271
     0
272
     9
273
     9
298
     0
  0
MLINESTYLE
  5
18
102
{ACAD_REACTORS
330
17
102
}
330
17
100
AcDbMlineStyle
  2
Standard
 70
     0
  3

 62
   256
 51
90.0
 52
90.0
 71
     2
 49
0.5
 62
   256
  6
BYLAYER
 49
-0.5
 62
   256
  6
BYLAYER
  0
ACDBPLACEHOLDER
  5
F
102
{ACAD_REACTORS
330
E
102
}
330
E
  0
SCALE
  5
48
102
{ACAD_REACTORS
330
47
102
}
330
47
100
AcDbScale
 70
     0
300
1:1
140
1.0
141
1.0
290
     1
  0
SCALE
  5
49
102
{ACAD_REACTORS
330
47
102
}
330
47
100
AcDbScale
 70
     0
300
1:2
140
1.0
141
2.0
290
     0
  0
SCALE
  5
4A
102
{ACAD_REACTORS
330
47
102
}
330
47
100
AcDbScale
 70
     0
300
1:4
140
1.0
141
4.0
290
     0
  0
SCALE
  5
4B
102
{ACAD_REACTORS
330
47
102
}
330
47
100
AcDbScale
 70
     0
300
1:5
140
1.0
141
5.0
290
     0
  0
SCALE
  5
4C
102
{ACAD_REACTORS
330
47
102
}
330
47
100
AcDbScale
 70
     0
300
1:8
140
1.0
141
8.0
290
     0
  0
SCALE
  5
4D
102
{ACAD_REACTORS
330
47
102
}
330
47
100
AcDbScale
 70
     0
300
1:10
140
1.0
141
10.0
290
     0
  0
SCALE
  5
4E
102
{ACAD_REACTORS
330
47
102
}
330
47
100
AcDbScale
 70
     0
300
1:16
140
1.0
141
16.0
290
     0
  0
SCALE
  5
4F
102
{ACAD_REACTORS
330
47
102
}
330
47
100
AcDbScale
 70
     0
300
1:20
140
1.0
141
20.0
290
     0
  0
SCALE
  5
50
102
{ACAD_REACTORS
330
47
102
}
330
47
100
AcDbScale
 70
     0
300
1:30
140
1.0
141
30.0
290
     0
  0
SCALE
  5
51
102
{ACAD_REACTORS
330
47
102
}
330
47
100
AcDbScale
 70
     0
300
1:40
140
1.0
141
40.0
290
     0
  0
SCALE
  5
52
102
{ACAD_REACTORS
330
47
102
}
330
47
100
AcDbScale
 70
     0
300
1:50
140
1.0
141
50.0
290
     0
  0
SCALE
  5
53
102
{ACAD_REACTORS
330
47
102
}
330
47
100
AcDbScale
 70
     0
300
1:100
140
1.0
141
100.0
290
     0
  0
SCALE
  5
54
102
{ACAD_REACTORS
330
47
102
}
330
47
100
AcDbScale
 70
     0
300
2:1
140
2.0
141
1.0
290
     0
  0
SCALE
  5
55
102
{ACAD_REACTORS
330
47
102
}
330
47
100
AcDbScale
 70
     0
300
4:1
140
4.0
141
1.0
290
     0
  0
SCALE
  5
56
102
{ACAD_REACTORS
330
47
102
}
330
47
100
AcDbScale
 70
     0
300
8:1
140
8.0
141
1.0
290
     0
  0
SCALE
  5
57
102
{ACAD_REACTORS
330
47
102
}
330
47
100
AcDbScale
 70
     0
300
10:1
140
10.0
141
1.0
290
     0
  0
SCALE
  5
58
102
{ACAD_REACTORS
330
47
102
}
330
47
100
AcDbScale
 70
     0
300
100:1
140
100.0
141
1.0
290
     0
  0
SCALE
  5
59
102
{ACAD_REACTORS
330
47
102
}
330
47
100
AcDbScale
 70
     0
300
1/128" = 1'-0"
140
0.0078125
141
12.0
290
     0
  0
SCALE
  5
5A
102
{ACAD_REACTORS
330
47
102
}
330
47
100
AcDbScale
 70
     0
300
1/64" = 1'-0"
140
0.015625
141
12.0
290
     0
  0
SCALE
  5
5B
102
{ACAD_REACTORS
330
47
102
}
330
47
100
AcDbScale
 70
     0
300
1/32" = 1'-0"
140
0.03125
141
12.0
290
     0
  0
SCALE
  5
5C
102
{ACAD_REACTORS
330
47
102
}
330
47
100
AcDbScale
 70
     0
300
1/16" = 1'-0"
140
0.0625
141
12.0
290
     0
  0
SCALE
  5
5D
102
{ACAD_REACTORS
330
47
102
}
330
47
100
AcDbScale
 70
     0
300
3/32" = 1'-0"
140
0.09375
141
12.0
290
     0
  0
SCALE
  5
5E
102
{ACAD_REACTORS
330
47
102
}
330
47
100
AcDbScale
 70
     0
300
1/8" = 1'-0"
140
0.125
141
12.0
290
     0
  0
SCALE
  5
5F
102
{ACAD_REACTORS
330
47
102
}
330
47
100
AcDbScale
 70
     0
300
3/16" = 1'-0"
140
0.1875
141
12.0
290
     0
  0
SCALE
  5
60
102
{ACAD_REACTORS
330
47
102
}
330
47
100
AcDbScale
 70
     0
300
1/4" = 1'-0"
140
0.25
141
12.0
290
     0
  0
SCALE
  5
61
102
{ACAD_REACTORS
330
47
102
}
330
47
100
AcDbScale
 70
     0
300
3/8" = 1'-0"
140
0.375
141
12.0
290
     0
  0
SCALE
  5
62
102
{ACAD_REACTORS
330
47
102
}
330
47
100
AcDbScale
 70
     0
300
1/2" = 1'-0"
140
0.5
141
12.0
290
     0
  0
SCALE
  5
63
102
{ACAD_REACTORS
330
47
102
}
330
47
100
AcDbScale
 70
     0
300
3/4" = 1'-0"
140
0.75
141
12.0
290
     0
  0
SCALE
  5
64
102
{ACAD_REACTORS
330
47
102
}
330
47
100
AcDbScale
 70
     0
300
1" = 1'-0"
140
1.0
141
12.0
290
     0
  0
SCALE
  5
65
102
{ACAD_REACTORS
330
47
102
}
330
47
100
AcDbScale
 70
     0
300
1-1/2" = 1'-0"
140
1.5
141
12.0
290
     0
  0
SCALE
  5
66
102
{ACAD_REACTORS
330
47
102
}
330
47
100
AcDbScale
 70
     0
300
3" = 1'-0"
140
3.0
141
12.0
290
     0
  0
SCALE
  5
67
102
{ACAD_REACTORS
330
47
102
}
330
47
100
AcDbScale
 70
     0
300
6" = 1'-0"
140
6.0
141
12.0
290
     0
  0
SCALE
  5
68
102
{ACAD_REACTORS
330
47
102
}
330
47
100
AcDbScale
 70
     0
300
1'-0" = 1'-0"
140
12.0
141
12.0
290
     0
  0
TABLESTYLE
  5
6A
102
{ACAD_REACTORS
330
69
102
}
102
{ACAD_XDICTIONARY
360
1FA
102
}
330
69
100
AcDbTableStyle
  3
Standard
 70
     0
 71
     0
 40
0.06
 41
0.06
280
     0
281
     0
  7
Standard
140
0.18
170
     2
 62
     0
 63
   257
283
     0
 90
        4
 91
        0
  1

274
    -2
284
     1
 64
     0
275
    -2
285
     1
 65
     0
276
    -2
286
     1
 66
     0
277
    -2
287
     1
 67
     0
278
    -2
288
     1
 68
     0
279
    -2
289
     1
 69
     0
  7
Standard
140
0.25
170
     5
 62
     0
 63
   257
283
     0
 90
        4
 91
        0
  1

274
    -2
284
     1
 64
     0
275
    -2
285
     1
 65
     0
276
    -2
286
     1
 66
     0
277
    -2
287
     1
 67
     0
278
    -2
288
     1
 68
     0
279
    -2
289
     1
 69
     0
  7
Standard
140
0.18
170
     5
 62
     0
 63
   257
283
     0
 90
        4
 91
        0
  1

274
    -2
284
     1
 64
     0
275
    -2
285
     1
 65
     0
276
    -2
286
     1
 66
     0
277
    -2
287
     1
 67
     0
278
    -2
288
     1
 68
     0
279
    -2
289
     1
 69
     0
  0
VISUALSTYLE
  5
2F
102
{ACAD_REACTORS
330
2A
102
}
330
2A
100
AcDbVisualStyle
  2
2dWireframe
 70
     4
177
     3
291
     0
 70
    58
 90
        0
176
     1
 90
        2
176
     1
 90
        0
176
     1
 90
        0
176
     1
 40
0.6
176
     1
 40
30.0
176
     1
 62
     7
420
 16777215
176
     1
 90
        1
176
     1
 90
        4
176
     1
 62
     7
176
     1
 62
   257
176
     1
 90
        1
176
     1
 90
        1
176
     1
 40
1.0
176
     1
 90
        0
176
     1
 62
   257
176
     1
 40
1.0
176
     1
 90
        1
176
     1
 90
        6
176
     1
 90
        2
176
     1
 62
     7
176
     1
 90
        5
176
     1
 90
        0
176
     1
 90
        0
176
     1
290
     0
176
     1
 90
        1
176
     1
 40
0.0
176
     1
 90
        0
176
     1
290
     1
176
     1
290
     1
176
     1
290
     0
176
     1
290
     0
176
     1
290
     0
176
     1
290
     0
176
     1
290
     0
176
     1
290
     0
176
     1
290
     0
176
     1
 90
       50
176
     1
 40
0.0
176
     1
 40
1.0
176
     1
 90
        0
176
     1
 62
    18
420
        0
176
     1
 90
       50
176
     1
 90
        3
176
     1
 62
     5
420
      255
176
     1
290
     0
176
     1
 90
       50
176
     1
 90
       50
176
     1
 90
       50
176
     1
290
     0
176
     1
 90
       50
176
     1
 62
   256
176
     0
 40
1.0
176
     0
 90
        2
176
     1
  1
strokes_ogs.tif
176
     1
290
     0
176
     1
 40
1.0
176
     1
 40
1.0
176
     1
  0
VISUALSTYLE
  5
32
102
{ACAD_REACTORS
330
2A
102
}
330
2A
100
AcDbVisualStyle
  2
Basic
 70
     7
177
     3
291
     1
 70
    58
 90
        1
176
     1
 90
        0
176
     1
 90
        1
176
     1
 90
        0
176
     1
 40
0.6
176
     1
 40
30.0
176
     1
 62
     7
420
 16777215
176
     1
 90
        0
176
     1
 90
        4
176
     1
 62
     7
176
     1
 62
   257
176
     1
 90
        1
176
     1
 90
        1
176
     1
 40
1.0
176
     1
 90
        8
176
     1
 62
     7
176
     1
 40
1.0
176
     1
 90
        1
176
     1
 90
        6
176
     1
 90
        2
176
     1
 62
     7
176
     1
 90
        5
176
     1
 90
        0
176
     1
 90
        0
176
     1
290
     0
176
     1
 90
        1
176
     1
 40
0.0
176
     1
 90
        0
176
     1
290
     0
176
     1
290
     1
176
     1
290
     1
176
     1
290
     0
176
     1
290
     0
176
     1
290
     0
176
     1
290
     0
176
     1
290
     0
176
     1
290
     0
176
     1
 90
       50
176
     1
 40
0.0
176
     1
 40
1.0
176
     1
 90
        0
176
     1
 62
    18
420
        0
176
     1
 90
       50
176
     1
 90
        3
176
     1
 62
     5
420
      255
176
     1
290
     0
176
     1
 90
       50
176
     1
 90
       50
176
     1
 90
       50
176
     1
290
     0
176
     1
 90
       50
176
     1
 62
   256
176
     0
 40
1.0
176
     0
 90
        2
176
     1
  1
strokes_ogs.tif
176
     1
290
     0
176
     1
 40
1.0
176
     1
 40
1.0
176
     1
  0
VISUALSTYLE
  5
36
102
{ACAD_REACTORS
330
2A
102
}
330
2A
100
AcDbVisualStyle
  2
Brighten
 70
    12
177
     3
291
     1
 70
    58
 90
        2
176
     1
 90
        2
176
     1
 90
        0
176
     1
 90
        0
176
     1
 40
0.6
176
     1
 40
30.0
176
     1
 62
     7
420
 16777215
176
     1
 90
        1
176
     1
 90
        4
176
     1
 62
     7
176
     1
 62
   257
176
     1
 90
        1
176
     1
 90
        1
176
     1
 40
1.0
176
     1
 90
        8
176
     1
 62
     7
176
     1
 40
1.0
176
     1
 90
        1
176
     1
 90
        6
176
     1
 90
        2
176
     1
 62
     7
176
     1
 90
        5
176
     1
 90
        0
176
     1
 90
        0
176
     1
290
     0
176
     1
 90
        1
176
     1
 40
50.0
176
     1
 90
        0
176
     1
290
     0
176
     1
290
     1
176
     1
290
     1
176
     1
290
     0
176
     1
290
     0
176
     1
290
     0
176
     1
290
     0
176
     1
290
     0
176
     1
290
     0
176
     1
 90
       50
176
     1
 40
0.0
176
     1
 40
1.0
176
     1
 90
        0
176
     1
 62
    18
420
        0
176
     1
 90
       50
176
     1
 90
        3
176
     1
 62
     5
420
      255
176
     1
290
     0
176
     1
 90
       50
176
     1
 90
       50
176
     1
 90
       50
176
     1
290
     0
176
     1
 90
       50
176
     1
 62
   256
176
     0
 40
1.0
176
     0
 90
        2
176
     1
  1
strokes_ogs.tif
176
     1
290
     0
176
     1
 40
1.0
176
     1
 40
1.0
176
     1
  0
VISUALSTYLE
  5
3A
102
{ACAD_REACTORS
330
2A
102
}
330
2A
100
AcDbVisualStyle
  2
ColorChange
 70
    16
177
     3
291
     1
 70
    58
 90
        2
176
     1
 90
        2
176
     1
 90
        3
176
     1
 90
        0
176
     1
 40
0.6
176
     1
 40
30.0
176
     1
 62
     8
420
  8421504
176
     1
 90
        1
176
     1
 90
        4
176
     1
 62
     7
176
     1
 62
   257
176
     1
 90
        1
176
     1
 90
        1
176
     1
 40
1.0
176
     1
 90
        8
176
     1
 62
     8
420
  8421504
176
     1
 40
1.0
176
     1
 90
        1
176
     1
 90
        6
176
     1
 90
        2
176
     1
 62
     7
176
     1
 90
        5
176
     1
 90
        0
176
     1
 90
        0
176
     1
290
     0
176
     1
 90
        1
176
     1
 40
0.0
176
     1
 90
        0
176
     1
290
     0
176
     1
290
     1
176
     1
290
     1
176
     1
290
     0
176
     1
290
     0
176
     1
290
     0
176
     1
290
     0
176
     1
290
     0
176
     1
290
     0
176
     1
 90
       50
176
     1
 40
0.0
176
     1
 40
1.0
176
     1
 90
        0
176
     1
 62
    18
420
        0
176
     1
 90
       50
176
     1
 90
        3
176
     1
 62
     5
420
      255
176
     1
290
     0
176
     1
 90
       50
176
     1
 90
       50
176
     1
 90
       50
176
     1
290
     0
176
     1
 90
       50
176
     1
 62
   256
176
     0
 40
1.0
176
     0
 90
        2
176
     1
  1
strokes_ogs.tif
176
     1
290
     0
176
     1
 40
1.0
176
     1
 40
1.0
176
     1
  0
VISUALSTYLE
  5
34
102
{ACAD_REACTORS
330
2A
102
}
330
2A
100
AcDbVisualStyle
  2
Conceptual
 70
     9
177
     3
291
     0
 70
    58
 90
        3
176
     1
 90
        2
176
     1
 90
        0
176
     1
 90
        0
176
     1
 40
0.6
176
     1
 40
30.0
176
     1
 62
     7
420
 16777215
176
     1
 90
        2
176
     1
 90
        2
176
     1
 62
     7
176
     1
 62
   257
176
     1
 90
        1
176
     1
 90
        1
176
     1
 40
179.0
176
     1
 90
        8
176
     1
 62
     7
176
     1
 40
1.0
176
     1
 90
        1
176
     1
 90
        6
176
     1
 90
        2
176
     1
 62
     7
176
     1
 90
        3
176
     1
 90
        0
176
     1
 90
        0
176
     1
290
     0
176
     1
 90
        1
176
     1
 40
0.0
176
     1
 90
        0
176
     1
290
     0
176
     1
290
     1
176
     1
290
     1
176
     1
290
     0
176
     1
290
     0
176
     1
290
     0
176
     1
290
     0
176
     1
290
     0
176
     1
290
     0
176
     1
 90
       50
176
     1
 40
0.0
176
     1
 40
1.0
176
     1
 90
        0
176
     1
 62
    18
420
        0
176
     1
 90
       50
176
     1
 90
        3
176
     1
 62
     5
420
      255
176
     1
290
     0
176
     1
 90
       50
176
     1
 90
       50
176
     1
 90
       50
176
     1
290
     0
176
     1
 90
       50
176
     1
 62
   256
176
     0
 40
1.0
176
     0
 90
        2
176
     1
  1
strokes_ogs.tif
176
     1
290
     0
176
     1
 40
1.0
176
     1
 40
1.0
176
     1
  0
VISUALSTYLE
  5
35
102
{ACAD_REACTORS
330
2A
102
}
330
2A
100
AcDbVisualStyle
  2
Dim
 70
    11
177
     3
291
     1
 70
    58
 90
        2
176
     1
 90
        2
176
     1
 90
        0
176
     1
 90
        0
176
     1
 40
0.6
176
     1
 40
30.0
176
     1
 62
     7
420
 16777215
176
     1
 90
        1
176
     1
 90
        4
176
     1
 62
     7
176
     1
 62
   257
176
     1
 90
        1
176
     1
 90
        1
176
     1
 40
1.0
176
     1
 90
        8
176
     1
 62
     7
176
     1
 40
1.0
176
     1
 90
        1
176
     1
 90
        6
176
     1
 90
        2
176
     1
 62
     7
176
     1
 90
        5
176
     1
 90
        0
176
     1
 90
        0
176
     1
290
     0
176
     1
 90
        1
176
     1
 40
-50.0
176
     1
 90
        0
176
     1
290
     0
176
     1
290
     1
176
     1
290
     1
176
     1
290
     0
176
     1
290
     0
176
     1
290
     0
176
     1
290
     0
176
     1
290
     0
176
     1
290
     0
176
     1
 90
       50
176
     1
 40
0.0
176
     1
 40
1.0
176
     1
 90
        0
176
     1
 62
    18
420
        0
176
     1
 90
       50
176
     1
 90
        3
176
     1
 62
     5
420
      255
176
     1
290
     0
176
     1
 90
       50
176
     1
 90
       50
176
     1
 90
       50
176
     1
290
     0
176
     1
 90
       50
176
     1
 62
   256
176
     0
 40
1.0
176
     0
 90
        2
176
     1
  1
strokes_ogs.tif
176
     1
290
     0
176
     1
 40
1.0
176
     1
 40
1.0
176
     1
  0
VISUALSTYLE
  5
3D
102
{ACAD_REACTORS
330
2A
102
}
330
2A
100
AcDbVisualStyle
  2
EdgeColorOff
 70
    22
177
     3
291
     1
 70
    58
 90
        2
176
     0
 90
        2
176
     0
 90
        0
176
     0
 90
        0
176
     0
 40
0.6
176
     0
 40
30.0
176
     0
 62
     7
420
 16777215
176
     0
 90
        1
176
     0
 90
        4
176
     0
 62
     7
176
     0
 62
   257
176
     0
 90
        1
176
     0
 90
        1
176
     0
 40
1.0
176
     0
 90
        8
176
     2
 62
     7
176
     0
 40
1.0
176
     0
 90
        1
176
     0
 90
        6
176
     0
 90
        2
176
     0
 62
     7
176
     0
 90
        5
176
     0
 90
        0
176
     0
 90
        0
176
     0
290
     0
176
     0
 90
        1
176
     0
 40
0.0
176
     0
 90
        0
176
     0
290
     0
176
     0
290
     1
176
     0
290
     1
176
     0
290
     0
176
     0
290
     0
176
     0
290
     0
176
     0
290
     0
176
     0
290
     0
176
     0
290
     0
176
     0
 90
       50
176
     0
 40
0.0
176
     0
 40
1.0
176
     0
 90
        0
176
     0
 62
    18
420
        0
176
     0
 90
       50
176
     0
 90
        3
176
     0
 62
     5
420
      255
176
     0
290
     0
176
     0
 90
       50
176
     0
 90
       50
176
     0
 90
       50
176
     0
290
     0
176
     0
 90
       50
176
     0
 62
   256
176
     0
 40
1.0
176
     0
 90
        2
176
     0
  1
strokes_ogs.tif
176
     0
290
     0
176
     0
 40
1.0
176
     0
 40
1.0
176
     0
  0
VISUALSTYLE
  5
39
102
{ACAD_REACTORS
330
2A
102
}
330
2A
100
AcDbVisualStyle
  2
Facepattern
 70
    15
177
     3
291
     1
 70
    58
 90
        2
176
     1
 90
        2
176
     1
 90
        0
176
     1
 90
        0
176
     1
 40
0.6
176
     1
 40
30.0
176
     1
 62
     7
420
 16777215
176
     1
 90
        1
176
     1
 90
        4
176
     1
 62
     7
176
     1
 62
   257
176
     1
 90
        1
176
     1
 90
        1
176
     1
 40
1.0
176
     1
 90
        8
176
     1
 62
     7
176
     1
 40
1.0
176
     1
 90
        1
176
     1
 90
        6
176
     1
 90
        2
176
     1
 62
     7
176
     1
 90
        5
176
     1
 90
        0
176
     1
 90
        0
176
     1
290
     0
176
     1
 90
        1
176
     1
 40
0.0
176
     1
 90
        0
176
     1
290
     0
176
     1
290
     1
176
     1
290
     1
176
     1
290
     0
176
     1
290
     0
176
     1
290
     0
176
     1
290
     0
176
     1
290
     0
176
     1
290
     0
176
     1
 90
       50
176
     1
 40
0.0
176
     1
 40
1.0
176
     1
 90
        0
176
     1
 62
    18
420
        0
176
     1
 90
       50
176
     1
 90
        3
176
     1
 62
     5
420
      255
176
     1
290
     0
176
     1
 90
       50
176
     1
 90
       50
176
     1
 90
       50
176
     1
290
     0
176
     1
 90
       50
176
     1
 62
   256
176
     0
 40
1.0
176
     0
 90
        2
176
     1
  1
strokes_ogs.tif
176
     1
290
     0
176
     1
 40
1.0
176
     1
 40
1.0
176
     1
  0
VISUALSTYLE
  5
2B
102
{ACAD_REACTORS
330
2A
102
}
330
2A
100
AcDbVisualStyle
  2
Flat
 70
     0
177
     3
291
     1
 70
    58
 90
        2
176
     1
 90
        1
176
     1
 90
        1
176
     1
 90
        2
176
     1
 40
0.6
176
     1
 40
30.0
176
     1
 62
     7
420
 16777215
176
     1
 90
        0
176
     1
 90
        0
176
     1
 62
     7
176
     1
 62
   257
176
     1
 90
        1
176
     1
 90
        1
176
     1
 40
1.0
176
     1
 90
        8
176
     1
 62
     7
176
     1
 40
1.0
176
     1
 90
        1
176
     1
 90
        6
176
     1
 90
        2
176
     1
 62
     7
176
     1
 90
        5
176
     1
 90
        0
176
     1
 90
        0
176
     1
290
     0
176
     1
 90
       13
176
     1
 40
0.0
176
     1
 90
        0
176
     1
290
     0
176
     1
290
     1
176
     1
290
     1
176
     1
290
     0
176
     1
290
     0
176
     1
290
     0
176
     1
290
     0
176
     1
290
     0
176
     1
290
     0
176
     1
 90
       50
176
     1
 40
0.0
176
     1
 40
1.0
176
     1
 90
        0
176
     1
 62
    18
420
        0
176
     1
 90
       50
176
     1
 90
        3
176
     1
 62
     5
420
      255
176
     1
290
     0
176
     1
 90
       50
176
     1
 90
       50
176
     1
 90
       50
176
     1
290
     0
176
     1
 90
       50
176
     1
 62
   256
176
     0
 40
1.0
176
     0
 90
        2
176
     1
  1
strokes_ogs.tif
176
     1
290
     0
176
     1
 40
1.0
176
     1
 40
1.0
176
     1
  0
VISUALSTYLE
  5
2C
102
{ACAD_REACTORS
330
2A
102
}
330
2A
100
AcDbVisualStyle
  2
FlatWithEdges
 70
     1
177
     3
291
     1
 70
    58
 90
        2
176
     1
 90
        1
176
     1
 90
        1
176
     1
 90
        2
176
     1
 40
0.6
176
     1
 40
30.0
176
     1
 62
     7
420
 16777215
176
     1
 90
        1
176
     1
 90
        0
176
     1
 62
     7
176
     1
 62
   257
176
     1
 90
        1
176
     1
 90
        1
176
     1
 40
1.0
176
     1
 90
        0
176
     1
 62
   257
176
     1
 40
1.0
176
     1
 90
        1
176
     1
 90
        6
176
     1
 90
        2
176
     1
 62
     7
176
     1
 90
        5
176
     1
 90
        0
176
     1
 90
        0
176
     1
290
     0
176
     1
 90
       13
176
     1
 40
0.0
176
     1
 90
        0
176
     1
290
     0
176
     1
290
     1
176
     1
290
     1
176
     1
290
     0
176
     1
290
     0
176
     1
290
     0
176
     1
290
     0
176
     1
290
     0
176
     1
290
     0
176
     1
 90
       50
176
     1
 40
0.0
176
     1
 40
1.0
176
     1
 90
        0
176
     1
 62
    18
420
        0
176
     1
 90
       50
176
     1
 90
        3
176
     1
 62
     5
420
      255
176
     1
290
     0
176
     1
 90
       50
176
     1
 90
       50
176
     1
 90
       50
176
     1
290
     0
176
     1
 90
       50
176
     1
 62
   256
176
     0
 40
1.0
176
     0
 90
        2
176
     1
  1
strokes_ogs.tif
176
     1
290
     0
176
     1
 40
1.0
176
     1
 40
1.0
176
     1
  0
VISUALSTYLE
  5
2D
102
{ACAD_REACTORS
330
2A
102
}
330
2A
100
AcDbVisualStyle
  2
Gouraud
 70
     2
177
     3
291
     1
 70
    58
 90
        2
176
     1
 90
        2
176
     1
 90
        1
176
     1
 90
        2
176
     1
 40
0.6
176
     1
 40
30.0
176
     1
 62
     7
420
 16777215
176
     1
 90
        0
176
     1
 90
        0
176
     1
 62
     7
176
     1
 62
   257
176
     1
 90
        1
176
     1
 90
        1
176
     1
 40
1.0
176
     1
 90
        0
176
     1
 62
     7
176
     1
 40
1.0
176
     1
 90
        1
176
     1
 90
        6
176
     1
 90
        2
176
     1
 62
     7
176
     1
 90
        5
176
     1
 90
        0
176
     1
 90
        0
176
     1
290
     0
176
     1
 90
       13
176
     1
 40
0.0
176
     1
 90
        0
176
     1
290
     0
176
     1
290
     1
176
     1
290
     1
176
     1
290
     0
176
     1
290
     0
176
     1
290
     0
176
     1
290
     0
176
     1
290
     0
176
     1
290
     0
176
     1
 90
       50
176
     1
 40
0.0
176
     1
 40
1.0
176
     1
 90
        0
176
     1
 62
    18
420
        0
176
     1
 90
       50
176
     1
 90
        3
176
     1
 62
     5
420
      255
176
     1
290
     0
176
     1
 90
       50
176
     1
 90
       50
176
     1
 90
       50
176
     1
290
     0
176
     1
 90
       50
176
     1
 62
   256
176
     0
 40
1.0
176
     0
 90
        2
176
     1
  1
strokes_ogs.tif
176
     1
290
     0
176
     1
 40
1.0
176
     1
 40
1.0
176
     1
  0
VISUALSTYLE
  5
2E
102
{ACAD_REACTORS
330
2A
102
}
330
2A
100
AcDbVisualStyle
  2
GouraudWithEdges
 70
     3
177
     3
291
     1
 70
    58
 90
        2
176
     1
 90
        2
176
     1
 90
        1
176
     1
 90
        2
176
     1
 40
0.6
176
     1
 40
30.0
176
     1
 62
     7
420
 16777215
176
     1
 90
        1
176
     1
 90
        0
176
     1
 62
     7
176
     1
 62
   257
176
     1
 90
        1
176
     1
 90
        1
176
     1
 40
1.0
176
     1
 90
        0
176
     1
 62
   257
176
     1
 40
1.0
176
     1
 90
        1
176
     1
 90
        6
176
     1
 90
        2
176
     1
 62
     7
176
     1
 90
        5
176
     1
 90
        0
176
     1
 90
        0
176
     1
290
     0
176
     1
 90
       13
176
     1
 40
0.0
176
     1
 90
        0
176
     1
290
     0
176
     1
290
     1
176
     1
290
     1
176
     1
290
     0
176
     1
290
     0
176
     1
290
     0
176
     1
290
     0
176
     1
290
     0
176
     1
290
     0
176
     1
 90
       50
176
     1
 40
0.0
176
     1
 40
1.0
176
     1
 90
        0
176
     1
 62
    18
420
        0
176
     1
 90
       50
176
     1
 90
        3
176
     1
 62
     5
420
      255
176
     1
290
     0
176
     1
 90
       50
176
     1
 90
       50
176
     1
 90
       50
176
     1
290
     0
176
     1
 90
       50
176
     1
 62
   256
176
     0
 40
1.0
176
     0
 90
        2
176
     1
  1
strokes_ogs.tif
176
     1
290
     0
176
     1
 40
1.0
176
     1
 40
1.0
176
     1
  0
VISUALSTYLE
  5
31
102
{ACAD_REACTORS
330
2A
102
}
330
2A
100
AcDbVisualStyle
  2
Hidden
 70
     6
177
     3
291
     0
 70
    58
 90
        1
176
     1
 90
        2
176
     1
 90
        2
176
     1
 90
        0
176
     1
 40
0.6
176
     1
 40
30.0
176
     1
 62
     7
420
 16777215
176
     1
 90
        2
176
     1
 90
        2
176
     1
 62
     7
176
     1
 62
   257
176
     1
 90
        2
176
     1
 90
        1
176
     1
 40
40.0
176
     1
 90
        0
176
     1
 62
   257
176
     1
 40
1.0
176
     1
 90
        1
176
     1
 90
        6
176
     1
 90
        2
176
     1
 62
     7
176
     1
 90
        3
176
     1
 90
        0
176
     1
 90
        0
176
     1
290
     0
176
     1
 90
        1
176
     1
 40
0.0
176
     1
 90
        0
176
     1
290
     0
176
     1
290
     1
176
     1
290
     1
176
     1
290
     0
176
     1
290
     0
176
     1
290
     0
176
     1
290
     0
176
     1
290
     0
176
     1
290
     0
176
     1
 90
       50
176
     1
 40
0.0
176
     1
 40
1.0
176
     1
 90
        0
176
     1
 62
    18
420
        0
176
     1
 90
       50
176
     1
 90
        3
176
     1
 62
     5
420
      255
176
     1
290
     0
176
     1
 90
       50
176
     1
 90
       50
176
     1
 90
       50
176
     1
290
     0
176
     1
 90
       50
176
     1
 62
   256
176
     0
 40
1.0
176
     0
 90
        2
176
     1
  1
strokes_ogs.tif
176
     1
290
     0
176
     1
 40
1.0
176
     1
 40
1.0
176
     1
  0
VISUALSTYLE
  5
3B
102
{ACAD_REACTORS
330
2A
102
}
330
2A
100
AcDbVisualStyle
  2
JitterOff
 70
    20
177
     3
291
     1
 70
    58
 90
        2
176
     0
 90
        2
176
     0
 90
        0
176
     0
 90
        0
176
     0
 40
0.6
176
     0
 40
30.0
176
     0
 62
     7
420
 16777215
176
     0
 90
        1
176
     0
 90
        4
176
     0
 62
     7
176
     0
 62
   257
176
     0
 90
        1
176
     0
 90
        1
176
     0
 40
1.0
176
     0
 90
       10
176
     2
 62
     7
176
     0
 40
1.0
176
     0
 90
        1
176
     0
 90
        6
176
     0
 90
        2
176
     0
 62
     7
176
     0
 90
        5
176
     0
 90
        0
176
     0
 90
        0
176
     0
290
     0
176
     0
 90
        1
176
     0
 40
0.0
176
     0
 90
        0
176
     0
290
     0
176
     0
290
     1
176
     0
290
     1
176
     0
290
     0
176
     0
290
     0
176
     0
290
     0
176
     0
290
     0
176
     0
290
     0
176
     0
290
     0
176
     0
 90
       50
176
     0
 40
0.0
176
     0
 40
1.0
176
     0
 90
        0
176
     0
 62
    18
420
        0
176
     0
 90
       50
176
     0
 90
        3
176
     0
 62
     5
420
      255
176
     0
290
     0
176
     0
 90
       50
176
     0
 90
       50
176
     0
 90
       50
176
     0
290
     0
176
     0
 90
       50
176
     0
 62
   256
176
     0
 40
1.0
176
     0
 90
        2
176
     0
  1
strokes_ogs.tif
176
     0
290
     0
176
     0
 40
1.0
176
     0
 40
1.0
176
     0
  0
VISUALSTYLE
  5
38
102
{ACAD_REACTORS
330
2A
102
}
330
2A
100
AcDbVisualStyle
  2
Linepattern
 70
    14
177
     3
291
     1
 70
    58
 90
        2
176
     1
 90
        2
176
     1
 90
        0
176
     1
 90
        0
176
     1
 40
0.6
176
     1
 40
30.0
176
     1
 62
     7
420
 16777215
176
     1
 90
        1
176
     1
 90
        4
176
     1
 62
     7
176
     1
 62
   257
176
     1
 90
        7
176
     1
 90
        7
176
     1
 40
1.0
176
     1
 90
        8
176
     1
 62
     7
176
     1
 40
1.0
176
     1
 90
        1
176
     1
 90
        6
176
     1
 90
        2
176
     1
 62
     7
176
     1
 90
        5
176
     1
 90
        0
176
     1
 90
        0
176
     1
290
     0
176
     1
 90
        1
176
     1
 40
0.0
176
     1
 90
        0
176
     1
290
     0
176
     1
290
     1
176
     1
290
     1
176
     1
290
     0
176
     1
290
     0
176
     1
290
     0
176
     1
290
     0
176
     1
290
     0
176
     1
290
     0
176
     1
 90
       50
176
     1
 40
0.0
176
     1
 40
1.0
176
     1
 90
        0
176
     1
 62
    18
420
        0
176
     1
 90
       50
176
     1
 90
        3
176
     1
 62
     5
420
      255
176
     1
290
     0
176
     1
 90
       50
176
     1
 90
       50
176
     1
 90
       50
176
     1
290
     0
176
     1
 90
       50
176
     1
 62
   256
176
     0
 40
1.0
176
     0
 90
        2
176
     1
  1
strokes_ogs.tif
176
     1
290
     0
176
     1
 40
1.0
176
     1
 40
1.0
176
     1
  0
VISUALSTYLE
  5
3C
102
{ACAD_REACTORS
330
2A
102
}
330
2A
100
AcDbVisualStyle
  2
OverhangOff
 70
    21
177
     3
291
     1
 70
    58
 90
        2
176
     0
 90
        2
176
     0
 90
        0
176
     0
 90
        0
176
     0
 40
0.6
176
     0
 40
30.0
176
     0
 62
     7
420
 16777215
176
     0
 90
        1
176
     0
 90
        4
176
     0
 62
     7
176
     0
 62
   257
176
     0
 90
        1
176
     0
 90
        1
176
     0
 40
1.0
176
     0
 90
        9
176
     2
 62
     7
176
     0
 40
1.0
176
     0
 90
        1
176
     0
 90
        6
176
     0
 90
        2
176
     0
 62
     7
176
     0
 90
        5
176
     0
 90
        0
176
     0
 90
        0
176
     0
290
     0
176
     0
 90
        1
176
     0
 40
0.0
176
     0
 90
        0
176
     0
290
     0
176
     0
290
     1
176
     0
290
     1
176
     0
290
     0
176
     0
290
     0
176
     0
290
     0
176
     0
290
     0
176
     0
290
     0
176
     0
290
     0
176
     0
 90
       50
176
     0
 40
0.0
176
     0
 40
1.0
176
     0
 90
        0
176
     0
 62
    18
420
        0
176
     0
 90
       50
176
     0
 90
        3
176
     0
 62
     5
420
      255
176
     0
290
     0
176
     0
 90
       50
176
     0
 90
       50
176
     0
 90
       50
176
     0
290
     0
176
     0
 90
       50
176
     0
 62
   256
176
     0
 40
1.0
176
     0
 90
        2
176
     0
  1
strokes_ogs.tif
176
     0
290
     0
176
     0
 40
1.0
176
     0
 40
1.0
176
     0
  0
VISUALSTYLE
  5
33
102
{ACAD_REACTORS
330
2A
102
}
330
2A
100
AcDbVisualStyle
  2
Realistic
 70
     8
177
     3
291
     0
 70
    58
 90
        2
176
     1
 90
        3
176
     1
 90
        0
176
     1
 90
        2
176
     1
 40
0.6
176
     1
 40
30.0
176
     1
 62
     7
420
 16777215
176
     1
 90
        0
176
     1
 90
        0
176
     1
 62
     7
176
     1
 62
   257
176
     1
 90
        1
176
     1
 90
        1
176
     1
 40
1.0
176
     1
 90
        8
176
     1
 62
   257
176
     1
 40
1.0
176
     1
 90
        1
176
     1
 90
        6
176
     1
 90
        2
176
     1
 62
     7
176
     1
 90
        3
176
     1
 90
        0
176
     1
 90
        0
176
     1
290
     0
176
     1
 90
       13
176
     1
 40
0.0
176
     1
 90
        0
176
     1
290
     0
176
     1
290
     1
176
     1
290
     1
176
     1
290
     0
176
     1
290
     0
176
     1
290
     0
176
     1
290
     0
176
     1
290
     0
176
     1
290
     0
176
     1
 90
       50
176
     1
 40
0.0
176
     1
 40
1.0
176
     1
 90
        0
176
     1
 62
    18
420
        0
176
     1
 90
       50
176
     1
 90
        3
176
     1
 62
     5
420
      255
176
     1
290
     0
176
     1
 90
       50
176
     1
 90
       50
176
     1
 90
       50
176
     1
290
     0
176
     1
 90
       50
176
     1
 62
   256
176
     0
 40
1.0
176
     0
 90
        2
176
     1
  1
strokes_ogs.tif
176
     1
290
     0
176
     1
 40
1.0
176
     1
 40
1.0
176
     1
  0
VISUALSTYLE
  5
42
102
{ACAD_REACTORS
330
2A
102
}
330
2A
100
AcDbVisualStyle
  2
Shaded
 70
    27
177
     3
291
     0
 70
    58
 90
        2
176
     1
 90
        2
176
     1
 90
        1
176
     1
 90
        2
176
     1
 40
0.6
176
     1
 40
30.0
176
     1
 62
     7
420
 16777215
176
     1
 90
        0
176
     1
 90
        4
176
     1
 62
     7
176
     1
 62
   257
176
     1
 90
        1
176
     1
 90
        1
176
     1
 40
1.0
176
     1
 90
        8
176
     1
 62
   257
176
     1
 40
1.0
176
     1
 90
        1
176
     1
 90
        6
176
     1
 90
        2
176
     1
 62
     8
420
  7895160
176
     1
 90
        3
176
     1
 90
        0
176
     1
 90
        0
176
     1
290
     0
176
     1
 90
        5
176
     1
 40
0.0
176
     1
 90
        0
176
     1
290
     0
176
     1
290
     1
176
     1
290
     1
176
     1
290
     0
176
     1
290
     0
176
     1
290
     0
176
     1
290
     0
176
     1
290
     0
176
     1
290
     0
176
     1
 90
       50
176
     1
 40
0.0
176
     1
 40
1.0
176
     1
 90
        0
176
     1
 62
    18
420
        0
176
     1
 90
       50
176
     1
 90
        3
176
     1
 62
     5
420
      255
176
     1
290
     0
176
     1
 90
       50
176
     1
 90
       50
176
     1
 90
       50
176
     1
290
     0
176
     1
 90
       50
176
     1
 62
   256
176
     0
 40
1.0
176
     0
 90
        2
176
     1
  1
strokes_ogs.tif
176
     1
290
     0
176
     1
 40
1.0
176
     1
 40
1.0
176
     1
  0
VISUALSTYLE
  5
41
102
{ACAD_REACTORS
330
2A
102
}
330
2A
100
AcDbVisualStyle
  2
Shaded with edges
 70
    26
177
     3
291
     0
 70
    58
 90
        2
176
     1
 90
        2
176
     1
 90
        1
176
     1
 90
        2
176
     1
 40
0.6
176
     1
 40
30.0
176
     1
 62
     7
420
 16777215
176
     1
 90
        1
176
     1
 90
       10
176
     1
 62
     7
176
     1
 62
   257
176
     1
 90
        2
176
     1
 90
        1
176
     1
 40
1.0
176
     1
 90
        8
176
     1
 62
   257
176
     1
 40
1.0
176
     1
 90
        1
176
     1
 90
        6
176
     1
 90
        2
176
     1
 62
     7
176
     1
 90
        3
176
     1
 90
        0
176
     1
 90
        0
176
     1
290
     0
176
     1
 90
        5
176
     1
 40
0.0
176
     1
 90
        0
176
     1
290
     0
176
     1
290
     1
176
     1
290
     1
176
     1
290
     0
176
     1
290
     0
176
     1
290
     0
176
     1
290
     0
176
     1
290
     0
176
     1
290
     0
176
     1
 90
       50
176
     1
 40
0.0
176
     1
 40
1.0
176
     1
 90
        0
176
     1
 62
    18
420
        0
176
     1
 90
       50
176
     1
 90
        3
176
     1
 62
     5
420
      255
176
     1
290
     0
176
     1
 90
       50
176
     1
 90
       50
176
     1
 90
       50
176
     1
290
     0
176
     1
 90
       50
176
     1
 62
   256
176
     0
 40
1.0
176
     0
 90
        2
176
     1
  1
strokes_ogs.tif
176
     1
290
     0
176
     1
 40
1.0
176
     1
 40
1.0
176
     1
  0
VISUALSTYLE
  5
3E
102
{ACAD_REACTORS
330
2A
102
}
330
2A
100
AcDbVisualStyle
  2
Shades of Gray
 70
    23
177
     3
291
     0
 70
    58
 90
        2
176
     1
 90
        2
176
     1
 90
        3
176
     1
 90
        0
176
     1
 40
0.6
176
     1
 40
30.0
176
     1
 62
     7
420
 16777215
176
     1
 90
        2
176
     1
 90
        2
176
     1
 62
     7
176
     1
 62
     7
176
     1
 90
        1
176
     1
 90
        1
176
     1
 40
40.0
176
     1
 90
        8
176
     1
 62
     7
176
     1
 40
1.0
176
     1
 90
        1
176
     1
 90
        6
176
     1
 90
        2
176
     1
 62
     7
176
     1
 90
        3
176
     1
 90
        0
176
     1
 90
        0
176
     1
290
     0
176
     1
 90
        1
176
     1
 40
0.0
176
     1
 90
        0
176
     1
290
     0
176
     1
290
     1
176
     1
290
     1
176
     1
290
     0
176
     1
290
     0
176
     1
290
     0
176
     1
290
     0
176
     1
290
     0
176
     1
290
     0
176
     1
 90
       50
176
     1
 40
0.0
176
     1
 40
1.0
176
     1
 90
        0
176
     1
 62
    18
420
        0
176
     1
 90
       50
176
     1
 90
        3
176
     1
 62
     5
420
      255
176
     1
290
     0
176
     1
 90
       50
176
     1
 90
       50
176
     1
 90
       50
176
     1
290
     0
176
     1
 90
       50
176
     1
 62
   256
176
     0
 40
1.0
176
     0
 90
        2
176
     1
  1
strokes_ogs.tif
176
     1
290
     0
176
     1
 40
1.0
176
     1
 40
1.0
176
     1
  0
VISUALSTYLE
  5
3F
102
{ACAD_REACTORS
330
2A
102
}
330
2A
100
AcDbVisualStyle
  2
Sketchy
 70
    24
177
     3
291
     0
 70
    58
 90
        1
176
     1
 90
        2
176
     1
 90
        2
176
     1
 90
        0
176
     1
 40
0.6
176
     1
 40
30.0
176
     1
 62
     7
420
 16777215
176
     1
 90
        2
176
     1
 90
        2
176
     1
 62
     7
176
     1
 62
     7
176
     1
 90
        1
176
     1
 90
        1
176
     1
 40
40.0
176
     1
 90
       11
176
     1
 62
     7
176
     1
 40
1.0
176
     1
 90
        1
176
     1
 90
        6
176
     1
 90
        2
176
     1
 62
     7
176
     1
 90
        6
176
     1
 90
        0
176
     1
 90
        0
176
     1
290
     0
176
     1
 90
        1
176
     1
 40
0.0
176
     1
 90
        0
176
     1
290
     0
176
     1
290
     1
176
     1
290
     1
176
     1
290
     0
176
     1
290
     0
176
     1
290
     0
176
     1
290
     0
176
     1
290
     0
176
     1
290
     0
176
     1
 90
       50
176
     1
 40
0.0
176
     1
 40
1.0
176
     1
 90
        0
176
     1
 62
    18
420
        0
176
     1
 90
       50
176
     1
 90
        3
176
     1
 62
     5
420
      255
176
     1
290
     0
176
     1
 90
       50
176
     1
 90
       50
176
     1
 90
       50
176
     1
290
     0
176
     1
 90
       50
176
     1
 62
   256
176
     0
 40
1.0
176
     0
 90
        2
176
     1
  1
strokes_ogs.tif
176
     1
290
     0
176
     1
 40
1.0
176
     1
 40
1.0
176
     1
  0
VISUALSTYLE
  5
37
102
{ACAD_REACTORS
330
2A
102
}
330
2A
100
AcDbVisualStyle
  2
Thicken
 70
    13
177
     3
291
     1
 70
    58
 90
        2
176
     1
 90
        2
176
     1
 90
        0
176
     1
 90
        0
176
     1
 40
0.6
176
     1
 40
30.0
176
     1
 62
     7
420
 16777215
176
     1
 90
        1
176
     1
 90
        4
176
     1
 62
     7
176
     1
 62
   257
176
     1
 90
        1
176
     1
 90
        1
176
     1
 40
1.0
176
     1
 90
       12
176
     1
 62
     7
176
     1
 40
1.0
176
     1
 90
        1
176
     1
 90
        6
176
     1
 90
        2
176
     1
 62
     7
176
     1
 90
        5
176
     1
 90
        0
176
     1
 90
        0
176
     1
290
     0
176
     1
 90
        1
176
     1
 40
0.0
176
     1
 90
        0
176
     1
290
     0
176
     1
290
     1
176
     1
290
     1
176
     1
290
     0
176
     1
290
     0
176
     1
290
     0
176
     1
290
     0
176
     1
290
     0
176
     1
290
     0
176
     1
 90
       50
176
     1
 40
0.0
176
     1
 40
1.0
176
     1
 90
        0
176
     1
 62
    18
420
        0
176
     1
 90
       50
176
     1
 90
        3
176
     1
 62
     5
420
      255
176
     1
290
     0
176
     1
 90
       50
176
     1
 90
       50
176
     1
 90
       50
176
     1
290
     0
176
     1
 90
       50
176
     1
 62
   256
176
     0
 40
1.0
176
     0
 90
        2
176
     1
  1
strokes_ogs.tif
176
     1
290
     0
176
     1
 40
1.0
176
     1
 40
1.0
176
     1
  0
VISUALSTYLE
  5
30
102
{ACAD_REACTORS
330
2A
102
}
330
2A
100
AcDbVisualStyle
  2
Wireframe
 70
     5
177
     3
291
     0
 70
    58
 90
        0
176
     1
 90
        2
176
     1
 90
        0
176
     1
 90
        0
176
     1
 40
0.6
176
     1
 40
30.0
176
     1
 62
     7
420
 16777215
176
     1
 90
        1
176
     1
 90
        4
176
     1
 62
     7
176
     1
 62
   257
176
     1
 90
        1
176
     1
 90
        1
176
     1
 40
1.0
176
     1
 90
        0
176
     1
 62
   257
176
     1
 40
1.0
176
     1
 90
        1
176
     1
 90
        6
176
     1
 90
        2
176
     1
 62
     7
176
     1
 90
        3
176
     1
 90
        0
176
     1
 90
        0
176
     1
290
     0
176
     1
 90
        1
176
     1
 40
0.0
176
     1
 90
        0
176
     1
290
     0
176
     1
290
     1
176
     1
290
     1
176
     1
290
     0
176
     1
290
     0
176
     1
290
     0
176
     1
290
     0
176
     1
290
     0
176
     1
290
     0
176
     1
 90
       50
176
     1
 40
0.0
176
     1
 40
1.0
176
     1
 90
        0
176
     1
 62
    18
420
        0
176
     1
 90
       50
176
     1
 90
        3
176
     1
 62
     5
420
      255
176
     1
290
     0
176
     1
 90
       50
176
     1
 90
       50
176
     1
 90
       50
176
     1
290
     0
176
     1
 90
       50
176
     1
 62
   256
176
     0
 40
1.0
176
     0
 90
        2
176
     1
  1
strokes_ogs.tif
176
     1
290
     0
176
     1
 40
1.0
176
     1
 40
1.0
176
     1
  0
VISUALSTYLE
  5
40
102
{ACAD_REACTORS
330
2A
102
}
330
2A
100
AcDbVisualStyle
  2
X-Ray
 70
    25
177
     3
291
     0
 70
    58
 90
        2
176
     1
 90
        2
176
     1
 90
        1
176
     1
 90
        1
176
     1
 40
0.5
176
     1
 40
30.0
176
     1
 62
     7
420
 16777215
176
     1
 90
        1
176
     1
 90
        0
176
     1
 62
     7
176
     1
 62
   257
176
     1
 90
        1
176
     1
 90
        1
176
     1
 40
1.0
176
     1
 90
        8
176
     1
 62
     7
176
     1
 40
1.0
176
     1
 90
        1
176
     1
 90
        6
176
     1
 90
        2
176
     1
 62
     7
176
     1
 90
        3
176
     1
 90
        0
176
     1
 90
        0
176
     1
290
     0
176
     1
 90
       13
176
     1
 40
0.0
176
     1
 90
        0
176
     1
290
     0
176
     1
290
     1
176
     1
290
     1
176
     1
290
     0
176
     1
290
     0
176
     1
290
     0
176
     1
290
     0
176
     1
290
     0
176
     1
290
     0
176
     1
 90
       50
176
     1
 40
0.0
176
     1
 40
1.0
176
     1
 90
        0
176
     1
 62
    18
420
        0
176
     1
 90
       50
176
     1
 90
        3
176
     1
 62
     5
420
      255
176
     1
290
     0
176
     1
 90
       50
176
     1
 90
       50
176
     1
 90
       50
176
     1
290
     0
176
     1
 90
       50
176
     1
 62
   256
176
     0
 40
1.0
176
     0
 90
        2
176
     1
  1
strokes_ogs.tif
176
     1
290
     0
176
     1
 40
1.0
176
     1
 40
1.0
176
     1
  0
DICTIONARYVAR
  5
1F9
102
{ACAD_REACTORS
330
1F8
102
}
330
1F8
100
DictionaryVariables
280
     0
  1
1:1
  0
DICTIONARYVAR
  5
1FE
102
{ACAD_REACTORS
330
1F8
102
}
330
1F8
100
DictionaryVariables
280
     0
  1
Standard
  0
DICTIONARYVAR
  5
1FD
102
{ACAD_REACTORS
330
1F8
102
}
330
1F8
100
DictionaryVariables
280
     0
  1
Standard
  0
DICTIONARY
  5
1FA
330
6A
100
AcDbDictionary
280
     1
281
     1
  3
ACAD_ROUNDTRIP_2008_TABLESTYLE_CELLSTYLEMAP
360
1FB
  0
CELLSTYLEMAP
  5
1FB
102
{ACAD_REACTORS
330
1FA
102
}
330
1FA
100
AcDbCellStyleMap
 90
        3
300
CELLSTYLE
  1
TABLEFORMAT_BEGIN
 90
        5
170
     1
 91
        0
 92
    32768
 62
   257
 93
        1
300
CONTENTFORMAT
  1
CONTENTFORMAT_BEGIN
 90
        0
 91
        0
 92
        4
 93
        0
300

 40
0.0
140
1.0
 94
        5
 62
     0
340
11
144
0.25
309
CONTENTFORMAT_END
171
     1
301
MARGIN
  1
CELLMARGIN_BEGIN
 40
0.06
 40
0.06
 40
0.06
 40
0.06
 40
0.06
 40
0.06
309
CELLMARGIN_END
 94
        6
 95
        1
302
GRIDFORMAT
  1
GRIDFORMAT_BEGIN
 90
        0
 91
        1
 62
     0
 92
       -2
340
14
 93
        0
 40
0.045
309
GRIDFORMAT_END
 95
        2
302
GRIDFORMAT
  1
GRIDFORMAT_BEGIN
 90
        0
 91
        1
 62
     0
 92
       -2
340
14
 93
        0
 40
0.045
309
GRIDFORMAT_END
 95
        4
302
GRIDFORMAT
  1
GRIDFORMAT_BEGIN
 90
        0
 91
        1
 62
     0
 92
       -2
340
14
 93
        0
 40
0.045
309
GRIDFORMAT_END
 95
        8
302
GRIDFORMAT
  1
GRIDFORMAT_BEGIN
 90
        0
 91
        1
 62
     0
 92
       -2
340
14
 93
        0
 40
0.045
309
GRIDFORMAT_END
 95
       16
302
GRIDFORMAT
  1
GRIDFORMAT_BEGIN
 90
        0
 91
        1
 62
     0
 92
       -2
340
14
 93
        0
 40
0.045
309
GRIDFORMAT_END
 95
       32
302
GRIDFORMAT
  1
GRIDFORMAT_BEGIN
 90
        0
 91
        1
 62
     0
 92
       -2
340
14
 93
        0
 40
0.045
309
GRIDFORMAT_END
309
TABLEFORMAT_END
  1
CELLSTYLE_BEGIN
 90
        1
 91
        1
300
_TITLE
309
CELLSTYLE_END
300
CELLSTYLE
  1
TABLEFORMAT_BEGIN
 90
        5
170
     1
 91
        0
 92
        0
 62
   257
 93
        1
300
CONTENTFORMAT
  1
CONTENTFORMAT_BEGIN
 90
        0
 91
        0
 92
        4
 93
        0
300

 40
0.0
140
1.0
 94
        5
 62
     0
340
11
144
0.18
309
CONTENTFORMAT_END
171
     1
301
MARGIN
  1
CELLMARGIN_BEGIN
 40
0.06
 40
0.06
 40
0.06
 40
0.06
 40
0.06
 40
0.06
309
CELLMARGIN_END
 94
        6
 95
        1
302
GRIDFORMAT
  1
GRIDFORMAT_BEGIN
 90
        0
 91
        1
 62
     0
 92
       -2
340
14
 93
        0
 40
0.045
309
GRIDFORMAT_END
 95
        2
302
GRIDFORMAT
  1
GRIDFORMAT_BEGIN
 90
        0
 91
        1
 62
     0
 92
       -2
340
14
 93
        0
 40
0.045
309
GRIDFORMAT_END
 95
        4
302
GRIDFORMAT
  1
GRIDFORMAT_BEGIN
 90
        0
 91
        1
 62
     0
 92
       -2
340
14
 93
        0
 40
0.045
309
GRIDFORMAT_END
 95
        8
302
GRIDFORMAT
  1
GRIDFORMAT_BEGIN
 90
        0
 91
        1
 62
     0
 92
       -2
340
14
 93
        0
 40
0.045
309
GRIDFORMAT_END
 95
       16
302
GRIDFORMAT
  1
GRIDFORMAT_BEGIN
 90
        0
 91
        1
 62
     0
 92
       -2
340
14
 93
        0
 40
0.045
309
GRIDFORMAT_END
 95
       32
302
GRIDFORMAT
  1
GRIDFORMAT_BEGIN
 90
        0
 91
        1
 62
     0
 92
       -2
340
14
 93
        0
 40
0.045
309
GRIDFORMAT_END
309
TABLEFORMAT_END
  1
CELLSTYLE_BEGIN
 90
        2
 91
        1
300
_HEADER
309
CELLSTYLE_END
300
CELLSTYLE
  1
TABLEFORMAT_BEGIN
 90
        5
170
     1
 91
        0
 92
        0
 62
   257
 93
        1
300
CONTENTFORMAT
  1
CONTENTFORMAT_BEGIN
 90
        0
 91
        0
 92
        4
 93
        0
300

 40
0.0
140
1.0
 94
        2
 62
     0
340
11
144
0.18
309
CONTENTFORMAT_END
171
     1
301
MARGIN
  1
CELLMARGIN_BEGIN
 40
0.06
 40
0.06
 40
0.06
 40
0.06
 40
0.06
 40
0.06
309
CELLMARGIN_END
 94
        6
 95
        1
302
GRIDFORMAT
  1
GRIDFORMAT_BEGIN
 90
        0
 91
        1
 62
     0
 92
       -2
340
14
 93
        0
 40
0.045
309
GRIDFORMAT_END
 95
        2
302
GRIDFORMAT
  1
GRIDFORMAT_BEGIN
 90
        0
 91
        1
 62
     0
 92
       -2
340
14
 93
        0
 40
0.045
309
GRIDFORMAT_END
 95
        4
302
GRIDFORMAT
  1
GRIDFORMAT_BEGIN
 90
        0
 91
        1
 62
     0
 92
       -2
340
14
 93
        0
 40
0.045
309
GRIDFORMAT_END
 95
        8
302
GRIDFORMAT
  1
GRIDFORMAT_BEGIN
 90
        0
 91
        1
 62
     0
 92
       -2
340
14
 93
        0
 40
0.045
309
GRIDFORMAT_END
 95
       16
302
GRIDFORMAT
  1
GRIDFORMAT_BEGIN
 90
        0
 91
        1
 62
     0
 92
       -2
340
14
 93
        0
 40
0.045
309
GRIDFORMAT_END
 95
       32
302
GRIDFORMAT
  1
GRIDFORMAT_BEGIN
 90
        0
 91
        1
 62
     0
 92
       -2
340
14
 93
        0
 40
0.045
309
GRIDFORMAT_END
309
TABLEFORMAT_END
  1
CELLSTYLE_BEGIN
 90
        3
 91
        2
300
_DATA
309
CELLSTYLE_END
  0
ENDSEC
  0
EOF