0
SECTION
  2
HEADER
  9
$ACADVER
  1
AC1027
  9
$ACADMAINTVER
 70
     8
  9
$DWGCODEPAGE
  3
ANSI_1252
  9
$REQUIREDVERSIONS
160
                 0
  9
$COMMENTS
  1
File was created by Cadenas
  9
$CUSTOMPROPERTYTAG
  1
NN
  9
$CUSTOMPROPERTY
  1
Unisphere II Pillow Block Inch Bore
  9
$CUSTOMPROPERTYTAG
  1
NT
  9
$CUSTOMPROPERTY
  1
Unisphere II
  9
$CUSTOMPROPERTYTAG
  1
NB
  9
$CUSTOMPROPERTY
  1
048026
  9
$CUSTOMPROPERTYTAG
  1
NBSYN
  9
$CUSTOMPROPERTY
  1
$PN.
  9
$CUSTOMPROPERTYTAG
  1
LINA
  9
$CUSTOMPROPERTY
  1
048026
  9
$CUSTOMPROPERTYTAG
  1
SS
  9
$CUSTOMPROPERTY
  1
2-11/16
  9
$CUSTOMPROPERTYTAG
  1
TYPE
  9
$CUSTOMPROPERTY
  1
Expansion Type
  9
$CUSTOMPROPERTYTAG
  1
PN
  9
$CUSTOMPROPERTY
  1
048026
  9
$CUSTOMPROPERTYTAG
  1
DESCRIPTION
  9
$CUSTOMPROPERTY
  1
P2B-UN2-211E
  9
$CUSTOMPROPERTYTAG
  1
WEIGHT
  9
$CUSTOMPROPERTY
  1
19.3
  9
$CUSTOMPROPERTYTAG
  1
A
  9
$CUSTOMPROPERTY
  1
2-29/64
  9
$CUSTOMPROPERTYTAG
  1
B
  9
$CUSTOMPROPERTY
  1
10-7/16
  9
$CUSTOMPROPERTYTAG
  1
C
  9
$CUSTOMPROPERTY
  1
2-9/16
  9
$CUSTOMPROPERTYTAG
  1
DMIN
  9
$CUSTOMPROPERTY
  1
7-13/16
  9
$CUSTOMPROPERTYTAG
  1
DMAX
  9
$CUSTOMPROPERTY
  1
8-7/16
  9
$CUSTOMPROPERTYTAG
  1
E
  9
$CUSTOMPROPERTY
  1
3/16
  9
$CUSTOMPROPERTYTAG
  1
F
  9
$CUSTOMPROPERTY
  1
3/4
  9
$CUSTOMPROPERTYTAG
  1
G
  9
$CUSTOMPROPERTY
  1
1-1/8
  9
$CUSTOMPROPERTYTAG
  1
H
  9
$CUSTOMPROPERTY
  1
2-1/4
  9
$CUSTOMPROPERTYTAG
  1
J
  9
$CUSTOMPROPERTY
  1
6-7/16
  9
$CUSTOMPROPERTYTAG
  1
L
  9
$CUSTOMPROPERTY
  1
4-23/32
  9
$CUSTOMPROPERTYTAG
  1
M
  9
$CUSTOMPROPERTY
  1
3-1/4
  9
$CUSTOMPROPERTYTAG
  1
R
  9
$CUSTOMPROPERTY
  1
49/64
  9
$CUSTOMPROPERTYTAG
  1
S
  9
$CUSTOMPROPERTY
  1
1-11/16
  9
$CUSTOMPROPERTYTAG
  1
MRPM
  9
$CUSTOMPROPERTY
  1
1700
  9
$CUSTOMPROPERTYTAG
  1
CS
  9
$CUSTOMPROPERTY
  1
53000
  9
$CUSTOMPROPERTYTAG
  1
CD
  9
$CUSTOMPROPERTY
  1
41500
  9
$CUSTOMPROPERTYTAG
  1
RN
  9
$CUSTOMPROPERTY
  1
20
  9
$CUSTOMPROPERTYTAG
  1
RM
  9
$CUSTOMPROPERTY
  1
0.5748
  9
$CUSTOMPROPERTYTAG
  1
PD
  9
$CUSTOMPROPERTY
  1
4.197
  9
$CUSTOMPROPERTYTAG
  1
RC
  9
$CUSTOMPROPERTY
  1
0.0020-0.0031
  9
$CUSTOMPROPERTYTAG
  1
CSS
  9
$CUSTOMPROPERTY
  1
1/2-13x7/8
  9
$CUSTOMPROPERTYTAG
  1
CST
  9
$CUSTOMPROPERTY
  1
620
  9
$CUSTOMPROPERTYTAG
  1
MH
  9
$CUSTOMPROPERTY
  1
Ductile Iron Grade 65-45-12 ASTM A536
  9
$CUSTOMPROPERTYTAG
  1
MIR
  9
$CUSTOMPROPERTY
  1
4118 Case Carb.
  9
$CUSTOMPROPERTYTAG
  1
MOR
  9
$CUSTOMPROPERTY
  1
E52100 Steel
  9
$CUSTOMPROPERTYTAG
  1
MR
  9
$CUSTOMPROPERTY
  1
Polyamide
  9
$CUSTOMPROPERTYTAG
  1
MRO
  9
$CUSTOMPROPERTY
  1
E52100 Steel
  9
$CUSTOMPROPERTYTAG
  1
SM
  9
$CUSTOMPROPERTY
  1
2°
  9
$CUSTOMPROPERTYTAG
  1
COMPANY
  9
$CUSTOMPROPERTY
  1
baldor
  9
$INSBASE
 10
0.0
 20
0.0
 30
0.0
  9
$EXTMIN
 10
1.000000000000000E+20
 20
1.000000000000000E+20
 30
1.000000000000000E+20
  9
$EXTMAX
 10
-1.000000000000000E+20
 20
-1.000000000000000E+20
 30
-1.000000000000000E+20
  9
$LIMMIN
 10
0.0
 20
0.0
  9
$LIMMAX
 10
12.0
 20
9.0
  9
$ORTHOMODE
 70
     0
  9
$REGENMODE
 70
     1
  9
$FILLMODE
 70
     1
  9
$QTEXTMODE
 70
     0
  9
$MIRRTEXT
 70
     1
  9
$LTSCALE
 40
1.0
  9
$ATTMODE
 70
     1
  9
$TEXTSIZE
 40
0.2
  9
$TRACEWID
 40
0.05
  9
$TEXTSTYLE
  7
Standard
  9
$CLAYER
  8
0
  9
$CELTYPE
  6
ByLayer
  9
$CECOLOR
 62
   256
  9
$CELTSCALE
 40
1.0
  9
$DISPSILH
 70
     0
  9
$DIMSCALE
 40
1.0
  9
$DIMASZ
 40
0.18
  9
$DIMEXO
 40
0.0625
  9
$DIMDLI
 40
0.38
  9
$DIMRND
 40
0.0
  9
$DIMDLE
 40
0.0
  9
$DIMEXE
 40
0.18
  9
$DIMTP
 40
0.0
  9
$DIMTM
 40
0.0
  9
$DIMTXT
 40
0.18
  9
$DIMCEN
 40
0.09
  9
$DIMTSZ
 40
0.0
  9
$DIMTOL
 70
     0
  9
$DIMLIM
 70
     0
  9
$DIMTIH
 70
     1
  9
$DIMTOH
 70
     1
  9
$DIMSE1
 70
     0
  9
$DIMSE2
 70
     0
  9
$DIMTAD
 70
     0
  9
$DIMZIN
 70
     0
  9
$DIMBLK
  1

  9
$DIMASO
 70
     1
  9
$DIMSHO
 70
     1
  9
$DIMPOST
  1

  9
$DIMAPOST
  1

  9
$DIMALT
 70
     0
  9
$DIMALTD
 70
     2
  9
$DIMALTF
 40
25.4
  9
$DIMLFAC
 40
1.0
  9
$DIMTOFL
 70
     0
  9
$DIMTVP
 40
0.0
  9
$DIMTIX
 70
     0
  9
$DIMSOXD
 70
     0
  9
$DIMSAH
 70
     0
  9
$DIMBLK1
  1

  9
$DIMBLK2
  1

  9
$DIMSTYLE
  2
Standard
  9
$DIMCLRD
 70
     0
  9
$DIMCLRE
 70
     0
  9
$DIMCLRT
 70
     0
  9
$DIMTFAC
 40
1.0
  9
$DIMGAP
 40
0.09
  9
$DIMJUST
 70
     0
  9
$DIMSD1
 70
     0
  9
$DIMSD2
 70
     0
  9
$DIMTOLJ
 70
     1
  9
$DIMTZIN
 70
     0
  9
$DIMALTZ
 70
     0
  9
$DIMALTTZ
 70
     0
  9
$DIMUPT
 70
     0
  9
$DIMDEC
 70
     4
  9
$DIMTDEC
 70
     4
  9
$DIMALTU
 70
     2
  9
$DIMALTTD
 70
     2
  9
$DIMTXSTY
  7
Standard
  9
$DIMAUNIT
 70
     0
  9
$DIMADEC
 70
     0
  9
$DIMALTRND
 40
0.0
  9
$DIMAZIN
 70
     0
  9
$DIMDSEP
 70
    46
  9
$DIMATFIT
 70
     3
  9
$DIMFRAC
 70
     0
  9
$DIMLDRBLK
  1

  9
$DIMLUNIT
 70
     2
  9
$DIMLWD
 70
    -2
  9
$DIMLWE
 70
    -2
  9
$DIMTMOVE
 70
     0
  9
$DIMFXL
 40
1.0
  9
$DIMFXLON
 70
     0
  9
$DIMJOGANG
 40
0.7853981633974483
  9
$DIMTFILL
 70
     0
  9
$DIMTFILLCLR
 70
     0
  9
$DIMARCSYM
 70
     0
  9
$DIMLTYPE
  6

  9
$DIMLTEX1
  6

  9
$DIMLTEX2
  6

  9
$DIMTXTDIRECTION
 70
     0
  9
$LUNITS
 70
     2
  9
$LUPREC
 70
     4
  9
$SKETCHINC
 40
0.1
  9
$FILLETRAD
 40
0.5
  9
$AUNITS
 70
     0
  9
$AUPREC
 70
     0
  9
$MENU
  1
.
  9
$ELEVATION
 40
0.0
  9
$PELEVATION
 40
0.0
  9
$THICKNESS
 40
0.0
  9
$LIMCHECK
 70
     0
  9
$CHAMFERA
 40
0.0
  9
$CHAMFERB
 40
0.0
  9
$CHAMFERC
 40
0.0
  9
$CHAMFERD
 40
0.0
  9
$SKPOLY
 70
     0
  9
$TDCREATE
 40
2458169.002990671
  9
$TDUCREATE
 40
2458168.961324004
  9
$TDUPDATE
 40
2458169.002990856
  9
$TDUUPDATE
 40
2458168.96132419
  9
$TDINDWG
 40
0.0000000116
  9
$TDUSRTIMER
 40
0.0000000116
  9
$USRTIMER
 70
     1
  9
$ANGBASE
 50
0.0
  9
$ANGDIR
 70
     0
  9
$PDMODE
 70
     0
  9
$PDSIZE
 40
0.0
  9
$PLINEWID
 40
0.0
  9
$SPLFRAME
 70
     0
  9
$SPLINETYPE
 70
     6
  9
$SPLINESEGS
 70
     8
  9
$HANDSEED
  5
1B9
  9
$SURFTAB1
 70
     6
  9
$SURFTAB2
 70
     6
  9
$SURFTYPE
 70
     6
  9
$SURFU
 70
     6
  9
$SURFV
 70
     6
  9
$UCSBASE
  2

  9
$UCSNAME
  2

  9
$UCSORG
 10
0.0
 20
0.0
 30
0.0
  9
$UCSXDIR
 10
1.0
 20
0.0
 30
0.0
  9
$UCSYDIR
 10
0.0
 20
1.0
 30
0.0
  9
$UCSORTHOREF
  2

  9
$UCSORTHOVIEW
 70
     0
  9
$UCSORGTOP
 10
0.0
 20
0.0
 30
0.0
  9
$UCSORGBOTTOM
 10
0.0
 20
0.0
 30
0.0
  9
$UCSORGLEFT
 10
0.0
 20
0.0
 30
0.0
  9
$UCSORGRIGHT
 10
0.0
 20
0.0
 30
0.0
  9
$UCSORGFRONT
 10
0.0
 20
0.0
 30
0.0
  9
$UCSORGBACK
 10
0.0
 20
0.0
 30
0.0
  9
$PUCSBASE
  2

  9
$PUCSNAME
  2

  9
$PUCSORG
 10
0.0
 20
0.0
 30
0.0
  9
$PUCSXDIR
 10
1.0
 20
0.0
 30
0.0
  9
$PUCSYDIR
 10
0.0
 20
1.0
 30
0.0
  9
$PUCSORTHOREF
  2

  9
$PUCSORTHOVIEW
 70
     0
  9
$PUCSORGTOP
 10
0.0
 20
0.0
 30
0.0
  9
$PUCSORGBOTTOM
 10
0.0
 20
0.0
 30
0.0
  9
$PUCSORGLEFT
 10
0.0
 20
0.0
 30
0.0
  9
$PUCSORGRIGHT
 10
0.0
 20
0.0
 30
0.0
  9
$PUCSORGFRONT
 10
0.0
 20
0.0
 30
0.0
  9
$PUCSORGBACK
 10
0.0
 20
0.0
 30
0.0
  9
$USERI1
 70
     0
  9
$USERI2
 70
     0
  9
$USERI3
 70
     0
  9
$USERI4
 70
     0
  9
$USERI5
 70
     0
  9
$USERR1
 40
0.0
  9
$USERR2
 40
0.0
  9
$USERR3
 40
0.0
  9
$USERR4
 40
0.0
  9
$USERR5
 40
0.0
  9
$WORLDVIEW
 70
     1
  9
$SHADEDGE
 70
     3
  9
$SHADEDIF
 70
    70
  9
$TILEMODE
 70
     1
  9
$MAXACTVP
 70
    64
  9
$PINSBASE
 10
0.0
 20
0.0
 30
0.0
  9
$PLIMCHECK
 70
     0
  9
$PEXTMIN
 10
1.000000000000000E+20
 20
1.000000000000000E+20
 30
1.000000000000000E+20
  9
$PEXTMAX
 10
-1.000000000000000E+20
 20
-1.000000000000000E+20
 30
-1.000000000000000E+20
  9
$PLIMMIN
 10
0.0
 20
0.0
  9
$PLIMMAX
 10
12.0
 20
9.0
  9
$UNITMODE
 70
     0
  9
$VISRETAIN
 70
     1
  9
$PLINEGEN
 70
     0
  9
$PSLTSCALE
 70
     1
  9
$TREEDEPTH
 70
  3020
  9
$CMLSTYLE
  2
Standard
  9
$CMLJUST
 70
     0
  9
$CMLSCALE
 40
1.0
  9
$PROXYGRAPHICS
 70
     1
  9
$MEASUREMENT
 70
     0
  9
$CELWEIGHT
370
    -1
  9
$ENDCAPS
280
     0
  9
$JOINSTYLE
280
     0
  9
$LWDISPLAY
290
     0
  9
$INSUNITS
 70
     1
  9
$HYPERLINKBASE
  1

  9
$STYLESHEET
  1

  9
$XEDIT
290
     1
  9
$CEPSNTYPE
380
     0
  9
$PSTYLEMODE
290
     1
  9
$FINGERPRINTGUID
  2
{E5A426E3-BBA3-44BB-930C-5E639D1C6169}
  9
$VERSIONGUID
  2
{FAEB1C32-E019-11D5-929B-00C0DF256EC4}
  9
$EXTNAMES
290
     1
  9
$PSVPSCALE
 40
0.0
  9
$OLESTARTUP
290
     0
  9
$SORTENTS
280
   127
  9
$INDEXCTL
280
     0
  9
$HIDETEXT
280
     1
  9
$XCLIPFRAME
280
     2
  9
$HALOGAP
280
     0
  9
$OBSCOLOR
 70
   257
  9
$OBSLTYPE
280
     0
  9
$INTERSECTIONDISPLAY
280
     0
  9
$INTERSECTIONCOLOR
 70
   257
  9
$DIMASSOC
280
     2
  9
$PROJECTNAME
  1

  9
$CAMERADISPLAY
290
     0
  9
$LENSLENGTH
 40
50.0
  9
$CAMERAHEIGHT
 40
0.0
  9
$STEPSPERSEC
 40
2.0
  9
$STEPSIZE
 40
6.0
  9
$3DDWFPREC
 40
2.0
  9
$PSOLWIDTH
 40
0.25
  9
$PSOLHEIGHT
 40
4.0
  9
$LOFTANG1
 40
1.570796326794897
  9
$LOFTANG2
 40
1.570796326794897
  9
$LOFTMAG1
 40
0.0
  9
$LOFTMAG2
 40
0.0
  9
$LOFTPARAM
 70
     7
  9
$LOFTNORMALS
280
     1
  9
$LATITUDE
 40
37.795
  9
$LONGITUDE
 40
-122.394
  9
$NORTHDIRECTION
 40
0.0
  9
$TIMEZONE
 70
 -8000
  9
$LIGHTGLYPHDISPLAY
280
     1
  9
$TILEMODELIGHTSYNCH
280
     1
  9
$CMATERIAL
347
44
  9
$SOLIDHIST
280
     0
  9
$SHOWHIST
280
     1
  9
$DWFFRAME
280
     2
  9
$DGNFRAME
280
     2
  9
$REALWORLDSCALE
290
     1
  9
$INTERFERECOLOR
 62
   256
  9
$CSHADOW
280
     0
  9
$SHADOWPLANELOCATION
 40
0.0
  0
ENDSEC
  0
SECTION
  2
CLASSES
  0
CLASS
  1
ACDBDICTIONARYWDFLT
  2
AcDbDictionaryWithDefault
  3
ObjectDBX Classes
 90
        0
 91
        4
280
     0
281
     0
  0
CLASS
  1
VISUALSTYLE
  2
AcDbVisualStyle
  3
ObjectDBX Classes
 90
     4095
 91
        4
280
     0
281
     0
  0
CLASS
  1
MATERIAL
  2
AcDbMaterial
  3
ObjectDBX Classes
 90
     1153
 91
        4
280
     0
281
     0
  0
CLASS
  1
SCALE
  2
AcDbScale
  3
ObjectDBX Classes
 90
     1153
 91
        4
280
     0
281
     0
  0
CLASS
  1
TABLESTYLE
  2
AcDbTableStyle
  3
ObjectDBX Classes
 90
     4095
 91
        4
280
     0
281
     0
  0
CLASS
  1
MLEADERSTYLE
  2
AcDbMLeaderStyle
  3
ACDB_MLEADERSTYLE_CLASS
 90
     4095
 91
        4
280
     0
281
     0
  0
CLASS
  1
SUN
  2
AcDbSun
  3
SCENEOE
 90
     1153
 91
        4
280
     0
281
     0
  0
CLASS
  1
DICTIONARYVAR
  2
AcDbDictionaryVar
  3
ObjectDBX Classes
 90
        0
 91
        4
280
     0
281
     0
  0
CLASS
  1
CELLSTYLEMAP
  2
AcDbCellStyleMap
  3
ObjectDBX Classes
 90
     1152
 91
        4
280
     0
281
     0
  0
ENDSEC
  0
SECTION
  2
TABLES
  0
TABLE
  2
VPORT
  5
8
330
0
100
AcDbSymbolTable
 70
     1
  0
VPORT
  5
29
330
8
100
AcDbSymbolTableRecord
100
AcDbViewportTableRecord
  2
*Active
 70
     0
 10
0.0
 20
0.0
 11
1.0
 21
1.0
 12
-0.1066407500000004
 22
-0.0312499999999964
 13
0.0
 23
0.0
 14
0.5
 24
0.5
 15
0.5
 25
0.5
 16
0.0
 26
0.0
 36
1.0
 17
0.0
 27
0.0
 37
0.0
 40
6.566250000000007
 41
0.4709951844660192
 42
50.0
 43
0.0
 44
0.0
 50
0.0
 51
0.0
 71
     0
 72
   100
 73
     1
 74
     3
 75
     0
 76
     0
 77
     0
 78
     0
281
     0
 65
     1
110
0.0
120
0.0
130
0.0
111
1.0
121
0.0
131
0.0
112
0.0
122
1.0
132
0.0
 79
     0
146
0.0
348
2F
 60
     3
 61
     5
292
     1
282
     1
141
0.0
142
0.0
 63
   250
361
6D
  0
ENDTAB
  0
TABLE
  2
LTYPE
  5
5
330
0
100
AcDbSymbolTable
 70
     3
  0
LTYPE
  5
14
330
5
100
AcDbSymbolTableRecord
100
AcDbLinetypeTableRecord
  2
ByBlock
 70
     0
  3

 72
    65
 73
     0
 40
0.0
  0
LTYPE
  5
15
330
5
100
AcDbSymbolTableRecord
100
AcDbLinetypeTableRecord
  2
ByLayer
 70
     0
  3

 72
    65
 73
     0
 40
0.0
  0
LTYPE
  5
16
330
5
100
AcDbSymbolTableRecord
100
AcDbLinetypeTableRecord
  2
Continuous
 70
     0
  3
Solid line
 72
    65
 73
     0
 40
0.0
  0
LTYPE
  5
B2
330
5
100
AcDbSymbolTableRecord
100
AcDbLinetypeTableRecord
  2
Dashed
 70
     0
  3

 72
    65
 73
     2
 40
2.0
 49
1.0
 74
     0
 49
-1.0
 74
     0
  0
LTYPE
  5
DB
330
5
100
AcDbSymbolTableRecord
100
AcDbLinetypeTableRecord
  2
Center
 70
     0
  3

 72
    65
 73
     4
 40
1.5
 49
0.45
 74
     0
 49
-0.5
 74
     0
 49
0.05
 74
     0
 49
-0.5
 74
     0
  0
ENDTAB
  0
TABLE
  2
LAYER
  5
2
330
0
100
AcDbSymbolTable
 70
     7
  0
LAYER
  5
10
330
2
100
AcDbSymbolTableRecord
100
AcDbLayerTableRecord
  2
0
 70
     0
 62
     7
  6
Continuous
370
    -3
390
F
347
46
348
0
  0
LAYER
  5
72
330
2
100
AcDbSymbolTableRecord
100
AcDbLayerTableRecord
  2
AM_6
 70
     0
 62
    -2
  6
Continuous
370
    35
390
F
347
46
348
0
  0
LAYER
  5
B3
330
2
100
AcDbSymbolTableRecord
100
AcDbLayerTableRecord
  2
AM_9
 70
     0
 62
     6
  6
Dashed
370
    25
390
F
347
46
348
0
  0
LAYER
  5
D7
330
2
100
AcDbSymbolTableRecord
100
AcDbLayerTableRecord
  2
AM_5
 70
     0
 62
     3
  6
Continuous
370
    25
390
F
347
46
348
0
  0
LAYER
  5
DC
330
2
100
AcDbSymbolTableRecord
100
AcDbLayerTableRecord
  2
AM_7
 70
     0
 62
     7
  6
Center
370
    25
390
F
347
46
348
0
  0
LAYER
  5
DE
330
2
100
AcDbSymbolTableRecord
100
AcDbLayerTableRecord
  2
AM_4
 70
     0
 62
     7
  6
Continuous
370
    50
390
F
347
46
348
0
  0
LAYER
  5
1AC
330
2
100
AcDbSymbolTableRecord
100
AcDbLayerTableRecord
  2
ConnectionPoints
 70
     0
 62
     7
  6
Continuous
370
    50
390
F
347
46
348
0
  0
ENDTAB
  0
TABLE
  2
STYLE
  5
3
330
0
100
AcDbSymbolTable
 70
     1
  0
STYLE
  5
11
330
3
100
AcDbSymbolTableRecord
100
AcDbTextStyleTableRecord
  2
Standard
 70
     0
 40
0.0
 41
1.0
 50
0.0
 71
     0
 42
0.2
  3
txt
  4

  0
ENDTAB
  0
TABLE
  2
VIEW
  5
6
330
0
100
AcDbSymbolTable
 70
     0
  0
ENDTAB
  0
TABLE
  2
UCS
  5
7
330
0
100
AcDbSymbolTable
 70
     0
  0
ENDTAB
  0
TABLE
  2
APPID
  5
9
330
0
100
AcDbSymbolTable
 70
     1
  0
APPID
  5
12
330
9
100
AcDbSymbolTableRecord
100
AcDbRegAppTableRecord
  2
ACAD
 70
     0
  0
ENDTAB
  0
TABLE
  2
DIMSTYLE
  5
A
330
0
100
AcDbSymbolTable
 70
     1
100
AcDbDimStyleTable
  0
DIMSTYLE
105
27
330
A
100
AcDbSymbolTableRecord
100
AcDbDimStyleTableRecord
  2
Standard
 70
     0
178
     0
340
11
  0
ENDTAB
  0
TABLE
  2
BLOCK_RECORD
  5
1
330
0
100
AcDbSymbolTable
 70
     5
  0
BLOCK_RECORD
  5
1F
330
1
100
AcDbSymbolTableRecord
100
AcDbBlockTableRecord
  2
*Model_Space
340
22
 70
     0
280
     1
281
     0
  0
BLOCK_RECORD
  5
1B
330
1
100
AcDbSymbolTableRecord
100
AcDbBlockTableRecord
  2
*Paper_Space
340
1E
 70
     0
280
     1
281
     0
  0
BLOCK_RECORD
  5
23
330
1
100
AcDbSymbolTableRecord
100
AcDbBlockTableRecord
  2
*Paper_Space0
340
26
 70
     0
280
     1
281
     0
  0
BLOCK_RECORD
  5
6E
330
1
100
AcDbSymbolTableRecord
100
AcDbBlockTableRecord
  2
1_048026_2
340
0
102
{BLKREFS
331
6F
102
}
 70
     0
280
     1
281
     0
  0
BLOCK_RECORD
  5
9B
330
1
100
AcDbSymbolTableRecord
100
AcDbBlockTableRecord
  2
2_421252_0_in_048026_2
340
0
102
{BLKREFS
331
9C
102
}
 70
     0
280
     1
281
     0
  0
BLOCK_RECORD
  5
EA
330
1
100
AcDbSymbolTableRecord
100
AcDbBlockTableRecord
  2
3_405020c_Inch_0_in_048026_2
340
0
102
{BLKREFS
331
EB
102
}
 70
     0
280
     1
281
     0
  0
BLOCK_RECORD
  5
146
330
1
100
AcDbSymbolTableRecord
100
AcDbBlockTableRecord
  2
4_048026B_0_in_048026_2
340
0
102
{BLKREFS
331
147
102
}
 70
     0
280
     1
281
     0
  0
ENDTAB
  0
ENDSEC
  0
SECTION
  2
BLOCKS
  0
BLOCK
  5
20
330
1F
100
AcDbEntity
  8
0
100
AcDbBlockBegin
  2
*Model_Space
 70
     0
 10
0.0
 20
0.0
 30
0.0
  3
*Model_Space
  1

  0
ENDBLK
  5
21
330
1F
100
AcDbEntity
  8
0
100
AcDbBlockEnd
  0
BLOCK
  5
1C
330
1B
100
AcDbEntity
 67
     1
  8
0
100
AcDbBlockBegin
  2
*Paper_Space
 70
     0
 10
0.0
 20
0.0
 30
0.0
  3
*Paper_Space
  1

  0
ENDBLK
  5
1D
330
1B
100
AcDbEntity
 67
     1
  8
0
100
AcDbBlockEnd
  0
BLOCK
  5
24
330
23
100
AcDbEntity
  8
0
100
AcDbBlockBegin
  2
*Paper_Space0
 70
     0
 10
0.0
 20
0.0
 30
0.0
  3
*Paper_Space0
  1

  0
ENDBLK
  5
25
330
23
100
AcDbEntity
  8
0
100
AcDbBlockEnd
  0
BLOCK
  5
70
330
6E
100
AcDbEntity
  8
0
100
AcDbBlockBegin
  2
1_048026_2
 70
     2
 10
0.0
 20
0.0
 30
0.0
  3
1_048026_2
  1

  0
ATTDEF
  5
73
330
6E
100
AcDbEntity
  8
AM_6
100
AcDbText
 10
6.409375
 20
3.187500000000006
 30
0.0
 40
0.5
  1
Unisphere II Pillow Block Inch Bore
100
AcDbAttributeDefinition
  3

  2
NN
 70
     8
280
     0
  0
ATTDEF
  5
74
330
6E
100
AcDbEntity
  8
AM_6
100
AcDbText
 10
6.409375
 20
2.687500000000006
 30
0.0
 40
0.5
  1
Unisphere II
100
AcDbAttributeDefinition
  3

  2
NT
 70
     8
280
     0
  0
ATTDEF
  5
75
330
6E
100
AcDbEntity
  8
AM_6
100
AcDbText
 10
6.409375
 20
2.187500000000006
 30
0.0
 40
0.5
  1
048026
100
AcDbAttributeDefinition
  3

  2
NB
 70
     8
280
     0
  0
ATTDEF
  5
76
330
6E
100
AcDbEntity
  8
AM_6
100
AcDbText
 10
6.409375
 20
1.687500000000006
 30
0.0
 40
0.5
  1
$PN.
100
AcDbAttributeDefinition
  3

  2
NBSYN
 70
     8
280
     0
  0
ATTDEF
  5
77
330
6E
100
AcDbEntity
  8
AM_6
100
AcDbText
 10
6.409375
 20
1.187500000000006
 30
0.0
 40
0.5
  1
048026
100
AcDbAttributeDefinition
  3

  2
LINA
 70
     8
280
     0
  0
ATTDEF
  5
78
330
6E
100
AcDbEntity
  8
AM_6
100
AcDbText
 10
6.409375
 20
0.6875000000000062
 30
0.0
 40
0.5
  1
2-11/16
100
AcDbAttributeDefinition
  3

  2
SS
 70
     8
280
     0
  0
ATTDEF
  5
79
330
6E
100
AcDbEntity
  8
AM_6
100
AcDbText
 10
6.409375
 20
0.1875000000000062
 30
0.0
 40
0.5
  1
Expansion Type
100
AcDbAttributeDefinition
  3

  2
TYPE
 70
     8
280
     0
  0
ATTDEF
  5
7A
330
6E
100
AcDbEntity
  8
AM_6
100
AcDbText
 10
6.409375
 20
-0.3124999999999938
 30
0.0
 40
0.5
  1
048026
100
AcDbAttributeDefinition
  3

  2
PN
 70
     8
280
     0
  0
ATTDEF
  5
7B
330
6E
100
AcDbEntity
  8
AM_6
100
AcDbText
 10
6.409375
 20
-0.8124999999999938
 30
0.0
 40
0.5
  1
P2B-UN2-211E
100
AcDbAttributeDefinition
  3

  2
DESCRIPTION
 70
     8
280
     0
  0
ATTDEF
  5
7C
330
6E
100
AcDbEntity
  8
AM_6
100
AcDbText
 10
6.409375
 20
-1.312499999999994
 30
0.0
 40
0.5
  1
19.3
100
AcDbAttributeDefinition
  3

  2
WEIGHT
 70
     8
280
     0
  0
ATTDEF
  5
7D
330
6E
100
AcDbEntity
  8
AM_6
100
AcDbText
 10
6.409375
 20
-1.812499999999994
 30
0.0
 40
0.5
  1
2-29/64
100
AcDbAttributeDefinition
  3

  2
A
 70
     8
280
     0
  0
ATTDEF
  5
7E
330
6E
100
AcDbEntity
  8
AM_6
100
AcDbText
 10
6.409375
 20
-2.312499999999994
 30
0.0
 40
0.5
  1
10-7/16
100
AcDbAttributeDefinition
  3

  2
B
 70
     8
280
     0
  0
ATTDEF
  5
7F
330
6E
100
AcDbEntity
  8
AM_6
100
AcDbText
 10
6.409375
 20
-2.812499999999994
 30
0.0
 40
0.5
  1
2-9/16
100
AcDbAttributeDefinition
  3

  2
C
 70
     8
280
     0
  0
ATTDEF
  5
80
330
6E
100
AcDbEntity
  8
AM_6
100
AcDbText
 10
6.409375
 20
-3.312499999999994
 30
0.0
 40
0.5
  1
7-13/16
100
AcDbAttributeDefinition
  3

  2
DMIN
 70
     8
280
     0
  0
ATTDEF
  5
81
330
6E
100
AcDbEntity
  8
AM_6
100
AcDbText
 10
6.409375
 20
-3.812499999999994
 30
0.0
 40
0.5
  1
8-7/16
100
AcDbAttributeDefinition
  3

  2
DMAX
 70
     8
280
     0
  0
ATTDEF
  5
82
330
6E
100
AcDbEntity
  8
AM_6
100
AcDbText
 10
6.409375
 20
-4.312499999999994
 30
0.0
 40
0.5
  1
3/16
100
AcDbAttributeDefinition
  3

  2
E
 70
     8
280
     0
  0
ATTDEF
  5
83
330
6E
100
AcDbEntity
  8
AM_6
100
AcDbText
 10
6.409375
 20
-4.812499999999994
 30
0.0
 40
0.5
  1
3/4
100
AcDbAttributeDefinition
  3

  2
F
 70
     8
280
     0
  0
ATTDEF
  5
84
330
6E
100
AcDbEntity
  8
AM_6
100
AcDbText
 10
6.409375
 20
-5.312499999999994
 30
0.0
 40
0.5
  1
1-1/8
100
AcDbAttributeDefinition
  3

  2
G
 70
     8
280
     0
  0
ATTDEF
  5
85
330
6E
100
AcDbEntity
  8
AM_6
100
AcDbText
 10
6.409375
 20
-5.812499999999994
 30
0.0
 40
0.5
  1
2-1/4
100
AcDbAttributeDefinition
  3

  2
H
 70
     8
280
     0
  0
ATTDEF
  5
86
330
6E
100
AcDbEntity
  8
AM_6
100
AcDbText
 10
6.409375
 20
-6.312499999999994
 30
0.0
 40
0.5
  1
6-7/16
100
AcDbAttributeDefinition
  3

  2
J
 70
     8
280
     0
  0
ATTDEF
  5
87
330
6E
100
AcDbEntity
  8
AM_6
100
AcDbText
 10
6.409375
 20
-6.812499999999994
 30
0.0
 40
0.5
  1
4-23/32
100
AcDbAttributeDefinition
  3

  2
L
 70
     8
280
     0
  0
ATTDEF
  5
88
330
6E
100
AcDbEntity
  8
AM_6
100
AcDbText
 10
6.409375
 20
-7.312499999999994
 30
0.0
 40
0.5
  1
3-1/4
100
AcDbAttributeDefinition
  3

  2
M
 70
     8
280
     0
  0
ATTDEF
  5
89
330
6E
100
AcDbEntity
  8
AM_6
100
AcDbText
 10
6.409375
 20
-7.812499999999994
 30
0.0
 40
0.5
  1
49/64
100
AcDbAttributeDefinition
  3

  2
R
 70
     8
280
     0
  0
ATTDEF
  5
8A
330
6E
100
AcDbEntity
  8
AM_6
100
AcDbText
 10
6.409375
 20
-8.312499999999993
 30
0.0
 40
0.5
  1
1-11/16
100
AcDbAttributeDefinition
  3

  2
S
 70
     8
280
     0
  0
ATTDEF
  5
8B
330
6E
100
AcDbEntity
  8
AM_6
100
AcDbText
 10
6.409375
 20
-8.812499999999993
 30
0.0
 40
0.5
  1
1700
100
AcDbAttributeDefinition
  3

  2
MRPM
 70
     8
280
     0
  0
ATTDEF
  5
8C
330
6E
100
AcDbEntity
  8
AM_6
100
AcDbText
 10
6.409375
 20
-9.312499999999993
 30
0.0
 40
0.5
  1
53000
100
AcDbAttributeDefinition
  3

  2
CS
 70
     8
280
     0
  0
ATTDEF
  5
8D
330
6E
100
AcDbEntity
  8
AM_6
100
AcDbText
 10
6.409375
 20
-9.812499999999993
 30
0.0
 40
0.5
  1
41500
100
AcDbAttributeDefinition
  3

  2
CD
 70
     8
280
     0
  0
ATTDEF
  5
8E
330
6E
100
AcDbEntity
  8
AM_6
100
AcDbText
 10
6.409375
 20
-10.31249999999999
 30
0.0
 40
0.5
  1
20
100
AcDbAttributeDefinition
  3

  2
RN
 70
     8
280
     0
  0
ATTDEF
  5
8F
330
6E
100
AcDbEntity
  8
AM_6
100
AcDbText
 10
6.409375
 20
-10.81249999999999
 30
0.0
 40
0.5
  1
0.5748
100
AcDbAttributeDefinition
  3

  2
RM
 70
     8
280
     0
  0
ATTDEF
  5
90
330
6E
100
AcDbEntity
  8
AM_6
100
AcDbText
 10
6.409375
 20
-11.31249999999999
 30
0.0
 40
0.5
  1
4.197
100
AcDbAttributeDefinition
  3

  2
PD
 70
     8
280
     0
  0
ATTDEF
  5
91
330
6E
100
AcDbEntity
  8
AM_6
100
AcDbText
 10
6.409375
 20
-11.81249999999999
 30
0.0
 40
0.5
  1
0.0020-0.0031
100
AcDbAttributeDefinition
  3

  2
RC
 70
     8
280
     0
  0
ATTDEF
  5
92
330
6E
100
AcDbEntity
  8
AM_6
100
AcDbText
 10
6.409375
 20
-12.31249999999999
 30
0.0
 40
0.5
  1
1/2-13x7/8
100
AcDbAttributeDefinition
  3

  2
CSS
 70
     8
280
     0
  0
ATTDEF
  5
93
330
6E
100
AcDbEntity
  8
AM_6
100
AcDbText
 10
6.409375
 20
-12.81249999999999
 30
0.0
 40
0.5
  1
620
100
AcDbAttributeDefinition
  3

  2
CST
 70
     8
280
     0
  0
ATTDEF
  5
94
330
6E
100
AcDbEntity
  8
AM_6
100
AcDbText
 10
6.409375
 20
-13.31249999999999
 30
0.0
 40
0.5
  1
Ductile Iron Grade 65-45-12 ASTM A536
100
AcDbAttributeDefinition
  3

  2
MH
 70
     8
280
     0
  0
ATTDEF
  5
95
330
6E
100
AcDbEntity
  8
AM_6
100
AcDbText
 10
6.409375
 20
-13.81249999999999
 30
0.0
 40
0.5
  1
4118 Case Carb.
100
AcDbAttributeDefinition
  3

  2
MIR
 70
     8
280
     0
  0
ATTDEF
  5
96
330
6E
100
AcDbEntity
  8
AM_6
100
AcDbText
 10
6.409375
 20
-14.31249999999999
 30
0.0
 40
0.5
  1
E52100 Steel
100
AcDbAttributeDefinition
  3

  2
MOR
 70
     8
280
     0
  0
ATTDEF
  5
97
330
6E
100
AcDbEntity
  8
AM_6
100
AcDbText
 10
6.409375
 20
-14.81249999999999
 30
0.0
 40
0.5
  1
Polyamide
100
AcDbAttributeDefinition
  3

  2
MR
 70
     8
280
     0
  0
ATTDEF
  5
98
330
6E
100
AcDbEntity
  8
AM_6
100
AcDbText
 10
6.409375
 20
-15.31249999999999
 30
0.0
 40
0.5
  1
E52100 Steel
100
AcDbAttributeDefinition
  3

  2
MRO
 70
     8
280
     0
  0
ATTDEF
  5
99
330
6E
100
AcDbEntity
  8
AM_6
100
AcDbText
 10
6.409375
 20
-15.81249999999999
 30
0.0
 40
0.5
  1
2°
100
AcDbAttributeDefinition
  3

  2
SM
 70
     8
280
     0
  0
ATTDEF
  5
9A
330
6E
100
AcDbEntity
  8
AM_6
100
AcDbText
 10
6.409375
 20
-16.31249999999999
 30
0.0
 40
0.5
  1
baldor
100
AcDbAttributeDefinition
  3

  2
COMPANY
 70
     8
280
     0
  0
INSERT
  5
9C
330
6E
100
AcDbEntity
  8
0
100
AcDbBlockReference
  2
2_421252_0_in_048026_2
 10
0.0
 20
0.0
 30
0.0
  0
INSERT
  5
EB
330
6E
100
AcDbEntity
  8
0
100
AcDbBlockReference
  2
3_405020c_Inch_0_in_048026_2
 10
0.0
 20
0.0
 30
0.0
  0
INSERT
  5
147
330
6E
100
AcDbEntity
  8
0
100
AcDbBlockReference
  2
4_048026B_0_in_048026_2
 10
0.0
 20
0.0
 30
0.0
  0
ENDBLK
  5
71
330
6E
100
AcDbEntity
  8
0
100
AcDbBlockEnd
  0
BLOCK
  5
9D
330
9B
100
AcDbEntity
  8
0
100
AcDbBlockBegin
  2
2_421252_0_in_048026_2
 70
     2
 10
0.0
 20
0.0
 30
0.0
  3
2_421252_0_in_048026_2
  1

  0
ATTDEF
  5
9F
330
9B
100
AcDbEntity
  8
AM_6
100
AcDbText
 10
5.95313
 20
2.413355654761905
 30
0.0
 40
0.5
  1
Unisphere II Insert With Seal - Inch
100
AcDbAttributeDefinition
  3

  2
NN
 70
     8
280
     0
  0
ATTDEF
  5
A0
330
9B
100
AcDbEntity
  8
AM_6
100
AcDbText
 10
5.95313
 20
1.913355654761905
 30
0.0
 40
0.5
  1
Unisphere II
100
AcDbAttributeDefinition
  3

  2
NT
 70
     8
280
     0
  0
ATTDEF
  5
A1
330
9B
100
AcDbEntity
  8
AM_6
100
AcDbText
 10
5.95313
 20
1.413355654761905
 30
0.0
 40
0.5
  1
421252
100
AcDbAttributeDefinition
  3

  2
NB
 70
     8
280
     0
  0
ATTDEF
  5
A2
330
9B
100
AcDbEntity
  8
AM_6
100
AcDbText
 10
5.95313
 20
0.9133556547619048
 30
0.0
 40
0.5
  1
$PN.
100
AcDbAttributeDefinition
  3

  2
NBSYN
 70
     8
280
     0
  0
ATTDEF
  5
A3
330
9B
100
AcDbEntity
  8
AM_6
100
AcDbText
 10
5.95313
 20
0.4133556547619048
 30
0.0
 40
0.5
  1
421252
100
AcDbAttributeDefinition
  3

  2
LINA
 70
     8
280
     0
  0
ATTDEF
  5
A4
330
9B
100
AcDbEntity
  8
AM_6
100
AcDbText
 10
5.95313
 20
-0.0866443452380952
 30
0.0
 40
0.5
  1
2-11/16
100
AcDbAttributeDefinition
  3

  2
SS
 70
     8
280
     0
  0
ATTDEF
  5
A5
330
9B
100
AcDbEntity
  8
AM_6
100
AcDbText
 10
5.95313
 20
-0.5866443452380952
 30
0.0
 40
0.5
  1
2.68750
100
AcDbAttributeDefinition
  3

  2
SS1
 70
     8
280
     0
  0
ATTDEF
  5
A6
330
9B
100
AcDbEntity
  8
AM_6
100
AcDbText
 10
5.95313
 20
-1.086644345238095
 30
0.0
 40
0.5
  1
5.1181
100
AcDbAttributeDefinition
  3

  2
A
 70
     8
280
     0
  0
ATTDEF
  5
A7
330
9B
100
AcDbEntity
  8
AM_6
100
AcDbText
 10
5.95313
 20
-1.586644345238095
 30
0.0
 40
0.5
  1
4.71875
100
AcDbAttributeDefinition
  3

  2
A1
 70
     8
280
     0
  0
ATTDEF
  5
A8
330
9B
100
AcDbEntity
  8
AM_6
100
AcDbText
 10
5.95313
 20
-2.086644345238095
 30
0.0
 40
0.5
  1
1.2705
100
AcDbAttributeDefinition
  3

  2
B
 70
     8
280
     0
  0
ATTDEF
  5
A9
330
9B
100
AcDbEntity
  8
AM_6
100
AcDbText
 10
5.95313
 20
-2.586644345238095
 30
0.0
 40
0.5
  1
1.27050
100
AcDbAttributeDefinition
  3

  2
B1
 70
     8
280
     0
  0
ATTDEF
  5
AA
330
9B
100
AcDbEntity
  8
AM_6
100
AcDbText
 10
5.95313
 20
-3.086644345238095
 30
0.0
 40
0.5
  1
2-29/64
100
AcDbAttributeDefinition
  3

  2
C
 70
     8
280
     0
  0
ATTDEF
  5
AB
330
9B
100
AcDbEntity
  8
AM_6
100
AcDbText
 10
5.95313
 20
-3.586644345238095
 30
0.0
 40
0.5
  1
2.45313
100
AcDbAttributeDefinition
  3

  2
C1
 70
     8
280
     0
  0
ATTDEF
  5
AC
330
9B
100
AcDbEntity
  8
AM_6
100
AcDbText
 10
5.95313
 20
-4.086644345238096
 30
0.0
 40
0.5
  1
0.795
100
AcDbAttributeDefinition
  3

  2
D
 70
     8
280
     0
  0
ATTDEF
  5
AD
330
9B
100
AcDbEntity
  8
AM_6
100
AcDbText
 10
5.95313
 20
-4.586644345238096
 30
0.0
 40
0.5
  1
0.79500
100
AcDbAttributeDefinition
  3

  2
D1
 70
     8
280
     0
  0
ATTDEF
  5
AE
330
9B
100
AcDbEntity
  8
AM_6
100
AcDbText
 10
5.95313
 20
-5.086644345238096
 30
0.0
 40
0.5
  1
0.442
100
AcDbAttributeDefinition
  3

  2
E
 70
     8
280
     0
  0
ATTDEF
  5
AF
330
9B
100
AcDbEntity
  8
AM_6
100
AcDbText
 10
5.95313
 20
-5.586644345238096
 30
0.0
 40
0.5
  1
0.44200
100
AcDbAttributeDefinition
  3

  2
E1
 70
     8
280
     0
  0
ATTDEF
  5
B0
330
9B
100
AcDbEntity
  8
AM_6
100
AcDbText
 10
5.95313
 20
-6.086644345238096
 30
0.0
 40
0.5
  1
421252
100
AcDbAttributeDefinition
  3

  2
PN
 70
     8
280
     0
  0
ATTDEF
  5
B1
330
9B
100
AcDbEntity
  8
AM_6
100
AcDbText
 10
5.95313
 20
-6.586644345238096
 30
0.0
 40
0.5
  1
baldor
100
AcDbAttributeDefinition
  3

  2
COMPANY
 70
     8
280
     0
  0
LINE
  5
B4
330
9B
100
AcDbEntity
  8
AM_9
100
AcDbLine
 10
-1.258909090909091
 20
0.9782465500127064
 30
0.0
 11
-1.258909090909091
 21
0.5678863493287821
 31
0.0
  0
LINE
  5
B5
330
9B
100
AcDbEntity
  8
AM_9
100
AcDbLine
 10
-0.8570909090909091
 20
0.5678512823709723
 30
0.0
 11
-0.8570909090909093
 21
0.9782465500127064
 31
0.0
  0
LWPOLYLINE
  5
B6
330
9B
100
AcDbEntity
  8
AM_9
100
AcDbPolyline
 90
       12
 70
     0
 43
0.0
 10
-1.040351609749131
 20
0.3801779052589714
 10
-1.068360965650334
 20
0.3797051456687803
 10
-1.101702597877206
 20
0.3840882194910511
 10
-1.133631415483763
 20
0.3937488451212531
 10
-1.163452858602325
 20
0.4082887777722273
 10
-1.190505585597517
 20
0.4274496772430829
 10
-1.21386073325776
 20
0.4504631332741675
 10
-1.232958577618029
 20
0.4768854478601907
 10
-1.24710723613398
 20
0.5056807386006511
 10
-1.255796294203145
 20
0.5358772918702055
 10
-1.258904460559162
 20
0.5666567790795932
 10
-1.25890909072832
 20
0.567885564982018
  0
LWPOLYLINE
  5
B7
330
9B
100
AcDbEntity
  8
AM_9
100
AcDbPolyline
 90
       11
 70
     0
 43
0.0
 10
-0.8570909098094398
 20
0.5679086889007611
 10
-0.8583198606772211
 20
0.547706762775599
 10
-0.8647981426451234
 20
0.5175300666938221
 10
-0.8765955601278975
 20
0.4884567890907581
 10
-0.8935148953420289
 20
0.4612702737081237
 10
-0.9149793278258208
 20
0.4368726472774176
 10
-0.9407235609662086
 20
0.4158723696404072
 10
-0.9697931693154747
 20
0.3991480031384468
 10
-1.001444347223009
 20
0.3873182806609991
 10
-1.034724838640694
 20
0.3807366620221644
 10
-1.040351609749131
 20
0.3801779052589714
  0
LWPOLYLINE
  5
B8
330
9B
100
AcDbEntity
  8
AM_9
100
AcDbPolyline
 90
       11
 70
     0
 43
0.0
 10
-1.25890909072832
 20
0.567885564982018
 10
-1.25630879102849
 20
0.5968150583606421
 10
-1.248224919110424
 20
0.6258237910601113
 10
-1.234828195919917
 20
0.6528624989526124
 10
-1.216568326103634
 20
0.6773073734087948
 10
-1.193658307437221
 20
0.6987149807887225
 10
-1.166939421010285
 20
0.7163876859801471
 10
-1.13693824792871
 20
0.7299237450633581
 10
-1.104668252844784
 20
0.7389612522378728
 10
-1.08149814157918
 20
0.7424296675920553
 10
-1.058
 20
0.743595442155255
  0
LINE
  5
B9
330
9B
100
AcDbEntity
  8
AM_9
100
AcDbLine
 10
-1.258909090909091
 20
2.314728535353535
 30
0.0
 11
-1.258909090909091
 21
1.34375
 31
0.0
  0
LINE
  5
BA
330
9B
100
AcDbEntity
  8
AM_9
100
AcDbLine
 10
-0.857090909090909
 20
1.34375
 30
0.0
 11
-0.857090909090909
 21
2.314728535353535
 31
0.0
  0
LINE
  5
BB
330
9B
100
AcDbEntity
  8
AM_9
100
AcDbLine
 10
-0.857090909090909
 20
2.314728535353535
 30
0.0
 11
-1.258909090909091
 21
2.314728535353535
 31
0.0
  0
LINE
  5
BC
330
9B
100
AcDbEntity
  8
AM_9
100
AcDbLine
 10
-0.857090909090909
 20
2.314728535353535
 30
0.0
 11
-0.8124444444444445
 21
2.359375
 31
0.0
  0
LINE
  5
BD
330
9B
100
AcDbEntity
  8
AM_9
100
AcDbLine
 10
-1.303555555555556
 20
2.359375
 30
0.0
 11
-1.258909090909091
 21
2.314728535353535
 31
0.0
  0
LWPOLYLINE
  5
BE
330
9B
100
AcDbEntity
  8
AM_9
100
AcDbPolyline
 90
       10
 70
     0
 43
0.0
 10
-1.01646230980247
 20
0.7399356575861906
 10
-0.9919203340891726
 20
0.7341588890647895
 10
-0.9612565963857629
 20
0.7225633548448933
 10
-0.9332966329827262
 20
0.7067422102901347
 10
-0.9086878308160699
 20
0.6868498759471676
 10
-0.8882660535683374
 20
0.663495520952701
 10
-0.8726031674477415
 20
0.637059139912205
 10
-0.8621947939828747
 20
0.6083564721997535
 10
-0.8574452677971904
 20
0.5783559821873092
 10
-0.8570909098094398
 20
0.5679086889007611
  0
LWPOLYLINE
  5
BF
330
9B
100
AcDbEntity
  8
AM_9
100
AcDbPolyline
 90
        3
 70
     0
 43
0.0
 10
-1.058
 20
0.743595442155255
 10
-1.024485251669324
 20
0.741206395144581
 10
-1.01646230980247
 20
0.7399356575861906
  0
LINE
  5
C0
330
9B
100
AcDbEntity
  8
AM_9
100
AcDbLine
 10
-1.5
 20
-1.34375
 30
0.0
 11
0.9531299999999998
 21
-1.34375
 31
0.0
  0
LINE
  5
C1
330
9B
100
AcDbEntity
  8
AM_9
100
AcDbLine
 10
0.9531299999999998
 20
1.34375
 30
0.0
 11
-0.8570909090909096
 21
1.34375
 31
0.0
  0
LINE
  5
C2
330
9B
100
AcDbEntity
  8
AM_9
100
AcDbLine
 10
-1.258909090909091
 20
1.34375
 30
0.0
 11
-1.5
 21
1.34375
 31
0.0
  0
LWPOLYLINE
  5
C3
330
9B
100
AcDbEntity
  8
AM_9
100
AcDbPolyline
 90
       21
 70
     0
 43
0.0
 10
-1.258909090908635
 20
1.343749999999932
 10
-1.258666643735714
 20
1.343713772199362
 10
-1.254099704686296
 20
1.343039349337217
 10
-1.244303647856985
 20
1.341644009748824
 10
-1.229003991118174
 20
1.339605152523842
 10
-1.209314151324358
 20
1.337234299620337
 10
-1.184768264110278
 20
1.334679659122598
 10
-1.15715259811466
 20
1.332340360944969
 10
-1.125841021305064
 20
1.33037663985121
 10
-1.093594589836687
 20
1.329122482887008
 10
-1.059353849981772
 20
1.328646466370891
 10
-1.02637418159094
 20
1.329022118732463
 10
-0.9933554076442085
 20
1.330217472073995
 10
-0.9630771441470266
 20
1.332032262467155
 10
-0.934638716663257
 20
1.334360373331197
 10
-0.9101496941539621
 20
1.33684677978774
 10
-0.8891940997970204
 20
1.339326335003319
 10
-0.8734495047222182
 20
1.341401686668597
 10
-0.8625878755898646
 20
1.342939126712959
 10
-0.8584897322117206
 20
1.343541568632334
 10
-0.857090909090909
 20
1.34375
  0
LINE
  5
C4
330
9B
100
AcDbEntity
  8
AM_9
100
AcDbLine
 10
-0.6160000000000002
 20
-1.685267857142857
 30
0.0
 11
-0.3173700000000002
 21
-1.685267857142857
 31
0.0
  0
LINE
  5
C5
330
9B
100
AcDbEntity
  8
AM_9
100
AcDbLine
 10
-0.3173700000000002
 20
1.685267857142857
 30
0.0
 11
-0.6160000000000002
 21
1.685267857142857
 31
0.0
  0
LINE
  5
C6
330
9B
100
AcDbEntity
  8
AM_9
100
AcDbLine
 10
-0.6160000000000002
 20
2.339375
 30
0.0
 11
-0.6160000000000002
 21
-2.339375
 31
0.0
  0
ARC
  5
C7
330
9B
100
AcDbEntity
  8
AM_9
100
AcDbCircle
 10
-0.6359999999999988
 20
-2.339375000000001
 30
0.0
 40
0.0199999999999987
100
AcDbArc
 50
270.0
 51
0.0
  0
ARC
  5
C8
330
9B
100
AcDbEntity
  8
AM_9
100
AcDbCircle
 10
-0.6359999999999988
 20
2.339375000000001
 30
0.0
 40
0.0199999999999987
100
AcDbArc
 50
0.0
 51
90.0
  0
LINE
  5
C9
330
9B
100
AcDbEntity
  8
AM_9
100
AcDbLine
 10
-0.3173700000000002
 20
2.339375
 30
0.0
 11
-0.3173700000000002
 21
-2.339375
 31
0.0
  0
ARC
  5
CA
330
9B
100
AcDbEntity
  8
AM_9
100
AcDbCircle
 10
-0.2973700000000002
 20
-2.339375
 30
0.0
 40
0.02
100
AcDbArc
 50
180.0
 51
270.0
  0
ARC
  5
CB
330
9B
100
AcDbEntity
  8
AM_9
100
AcDbCircle
 10
-0.2973700000000002
 20
2.339375
 30
0.0
 40
0.02
100
AcDbArc
 50
90.0
 51
180.0
  0
LWPOLYLINE
  5
CC
330
9B
100
AcDbEntity
  8
AM_9
100
AcDbPolyline
 90
       39
 70
     0
 43
0.0
 10
-0.8706884616925678
 20
0.8580534255340957
 10
-0.8490405712080632
 20
0.8845191003915385
 10
-0.8319735982901583
 20
0.9135803102812856
 10
-0.8191730876965292
 20
0.9477123254187627
 10
-0.8129801859728882
 20
0.9831103778537824
 10
-0.8135940407604647
 20
1.017309930699523
 10
-0.8205238037153786
 20
1.050684850356279
 10
-0.8334471654251314
 20
1.081987177940547
 10
-0.851873966087544
 20
1.110809637723932
 10
-0.8759865832442327
 20
1.137116169172584
 10
-0.9045524219779311
 20
1.159579735505023
 10
-0.9384071196290131
 20
1.178476495522297
 10
-0.9753085917008425
 20
1.192367850814445
 10
-1.016002124840839
 20
1.201210761838902
 10
-1.057825636375396
 20
1.204214239451969
 10
-1.100632850379275
 20
1.201117305011097
 10
-1.142238307394062
 20
1.191905445118297
 10
-1.181446994465076
 20
1.176649142859465
 10
-1.217060079839333
 20
1.155721661846395
 10
-1.247209923342798
 20
1.13013990604142
 10
-1.271791918975132
 20
1.100141864252128
 10
-1.289133177795724
 20
1.068005666222589
 10
-1.299894429306838
 20
1.033408744103372
 10
-1.303517939801555
 20
0.9990872384391444
 10
-1.300639043362676
 20
0.9644521689736641
 10
-1.291545520328892
 20
0.9312772028561929
 10
-1.276658962243325
 20
0.8997019208358893
 10
-1.256029231178841
 20
0.8701513729449905
 10
-1.230579100735303
 20
0.8438883250841909
 10
-1.199633530642496
 20
0.8207296242756691
 10
-1.165137005968513
 20
0.8024084402056095
 10
-1.126209297992376
 20
0.7889505227301657
 10
-1.085478054202219
 20
0.7815852892139635
 10
-1.042750482982265
 20
0.7806411559284259
 10
-1.000446990664553
 20
0.7863772603272098
 10
-0.9594462178480834
 20
0.7988665445871034
 10
-0.9212906693652105
 20
0.817667651954437
 10
-0.8945102900145904
 20
0.836278493977105
 10
-0.8706884616537467
 20
0.8580534254244814
  0
LINE
  5
CD
330
9B
100
AcDbEntity
  8
AM_9
100
AcDbLine
 10
-1.222163228155339
 20
-2.359375
 30
0.0
 11
-0.6359999999999995
 21
-2.359375
 31
0.0
  0
LINE
  5
CE
330
9B
100
AcDbEntity
  8
AM_9
100
AcDbLine
 10
-0.6359999999999995
 20
2.359375
 30
0.0
 11
-0.8124444444444445
 21
2.359375
 31
0.0
  0
LWPOLYLINE
  5
CF
330
9B
100
AcDbEntity
  8
AM_9
100
AcDbPolyline
 90
        7
 70
     0
 43
0.0
 10
-0.81244444444448
 20
2.359374999999997
 10
-0.8154393869376425
 20
2.359094371144655
 10
-0.8244220009667454
 20
2.35827299786851
 10
-0.8395691851386364
 20
2.356957046293598
 10
-0.8599500799668554
 20
2.355323723917064
 10
-0.8857835283319996
 20
2.353480696346482
 10
-0.9092765035123167
 20
2.352026077453831
  0
LINE
  5
D0
330
9B
100
AcDbEntity
  8
AM_9
100
AcDbLine
 10
-0.6359999999999995
 20
2.359375
 30
0.0
 11
-0.6359999999999995
 21
-2.359375
 31
0.0
  0
LINE
  5
D1
330
9B
100
AcDbEntity
  8
AM_9
100
AcDbLine
 10
-0.2973700000000001
 20
-2.359375
 30
0.0
 11
0.9331300000000002
 21
-2.359375
 31
0.0
  0
LINE
  5
D2
330
9B
100
AcDbEntity
  8
AM_9
100
AcDbLine
 10
0.9091069983818771
 20
2.359375
 30
0.0
 11
-0.2973700000000001
 21
2.359375
 31
0.0
  0
LINE
  5
D3
330
9B
100
AcDbEntity
  8
AM_9
100
AcDbLine
 10
-0.2973700000000001
 20
2.359375
 30
0.0
 11
-0.2973700000000001
 21
-2.359375
 31
0.0
  0
LINE
  5
D4
330
9B
100
AcDbEntity
  8
AM_9
100
AcDbLine
 10
0.9531299999999999
 20
1.695808780487809
 30
0.0
 11
0.9531299999999998
 21
-2.339375
 31
0.0
  0
ARC
  5
D5
330
9B
100
AcDbEntity
  8
AM_9
100
AcDbCircle
 10
0.9331299999999999
 20
-2.339375
 30
0.0
 40
0.02
100
AcDbArc
 50
270.0
 51
0.0
  0
LINE
  5
D6
330
9B
100
AcDbEntity
  8
AM_9
100
AcDbLine
 10
0.9331300000000005
 20
1.997272195121948
 30
0.0
 11
0.9331300000000002
 21
-2.359375
 31
0.0
  0
LINE
  5
D8
330
9B
100
AcDbEntity
  8
AM_5
100
AcDbLine
 10
-0.8124444444444445
 20
1.34375
 30
0.0
 11
-0.8124444444444445
 21
2.359375
 31
0.0
  0
LINE
  5
D9
330
9B
100
AcDbEntity
  8
AM_5
100
AcDbLine
 10
-1.303555555555556
 20
1.34375
 30
0.0
 11
-1.303555555555556
 21
2.359375
 31
0.0
  0
ELLIPSE
  5
DA
330
9B
100
AcDbEntity
  8
AM_9
100
AcDbEllipse
 10
-1.058
 20
0.9782465500127066
 30
0.0
 11
-0.2009090909090909
 21
2.993778773550024E-9
 31
0.0
210
0.0
220
0.0
230
1.0
 40
0.9063077870366502
 41
0.0
 42
6.283185307179586
  0
LINE
  5
DD
330
9B
100
AcDbEntity
  8
AM_7
100
AcDbLine
 10
-1.058
 20
2.413355654761905
 30
0.0
 11
-1.058
 21
1.22578125
 31
0.0
  0
LINE
  5
DF
330
9B
100
AcDbEntity
  8
AM_4
100
AcDbLine
 10
-1.4509374
 20
-2.359375
 30
0.0
 11
-1.222163228155339
 21
-2.359375
 31
0.0
  0
LINE
  5
E0
330
9B
100
AcDbEntity
  8
AM_4
100
AcDbLine
 10
-1.303555555555556
 20
2.359375
 30
0.0
 11
-1.4509374
 21
2.359375
 31
0.0
  0
LWPOLYLINE
  5
E1
330
9B
100
AcDbEntity
  8
AM_4
100
AcDbPolyline
 90
       15
 70
     0
 43
0.0
 10
-0.9092765035123167
 20
2.352026077453831
 10
-0.916349732275853
 20
2.351629550431324
 10
-0.9513372615494289
 20
2.349950906512782
 10
-0.9897598936058679
 20
2.348650946479228
 10
-1.031062792466881
 20
2.347889908344181
 10
-1.073196688879097
 20
2.347794110562669
 10
-1.116093243647088
 20
2.348402829777724
 10
-1.156484743652889
 20
2.349626495823784
 10
-1.195174315976642
 20
2.351388548185194
 10
-1.228233778054121
 20
2.35334977250605
 10
-1.257202979348469
 20
2.355411916242432
 10
-1.278552680401925
 20
2.357136155118001
 10
-1.294055021466631
 20
2.358496454239897
 10
-1.301904128392245
 20
2.359219841321369
 10
-1.303555555555446
 20
2.35937499999999
  0
LINE
  5
E2
330
9B
100
AcDbEntity
  8
AM_4
100
AcDbLine
 10
0.9331300000000002
 20
2.359375
 30
0.0
 11
0.9091069983818771
 21
2.359375
 31
0.0
  0
LINE
  5
E3
330
9B
100
AcDbEntity
  8
AM_4
100
AcDbLine
 10
-1.5
 20
2.3103124
 30
0.0
 11
-1.5
 21
-2.3103124
 31
0.0
  0
ARC
  5
E4
330
9B
100
AcDbEntity
  8
AM_4
100
AcDbCircle
 10
-1.450937399999999
 20
-2.310312399999999
 30
0.0
 40
0.049062600000001
100
AcDbArc
 50
180.0
 51
270.0
  0
ARC
  5
E5
330
9B
100
AcDbEntity
  8
AM_4
100
AcDbCircle
 10
-1.450937399999999
 20
2.310312399999999
 30
0.0
 40
0.0490626000000014
100
AcDbArc
 50
90.0
 51
180.0
  0
LINE
  5
E6
330
9B
100
AcDbEntity
  8
AM_4
100
AcDbLine
 10
-1.4509374
 20
2.359375
 30
0.0
 11
-1.4509374
 21
-2.359375
 31
0.0
  0
LINE
  5
E7
330
9B
100
AcDbEntity
  8
AM_4
100
AcDbLine
 10
0.9531299999999998
 20
2.339375
 30
0.0
 11
0.9531299999999999
 21
1.695808780487809
 31
0.0
  0
ARC
  5
E8
330
9B
100
AcDbEntity
  8
AM_4
100
AcDbCircle
 10
0.9331299999999999
 20
2.339375
 30
0.0
 40
0.0199999999999999
100
AcDbArc
 50
0.0
 51
90.0
  0
LINE
  5
E9
330
9B
100
AcDbEntity
  8
AM_4
100
AcDbLine
 10
0.9331300000000002
 20
2.359375
 30
0.0
 11
0.9331300000000005
 21
1.997272195121948
 31
0.0
  0
ENDBLK
  5
9E
330
9B
100
AcDbEntity
  8
0
100
AcDbBlockEnd
  0
BLOCK
  5
EC
330
EA
100
AcDbEntity
  8
0
100
AcDbBlockBegin
  2
3_405020c_Inch_0_in_048026_2
 70
     2
 10
0.0
 20
0.0
 30
0.0
  3
3_405020c_Inch_0_in_048026_2
  1

  0
ATTDEF
  5
EE
330
EA
100
AcDbEntity
  8
AM_6
100
AcDbText
 10
5.162408630723042
 20
3.102965210326209
 30
0.0
 40
0.5
  1
405020C -Inch
100
AcDbAttributeDefinition
  3

  2
NN
 70
     8
280
     0
  0
ATTDEF
  5
EF
330
EA
100
AcDbEntity
  8
AM_6
100
AcDbText
 10
5.162408630723042
 20
2.602965210326209
 30
0.0
 40
0.5
  1
Grease fitting
100
AcDbAttributeDefinition
  3

  2
NT
 70
     8
280
     0
  0
ATTDEF
  5
F0
330
EA
100
AcDbEntity
  8
AM_6
100
AcDbText
 10
5.162408630723042
 20
2.102965210326209
 30
0.0
 40
0.5
  1
405020c-Inch
100
AcDbAttributeDefinition
  3

  2
NB
 70
     8
280
     0
  0
ATTDEF
  5
F1
330
EA
100
AcDbEntity
  8
AM_6
100
AcDbText
 10
5.162408630723042
 20
1.602965210326209
 30
0.0
 40
0.5
  1
$MN.-Inch
100
AcDbAttributeDefinition
  3

  2
NBSYN
 70
     8
280
     0
  0
ATTDEF
  5
F2
330
EA
100
AcDbEntity
  8
AM_6
100
AcDbText
 10
5.162408630723042
 20
1.102965210326209
 30
0.0
 40
0.5
  1
405020c
100
AcDbAttributeDefinition
  3

  2
LINA
 70
     8
280
     0
  0
ATTDEF
  5
F3
330
EA
100
AcDbEntity
  8
AM_6
100
AcDbText
 10
5.162408630723042
 20
0.6029652103262091
 30
0.0
 40
0.5
  1
405020c
100
AcDbAttributeDefinition
  3

  2
MN
 70
     8
280
     0
  0
ATTDEF
  5
F4
330
EA
100
AcDbEntity
  8
AM_6
100
AcDbText
 10
5.162408630723042
 20
0.1029652103262091
 30
0.0
 40
0.5
  1
0.230
100
AcDbAttributeDefinition
  3

  2
NDR
 70
     8
280
     0
  0
ATTDEF
  5
F5
330
EA
100
AcDbEntity
  8
AM_6
100
AcDbText
 10
5.162408630723042
 20
-0.3970347896737909
 30
0.0
 40
0.5
  1
0.210
100
AcDbAttributeDefinition
  3

  2
KDR
 70
     8
280
     0
  0
ATTDEF
  5
F6
330
EA
100
AcDbEntity
  8
AM_6
100
AcDbText
 10
5.162408630723042
 20
-0.8970347896737909
 30
0.0
 40
0.5
  1
0.157
100
AcDbAttributeDefinition
  3

  2
BZE
 70
     8
280
     0
  0
ATTDEF
  5
F7
330
EA
100
AcDbEntity
  8
AM_6
100
AcDbText
 10
5.162408630723042
 20
-1.397034789673791
 30
0.0
 40
0.5
  1
9/32
100
AcDbAttributeDefinition
  3

  2
WAF
 70
     8
280
     0
  0
ATTDEF
  5
F8
330
EA
100
AcDbEntity
  8
AM_6
100
AcDbText
 10
5.162408630723042
 20
-1.897034789673791
 30
0.0
 40
0.5
  1
0.2813
100
AcDbAttributeDefinition
  3

  2
WAF1
 70
     8
280
     0
  0
ATTDEF
  5
F9
330
EA
100
AcDbEntity
  8
AM_6
100
AcDbText
 10
5.162408630723042
 20
-2.397034789673791
 30
0.0
 40
0.5
  1
0.545
100
AcDbAttributeDefinition
  3

  2
BL
 70
     8
280
     0
  0
ATTDEF
  5
FA
330
EA
100
AcDbEntity
  8
AM_6
100
AcDbText
 10
5.162408630723042
 20
-2.897034789673791
 30
0.0
 40
0.5
  1
0.200
100
AcDbAttributeDefinition
  3

  2
TL
 70
     8
280
     0
  0
ATTDEF
  5
FB
330
EA
100
AcDbEntity
  8
AM_6
100
AcDbText
 10
5.162408630723042
 20
-3.397034789673791
 30
0.0
 40
0.5
  1
baldor
100
AcDbAttributeDefinition
  3

  2
COMPANY
 70
     8
280
     0
  0
LINE
  5
FC
330
EA
100
AcDbEntity
  8
AM_9
100
AcDbLine
 10
-0.0812043153615208
 20
2.883466893650985
 30
0.0
 11
-0.0812043153615208
 21
2.835830082393772
 31
0.0
  0
LINE
  5
FD
330
EA
100
AcDbEntity
  8
AM_9
100
AcDbLine
 10
0.081204315361521
 20
2.883466893650985
 30
0.0
 11
0.081204315361521
 21
2.835830082393772
 31
0.0
  0
LWPOLYLINE
  5
FE
330
EA
100
AcDbEntity
  8
AM_9
100
AcDbPolyline
 90
        4
 70
     0
 43
0.0
 10
0.0000000000000001
 20
2.830780974562897
 10
0.0311508759219517
 20
2.831571877978988
 10
0.0623017518439032
 20
2.833839601729738
 10
0.081204315361521
 20
2.835830082393772
  0
LWPOLYLINE
  5
FF
330
EA
100
AcDbEntity
  8
AM_9
100
AcDbPolyline
 90
        3
 70
     0
 43
0.0
 10
-0.0812043153615208
 20
2.835830082393772
 10
-0.0407847159147454
 20
2.832125453503175
 10
0.0000000000000001
 20
2.830780974562897
  0
LWPOLYLINE
  5
100
330
EA
100
AcDbEntity
  8
AM_9
100
AcDbPolyline
 90
        3
 70
     0
 43
0.0
 10
-0.1218064730422811
 20
2.795618474562898
 10
-0.1015053942019009
 20
2.814532429806656
 10
-0.0812043153615208
 20
2.835830082393772
  0
LWPOLYLINE
  5
101
330
EA
100
AcDbEntity
  8
AM_9
100
AcDbPolyline
 90
        3
 70
     0
 43
0.0
 10
0.081204315361521
 20
2.835830082393772
 10
0.1014141150849086
 20
2.814623253537326
 10
0.1218064730422814
 20
2.795618474562898
  0
LINE
  5
102
330
EA
100
AcDbEntity
  8
AM_9
100
AcDbLine
 10
-0.0812043153615208
 20
2.883466893650985
 30
0.0
 11
-0.0947254828950638
 21
2.874470018527556
 31
0.0
  0
LWPOLYLINE
  5
103
330
EA
100
AcDbEntity
  8
AM_9
100
AcDbPolyline
 90
        3
 70
     0
 43
0.0
 10
-0.0068593257691042
 20
2.888477211622062
 10
-0.0406021576807603
 20
2.887183296238101
 10
-0.0812043153615208
 20
2.883466893650985
  0
LINE
  5
104
330
EA
100
AcDbEntity
  8
AM_9
100
AcDbLine
 10
0.0081729506298706
 20
2.888460945443513
 30
0.0
 11
-0.0068593257691042
 21
2.888477211622062
 31
0.0
  0
LINE
  5
105
330
EA
100
AcDbEntity
  8
AM_9
100
AcDbLine
 10
0.0937564342908656
 20
2.875145115444301
 30
0.0
 11
0.081204315361521
 21
2.883466893650985
 31
0.0
  0
LINE
  5
106
330
EA
100
AcDbEntity
  8
AM_9
100
AcDbLine
 10
0.0948377856113114
 20
2.874391457456142
 30
0.0
 11
0.0937564342908656
 21
2.875145115444301
 31
0.0
  0
LWPOLYLINE
  5
107
330
EA
100
AcDbEntity
  8
AM_9
100
AcDbPolyline
 90
        4
 70
     0
 43
0.0
 10
0.081204315361521
 20
2.883466893650985
 10
0.0623017518439032
 20
2.88545737431502
 10
0.0312428256208205
 20
2.887720477706006
 10
0.0081729506298706
 20
2.888460945443513
  0
LINE
  5
108
330
EA
100
AcDbEntity
  8
AM_9
100
AcDbLine
 10
0.0817220182273019
 20
2.558357797175622
 30
0.0
 11
0.0901544984373205
 21
2.564320461114348
 31
0.0
  0
LINE
  5
109
330
EA
100
AcDbEntity
  8
AM_9
100
AcDbLine
 10
-0.0901544984373203
 20
2.564320461114348
 30
0.0
 11
-0.0817220182273017
 21
2.558357797175622
 31
0.0
  0
LWPOLYLINE
  5
10A
330
EA
100
AcDbEntity
  8
AM_9
100
AcDbPolyline
 90
        3
 70
     0
 43
0.0
 10
0.1218064730422814
 20
2.795618474562898
 10
0.1421075518826616
 20
2.779369929806656
 10
0.1624086307230418
 20
2.765505082393772
  0
LWPOLYLINE
  5
10B
330
EA
100
AcDbEntity
  8
AM_9
100
AcDbPolyline
 90
        3
 70
     0
 43
0.0
 10
-0.1624086307230416
 20
2.765505082393772
 10
-0.1421988309996539
 20
2.779302653469025
 10
-0.1218064730422811
 20
2.795618474562898
  0
LINE
  5
10C
330
EA
100
AcDbEntity
  8
AM_9
100
AcDbLine
 10
0.1103982849382553
 20
2.595198764041929
 30
0.0
 11
0.1163248559520377
 21
2.759405774705032
 31
0.0
  0
LINE
  5
10D
330
EA
100
AcDbEntity
  8
AM_9
100
AcDbLine
 10
-0.1163248559520375
 20
2.759405774705032
 30
0.0
 11
-0.1103982849382551
 21
2.595198764041929
 31
0.0
  0
ELLIPSE
  5
10E
330
EA
100
AcDbEntity
  8
AM_9
100
AcDbEllipse
 10
-0.0000000000000003
 20
2.818191001481861
 30
0.0
 11
-0.1406500000000007
 21
1.722465723000761E-17
 31
0.0
210
0.0
220
0.0
230
1.0
 40
0.4999999999999942
 41
3.757072362260178
 42
5.667705598509201
  0
LINE
  5
10F
330
EA
100
AcDbEntity
  8
AM_9
100
AcDbLine
 10
-0.08926712259309
 20
2.876876086801557
 30
0.0
 11
-0.0951130639100447
 21
2.872742382053919
 31
0.0
  0
LINE
  5
110
330
EA
100
AcDbEntity
  8
AM_9
100
AcDbLine
 10
0.0951348305996825
 20
2.872726990680073
 30
0.0
 11
0.0892671225930902
 21
2.876876086801557
 31
0.0
  0
ELLIPSE
  5
111
330
EA
100
AcDbEntity
  8
AM_9
100
AcDbEllipse
 10
0.0000000000000825
 20
2.845315392940185
 30
0.0
 11
-0.1093294505798663
 21
1.338899617051720E-17
 31
0.0
210
0.0
220
0.0
230
1.0
 40
0.5000000000002773
 41
-0.5581594622997326
 42
-0.4932961571475714
  0
LWPOLYLINE
  5
112
330
EA
100
AcDbEntity
  8
AM_9
100
AcDbPolyline
 90
        5
 70
     0
 43
0.0
 10
-0.0957089489758412
 20
2.870995487462073
 10
-0.0954904481146515
 20
2.871311220570803
 10
-0.0940021017369433
 20
2.872983580461832
 10
-0.0909357957799902
 20
2.875642681422025
 10
-0.0895361597076502
 20
2.876684560693374
  0
LWPOLYLINE
  5
113
330
EA
100
AcDbEntity
  8
AM_9
100
AcDbPolyline
 90
        5
 70
     0
 43
0.0
 10
0.0896283438545944
 20
2.876618331830914
 10
0.0900518398283759
 20
2.876309952989492
 10
0.093540208288877
 20
2.873430798887416
 10
0.0953073167037222
 20
2.871548636024792
 10
0.0957089489758414
 20
2.870995487462073
  0
ELLIPSE
  5
114
330
EA
100
AcDbEntity
  8
AM_9
100
AcDbEllipse
 10
0.0000000000001039
 20
2.845315392940377
 30
0.0
 11
-0.10932945057965
 21
1.338899617049071E-17
 31
0.0
210
0.0
220
0.0
230
1.0
 40
0.4999999999996541
 41
3.633718647795636
 42
5.706209941295021
  0
ELLIPSE
  5
115
330
EA
100
AcDbEntity
  8
AM_9
100
AcDbEllipse
 10
0.0000000000000011
 20
2.894233922263576
 30
0.0
 11
-0.09936940028726531
 21
1.216924179949915E-17
 31
0.0
210
0.0
220
0.0
230
1.0
 40
0.4999999999999757
 41
2.869006655271207
 42
3.141592653589793
  0
ELLIPSE
  5
116
330
EA
100
AcDbEntity
  8
AM_9
100
AcDbEllipse
 10
-0.0000000000000043
 20
2.953427469221928
 30
0.0
 11
-0.1312419113468949
 21
1.607249866449556E-17
 31
0.0
210
0.0
220
0.0
230
1.0
 40
0.4999999999999969
 41
2.894675035744537
 42
3.141592653589793
  0
ELLIPSE
  5
117
330
EA
100
AcDbEntity
  8
AM_9
100
AcDbEllipse
 10
0.0
 20
3.046043680856945
 30
0.0
 11
-0.1038190510530391
 21
1.547024427447801E-9
 31
0.0
210
0.0
220
0.0
230
1.0
 40
0.4999999999999943
 41
3.389185245518641
 42
6.018660133489486
  0
ELLIPSE
  5
118
330
EA
100
AcDbEntity
  8
AM_9
100
AcDbEllipse
 10
0.0000000000000001
 20
2.988646530926522
 30
0.0
 11
-0.1319517646676801
 21
1.615943062421193E-17
 31
0.0
210
0.0
220
0.0
230
1.0
 40
0.5000000000000072
 41
3.389185217058756
 42
6.035592743710622
  0
ELLIPSE
  5
119
330
EA
100
AcDbEntity
  8
AM_9
100
AcDbEllipse
 10
-0.0000000000000008
 20
2.587250893806007
 30
0.0
 11
-0.1000886227036586
 21
1.225732114251026E-17
 31
0.0
210
0.0
220
0.0
230
1.0
 40
0.4999999999999922
 41
0.0
 42
6.283185307179586
  0
ELLIPSE
  5
11A
330
EA
100
AcDbEntity
  8
AM_9
100
AcDbEllipse
 10
0.0000000000000005
 20
2.760455974562898
 30
0.0
 11
-0.1406500000000004
 21
1.722465723000757E-17
 31
0.0
210
0.0
220
0.0
230
1.0
 40
0.5000000000000049
 41
0.0
 42
6.283185307179586
  0
ELLIPSE
  5
11B
330
EA
100
AcDbEntity
  8
AM_9
100
AcDbEllipse
 10
-0.0000000000001683
 20
2.760455974565899
 30
0.0
 11
-0.1163438171534456
 21
1.424800832775520E-17
 31
0.0
210
0.0
220
0.0
230
1.0
 40
0.5000000000000893
 41
0.0
 42
6.283185307179586
  0
LWPOLYLINE
  5
11C
330
EA
100
AcDbEntity
  8
AM_4
100
AcDbPolyline
 90
        3
 70
     0
 43
0.0
 10
-0.0947254828950638
 20
2.874470018527556
 10
-0.1014141150849085
 20
2.869669322575732
 10
-0.1218064730422812
 20
2.85335350148186
  0
LWPOLYLINE
  5
11D
330
EA
100
AcDbEntity
  8
AM_4
100
AcDbPolyline
 90
        3
 70
     0
 43
0.0
 10
0.1087203353068034
 20
2.864126175496138
 10
0.1015053942019012
 20
2.869602046238101
 10
0.0948377856113114
 20
2.874391457456142
  0
LINE
  5
11E
330
EA
100
AcDbEntity
  8
AM_4
100
AcDbLine
 10
0.1218064730422814
 20
2.85335350148186
 30
0.0
 11
0.1087203353068034
 21
2.864126175496138
 31
0.0
  0
LWPOLYLINE
  5
11F
330
EA
100
AcDbEntity
  8
AM_4
100
AcDbPolyline
 90
        3
 70
     0
 43
0.0
 10
-0.1218064730422812
 20
2.85335350148186
 10
-0.1421075518826614
 20
2.834439546238102
 10
-0.1624086307230416
 20
2.813141893650985
  0
LWPOLYLINE
  5
120
330
EA
100
AcDbEntity
  8
AM_4
100
AcDbPolyline
 90
        3
 70
     0
 43
0.0
 10
0.1624086307230418
 20
2.813141893650985
 10
0.1421988309996541
 20
2.834348722507432
 10
0.1218064730422814
 20
2.85335350148186
  0
LINE
  5
121
330
EA
100
AcDbEntity
  8
AM_4
100
AcDbLine
 10
-0.1624086307230416
 20
2.813141893650985
 30
0.0
 11
-0.1624086307230416
 21
2.765505082393772
 31
0.0
  0
LWPOLYLINE
  5
122
330
EA
100
AcDbEntity
  8
AM_4
100
AcDbPolyline
 90
        3
 70
     0
 43
0.0
 10
-0.1218064730422812
 20
2.725293474562898
 10
-0.1421075518826614
 20
2.744207429806656
 10
-0.1624086307230416
 20
2.765505082393772
  0
LWPOLYLINE
  5
123
330
EA
100
AcDbEntity
  8
AM_4
100
AcDbPolyline
 90
        3
 70
     0
 43
0.0
 10
-0.0812043153615208
 20
2.695180082393772
 10
-0.1014141150849085
 20
2.708977653469025
 10
-0.1218064730422812
 20
2.725293474562898
  0
LWPOLYLINE
  5
124
330
EA
100
AcDbEntity
  8
AM_4
100
AcDbPolyline
 90
        3
 70
     0
 43
0.0
 10
-0.1624086307230416
 20
2.813141893650985
 10
-0.1421988309996539
 20
2.799344322575732
 10
-0.1218064730422812
 20
2.78302850148186
  0
LINE
  5
125
330
EA
100
AcDbEntity
  8
AM_4
100
AcDbLine
 10
-0.0812043153615207
 20
2.742816893650986
 30
0.0
 11
-0.0812043153615208
 21
2.695180082393772
 31
0.0
  0
LWPOLYLINE
  5
126
330
EA
100
AcDbEntity
  8
AM_4
100
AcDbPolyline
 90
        3
 70
     0
 43
0.0
 10
0.0000000000000001
 20
2.690130974562897
 10
-0.0406021576807603
 20
2.691463679806656
 10
-0.0812043153615208
 20
2.695180082393772
  0
LWPOLYLINE
  5
127
330
EA
100
AcDbEntity
  8
AM_4
100
AcDbPolyline
 90
        4
 70
     0
 43
0.0
 10
0.081204315361521
 20
2.695180082393772
 10
0.0623017518439032
 20
2.693189601729738
 10
0.0312428256208205
 20
2.690926498338752
 10
0.0000000000000001
 20
2.690130974562897
  0
LINE
  5
128
330
EA
100
AcDbEntity
  8
AM_4
100
AcDbLine
 10
0.081204315361521
 20
2.742816893650986
 30
0.0
 11
0.081204315361521
 21
2.695180082393772
 31
0.0
  0
LWPOLYLINE
  5
129
330
EA
100
AcDbEntity
  8
AM_4
100
AcDbPolyline
 90
        3
 70
     0
 43
0.0
 10
0.1218064730422814
 20
2.725293474562898
 10
0.1015053942019012
 20
2.709044929806656
 10
0.081204315361521
 20
2.695180082393772
  0
LWPOLYLINE
  5
12A
330
EA
100
AcDbEntity
  8
AM_4
100
AcDbPolyline
 90
        3
 70
     0
 43
0.0
 10
0.1624086307230418
 20
2.765505082393772
 10
0.1421988309996541
 20
2.744298253537326
 10
0.1218064730422814
 20
2.725293474562898
  0
LINE
  5
12B
330
EA
100
AcDbEntity
  8
AM_4
100
AcDbLine
 10
0.1624086307230418
 20
2.813141893650985
 30
0.0
 11
0.1624086307230418
 21
2.765505082393772
 31
0.0
  0
LWPOLYLINE
  5
12C
330
EA
100
AcDbEntity
  8
AM_4
100
AcDbPolyline
 90
        3
 70
     0
 43
0.0
 10
0.1218064730422814
 20
2.78302850148186
 10
0.1421075518826616
 20
2.799277046238101
 10
0.1624086307230418
 20
2.813141893650985
  0
LWPOLYLINE
  5
12D
330
EA
100
AcDbEntity
  8
AM_4
100
AcDbPolyline
 90
        3
 70
     0
 43
0.0
 10
-0.1218064730422812
 20
2.78302850148186
 10
-0.101505394201901
 20
2.764114546238102
 10
-0.0812043153615207
 20
2.742816893650986
  0
LWPOLYLINE
  5
12E
330
EA
100
AcDbEntity
  8
AM_4
100
AcDbPolyline
 90
        3
 70
     0
 43
0.0
 10
-0.0812043153615207
 20
2.742816893650986
 10
-0.0407847159147454
 20
2.746521522541582
 10
0.0000000000000001
 20
2.74786600148186
  0
LWPOLYLINE
  5
12F
330
EA
100
AcDbEntity
  8
AM_4
100
AcDbPolyline
 90
        4
 70
     0
 43
0.0
 10
0.0000000000000001
 20
2.74786600148186
 10
0.0311508759219517
 20
2.747075098065769
 10
0.0623017518439032
 20
2.74480737431502
 10
0.081204315361521
 20
2.742816893650986
  0
LWPOLYLINE
  5
130
330
EA
100
AcDbEntity
  8
AM_4
100
AcDbPolyline
 90
        3
 70
     0
 43
0.0
 10
0.081204315361521
 20
2.742816893650986
 10
0.1014141150849087
 20
2.764023722507432
 10
0.1218064730422814
 20
2.78302850148186
  0
ELLIPSE
  5
131
330
EA
100
AcDbEntity
  8
AM_4
100
AcDbEllipse
 10
-0.0000000000000007
 20
2.81819100148186
 30
0.0
 11
-0.1406499999999984
 21
1.722465723000733E-17
 31
0.0
210
0.0
220
0.0
230
1.0
 40
0.5000000000000087
 41
5.667705598509206
 42
10.04025766943975
  0
LINE
  5
132
330
EA
100
AcDbEntity
  8
AM_4
100
AcDbLine
 10
-0.0951130639100447
 20
2.872742382053919
 30
0.0
 11
-0.1148402441074846
 21
2.85879315916262
 31
0.0
  0
LINE
  5
133
330
EA
100
AcDbEntity
  8
AM_4
100
AcDbLine
 10
0.1148402441074848
 20
2.85879315916262
 30
0.0
 11
0.0951348305996825
 21
2.872726990680073
 31
0.0
  0
ELLIPSE
  5
134
330
EA
100
AcDbEntity
  8
AM_4
100
AcDbEllipse
 10
0.0000000000000001
 20
2.845315392940264
 30
0.0
 11
-0.1093294505797713
 21
1.338899617050557E-17
 31
0.0
210
0.0
220
0.0
230
1.0
 40
0.5000000000000009
 41
5.789889150032701
 42
9.916903954976313
  0
LWPOLYLINE
  5
135
330
EA
100
AcDbEntity
  8
AM_4
100
AcDbPolyline
 90
        4
 70
     0
 43
0.0
 10
0.0946847896390989
 20
2.875934014725054
 10
0.094787413802747
 20
2.877609339806755
 10
0.0953778261123096
 20
2.880125106760831
 10
0.0957007877379184
 20
2.880858226268497
  0
LWPOLYLINE
  5
136
330
EA
100
AcDbEntity
  8
AM_4
100
AcDbPolyline
 90
        5
 70
     0
 43
0.0
 10
-0.0950214799287158
 20
2.878927244537932
 10
-0.094684928890289
 20
2.875996073544013
 10
-0.0951542521248876
 20
2.872429364575921
 10
-0.0956636568013144
 20
2.871079246227776
 10
-0.0957089489758412
 20
2.870995487462073
  0
LWPOLYLINE
  5
137
330
EA
100
AcDbEntity
  8
AM_4
100
AcDbPolyline
 90
        4
 70
     0
 43
0.0
 10
-0.0956948129188639
 20
2.880847449672866
 10
-0.0956167414608038
 20
2.880694550114407
 10
-0.0950672724607876
 20
2.879115206986652
 10
-0.0950214799287158
 20
2.878927244537932
  0
LWPOLYLINE
  5
138
330
EA
100
AcDbEntity
  8
AM_4
100
AcDbPolyline
 90
        5
 70
     0
 43
0.0
 10
0.0957089489758414
 20
2.870995487462073
 10
0.0956996807413309
 20
2.871011784776965
 10
0.0952697283226906
 20
2.87205281365569
 10
0.0947402888032205
 20
2.874698788338341
 10
0.0946847896390989
 20
2.875934014725054
  0
LINE
  5
139
330
EA
100
AcDbEntity
  8
AM_4
100
AcDbLine
 10
0.0957004741016687
 20
2.880857665592093
 30
0.0
 11
0.1263961853608578
 21
2.935760808387125
 31
0.0
  0
LINE
  5
13A
330
EA
100
AcDbEntity
  8
AM_4
100
AcDbLine
 10
-0.1263961853608576
 20
2.935760808387125
 30
0.0
 11
-0.0957004741016685
 21
2.880857665592093
 31
0.0
  0
ELLIPSE
  5
13B
330
EA
100
AcDbEntity
  8
AM_4
100
AcDbEllipse
 10
0.0000000000000001
 20
2.894233922263588
 30
0.0
 11
-0.09936940028726657
 21
1.216924179949931E-17
 31
0.0
210
0.0
220
0.0
230
1.0
 40
0.5000000000000008
 41
0.272585998318795
 42
2.869006655270999
  0
LWPOLYLINE
  5
13C
330
EA
100
AcDbEntity
  8
AM_4
100
AcDbPolyline
 90
        5
 70
     0
 43
0.0
 10
0.1359265219950581
 20
2.971727376760468
 10
0.1350166660314345
 20
2.983104369887299
 10
0.1322234550668284
 20
2.994505990952821
 10
0.1277290836836457
 20
3.005205850465059
 10
0.1275503950585839
 20
3.00555225588847
  0
LWPOLYLINE
  5
13D
330
EA
100
AcDbEntity
  8
AM_4
100
AcDbPolyline
 90
        8
 70
     0
 43
0.0
 10
-0.1278207297716955
 20
3.005026515045191
 10
-0.1308588609361424
 20
2.998275715363709
 10
-0.1342067516731111
 20
2.987334472186923
 10
-0.1358520671164885
 20
2.974989280935284
 10
-0.1353824104863933
 20
2.962920624044996
 10
-0.1329836164533032
 20
2.951378883634914
 10
-0.1288472364114625
 20
2.940520750527648
 10
-0.1263652544027888
 20
2.935705536594608
  0
LWPOLYLINE
  5
13E
330
EA
100
AcDbEntity
  8
AM_4
100
AcDbPolyline
 90
        5
 70
     0
 43
0.0
 10
0.1262719526608117
 20
2.935539439439219
 10
0.1298073671452494
 20
2.942637960067899
 10
0.1335674972861753
 20
2.953480048142834
 10
0.1356849786176136
 20
2.96585484247018
 10
0.1359265219950581
 20
2.971727376760468
  0
ELLIPSE
  5
13F
330
EA
100
AcDbEntity
  8
AM_4
100
AcDbEllipse
 10
0.0000000000000002
 20
2.953427469221935
 30
0.0
 11
-0.1312419113468904
 21
1.607249866449500E-17
 31
0.0
210
0.0
220
0.0
230
1.0
 40
0.4999999999999872
 41
0.2724604755692326
 42
2.86729373768961
  0
ELLIPSE
  5
140
330
EA
100
AcDbEntity
  8
AM_4
100
AcDbEllipse
 10
0.0000000000000001
 20
3.059234738868529
 30
0.0
 11
0.08080642971672804
 21
0.0
 31
0.0
210
0.0
220
0.0
230
1.0
 40
0.4999999999999992
 41
0.0
 42
6.283185307179586
  0
LWPOLYLINE
  5
141
330
EA
100
AcDbEntity
  8
AM_4
100
AcDbPolyline
 90
       20
 70
     0
 43
0.0
 10
0.1002488405860266
 20
3.059547989383662
 10
0.0985766213264203
 20
3.062483756239877
 10
0.0927973025424704
 20
3.070296470752989
 10
0.0853421688028708
 20
3.077538038212768
 10
0.0761224754248061
 20
3.084164980029303
 10
0.0651992121898753
 20
3.090011450278096
 10
0.0528916061142762
 20
3.094864387589387
 10
0.039657862407373
 20
3.098588153908646
 10
0.0257942189787046
 20
3.101172996157444
 10
0.0115428295530247
 20
3.102629094713241
 10
-0.0028722168823084
 20
3.102965210326209
 10
-0.0172315049789236
 20
3.102185565895173
 10
-0.031306615982584
 20
3.100291523329402
 10
-0.0448887882116058
 20
3.097277030968732
 10
-0.0577896954860526
 20
3.093115643912846
 10
-0.069827440708624
 20
3.087744578077523
 10
-0.0807891203328002
 20
3.081055009788963
 10
-0.0893277383610553
 20
3.073947795031464
 10
-0.0960802942899666
 20
3.066204898240779
 10
-0.0999620774937219
 20
3.060084048351531
  0
ELLIPSE
  5
142
330
EA
100
AcDbEntity
  8
AM_4
100
AcDbEllipse
 10
0.0000000000000001
 20
2.988646530926522
 30
0.0
 11
-0.1319517646676801
 21
1.615943062421193E-17
 31
0.0
210
0.0
220
0.0
230
1.0
 40
0.5000000000000037
 41
6.035592743710621
 42
9.672370524238344
  0
ELLIPSE
  5
143
330
EA
100
AcDbEntity
  8
AM_4
100
AcDbEllipse
 10
0.0000000000000001
 20
3.046043680856945
 30
0.0
 11
-0.1038190510530389
 21
1.271416685626198E-17
 31
0.0
210
0.0
220
0.0
230
1.0
 40
0.499999999999995
 41
6.035592743710622
 42
9.672370524238342
  0
LINE
  5
144
330
EA
100
AcDbEntity
  8
AM_4
100
AcDbLine
 10
-0.1006531122094678
 20
3.058765181987921
 30
0.0
 11
-0.1279279249869863
 21
3.004815283255001
 31
0.0
  0
LINE
  5
145
330
EA
100
AcDbEntity
  8
AM_4
100
AcDbLine
 10
0.1279279249869865
 20
3.004815283255001
 30
0.0
 11
0.100653112209468
 21
3.058765181987921
 31
0.0
  0
ENDBLK
  5
ED
330
EA
100
AcDbEntity
  8
0
100
AcDbBlockEnd
  0
BLOCK
  5
148
330
146
100
AcDbEntity
  8
0
100
AcDbBlockBegin
  2
4_048026B_0_in_048026_2
 70
     2
 10
0.0
 20
0.0
 30
0.0
  3
4_048026B_0_in_048026_2
  1

  0
ATTDEF
  5
14A
330
146
100
AcDbEntity
  8
AM_6
100
AcDbText
 10
6.409375
 20
3.187500000000006
 30
0.0
 40
0.5
  1
Unisphere II - Pillow Block Bearing - Inch - Body
100
AcDbAttributeDefinition
  3

  2
NN
 70
     8
280
     0
  0
ATTDEF
  5
14B
330
146
100
AcDbEntity
  8
AM_6
100
AcDbText
 10
6.409375
 20
2.687500000000006
 30
0.0
 40
0.5
  1
Unisphere II
100
AcDbAttributeDefinition
  3

  2
NT
 70
     8
280
     0
  0
ATTDEF
  5
14C
330
146
100
AcDbEntity
  8
AM_6
100
AcDbText
 10
6.409375
 20
2.187500000000006
 30
0.0
 40
0.5
  1
048026B
100
AcDbAttributeDefinition
  3

  2
NB
 70
     8
280
     0
  0
ATTDEF
  5
14D
330
146
100
AcDbEntity
  8
AM_6
100
AcDbText
 10
6.409375
 20
1.687500000000006
 30
0.0
 40
0.5
  1
$PN.
100
AcDbAttributeDefinition
  3

  2
NBSYN
 70
     8
280
     0
  0
ATTDEF
  5
14E
330
146
100
AcDbEntity
  8
AM_6
100
AcDbText
 10
6.409375
 20
1.187500000000006
 30
0.0
 40
0.5
  1
048026B
100
AcDbAttributeDefinition
  3

  2
LINA
 70
     8
280
     0
  0
ATTDEF
  5
14F
330
146
100
AcDbEntity
  8
AM_6
100
AcDbText
 10
6.409375
 20
0.6875000000000062
 30
0.0
 40
0.5
  1
2-11/16
100
AcDbAttributeDefinition
  3

  2
SS
 70
     8
280
     0
  0
ATTDEF
  5
150
330
146
100
AcDbEntity
  8
AM_6
100
AcDbText
 10
6.409375
 20
0.1875000000000062
 30
0.0
 40
0.5
  1
2.68750
100
AcDbAttributeDefinition
  3

  2
SS1
 70
     8
280
     0
  0
ATTDEF
  5
151
330
146
100
AcDbEntity
  8
AM_6
100
AcDbText
 10
6.409375
 20
-0.3124999999999938
 30
0.0
 40
0.5
  1
Expansion Type
100
AcDbAttributeDefinition
  3

  2
TYPE
 70
     8
280
     0
  0
ATTDEF
  5
152
330
146
100
AcDbEntity
  8
AM_6
100
AcDbText
 10
6.409375
 20
-0.8124999999999938
 30
0.0
 40
0.5
  1
048009B
100
AcDbAttributeDefinition
  3

  2
PNNE
 70
     8
280
     0
  0
ATTDEF
  5
153
330
146
100
AcDbEntity
  8
AM_6
100
AcDbText
 10
6.409375
 20
-1.312499999999994
 30
0.0
 40
0.5
  1
048026B
100
AcDbAttributeDefinition
  3

  2
PNE
 70
     8
280
     0
  0
ATTDEF
  5
154
330
146
100
AcDbEntity
  8
AM_6
100
AcDbText
 10
6.409375
 20
-1.812499999999994
 30
0.0
 40
0.5
  1
P2B-UN2-211
100
AcDbAttributeDefinition
  3

  2
DESCRIPTIONNE
 70
     8
280
     0
  0
ATTDEF
  5
155
330
146
100
AcDbEntity
  8
AM_6
100
AcDbText
 10
6.409375
 20
-2.312499999999994
 30
0.0
 40
0.5
  1
P2B-UN2-211E
100
AcDbAttributeDefinition
  3

  2
DESCRIPTIONE
 70
     8
280
     0
  0
ATTDEF
  5
156
330
146
100
AcDbEntity
  8
AM_6
100
AcDbText
 10
6.409375
 20
-2.812499999999994
 30
0.0
 40
0.5
  1
19.3
100
AcDbAttributeDefinition
  3

  2
WEIGHT
 70
     8
280
     0
  0
ATTDEF
  5
157
330
146
100
AcDbEntity
  8
AM_6
100
AcDbText
 10
6.409375
 20
-3.312499999999994
 30
0.0
 40
0.5
  1
2-29/64
100
AcDbAttributeDefinition
  3

  2
A
 70
     8
280
     0
  0
ATTDEF
  5
158
330
146
100
AcDbEntity
  8
AM_6
100
AcDbText
 10
6.409375
 20
-3.812499999999994
 30
0.0
 40
0.5
  1
2.45313
100
AcDbAttributeDefinition
  3

  2
A1
 70
     8
280
     0
  0
ATTDEF
  5
159
330
146
100
AcDbEntity
  8
AM_6
100
AcDbText
 10
6.409375
 20
-4.312499999999994
 30
0.0
 40
0.5
  1
10-7/16
100
AcDbAttributeDefinition
  3

  2
B
 70
     8
280
     0
  0
ATTDEF
  5
15A
330
146
100
AcDbEntity
  8
AM_6
100
AcDbText
 10
6.409375
 20
-4.812499999999994
 30
0.0
 40
0.5
  1
10.43750
100
AcDbAttributeDefinition
  3

  2
B1
 70
     8
280
     0
  0
ATTDEF
  5
15B
330
146
100
AcDbEntity
  8
AM_6
100
AcDbText
 10
6.409375
 20
-5.312499999999994
 30
0.0
 40
0.5
  1
2-9/16
100
AcDbAttributeDefinition
  3

  2
C
 70
     8
280
     0
  0
ATTDEF
  5
15C
330
146
100
AcDbEntity
  8
AM_6
100
AcDbText
 10
6.409375
 20
-5.812499999999994
 30
0.0
 40
0.5
  1
2.56250
100
AcDbAttributeDefinition
  3

  2
C1
 70
     8
280
     0
  0
ATTDEF
  5
15D
330
146
100
AcDbEntity
  8
AM_6
100
AcDbText
 10
6.409375
 20
-6.312499999999994
 30
0.0
 40
0.5
  1
7-13/16
100
AcDbAttributeDefinition
  3

  2
DMIN
 70
     8
280
     0
  0
ATTDEF
  5
15E
330
146
100
AcDbEntity
  8
AM_6
100
AcDbText
 10
6.409375
 20
-6.812499999999994
 30
0.0
 40
0.5
  1
7.81250
100
AcDbAttributeDefinition
  3

  2
DMIN1
 70
     8
280
     0
  0
ATTDEF
  5
15F
330
146
100
AcDbEntity
  8
AM_6
100
AcDbText
 10
6.409375
 20
-7.312499999999994
 30
0.0
 40
0.5
  1
8-7/16
100
AcDbAttributeDefinition
  3

  2
DMAX
 70
     8
280
     0
  0
ATTDEF
  5
160
330
146
100
AcDbEntity
  8
AM_6
100
AcDbText
 10
6.409375
 20
-7.812499999999994
 30
0.0
 40
0.5
  1
8.43750
100
AcDbAttributeDefinition
  3

  2
DMAX1
 70
     8
280
     0
  0
ATTDEF
  5
161
330
146
100
AcDbEntity
  8
AM_6
100
AcDbText
 10
6.409375
 20
-8.312499999999993
 30
0.0
 40
0.5
  1
3/16
100
AcDbAttributeDefinition
  3

  2
E
 70
     8
280
     0
  0
ATTDEF
  5
162
330
146
100
AcDbEntity
  8
AM_6
100
AcDbText
 10
6.409375
 20
-8.812499999999993
 30
0.0
 40
0.5
  1
0.18750
100
AcDbAttributeDefinition
  3

  2
E1
 70
     8
280
     0
  0
ATTDEF
  5
163
330
146
100
AcDbEntity
  8
AM_6
100
AcDbText
 10
6.409375
 20
-9.312499999999993
 30
0.0
 40
0.5
  1
3/4
100
AcDbAttributeDefinition
  3

  2
F
 70
     8
280
     0
  0
ATTDEF
  5
164
330
146
100
AcDbEntity
  8
AM_6
100
AcDbText
 10
6.409375
 20
-9.812499999999993
 30
0.0
 40
0.5
  1
0.75000
100
AcDbAttributeDefinition
  3

  2
F1
 70
     8
280
     0
  0
ATTDEF
  5
165
330
146
100
AcDbEntity
  8
AM_6
100
AcDbText
 10
6.409375
 20
-10.31249999999999
 30
0.0
 40
0.5
  1
1-1/8
100
AcDbAttributeDefinition
  3

  2
G
 70
     8
280
     0
  0
ATTDEF
  5
166
330
146
100
AcDbEntity
  8
AM_6
100
AcDbText
 10
6.409375
 20
-10.81249999999999
 30
0.0
 40
0.5
  1
1.12500
100
AcDbAttributeDefinition
  3

  2
G1
 70
     8
280
     0
  0
ATTDEF
  5
167
330
146
100
AcDbEntity
  8
AM_6
100
AcDbText
 10
6.409375
 20
-11.31249999999999
 30
0.0
 40
0.5
  1
2-1/4
100
AcDbAttributeDefinition
  3

  2
H
 70
     8
280
     0
  0
ATTDEF
  5
168
330
146
100
AcDbEntity
  8
AM_6
100
AcDbText
 10
6.409375
 20
-11.81249999999999
 30
0.0
 40
0.5
  1
2.25000
100
AcDbAttributeDefinition
  3

  2
H1
 70
     8
280
     0
  0
ATTDEF
  5
169
330
146
100
AcDbEntity
  8
AM_6
100
AcDbText
 10
6.409375
 20
-12.31249999999999
 30
0.0
 40
0.5
  1
6-7/16
100
AcDbAttributeDefinition
  3

  2
J
 70
     8
280
     0
  0
ATTDEF
  5
16A
330
146
100
AcDbEntity
  8
AM_6
100
AcDbText
 10
6.409375
 20
-12.81249999999999
 30
0.0
 40
0.5
  1
6.43750
100
AcDbAttributeDefinition
  3

  2
J1
 70
     8
280
     0
  0
ATTDEF
  5
16B
330
146
100
AcDbEntity
  8
AM_6
100
AcDbText
 10
6.409375
 20
-13.31249999999999
 30
0.0
 40
0.5
  1
4-23/32
100
AcDbAttributeDefinition
  3

  2
L
 70
     8
280
     0
  0
ATTDEF
  5
16C
330
146
100
AcDbEntity
  8
AM_6
100
AcDbText
 10
6.409375
 20
-13.81249999999999
 30
0.0
 40
0.5
  1
4.71875
100
AcDbAttributeDefinition
  3

  2
L1
 70
     8
280
     0
  0
ATTDEF
  5
16D
330
146
100
AcDbEntity
  8
AM_6
100
AcDbText
 10
6.409375
 20
-14.31249999999999
 30
0.0
 40
0.5
  1
3-1/4
100
AcDbAttributeDefinition
  3

  2
M
 70
     8
280
     0
  0
ATTDEF
  5
16E
330
146
100
AcDbEntity
  8
AM_6
100
AcDbText
 10
6.409375
 20
-14.81249999999999
 30
0.0
 40
0.5
  1
3.25000
100
AcDbAttributeDefinition
  3

  2
M1
 70
     8
280
     0
  0
ATTDEF
  5
16F
330
146
100
AcDbEntity
  8
AM_6
100
AcDbText
 10
6.409375
 20
-15.31249999999999
 30
0.0
 40
0.5
  1
49/64
100
AcDbAttributeDefinition
  3

  2
R
 70
     8
280
     0
  0
ATTDEF
  5
170
330
146
100
AcDbEntity
  8
AM_6
100
AcDbText
 10
6.409375
 20
-15.81249999999999
 30
0.0
 40
0.5
  1
0.76563
100
AcDbAttributeDefinition
  3

  2
R1
 70
     8
280
     0
  0
ATTDEF
  5
171
330
146
100
AcDbEntity
  8
AM_6
100
AcDbText
 10
6.409375
 20
-16.31249999999999
 30
0.0
 40
0.5
  1
1-11/16
100
AcDbAttributeDefinition
  3

  2
S
 70
     8
280
     0
  0
ATTDEF
  5
172
330
146
100
AcDbEntity
  8
AM_6
100
AcDbText
 10
6.409375
 20
-16.81249999999999
 30
0.0
 40
0.5
  1
1.68750
100
AcDbAttributeDefinition
  3

  2
S1
 70
     8
280
     0
  0
ATTDEF
  5
173
330
146
100
AcDbEntity
  8
AM_6
100
AcDbText
 10
6.409375
 20
-17.31249999999999
 30
0.0
 40
0.5
  1
1700
100
AcDbAttributeDefinition
  3

  2
MRP
 70
     8
280
     0
  0
ATTDEF
  5
174
330
146
100
AcDbEntity
  8
AM_6
100
AcDbText
 10
6.409375
 20
-17.81249999999999
 30
0.0
 40
0.5
  1
53000
100
AcDbAttributeDefinition
  3

  2
CS
 70
     8
280
     0
  0
ATTDEF
  5
175
330
146
100
AcDbEntity
  8
AM_6
100
AcDbText
 10
6.409375
 20
-18.31249999999999
 30
0.0
 40
0.5
  1
41500
100
AcDbAttributeDefinition
  3

  2
CD
 70
     8
280
     0
  0
ATTDEF
  5
176
330
146
100
AcDbEntity
  8
AM_6
100
AcDbText
 10
6.409375
 20
-18.81249999999999
 30
0.0
 40
0.5
  1
20
100
AcDbAttributeDefinition
  3

  2
RN
 70
     8
280
     0
  0
ATTDEF
  5
177
330
146
100
AcDbEntity
  8
AM_6
100
AcDbText
 10
6.409375
 20
-19.31249999999999
 30
0.0
 40
0.5
  1
0.5748
100
AcDbAttributeDefinition
  3

  2
RM
 70
     8
280
     0
  0
ATTDEF
  5
178
330
146
100
AcDbEntity
  8
AM_6
100
AcDbText
 10
6.409375
 20
-19.81249999999999
 30
0.0
 40
0.5
  1
4.197
100
AcDbAttributeDefinition
  3

  2
PDI
 70
     8
280
     0
  0
ATTDEF
  5
179
330
146
100
AcDbEntity
  8
AM_6
100
AcDbText
 10
6.409375
 20
-20.31249999999999
 30
0.0
 40
0.5
  1
0.0020-0.0031
100
AcDbAttributeDefinition
  3

  2
RC
 70
     8
280
     0
  0
ATTDEF
  5
17A
330
146
100
AcDbEntity
  8
AM_6
100
AcDbText
 10
6.409375
 20
-20.81249999999999
 30
0.0
 40
0.5
  1
1/2-13x7/8
100
AcDbAttributeDefinition
  3

  2
COS
 70
     8
280
     0
  0
ATTDEF
  5
17B
330
146
100
AcDbEntity
  8
AM_6
100
AcDbText
 10
6.409375
 20
-21.31249999999999
 30
0.0
 40
0.5
  1
620
100
AcDbAttributeDefinition
  3

  2
CT
 70
     8
280
     0
  0
ATTDEF
  5
17C
330
146
100
AcDbEntity
  8
AM_6
100
AcDbText
 10
6.409375
 20
-21.81249999999999
 30
0.0
 40
0.5
  1
Ductile Iron Grade 65-45-13 ASTM A536
100
AcDbAttributeDefinition
  3

  2
MH
 70
     8
280
     0
  0
ATTDEF
  5
17D
330
146
100
AcDbEntity
  8
AM_6
100
AcDbText
 10
6.409375
 20
-22.31249999999999
 30
0.0
 40
0.5
  1
4118 Case Carb,
100
AcDbAttributeDefinition
  3

  2
MIR
 70
     8
280
     0
  0
ATTDEF
  5
17E
330
146
100
AcDbEntity
  8
AM_6
100
AcDbText
 10
6.409375
 20
-22.81249999999999
 30
0.0
 40
0.5
  1
E52100 Steel
100
AcDbAttributeDefinition
  3

  2
MOR
 70
     8
280
     0
  0
ATTDEF
  5
17F
330
146
100
AcDbEntity
  8
AM_6
100
AcDbText
 10
6.409375
 20
-23.31249999999999
 30
0.0
 40
0.5
  1
Polyamide
100
AcDbAttributeDefinition
  3

  2
MR
 70
     8
280
     0
  0
ATTDEF
  5
180
330
146
100
AcDbEntity
  8
AM_6
100
AcDbText
 10
6.409375
 20
-23.81249999999999
 30
0.0
 40
0.5
  1
E52100 Steel
100
AcDbAttributeDefinition
  3

  2
MRO
 70
     8
280
     0
  0
ATTDEF
  5
181
330
146
100
AcDbEntity
  8
AM_6
100
AcDbText
 10
6.409375
 20
-24.31249999999999
 30
0.0
 40
0.5
  1
2°
100
AcDbAttributeDefinition
  3

  2
SM
 70
     8
280
     0
  0
ATTDEF
  5
182
330
146
100
AcDbEntity
  8
AM_6
100
AcDbText
 10
6.409375
 20
-24.81249999999999
 30
0.0
 40
0.5
  1
baldor
100
AcDbAttributeDefinition
  3

  2
COMPANY
 70
     8
280
     0
  0
LINE
  5
183
330
146
100
AcDbEntity
  8
AM_9
100
AcDbLine
 10
-1.213538632686084
 20
-2.229375
 30
0.0
 11
1.213538632686084
 21
-2.229375
 31
0.0
  0
LINE
  5
184
330
146
100
AcDbEntity
  8
AM_9
100
AcDbLine
 10
-0.6099671052631578
 20
-2.359375
 30
0.0
 11
0.609967105263158
 21
-2.359375
 31
0.0
  0
LINE
  5
185
330
146
100
AcDbEntity
  8
AM_9
100
AcDbLine
 10
0.609967105263158
 20
2.359375
 30
0.0
 11
-0.6099671052631578
 21
2.359375
 31
0.0
  0
ARC
  5
186
330
146
100
AcDbEntity
  8
AM_9
100
AcDbCircle
 10
-0.6099671052631586
 20
-2.42375
 30
0.0
 40
0.0643749999999992
100
AcDbArc
 50
90.0
 51
180.0
  0
ARC
  5
187
330
146
100
AcDbEntity
  8
AM_9
100
AcDbCircle
 10
-0.6099671052631586
 20
2.42375
 30
0.0
 40
0.0643749999999993
100
AcDbArc
 50
180.0
 51
270.0
  0
LINE
  5
188
330
146
100
AcDbEntity
  8
AM_9
100
AcDbLine
 10
-0.6099671052631578
 20
2.359375
 30
0.0
 11
-0.6099671052631578
 21
-2.359375
 31
0.0
  0
ARC
  5
189
330
146
100
AcDbEntity
  8
AM_9
100
AcDbCircle
 10
0.6099671052631581
 20
-2.42375
 30
0.0
 40
0.0643749999999997
100
AcDbArc
 50
0.0
 51
90.0
  0
ARC
  5
18A
330
146
100
AcDbEntity
  8
AM_9
100
AcDbCircle
 10
0.6099671052631579
 20
2.42375
 30
0.0
 40
0.0643750000000001
100
AcDbArc
 50
270.0
 51
0.0
  0
LINE
  5
18B
330
146
100
AcDbEntity
  8
AM_9
100
AcDbLine
 10
0.609967105263158
 20
2.359375
 30
0.0
 11
0.609967105263158
 21
-2.359375
 31
0.0
  0
LINE
  5
18C
330
146
100
AcDbEntity
  8
AM_9
100
AcDbLine
 10
-0.6743421052631584
 20
2.711360295076908
 30
0.0
 11
-0.6743421052631584
 21
-2.711360295076908
 31
0.0
  0
ARC
  5
18D
330
146
100
AcDbEntity
  8
AM_9
100
AcDbCircle
 10
-0.7387171052631573
 20
-2.711360294117647
 30
0.0
 40
0.0643749999999987
100
AcDbArc
 50
270.0
 51
0.0
  0
ARC
  5
18E
330
146
100
AcDbEntity
  8
AM_9
100
AcDbCircle
 10
-0.7387171052631571
 20
2.711360294117647
 30
0.0
 40
0.0643749999999987
100
AcDbArc
 50
0.0
 51
90.0
  0
LINE
  5
18F
330
146
100
AcDbEntity
  8
AM_9
100
AcDbLine
 10
-1.249785836664763
 20
-2.775735294117647
 30
0.0
 11
-0.7387171052631578
 21
-2.775735294117647
 31
0.0
  0
LINE
  5
190
330
146
100
AcDbEntity
  8
AM_9
100
AcDbLine
 10
-0.7387171052631578
 20
2.775735294117647
 30
0.0
 11
-0.8814843898724537
 21
2.775735294117647
 31
0.0
  0
LINE
  5
191
330
146
100
AcDbEntity
  8
AM_9
100
AcDbLine
 10
-0.7387171052631578
 20
2.775735294117647
 30
0.0
 11
-0.7387171052631578
 21
-2.775735294117647
 31
0.0
  0
LINE
  5
192
330
146
100
AcDbEntity
  8
AM_9
100
AcDbLine
 10
0.674342105263158
 20
2.711360294117647
 30
0.0
 11
0.674342105263158
 21
-2.711360294117647
 31
0.0
  0
ARC
  5
193
330
146
100
AcDbEntity
  8
AM_9
100
AcDbCircle
 10
0.7387171052631581
 20
-2.711360294117647
 30
0.0
 40
0.0643750000000002
100
AcDbArc
 50
180.0
 51
270.0
  0
ARC
  5
194
330
146
100
AcDbEntity
  8
AM_9
100
AcDbCircle
 10
0.7387171052631581
 20
2.711360294117647
 30
0.0
 40
0.0643750000000005
100
AcDbArc
 50
90.0
 51
180.0
  0
LINE
  5
195
330
146
100
AcDbEntity
  8
AM_9
100
AcDbLine
 10
0.7387171052631573
 20
-2.775735294117647
 30
0.0
 11
1.249785836664763
 21
-2.775735294117647
 31
0.0
  0
LINE
  5
196
330
146
100
AcDbEntity
  8
AM_9
100
AcDbLine
 10
0.8814843898724537
 20
2.775735294117647
 30
0.0
 11
0.7387171052631573
 21
2.775735294117647
 31
0.0
  0
LINE
  5
197
330
146
100
AcDbEntity
  8
AM_9
100
AcDbLine
 10
0.7387171052631573
 20
2.775735294117647
 30
0.0
 11
0.7387171052631573
 21
-2.775735294117647
 31
0.0
  0
LINE
  5
198
330
146
100
AcDbEntity
  8
AM_9
100
AcDbLine
 10
-0.3749999999999997
 20
-0.9999999999999999
 30
0.0
 11
-0.3749999999999997
 21
-3.25
 31
0.0
  0
LINE
  5
199
330
146
100
AcDbEntity
  8
AM_9
100
AcDbLine
 10
0.3750000000000005
 20
-1.0
 30
0.0
 11
0.3750000000000005
 21
-3.25
 31
0.0
  0
LINE
  5
19A
330
146
100
AcDbEntity
  8
AM_9
100
AcDbLine
 10
-0.3762019230769228
 20
-1.0
 30
0.0
 11
-0.3762019230769228
 21
-3.25
 31
0.0
  0
LINE
  5
19B
330
146
100
AcDbEntity
  8
AM_9
100
AcDbLine
 10
0.3762019230769235
 20
-3.25
 30
0.0
 11
0.3762019230769235
 21
-1.0
 31
0.0
  0
LINE
  5
19C
330
146
100
AcDbEntity
  8
AM_7
100
AcDbLine
 10
-1.6226565
 20
0.0
 30
0.0
 11
1.409375
 21
0.0
 31
0.0
  0
LINE
  5
19D
330
146
100
AcDbEntity
  8
AM_4
100
AcDbLine
 10
0.8541666666666663
 20
3.187500000000006
 30
0.0
 11
-0.8541666666666661
 21
3.187500000000006
 31
0.0
  0
LWPOLYLINE
  5
19E
330
146
100
AcDbEntity
  8
AM_4
100
AcDbPolyline
 90
       50
 70
     0
 43
0.0
 10
0.5854298443479692
 20
-0.1574074705505447
 10
0.5872001139482659
 20
0.0009099126778583
 10
0.5854450879040609
 20
0.1593411101787593
 10
0.5799814741856927
 20
0.3171747808347655
 10
0.5730286404799888
 20
0.4385087804277407
 10
0.5631192350259461
 20
0.5591348903367963
 10
0.5495741286017539
 20
0.6785680312275144
 10
0.531714191985602
 20
0.7963231237654765
 10
0.5152090500979968
 20
0.8825466121900102
 10
0.4952193467288092
 20
0.967653418695744
 10
0.4710047615566836
 20
1.050999306594908
 10
0.4418249742602637
 20
1.131940039199732
 10
0.4069396645181935
 20
1.209831379822446
 10
0.3795663569592996
 20
1.260514926875085
 10
0.3485951054508704
 20
1.309114212957109
 10
0.3136792922098813
 20
1.354961151345874
 10
0.2842457382564313
 20
1.387538527913019
 10
0.2519573811814561
 20
1.417895164910281
 10
0.2168628533281814
 20
1.445376952394145
 10
0.1790107870398333
 20
1.469329780421094
 10
0.1458546422238907
 20
1.485918850028737
 10
0.110880301987062
 20
1.499421565541263
 10
0.0745581235478012
 20
1.509377674829679
 10
0.0368792698268816
 20
1.515433267030852
 10
-0.0015022771566754
 20
1.517394402386506
 10
-0.0397115087473092
 20
1.515169287951644
 10
-0.073750303034805
 20
1.509527288298456
 10
-0.1070124723965308
 20
1.500674837943354
 10
-0.139010107019096
 20
1.488905839223298
 10
-0.1798372786279142
 20
1.468838257794515
 10
-0.2179612787052475
 20
1.444589085530821
 10
-0.2530664280642402
 20
1.416978305663315
 10
-0.2894711815003659
 20
1.382149967325802
 10
-0.3224551674278172
 20
1.344236671480393
 10
-0.3522010542899641
 20
1.303861725239738
 10
-0.3788915105301771
 20
1.261648435716484
 10
-0.4128863409082505
 20
1.197869423739606
 10
-0.4421168998393395
 20
1.131322713935117
 10
-0.4671238880395067
 20
1.062558503646745
 10
-0.4884480062248137
 20
0.9921269902182158
 10
-0.5066299551113225
 20
0.9205783709932559
 10
-0.5311265814942963
 20
0.8011397774422586
 10
-0.5500228571220837
 20
0.6792365529691664
 10
-0.5640856439426565
 20
0.5554295307936874
 10
-0.5740818039039868
 20
0.4302795441355294
 10
-0.5807781989540464
 20
0.3043474262144004
 10
-0.5849416910408068
 20
0.1781940102500084
 10
-0.5868545574007271
 20
0.0663836027009957
 10
-0.5870145004304071
 20
-0.0455661548266601
 10
-0.5854298443479683
 20
-0.1574074705505448
  0
LINE
  5
19F
330
146
100
AcDbEntity
  8
AM_4
100
AcDbLine
 10
-0.6406249999999997
 20
-2.125
 30
0.0
 11
-0.6406249999999997
 21
-1.206677612184587
 31
0.0
  0
LWPOLYLINE
  5
1A0
330
146
100
AcDbEntity
  8
AM_4
100
AcDbPolyline
 90
       13
 70
     0
 43
0.0
 10
-0.6406249999999997
 20
-1.206677612184587
 10
-0.6389787793798415
 20
-1.124475192457329
 10
-0.634582472974711
 20
-1.040069786843975
 10
-0.6282496139676254
 20
-0.9538347131177494
 10
-0.6205441122179636
 20
-0.8636102179845081
 10
-0.612314618866954
 20
-0.7717448608797982
 10
-0.6042505476797911
 20
-0.6785506085938867
 10
-0.5976980918342735
 20
-0.5940455834193613
 10
-0.5921472757268083
 20
-0.5086950332332209
 10
-0.5879250160670922
 20
-0.4227726431382461
 10
-0.5852797750987676
 20
-0.3344818867063918
 10
-0.584430543347249
 20
-0.245909684630825
 10
-0.5854298443479685
 20
-0.1574074705505467
  0
LINE
  5
1A1
330
146
100
AcDbEntity
  8
AM_4
100
AcDbLine
 10
-1.076078003709664
 20
-0.1574074705505475
 30
0.0
 11
-0.5854298443479682
 21
-0.1574074705505447
 31
0.0
  0
LINE
  5
1A2
330
146
100
AcDbEntity
  8
AM_4
100
AcDbLine
 10
0.6406250000000002
 20
-1.206677612184587
 30
0.0
 11
0.6406250000000002
 21
-2.125
 31
0.0
  0
LINE
  5
1A3
330
146
100
AcDbEntity
  8
AM_4
100
AcDbLine
 10
0.5854298443479692
 20
-0.1574074705505475
 30
0.0
 11
1.076078003709664
 21
-0.1574074705505475
 31
0.0
  0
LWPOLYLINE
  5
1A4
330
146
100
AcDbEntity
  8
AM_4
100
AcDbPolyline
 90
       13
 70
     0
 43
0.0
 10
0.5854298443479692
 20
-0.1574074705505468
 10
0.5844368688432384
 20
-0.2529827352002221
 10
0.5855941794236574
 20
-0.3486231889185843
 10
0.5888185235336484
 20
-0.4438879061775275
 10
0.5941208174853
 20
-0.5411976023567973
 10
0.6009827719312564
 20
-0.6376905741203073
 10
0.6088829182874468
 20
-0.7329822842846948
 10
0.6161431552274275
 20
-0.8145099205601463
 10
0.6232957548318758
 20
-0.8949300183720947
 10
0.6298512130350585
 20
-0.9740290236656344
 10
0.6354068682558273
 20
-1.053267363516781
 10
0.6392130215684633
 20
-1.130916317770267
 10
0.6406250000000009
 20
-1.206677612184586
  0
LINE
  5
1A5
330
146
100
AcDbEntity
  8
AM_4
100
AcDbLine
 10
-0.6249999999999998
 20
-0.9999999999999999
 30
0.0
 11
0.6250000000000003
 21
-0.9999999999999999
 31
0.0
  0
LINE
  5
1A6
330
146
100
AcDbEntity
  8
AM_4
100
AcDbLine
 10
0.6250000000000003
 20
-0.9999999999999999
 30
0.0
 11
0.6250000000000003
 21
-2.125
 31
0.0
  0
LINE
  5
1A7
330
146
100
AcDbEntity
  8
AM_4
100
AcDbLine
 10
-0.6249999999999998
 20
-0.9999999999999999
 30
0.0
 11
-0.6249999999999998
 21
-2.125
 31
0.0
  0
LINE
  5
1A8
330
146
100
AcDbEntity
  8
AM_4
100
AcDbLine
 10
-1.28125
 20
-3.25
 30
0.0
 11
1.28125
 21
-3.25
 31
0.0
  0
LINE
  5
1A9
330
146
100
AcDbEntity
  8
AM_4
100
AcDbLine
 10
-1.206614077669902
 20
-2.125
 30
0.0
 11
1.206614077669903
 21
-2.125
 31
0.0
  0
LINE
  5
1AA
330
146
100
AcDbEntity
  8
AM_4
100
AcDbLine
 10
-0.8541666666666661
 20
3.187500000000006
 30
0.0
 11
-1.28125
 21
-3.25
 31
0.0
  0
LINE
  5
1AB
330
146
100
AcDbEntity
  8
AM_4
100
AcDbLine
 10
1.28125
 20
-3.25
 30
0.0
 11
0.8541666666666663
 21
3.187500000000006
 31
0.0
  0
ENDBLK
  5
149
330
146
100
AcDbEntity
  8
0
100
AcDbBlockEnd
  0
ENDSEC
  0
SECTION
  2
ENTITIES
  0
INSERT
  5
6F
330
1F
100
AcDbEntity
  8
0
100
AcDbBlockReference
  2
1_048026_2
 10
0.0
 20
0.0
 30
0.0
  0
POINT
  5
1AD
330
1F
100
AcDbEntity
  8
ConnectionPoints
100
AcDbPoint
 10
0.0000000000000001
 20
2.760455974562897
 30
1.59375
  0
POINT
  5
1AE
330
1F
100
AcDbEntity
  8
ConnectionPoints
100
AcDbPoint
 10
0.0000000000000001
 20
2.760455974562897
 30
1.59375
  0
POINT
  5
1AF
330
1F
100
AcDbEntity
  8
ConnectionPoints
100
AcDbPoint
 10
-1.5
 20
0.0
 30
0.0000000000000001
  0
ENDSEC
  0
SECTION
  2
OBJECTS
  0
DICTIONARY
  5
C
330
0
100
AcDbDictionary
281
     1
  3
ACAD_DETAILVIEWSTYLE
350
1B7
  3
ACAD_GROUP
350
D
  3
ACAD_LAYOUT
350
1A
  3
ACAD_MATERIAL
350
43
  3
ACAD_MLEADERSTYLE
350
6B
  3
ACAD_MLINESTYLE
350
17
  3
ACAD_PLOTSETTINGS
350
19
  3
ACAD_PLOTSTYLENAME
350
E
  3
ACAD_SCALELIST
350
47
  3
ACAD_SECTIONVIEWSTYLE
350
1B8
  3
ACAD_TABLESTYLE
350
69
  3
ACAD_VISUALSTYLE
350
2A
  3
ACDB_RECOMPOSE_DATA
350
1B4
  3
AcDbVariableDictionary
350
1B0
  0
SUN
  5
6D
330
29
100
AcDbSun
 90
        1
290
     0
 63
     7
421
 16777215
 40
1.0
291
     1
 91
  2455826
 92
 54000000
292
     0
 70
     2
 71
   256
280
     1
  0
DICTIONARY
  5
1B7
102
{ACAD_REACTORS
330
C
102
}
330
C
100
AcDbDictionary
281
     1
  0
DICTIONARY
  5
D
102
{ACAD_REACTORS
330
C
102
}
330
C
100
AcDbDictionary
281
     1
  0
DICTIONARY
  5
1A
102
{ACAD_REACTORS
330
C
102
}
330
C
100
AcDbDictionary
281
     1
  3
Layout1
350
1E
  3
Layout2
350
26
  3
Model
350
22
  0
DICTIONARY
  5
43
102
{ACAD_REACTORS
330
C
102
}
330
C
100
AcDbDictionary
281
     1
  3
ByBlock
350
45
  3
ByLayer
350
44
  3
Global
350
46
  0
DICTIONARY
  5
6B
102
{ACAD_REACTORS
330
C
102
}
330
C
100
AcDbDictionary
281
     1
  3
Standard
350
6C
  0
DICTIONARY
  5
17
102
{ACAD_REACTORS
330
C
102
}
330
C
100
AcDbDictionary
281
     1
  3
Standard
350
18
  0
DICTIONARY
  5
19
102
{ACAD_REACTORS
330
C
102
}
330
C
100
AcDbDictionary
281
     1
  0
ACDBDICTIONARYWDFLT
  5
E
102
{ACAD_REACTORS
330
C
102
}
330
C
100
AcDbDictionary
281
     1
  3
Normal
350
F
100
AcDbDictionaryWithDefault
340
F
  0
DICTIONARY
  5
47
102
{ACAD_REACTORS
330
C
102
}
330
C
100
AcDbDictionary
281
     1
  3
A0
350
48
  3
A1
350
49
  3
A2
350
4A
  3
A3
350
4B
  3
A4
350
4C
  3
A5
350
4D
  3
A6
350
4E
  3
A7
350
4F
  3
A8
350
50
  3
A9
350
51
  3
B0
350
52
  3
B1
350
53
  3
B2
350
54
  3
B3
350
55
  3
B4
350
56
  3
B5
350
57
  3
B6
350
58
  3
B7
350
59
  3
B8
350
5A
  3
B9
350
5B
  3
C0
350
5C
  3
C1
350
5D
  3
C2
350
5E
  3
C3
350
5F
  3
C4
350
60
  3
C5
350
61
  3
C6
350
62
  3
C7
350
63
  3
C8
350
64
  3
C9
350
65
  3
D0
350
66
  3
D1
350
67
  3
D2
350
68
  0
DICTIONARY
  5
1B8
102
{ACAD_REACTORS
330
C
102
}
330
C
100
AcDbDictionary
281
     1
  0
DICTIONARY
  5
69
102
{ACAD_REACTORS
330
C
102
}
330
C
100
AcDbDictionary
281
     1
  3
Standard
350
6A
  0
DICTIONARY
  5
2A
102
{ACAD_REACTORS
330
C
102
}
330
C
100
AcDbDictionary
281
     1
  3
2dWireframe
350
2F
  3
Basic
350
32
  3
Brighten
350
36
  3
ColorChange
350
3A
  3
Conceptual
350
34
  3
Dim
350
35
  3
EdgeColorOff
350
3D
  3
Facepattern
350
39
  3
Flat
350
2B
  3
FlatWithEdges
350
2C
  3
Gouraud
350
2D
  3
GouraudWithEdges
350
2E
  3
Hidden
350
31
  3
JitterOff
350
3B
  3
Linepattern
350
38
  3
OverhangOff
350
3C
  3
Realistic
350
33
  3
Shaded
350
42
  3
Shaded with edges
350
41
  3
Shades of Gray
350
3E
  3
Sketchy
350
3F
  3
Thicken
350
37
  3
Wireframe
350
30
  3
X-Ray
350
40
  0
XRECORD
  5
1B4
102
{ACAD_REACTORS
330
C
102
}
330
C
100
AcDbXrecord
280
     1
 90
        1
330
6A
  0
DICTIONARY
  5
1B0
102
{ACAD_REACTORS
330
C
102
}
330
C
100
AcDbDictionary
281
     1
  3
CANNOSCALE
350
1B1
  3
CMLEADERSTYLE
350
1B6
  3
CTABLESTYLE
350
1B5
  0
LAYOUT
  5
1E
102
{ACAD_REACTORS
330
1A
102
}
330
1A
100
AcDbPlotSettings
  1

  2
none_device
  4

  6

 40
0.0
 41
0.0
 42
0.0
 43
0.0
 44
0.0
 45
0.0
 46
0.0
 47
0.0
 48
0.0
 49
0.0
140
0.0
141
0.0
142
1.0
143
1.0
 70
   688
 72
     0
 73
     0
 74
     5
  7

 75
    16
 76
     0
 77
     2
 78
   300
147
1.0
148
0.0
149
0.0
100
AcDbLayout
  1
Layout1
 70
     1
 71
     1
 10
0.0
 20
0.0
 11
12.0
 21
9.0
 12
0.0
 22
0.0
 32
0.0
 14
1.000000000000000E+20
 24
1.000000000000000E+20
 34
1.000000000000000E+20
 15
-1.000000000000000E+20
 25
-1.000000000000000E+20
 35
-1.000000000000000E+20
146
0.0
 13
0.0
 23
0.0
 33
0.0
 16
1.0
 26
0.0
 36
0.0
 17
0.0
 27
1.0
 37
0.0
 76
     0
330
1B
  0
LAYOUT
  5
26
102
{ACAD_REACTORS
330
1A
102
}
330
1A
100
AcDbPlotSettings
  1

  2
none_device
  4

  6

 40
0.0
 41
0.0
 42
0.0
 43
0.0
 44
0.0
 45
0.0
 46
0.0
 47
0.0
 48
0.0
 49
0.0
140
0.0
141
0.0
142
1.0
143
1.0
 70
   688
 72
     0
 73
     0
 74
     5
  7

 75
    16
 76
     0
 77
     2
 78
   300
147
1.0
148
0.0
149
0.0
100
AcDbLayout
  1
Layout2
 70
     1
 71
     2
 10
0.0
 20
0.0
 11
0.0
 21
0.0
 12
0.0
 22
0.0
 32
0.0
 14
0.0
 24
0.0
 34
0.0
 15
0.0
 25
0.0
 35
0.0
146
0.0
 13
0.0
 23
0.0
 33
0.0
 16
1.0
 26
0.0
 36
0.0
 17
0.0
 27
1.0
 37
0.0
 76
     0
330
23
  0
LAYOUT
  5
22
102
{ACAD_REACTORS
330
1A
102
}
330
1A
100
AcDbPlotSettings
  1

  2
none_device
  4
Letter_(8.50_x_11.00_Inches)
  6

 40
6.35
 41
6.35
 42
6.35000508
 43
6.35000508
 44
215.9
 45
279.4
 46
0.0
 47
0.0
 48
0.0
 49
0.0
140
0.0
141
0.0
142
1.0
143
1.0
 70
  1712
 72
     0
 73
     0
 74
     0
  7

 75
     0
 76
     0
 77
     2
 78
   300
147
1.0
148
0.0
149
0.0
100
AcDbLayout
  1
Model
 70
     1
 71
     0
 10
0.0
 20
0.0
 11
12.0
 21
9.0
 12
0.0
 22
0.0
 32
0.0
 14
1.000000000000000E+20
 24
1.000000000000000E+20
 34
1.000000000000000E+20
 15
-1.000000000000000E+20
 25
-1.000000000000000E+20
 35
-1.000000000000000E+20
146
0.0
 13
0.0
 23
0.0
 33
0.0
 16
1.0
 26
0.0
 36
0.0
 17
0.0
 27
1.0
 37
0.0
 76
     0
330
1F
331
29
  0
MATERIAL
  5
45
102
{ACAD_REACTORS
330
43
102
}
330
43
100
AcDbMaterial
  1
ByBlock
 72
     1
 94
      127
  0
MATERIAL
  5
44
102
{ACAD_REACTORS
330
43
102
}
330
43
100
AcDbMaterial
  1
ByLayer
 72
     1
 94
      127
  0
MATERIAL
  5
46
102
{ACAD_REACTORS
330
43
102
}
330
43
100
AcDbMaterial
  1
Global
 72
     1
 94
      127
  0
MLEADERSTYLE
  5
6C
102
{ACAD_REACTORS
330
6B
102
}
330
6B
100
AcDbMLeaderStyle
179
     2
170
     2
171
     1
172
     0
 90
        2
 40
0.0
 41
0.0
173
     1
 91
-1056964608
340
14
 92
       -2
290
     1
 42
0.09
291
     1
 43
0.36
  3
Standard
341
0
 44
0.18
300

342
11
174
     1
178
     6
175
     1
176
     0
 93
-1056964608
 45
0.18
292
     0
297
     0
 46
0.18
343
0
 94
-1056964608
 47
1.0
 49
1.0
140
1.0
293
     1
141
0.0
294
     1
177
     0
142
1.0
295
     0
296
     0
143
0.125
271
     0
272
     9
273
     9
298
     0
  0
MLINESTYLE
  5
18
102
{ACAD_REACTORS
330
17
102
}
330
17
100
AcDbMlineStyle
  2
Standard
 70
     0
  3

 62
   256
 51
90.0
 52
90.0
 71
     2
 49
0.5
 62
   256
  6
BYLAYER
 49
-0.5
 62
   256
  6
BYLAYER
  0
ACDBPLACEHOLDER
  5
F
102
{ACAD_REACTORS
330
E
102
}
330
E
  0
SCALE
  5
48
102
{ACAD_REACTORS
330
47
102
}
330
47
100
AcDbScale
 70
     0
300
1:1
140
1.0
141
1.0
290
     1
  0
SCALE
  5
49
102
{ACAD_REACTORS
330
47
102
}
330
47
100
AcDbScale
 70
     0
300
1:2
140
1.0
141
2.0
290
     0
  0
SCALE
  5
4A
102
{ACAD_REACTORS
330
47
102
}
330
47
100
AcDbScale
 70
     0
300
1:4
140
1.0
141
4.0
290
     0
  0
SCALE
  5
4B
102
{ACAD_REACTORS
330
47
102
}
330
47
100
AcDbScale
 70
     0
300
1:5
140
1.0
141
5.0
290
     0
  0
SCALE
  5
4C
102
{ACAD_REACTORS
330
47
102
}
330
47
100
AcDbScale
 70
     0
300
1:8
140
1.0
141
8.0
290
     0
  0
SCALE
  5
4D
102
{ACAD_REACTORS
330
47
102
}
330
47
100
AcDbScale
 70
     0
300
1:10
140
1.0
141
10.0
290
     0
  0
SCALE
  5
4E
102
{ACAD_REACTORS
330
47
102
}
330
47
100
AcDbScale
 70
     0
300
1:16
140
1.0
141
16.0
290
     0
  0
SCALE
  5
4F
102
{ACAD_REACTORS
330
47
102
}
330
47
100
AcDbScale
 70
     0
300
1:20
140
1.0
141
20.0
290
     0
  0
SCALE
  5
50
102
{ACAD_REACTORS
330
47
102
}
330
47
100
AcDbScale
 70
     0
300
1:30
140
1.0
141
30.0
290
     0
  0
SCALE
  5
51
102
{ACAD_REACTORS
330
47
102
}
330
47
100
AcDbScale
 70
     0
300
1:40
140
1.0
141
40.0
290
     0
  0
SCALE
  5
52
102
{ACAD_REACTORS
330
47
102
}
330
47
100
AcDbScale
 70
     0
300
1:50
140
1.0
141
50.0
290
     0
  0
SCALE
  5
53
102
{ACAD_REACTORS
330
47
102
}
330
47
100
AcDbScale
 70
     0
300
1:100
140
1.0
141
100.0
290
     0
  0
SCALE
  5
54
102
{ACAD_REACTORS
330
47
102
}
330
47
100
AcDbScale
 70
     0
300
2:1
140
2.0
141
1.0
290
     0
  0
SCALE
  5
55
102
{ACAD_REACTORS
330
47
102
}
330
47
100
AcDbScale
 70
     0
300
4:1
140
4.0
141
1.0
290
     0
  0
SCALE
  5
56
102
{ACAD_REACTORS
330
47
102
}
330
47
100
AcDbScale
 70
     0
300
8:1
140
8.0
141
1.0
290
     0
  0
SCALE
  5
57
102
{ACAD_REACTORS
330
47
102
}
330
47
100
AcDbScale
 70
     0
300
10:1
140
10.0
141
1.0
290
     0
  0
SCALE
  5
58
102
{ACAD_REACTORS
330
47
102
}
330
47
100
AcDbScale
 70
     0
300
100:1
140
100.0
141
1.0
290
     0
  0
SCALE
  5
59
102
{ACAD_REACTORS
330
47
102
}
330
47
100
AcDbScale
 70
     0
300
1/128" = 1'-0"
140
0.0078125
141
12.0
290
     0
  0
SCALE
  5
5A
102
{ACAD_REACTORS
330
47
102
}
330
47
100
AcDbScale
 70
     0
300
1/64" = 1'-0"
140
0.015625
141
12.0
290
     0
  0
SCALE
  5
5B
102
{ACAD_REACTORS
330
47
102
}
330
47
100
AcDbScale
 70
     0
300
1/32" = 1'-0"
140
0.03125
141
12.0
290
     0
  0
SCALE
  5
5C
102
{ACAD_REACTORS
330
47
102
}
330
47
100
AcDbScale
 70
     0
300
1/16" = 1'-0"
140
0.0625
141
12.0
290
     0
  0
SCALE
  5
5D
102
{ACAD_REACTORS
330
47
102
}
330
47
100
AcDbScale
 70
     0
300
3/32" = 1'-0"
140
0.09375
141
12.0
290
     0
  0
SCALE
  5
5E
102
{ACAD_REACTORS
330
47
102
}
330
47
100
AcDbScale
 70
     0
300
1/8" = 1'-0"
140
0.125
141
12.0
290
     0
  0
SCALE
  5
5F
102
{ACAD_REACTORS
330
47
102
}
330
47
100
AcDbScale
 70
     0
300
3/16" = 1'-0"
140
0.1875
141
12.0
290
     0
  0
SCALE
  5
60
102
{ACAD_REACTORS
330
47
102
}
330
47
100
AcDbScale
 70
     0
300
1/4" = 1'-0"
140
0.25
141
12.0
290
     0
  0
SCALE
  5
61
102
{ACAD_REACTORS
330
47
102
}
330
47
100
AcDbScale
 70
     0
300
3/8" = 1'-0"
140
0.375
141
12.0
290
     0
  0
SCALE
  5
62
102
{ACAD_REACTORS
330
47
102
}
330
47
100
AcDbScale
 70
     0
300
1/2" = 1'-0"
140
0.5
141
12.0
290
     0
  0
SCALE
  5
63
102
{ACAD_REACTORS
330
47
102
}
330
47
100
AcDbScale
 70
     0
300
3/4" = 1'-0"
140
0.75
141
12.0
290
     0
  0
SCALE
  5
64
102
{ACAD_REACTORS
330
47
102
}
330
47
100
AcDbScale
 70
     0
300
1" = 1'-0"
140
1.0
141
12.0
290
     0
  0
SCALE
  5
65
102
{ACAD_REACTORS
330
47
102
}
330
47
100
AcDbScale
 70
     0
300
1-1/2" = 1'-0"
140
1.5
141
12.0
290
     0
  0
SCALE
  5
66
102
{ACAD_REACTORS
330
47
102
}
330
47
100
AcDbScale
 70
     0
300
3" = 1'-0"
140
3.0
141
12.0
290
     0
  0
SCALE
  5
67
102
{ACAD_REACTORS
330
47
102
}
330
47
100
AcDbScale
 70
     0
300
6" = 1'-0"
140
6.0
141
12.0
290
     0
  0
SCALE
  5
68
102
{ACAD_REACTORS
330
47
102
}
330
47
100
AcDbScale
 70
     0
300
1'-0" = 1'-0"
140
12.0
141
12.0
290
     0
  0
TABLESTYLE
  5
6A
102
{ACAD_REACTORS
330
69
102
}
102
{ACAD_XDICTIONARY
360
1B2
102
}
330
69
100
AcDbTableStyle
  3
Standard
 70
     0
 71
     0
 40
0.06
 41
0.06
280
     0
281
     0
  7
Standard
140
0.18
170
     2
 62
     0
 63
   257
283
     0
 90
        4
 91
        0
  1

274
    -2
284
     1
 64
     0
275
    -2
285
     1
 65
     0
276
    -2
286
     1
 66
     0
277
    -2
287
     1
 67
     0
278
    -2
288
     1
 68
     0
279
    -2
289
     1
 69
     0
  7
Standard
140
0.25
170
     5
 62
     0
 63
   257
283
     0
 90
        4
 91
        0
  1

274
    -2
284
     1
 64
     0
275
    -2
285
     1
 65
     0
276
    -2
286
     1
 66
     0
277
    -2
287
     1
 67
     0
278
    -2
288
     1
 68
     0
279
    -2
289
     1
 69
     0
  7
Standard
140
0.18
170
     5
 62
     0
 63
   257
283
     0
 90
        4
 91
        0
  1

274
    -2
284
     1
 64
     0
275
    -2
285
     1
 65
     0
276
    -2
286
     1
 66
     0
277
    -2
287
     1
 67
     0
278
    -2
288
     1
 68
     0
279
    -2
289
     1
 69
     0
  0
VISUALSTYLE
  5
2F
102
{ACAD_REACTORS
330
2A
102
}
330
2A
100
AcDbVisualStyle
  2
2dWireframe
 70
     4
177
     3
291
     0
 70
    58
 90
        0
176
     1
 90
        2
176
     1
 90
        0
176
     1
 90
        0
176
     1
 40
0.6
176
     1
 40
30.0
176
     1
 62
     7
420
 16777215
176
     1
 90
        1
176
     1
 90
        4
176
     1
 62
     7
176
     1
 62
   257
176
     1
 90
        1
176
     1
 90
        1
176
     1
 40
1.0
176
     1
 90
        0
176
     1
 62
   257
176
     1
 40
1.0
176
     1
 90
        1
176
     1
 90
        6
176
     1
 90
        2
176
     1
 62
     7
176
     1
 90
        5
176
     1
 90
        0
176
     1
 90
        0
176
     1
290
     0
176
     1
 90
        1
176
     1
 40
0.0
176
     1
 90
        0
176
     1
290
     1
176
     1
290
     1
176
     1
290
     0
176
     1
290
     0
176
     1
290
     0
176
     1
290
     0
176
     1
290
     0
176
     1
290
     0
176
     1
290
     0
176
     1
 90
       50
176
     1
 40
0.0
176
     1
 40
1.0
176
     1
 90
        0
176
     1
 62
    18
420
        0
176
     1
 90
       50
176
     1
 90
        3
176
     1
 62
     5
420
      255
176
     1
290
     0
176
     1
 90
       50
176
     1
 90
       50
176
     1
 90
       50
176
     1
290
     0
176
     1
 90
       50
176
     1
 62
   256
176
     0
 40
1.0
176
     0
 90
        2
176
     1
  1
strokes_ogs.tif
176
     1
290
     0
176
     1
 40
1.0
176
     1
 40
1.0
176
     1
  0
VISUALSTYLE
  5
32
102
{ACAD_REACTORS
330
2A
102
}
330
2A
100
AcDbVisualStyle
  2
Basic
 70
     7
177
     3
291
     1
 70
    58
 90
        1
176
     1
 90
        0
176
     1
 90
        1
176
     1
 90
        0
176
     1
 40
0.6
176
     1
 40
30.0
176
     1
 62
     7
420
 16777215
176
     1
 90
        0
176
     1
 90
        4
176
     1
 62
     7
176
     1
 62
   257
176
     1
 90
        1
176
     1
 90
        1
176
     1
 40
1.0
176
     1
 90
        8
176
     1
 62
     7
176
     1
 40
1.0
176
     1
 90
        1
176
     1
 90
        6
176
     1
 90
        2
176
     1
 62
     7
176
     1
 90
        5
176
     1
 90
        0
176
     1
 90
        0
176
     1
290
     0
176
     1
 90
        1
176
     1
 40
0.0
176
     1
 90
        0
176
     1
290
     0
176
     1
290
     1
176
     1
290
     1
176
     1
290
     0
176
     1
290
     0
176
     1
290
     0
176
     1
290
     0
176
     1
290
     0
176
     1
290
     0
176
     1
 90
       50
176
     1
 40
0.0
176
     1
 40
1.0
176
     1
 90
        0
176
     1
 62
    18
420
        0
176
     1
 90
       50
176
     1
 90
        3
176
     1
 62
     5
420
      255
176
     1
290
     0
176
     1
 90
       50
176
     1
 90
       50
176
     1
 90
       50
176
     1
290
     0
176
     1
 90
       50
176
     1
 62
   256
176
     0
 40
1.0
176
     0
 90
        2
176
     1
  1
strokes_ogs.tif
176
     1
290
     0
176
     1
 40
1.0
176
     1
 40
1.0
176
     1
  0
VISUALSTYLE
  5
36
102
{ACAD_REACTORS
330
2A
102
}
330
2A
100
AcDbVisualStyle
  2
Brighten
 70
    12
177
     3
291
     1
 70
    58
 90
        2
176
     1
 90
        2
176
     1
 90
        0
176
     1
 90
        0
176
     1
 40
0.6
176
     1
 40
30.0
176
     1
 62
     7
420
 16777215
176
     1
 90
        1
176
     1
 90
        4
176
     1
 62
     7
176
     1
 62
   257
176
     1
 90
        1
176
     1
 90
        1
176
     1
 40
1.0
176
     1
 90
        8
176
     1
 62
     7
176
     1
 40
1.0
176
     1
 90
        1
176
     1
 90
        6
176
     1
 90
        2
176
     1
 62
     7
176
     1
 90
        5
176
     1
 90
        0
176
     1
 90
        0
176
     1
290
     0
176
     1
 90
        1
176
     1
 40
50.0
176
     1
 90
        0
176
     1
290
     0
176
     1
290
     1
176
     1
290
     1
176
     1
290
     0
176
     1
290
     0
176
     1
290
     0
176
     1
290
     0
176
     1
290
     0
176
     1
290
     0
176
     1
 90
       50
176
     1
 40
0.0
176
     1
 40
1.0
176
     1
 90
        0
176
     1
 62
    18
420
        0
176
     1
 90
       50
176
     1
 90
        3
176
     1
 62
     5
420
      255
176
     1
290
     0
176
     1
 90
       50
176
     1
 90
       50
176
     1
 90
       50
176
     1
290
     0
176
     1
 90
       50
176
     1
 62
   256
176
     0
 40
1.0
176
     0
 90
        2
176
     1
  1
strokes_ogs.tif
176
     1
290
     0
176
     1
 40
1.0
176
     1
 40
1.0
176
     1
  0
VISUALSTYLE
  5
3A
102
{ACAD_REACTORS
330
2A
102
}
330
2A
100
AcDbVisualStyle
  2
ColorChange
 70
    16
177
     3
291
     1
 70
    58
 90
        2
176
     1
 90
        2
176
     1
 90
        3
176
     1
 90
        0
176
     1
 40
0.6
176
     1
 40
30.0
176
     1
 62
     8
420
  8421504
176
     1
 90
        1
176
     1
 90
        4
176
     1
 62
     7
176
     1
 62
   257
176
     1
 90
        1
176
     1
 90
        1
176
     1
 40
1.0
176
     1
 90
        8
176
     1
 62
     8
420
  8421504
176
     1
 40
1.0
176
     1
 90
        1
176
     1
 90
        6
176
     1
 90
        2
176
     1
 62
     7
176
     1
 90
        5
176
     1
 90
        0
176
     1
 90
        0
176
     1
290
     0
176
     1
 90
        1
176
     1
 40
0.0
176
     1
 90
        0
176
     1
290
     0
176
     1
290
     1
176
     1
290
     1
176
     1
290
     0
176
     1
290
     0
176
     1
290
     0
176
     1
290
     0
176
     1
290
     0
176
     1
290
     0
176
     1
 90
       50
176
     1
 40
0.0
176
     1
 40
1.0
176
     1
 90
        0
176
     1
 62
    18
420
        0
176
     1
 90
       50
176
     1
 90
        3
176
     1
 62
     5
420
      255
176
     1
290
     0
176
     1
 90
       50
176
     1
 90
       50
176
     1
 90
       50
176
     1
290
     0
176
     1
 90
       50
176
     1
 62
   256
176
     0
 40
1.0
176
     0
 90
        2
176
     1
  1
strokes_ogs.tif
176
     1
290
     0
176
     1
 40
1.0
176
     1
 40
1.0
176
     1
  0
VISUALSTYLE
  5
34
102
{ACAD_REACTORS
330
2A
102
}
330
2A
100
AcDbVisualStyle
  2
Conceptual
 70
     9
177
     3
291
     0
 70
    58
 90
        3
176
     1
 90
        2
176
     1
 90
        0
176
     1
 90
        0
176
     1
 40
0.6
176
     1
 40
30.0
176
     1
 62
     7
420
 16777215
176
     1
 90
        2
176
     1
 90
        2
176
     1
 62
     7
176
     1
 62
   257
176
     1
 90
        1
176
     1
 90
        1
176
     1
 40
179.0
176
     1
 90
        8
176
     1
 62
     7
176
     1
 40
1.0
176
     1
 90
        1
176
     1
 90
        6
176
     1
 90
        2
176
     1
 62
     7
176
     1
 90
        3
176
     1
 90
        0
176
     1
 90
        0
176
     1
290
     0
176
     1
 90
        1
176
     1
 40
0.0
176
     1
 90
        0
176
     1
290
     0
176
     1
290
     1
176
     1
290
     1
176
     1
290
     0
176
     1
290
     0
176
     1
290
     0
176
     1
290
     0
176
     1
290
     0
176
     1
290
     0
176
     1
 90
       50
176
     1
 40
0.0
176
     1
 40
1.0
176
     1
 90
        0
176
     1
 62
    18
420
        0
176
     1
 90
       50
176
     1
 90
        3
176
     1
 62
     5
420
      255
176
     1
290
     0
176
     1
 90
       50
176
     1
 90
       50
176
     1
 90
       50
176
     1
290
     0
176
     1
 90
       50
176
     1
 62
   256
176
     0
 40
1.0
176
     0
 90
        2
176
     1
  1
strokes_ogs.tif
176
     1
290
     0
176
     1
 40
1.0
176
     1
 40
1.0
176
     1
  0
VISUALSTYLE
  5
35
102
{ACAD_REACTORS
330
2A
102
}
330
2A
100
AcDbVisualStyle
  2
Dim
 70
    11
177
     3
291
     1
 70
    58
 90
        2
176
     1
 90
        2
176
     1
 90
        0
176
     1
 90
        0
176
     1
 40
0.6
176
     1
 40
30.0
176
     1
 62
     7
420
 16777215
176
     1
 90
        1
176
     1
 90
        4
176
     1
 62
     7
176
     1
 62
   257
176
     1
 90
        1
176
     1
 90
        1
176
     1
 40
1.0
176
     1
 90
        8
176
     1
 62
     7
176
     1
 40
1.0
176
     1
 90
        1
176
     1
 90
        6
176
     1
 90
        2
176
     1
 62
     7
176
     1
 90
        5
176
     1
 90
        0
176
     1
 90
        0
176
     1
290
     0
176
     1
 90
        1
176
     1
 40
-50.0
176
     1
 90
        0
176
     1
290
     0
176
     1
290
     1
176
     1
290
     1
176
     1
290
     0
176
     1
290
     0
176
     1
290
     0
176
     1
290
     0
176
     1
290
     0
176
     1
290
     0
176
     1
 90
       50
176
     1
 40
0.0
176
     1
 40
1.0
176
     1
 90
        0
176
     1
 62
    18
420
        0
176
     1
 90
       50
176
     1
 90
        3
176
     1
 62
     5
420
      255
176
     1
290
     0
176
     1
 90
       50
176
     1
 90
       50
176
     1
 90
       50
176
     1
290
     0
176
     1
 90
       50
176
     1
 62
   256
176
     0
 40
1.0
176
     0
 90
        2
176
     1
  1
strokes_ogs.tif
176
     1
290
     0
176
     1
 40
1.0
176
     1
 40
1.0
176
     1
  0
VISUALSTYLE
  5
3D
102
{ACAD_REACTORS
330
2A
102
}
330
2A
100
AcDbVisualStyle
  2
EdgeColorOff
 70
    22
177
     3
291
     1
 70
    58
 90
        2
176
     0
 90
        2
176
     0
 90
        0
176
     0
 90
        0
176
     0
 40
0.6
176
     0
 40
30.0
176
     0
 62
     7
420
 16777215
176
     0
 90
        1
176
     0
 90
        4
176
     0
 62
     7
176
     0
 62
   257
176
     0
 90
        1
176
     0
 90
        1
176
     0
 40
1.0
176
     0
 90
        8
176
     2
 62
     7
176
     0
 40
1.0
176
     0
 90
        1
176
     0
 90
        6
176
     0
 90
        2
176
     0
 62
     7
176
     0
 90
        5
176
     0
 90
        0
176
     0
 90
        0
176
     0
290
     0
176
     0
 90
        1
176
     0
 40
0.0
176
     0
 90
        0
176
     0
290
     0
176
     0
290
     1
176
     0
290
     1
176
     0
290
     0
176
     0
290
     0
176
     0
290
     0
176
     0
290
     0
176
     0
290
     0
176
     0
290
     0
176
     0
 90
       50
176
     0
 40
0.0
176
     0
 40
1.0
176
     0
 90
        0
176
     0
 62
    18
420
        0
176
     0
 90
       50
176
     0
 90
        3
176
     0
 62
     5
420
      255
176
     0
290
     0
176
     0
 90
       50
176
     0
 90
       50
176
     0
 90
       50
176
     0
290
     0
176
     0
 90
       50
176
     0
 62
   256
176
     0
 40
1.0
176
     0
 90
        2
176
     0
  1
strokes_ogs.tif
176
     0
290
     0
176
     0
 40
1.0
176
     0
 40
1.0
176
     0
  0
VISUALSTYLE
  5
39
102
{ACAD_REACTORS
330
2A
102
}
330
2A
100
AcDbVisualStyle
  2
Facepattern
 70
    15
177
     3
291
     1
 70
    58
 90
        2
176
     1
 90
        2
176
     1
 90
        0
176
     1
 90
        0
176
     1
 40
0.6
176
     1
 40
30.0
176
     1
 62
     7
420
 16777215
176
     1
 90
        1
176
     1
 90
        4
176
     1
 62
     7
176
     1
 62
   257
176
     1
 90
        1
176
     1
 90
        1
176
     1
 40
1.0
176
     1
 90
        8
176
     1
 62
     7
176
     1
 40
1.0
176
     1
 90
        1
176
     1
 90
        6
176
     1
 90
        2
176
     1
 62
     7
176
     1
 90
        5
176
     1
 90
        0
176
     1
 90
        0
176
     1
290
     0
176
     1
 90
        1
176
     1
 40
0.0
176
     1
 90
        0
176
     1
290
     0
176
     1
290
     1
176
     1
290
     1
176
     1
290
     0
176
     1
290
     0
176
     1
290
     0
176
     1
290
     0
176
     1
290
     0
176
     1
290
     0
176
     1
 90
       50
176
     1
 40
0.0
176
     1
 40
1.0
176
     1
 90
        0
176
     1
 62
    18
420
        0
176
     1
 90
       50
176
     1
 90
        3
176
     1
 62
     5
420
      255
176
     1
290
     0
176
     1
 90
       50
176
     1
 90
       50
176
     1
 90
       50
176
     1
290
     0
176
     1
 90
       50
176
     1
 62
   256
176
     0
 40
1.0
176
     0
 90
        2
176
     1
  1
strokes_ogs.tif
176
     1
290
     0
176
     1
 40
1.0
176
     1
 40
1.0
176
     1
  0
VISUALSTYLE
  5
2B
102
{ACAD_REACTORS
330
2A
102
}
330
2A
100
AcDbVisualStyle
  2
Flat
 70
     0
177
     3
291
     1
 70
    58
 90
        2
176
     1
 90
        1
176
     1
 90
        1
176
     1
 90
        2
176
     1
 40
0.6
176
     1
 40
30.0
176
     1
 62
     7
420
 16777215
176
     1
 90
        0
176
     1
 90
        0
176
     1
 62
     7
176
     1
 62
   257
176
     1
 90
        1
176
     1
 90
        1
176
     1
 40
1.0
176
     1
 90
        8
176
     1
 62
     7
176
     1
 40
1.0
176
     1
 90
        1
176
     1
 90
        6
176
     1
 90
        2
176
     1
 62
     7
176
     1
 90
        5
176
     1
 90
        0
176
     1
 90
        0
176
     1
290
     0
176
     1
 90
       13
176
     1
 40
0.0
176
     1
 90
        0
176
     1
290
     0
176
     1
290
     1
176
     1
290
     1
176
     1
290
     0
176
     1
290
     0
176
     1
290
     0
176
     1
290
     0
176
     1
290
     0
176
     1
290
     0
176
     1
 90
       50
176
     1
 40
0.0
176
     1
 40
1.0
176
     1
 90
        0
176
     1
 62
    18
420
        0
176
     1
 90
       50
176
     1
 90
        3
176
     1
 62
     5
420
      255
176
     1
290
     0
176
     1
 90
       50
176
     1
 90
       50
176
     1
 90
       50
176
     1
290
     0
176
     1
 90
       50
176
     1
 62
   256
176
     0
 40
1.0
176
     0
 90
        2
176
     1
  1
strokes_ogs.tif
176
     1
290
     0
176
     1
 40
1.0
176
     1
 40
1.0
176
     1
  0
VISUALSTYLE
  5
2C
102
{ACAD_REACTORS
330
2A
102
}
330
2A
100
AcDbVisualStyle
  2
FlatWithEdges
 70
     1
177
     3
291
     1
 70
    58
 90
        2
176
     1
 90
        1
176
     1
 90
        1
176
     1
 90
        2
176
     1
 40
0.6
176
     1
 40
30.0
176
     1
 62
     7
420
 16777215
176
     1
 90
        1
176
     1
 90
        0
176
     1
 62
     7
176
     1
 62
   257
176
     1
 90
        1
176
     1
 90
        1
176
     1
 40
1.0
176
     1
 90
        0
176
     1
 62
   257
176
     1
 40
1.0
176
     1
 90
        1
176
     1
 90
        6
176
     1
 90
        2
176
     1
 62
     7
176
     1
 90
        5
176
     1
 90
        0
176
     1
 90
        0
176
     1
290
     0
176
     1
 90
       13
176
     1
 40
0.0
176
     1
 90
        0
176
     1
290
     0
176
     1
290
     1
176
     1
290
     1
176
     1
290
     0
176
     1
290
     0
176
     1
290
     0
176
     1
290
     0
176
     1
290
     0
176
     1
290
     0
176
     1
 90
       50
176
     1
 40
0.0
176
     1
 40
1.0
176
     1
 90
        0
176
     1
 62
    18
420
        0
176
     1
 90
       50
176
     1
 90
        3
176
     1
 62
     5
420
      255
176
     1
290
     0
176
     1
 90
       50
176
     1
 90
       50
176
     1
 90
       50
176
     1
290
     0
176
     1
 90
       50
176
     1
 62
   256
176
     0
 40
1.0
176
     0
 90
        2
176
     1
  1
strokes_ogs.tif
176
     1
290
     0
176
     1
 40
1.0
176
     1
 40
1.0
176
     1
  0
VISUALSTYLE
  5
2D
102
{ACAD_REACTORS
330
2A
102
}
330
2A
100
AcDbVisualStyle
  2
Gouraud
 70
     2
177
     3
291
     1
 70
    58
 90
        2
176
     1
 90
        2
176
     1
 90
        1
176
     1
 90
        2
176
     1
 40
0.6
176
     1
 40
30.0
176
     1
 62
     7
420
 16777215
176
     1
 90
        0
176
     1
 90
        0
176
     1
 62
     7
176
     1
 62
   257
176
     1
 90
        1
176
     1
 90
        1
176
     1
 40
1.0
176
     1
 90
        0
176
     1
 62
     7
176
     1
 40
1.0
176
     1
 90
        1
176
     1
 90
        6
176
     1
 90
        2
176
     1
 62
     7
176
     1
 90
        5
176
     1
 90
        0
176
     1
 90
        0
176
     1
290
     0
176
     1
 90
       13
176
     1
 40
0.0
176
     1
 90
        0
176
     1
290
     0
176
     1
290
     1
176
     1
290
     1
176
     1
290
     0
176
     1
290
     0
176
     1
290
     0
176
     1
290
     0
176
     1
290
     0
176
     1
290
     0
176
     1
 90
       50
176
     1
 40
0.0
176
     1
 40
1.0
176
     1
 90
        0
176
     1
 62
    18
420
        0
176
     1
 90
       50
176
     1
 90
        3
176
     1
 62
     5
420
      255
176
     1
290
     0
176
     1
 90
       50
176
     1
 90
       50
176
     1
 90
       50
176
     1
290
     0
176
     1
 90
       50
176
     1
 62
   256
176
     0
 40
1.0
176
     0
 90
        2
176
     1
  1
strokes_ogs.tif
176
     1
290
     0
176
     1
 40
1.0
176
     1
 40
1.0
176
     1
  0
VISUALSTYLE
  5
2E
102
{ACAD_REACTORS
330
2A
102
}
330
2A
100
AcDbVisualStyle
  2
GouraudWithEdges
 70
     3
177
     3
291
     1
 70
    58
 90
        2
176
     1
 90
        2
176
     1
 90
        1
176
     1
 90
        2
176
     1
 40
0.6
176
     1
 40
30.0
176
     1
 62
     7
420
 16777215
176
     1
 90
        1
176
     1
 90
        0
176
     1
 62
     7
176
     1
 62
   257
176
     1
 90
        1
176
     1
 90
        1
176
     1
 40
1.0
176
     1
 90
        0
176
     1
 62
   257
176
     1
 40
1.0
176
     1
 90
        1
176
     1
 90
        6
176
     1
 90
        2
176
     1
 62
     7
176
     1
 90
        5
176
     1
 90
        0
176
     1
 90
        0
176
     1
290
     0
176
     1
 90
       13
176
     1
 40
0.0
176
     1
 90
        0
176
     1
290
     0
176
     1
290
     1
176
     1
290
     1
176
     1
290
     0
176
     1
290
     0
176
     1
290
     0
176
     1
290
     0
176
     1
290
     0
176
     1
290
     0
176
     1
 90
       50
176
     1
 40
0.0
176
     1
 40
1.0
176
     1
 90
        0
176
     1
 62
    18
420
        0
176
     1
 90
       50
176
     1
 90
        3
176
     1
 62
     5
420
      255
176
     1
290
     0
176
     1
 90
       50
176
     1
 90
       50
176
     1
 90
       50
176
     1
290
     0
176
     1
 90
       50
176
     1
 62
   256
176
     0
 40
1.0
176
     0
 90
        2
176
     1
  1
strokes_ogs.tif
176
     1
290
     0
176
     1
 40
1.0
176
     1
 40
1.0
176
     1
  0
VISUALSTYLE
  5
31
102
{ACAD_REACTORS
330
2A
102
}
330
2A
100
AcDbVisualStyle
  2
Hidden
 70
     6
177
     3
291
     0
 70
    58
 90
        1
176
     1
 90
        2
176
     1
 90
        2
176
     1
 90
        0
176
     1
 40
0.6
176
     1
 40
30.0
176
     1
 62
     7
420
 16777215
176
     1
 90
        2
176
     1
 90
        2
176
     1
 62
     7
176
     1
 62
   257
176
     1
 90
        2
176
     1
 90
        1
176
     1
 40
40.0
176
     1
 90
        0
176
     1
 62
   257
176
     1
 40
1.0
176
     1
 90
        1
176
     1
 90
        6
176
     1
 90
        2
176
     1
 62
     7
176
     1
 90
        3
176
     1
 90
        0
176
     1
 90
        0
176
     1
290
     0
176
     1
 90
        1
176
     1
 40
0.0
176
     1
 90
        0
176
     1
290
     0
176
     1
290
     1
176
     1
290
     1
176
     1
290
     0
176
     1
290
     0
176
     1
290
     0
176
     1
290
     0
176
     1
290
     0
176
     1
290
     0
176
     1
 90
       50
176
     1
 40
0.0
176
     1
 40
1.0
176
     1
 90
        0
176
     1
 62
    18
420
        0
176
     1
 90
       50
176
     1
 90
        3
176
     1
 62
     5
420
      255
176
     1
290
     0
176
     1
 90
       50
176
     1
 90
       50
176
     1
 90
       50
176
     1
290
     0
176
     1
 90
       50
176
     1
 62
   256
176
     0
 40
1.0
176
     0
 90
        2
176
     1
  1
strokes_ogs.tif
176
     1
290
     0
176
     1
 40
1.0
176
     1
 40
1.0
176
     1
  0
VISUALSTYLE
  5
3B
102
{ACAD_REACTORS
330
2A
102
}
330
2A
100
AcDbVisualStyle
  2
JitterOff
 70
    20
177
     3
291
     1
 70
    58
 90
        2
176
     0
 90
        2
176
     0
 90
        0
176
     0
 90
        0
176
     0
 40
0.6
176
     0
 40
30.0
176
     0
 62
     7
420
 16777215
176
     0
 90
        1
176
     0
 90
        4
176
     0
 62
     7
176
     0
 62
   257
176
     0
 90
        1
176
     0
 90
        1
176
     0
 40
1.0
176
     0
 90
       10
176
     2
 62
     7
176
     0
 40
1.0
176
     0
 90
        1
176
     0
 90
        6
176
     0
 90
        2
176
     0
 62
     7
176
     0
 90
        5
176
     0
 90
        0
176
     0
 90
        0
176
     0
290
     0
176
     0
 90
        1
176
     0
 40
0.0
176
     0
 90
        0
176
     0
290
     0
176
     0
290
     1
176
     0
290
     1
176
     0
290
     0
176
     0
290
     0
176
     0
290
     0
176
     0
290
     0
176
     0
290
     0
176
     0
290
     0
176
     0
 90
       50
176
     0
 40
0.0
176
     0
 40
1.0
176
     0
 90
        0
176
     0
 62
    18
420
        0
176
     0
 90
       50
176
     0
 90
        3
176
     0
 62
     5
420
      255
176
     0
290
     0
176
     0
 90
       50
176
     0
 90
       50
176
     0
 90
       50
176
     0
290
     0
176
     0
 90
       50
176
     0
 62
   256
176
     0
 40
1.0
176
     0
 90
        2
176
     0
  1
strokes_ogs.tif
176
     0
290
     0
176
     0
 40
1.0
176
     0
 40
1.0
176
     0
  0
VISUALSTYLE
  5
38
102
{ACAD_REACTORS
330
2A
102
}
330
2A
100
AcDbVisualStyle
  2
Linepattern
 70
    14
177
     3
291
     1
 70
    58
 90
        2
176
     1
 90
        2
176
     1
 90
        0
176
     1
 90
        0
176
     1
 40
0.6
176
     1
 40
30.0
176
     1
 62
     7
420
 16777215
176
     1
 90
        1
176
     1
 90
        4
176
     1
 62
     7
176
     1
 62
   257
176
     1
 90
        7
176
     1
 90
        7
176
     1
 40
1.0
176
     1
 90
        8
176
     1
 62
     7
176
     1
 40
1.0
176
     1
 90
        1
176
     1
 90
        6
176
     1
 90
        2
176
     1
 62
     7
176
     1
 90
        5
176
     1
 90
        0
176
     1
 90
        0
176
     1
290
     0
176
     1
 90
        1
176
     1
 40
0.0
176
     1
 90
        0
176
     1
290
     0
176
     1
290
     1
176
     1
290
     1
176
     1
290
     0
176
     1
290
     0
176
     1
290
     0
176
     1
290
     0
176
     1
290
     0
176
     1
290
     0
176
     1
 90
       50
176
     1
 40
0.0
176
     1
 40
1.0
176
     1
 90
        0
176
     1
 62
    18
420
        0
176
     1
 90
       50
176
     1
 90
        3
176
     1
 62
     5
420
      255
176
     1
290
     0
176
     1
 90
       50
176
     1
 90
       50
176
     1
 90
       50
176
     1
290
     0
176
     1
 90
       50
176
     1
 62
   256
176
     0
 40
1.0
176
     0
 90
        2
176
     1
  1
strokes_ogs.tif
176
     1
290
     0
176
     1
 40
1.0
176
     1
 40
1.0
176
     1
  0
VISUALSTYLE
  5
3C
102
{ACAD_REACTORS
330
2A
102
}
330
2A
100
AcDbVisualStyle
  2
OverhangOff
 70
    21
177
     3
291
     1
 70
    58
 90
        2
176
     0
 90
        2
176
     0
 90
        0
176
     0
 90
        0
176
     0
 40
0.6
176
     0
 40
30.0
176
     0
 62
     7
420
 16777215
176
     0
 90
        1
176
     0
 90
        4
176
     0
 62
     7
176
     0
 62
   257
176
     0
 90
        1
176
     0
 90
        1
176
     0
 40
1.0
176
     0
 90
        9
176
     2
 62
     7
176
     0
 40
1.0
176
     0
 90
        1
176
     0
 90
        6
176
     0
 90
        2
176
     0
 62
     7
176
     0
 90
        5
176
     0
 90
        0
176
     0
 90
        0
176
     0
290
     0
176
     0
 90
        1
176
     0
 40
0.0
176
     0
 90
        0
176
     0
290
     0
176
     0
290
     1
176
     0
290
     1
176
     0
290
     0
176
     0
290
     0
176
     0
290
     0
176
     0
290
     0
176
     0
290
     0
176
     0
290
     0
176
     0
 90
       50
176
     0
 40
0.0
176
     0
 40
1.0
176
     0
 90
        0
176
     0
 62
    18
420
        0
176
     0
 90
       50
176
     0
 90
        3
176
     0
 62
     5
420
      255
176
     0
290
     0
176
     0
 90
       50
176
     0
 90
       50
176
     0
 90
       50
176
     0
290
     0
176
     0
 90
       50
176
     0
 62
   256
176
     0
 40
1.0
176
     0
 90
        2
176
     0
  1
strokes_ogs.tif
176
     0
290
     0
176
     0
 40
1.0
176
     0
 40
1.0
176
     0
  0
VISUALSTYLE
  5
33
102
{ACAD_REACTORS
330
2A
102
}
330
2A
100
AcDbVisualStyle
  2
Realistic
 70
     8
177
     3
291
     0
 70
    58
 90
        2
176
     1
 90
        3
176
     1
 90
        0
176
     1
 90
        2
176
     1
 40
0.6
176
     1
 40
30.0
176
     1
 62
     7
420
 16777215
176
     1
 90
        0
176
     1
 90
        0
176
     1
 62
     7
176
     1
 62
   257
176
     1
 90
        1
176
     1
 90
        1
176
     1
 40
1.0
176
     1
 90
        8
176
     1
 62
   257
176
     1
 40
1.0
176
     1
 90
        1
176
     1
 90
        6
176
     1
 90
        2
176
     1
 62
     7
176
     1
 90
        3
176
     1
 90
        0
176
     1
 90
        0
176
     1
290
     0
176
     1
 90
       13
176
     1
 40
0.0
176
     1
 90
        0
176
     1
290
     0
176
     1
290
     1
176
     1
290
     1
176
     1
290
     0
176
     1
290
     0
176
     1
290
     0
176
     1
290
     0
176
     1
290
     0
176
     1
290
     0
176
     1
 90
       50
176
     1
 40
0.0
176
     1
 40
1.0
176
     1
 90
        0
176
     1
 62
    18
420
        0
176
     1
 90
       50
176
     1
 90
        3
176
     1
 62
     5
420
      255
176
     1
290
     0
176
     1
 90
       50
176
     1
 90
       50
176
     1
 90
       50
176
     1
290
     0
176
     1
 90
       50
176
     1
 62
   256
176
     0
 40
1.0
176
     0
 90
        2
176
     1
  1
strokes_ogs.tif
176
     1
290
     0
176
     1
 40
1.0
176
     1
 40
1.0
176
     1
  0
VISUALSTYLE
  5
42
102
{ACAD_REACTORS
330
2A
102
}
330
2A
100
AcDbVisualStyle
  2
Shaded
 70
    27
177
     3
291
     0
 70
    58
 90
        2
176
     1
 90
        2
176
     1
 90
        1
176
     1
 90
        2
176
     1
 40
0.6
176
     1
 40
30.0
176
     1
 62
     7
420
 16777215
176
     1
 90
        0
176
     1
 90
        4
176
     1
 62
     7
176
     1
 62
   257
176
     1
 90
        1
176
     1
 90
        1
176
     1
 40
1.0
176
     1
 90
        8
176
     1
 62
   257
176
     1
 40
1.0
176
     1
 90
        1
176
     1
 90
        6
176
     1
 90
        2
176
     1
 62
     8
420
  7895160
176
     1
 90
        3
176
     1
 90
        0
176
     1
 90
        0
176
     1
290
     0
176
     1
 90
        5
176
     1
 40
0.0
176
     1
 90
        0
176
     1
290
     0
176
     1
290
     1
176
     1
290
     1
176
     1
290
     0
176
     1
290
     0
176
     1
290
     0
176
     1
290
     0
176
     1
290
     0
176
     1
290
     0
176
     1
 90
       50
176
     1
 40
0.0
176
     1
 40
1.0
176
     1
 90
        0
176
     1
 62
    18
420
        0
176
     1
 90
       50
176
     1
 90
        3
176
     1
 62
     5
420
      255
176
     1
290
     0
176
     1
 90
       50
176
     1
 90
       50
176
     1
 90
       50
176
     1
290
     0
176
     1
 90
       50
176
     1
 62
   256
176
     0
 40
1.0
176
     0
 90
        2
176
     1
  1
strokes_ogs.tif
176
     1
290
     0
176
     1
 40
1.0
176
     1
 40
1.0
176
     1
  0
VISUALSTYLE
  5
41
102
{ACAD_REACTORS
330
2A
102
}
330
2A
100
AcDbVisualStyle
  2
Shaded with edges
 70
    26
177
     3
291
     0
 70
    58
 90
        2
176
     1
 90
        2
176
     1
 90
        1
176
     1
 90
        2
176
     1
 40
0.6
176
     1
 40
30.0
176
     1
 62
     7
420
 16777215
176
     1
 90
        1
176
     1
 90
       10
176
     1
 62
     7
176
     1
 62
   257
176
     1
 90
        2
176
     1
 90
        1
176
     1
 40
1.0
176
     1
 90
        8
176
     1
 62
   257
176
     1
 40
1.0
176
     1
 90
        1
176
     1
 90
        6
176
     1
 90
        2
176
     1
 62
     7
176
     1
 90
        3
176
     1
 90
        0
176
     1
 90
        0
176
     1
290
     0
176
     1
 90
        5
176
     1
 40
0.0
176
     1
 90
        0
176
     1
290
     0
176
     1
290
     1
176
     1
290
     1
176
     1
290
     0
176
     1
290
     0
176
     1
290
     0
176
     1
290
     0
176
     1
290
     0
176
     1
290
     0
176
     1
 90
       50
176
     1
 40
0.0
176
     1
 40
1.0
176
     1
 90
        0
176
     1
 62
    18
420
        0
176
     1
 90
       50
176
     1
 90
        3
176
     1
 62
     5
420
      255
176
     1
290
     0
176
     1
 90
       50
176
     1
 90
       50
176
     1
 90
       50
176
     1
290
     0
176
     1
 90
       50
176
     1
 62
   256
176
     0
 40
1.0
176
     0
 90
        2
176
     1
  1
strokes_ogs.tif
176
     1
290
     0
176
     1
 40
1.0
176
     1
 40
1.0
176
     1
  0
VISUALSTYLE
  5
3E
102
{ACAD_REACTORS
330
2A
102
}
330
2A
100
AcDbVisualStyle
  2
Shades of Gray
 70
    23
177
     3
291
     0
 70
    58
 90
        2
176
     1
 90
        2
176
     1
 90
        3
176
     1
 90
        0
176
     1
 40
0.6
176
     1
 40
30.0
176
     1
 62
     7
420
 16777215
176
     1
 90
        2
176
     1
 90
        2
176
     1
 62
     7
176
     1
 62
     7
176
     1
 90
        1
176
     1
 90
        1
176
     1
 40
40.0
176
     1
 90
        8
176
     1
 62
     7
176
     1
 40
1.0
176
     1
 90
        1
176
     1
 90
        6
176
     1
 90
        2
176
     1
 62
     7
176
     1
 90
        3
176
     1
 90
        0
176
     1
 90
        0
176
     1
290
     0
176
     1
 90
        1
176
     1
 40
0.0
176
     1
 90
        0
176
     1
290
     0
176
     1
290
     1
176
     1
290
     1
176
     1
290
     0
176
     1
290
     0
176
     1
290
     0
176
     1
290
     0
176
     1
290
     0
176
     1
290
     0
176
     1
 90
       50
176
     1
 40
0.0
176
     1
 40
1.0
176
     1
 90
        0
176
     1
 62
    18
420
        0
176
     1
 90
       50
176
     1
 90
        3
176
     1
 62
     5
420
      255
176
     1
290
     0
176
     1
 90
       50
176
     1
 90
       50
176
     1
 90
       50
176
     1
290
     0
176
     1
 90
       50
176
     1
 62
   256
176
     0
 40
1.0
176
     0
 90
        2
176
     1
  1
strokes_ogs.tif
176
     1
290
     0
176
     1
 40
1.0
176
     1
 40
1.0
176
     1
  0
VISUALSTYLE
  5
3F
102
{ACAD_REACTORS
330
2A
102
}
330
2A
100
AcDbVisualStyle
  2
Sketchy
 70
    24
177
     3
291
     0
 70
    58
 90
        1
176
     1
 90
        2
176
     1
 90
        2
176
     1
 90
        0
176
     1
 40
0.6
176
     1
 40
30.0
176
     1
 62
     7
420
 16777215
176
     1
 90
        2
176
     1
 90
        2
176
     1
 62
     7
176
     1
 62
     7
176
     1
 90
        1
176
     1
 90
        1
176
     1
 40
40.0
176
     1
 90
       11
176
     1
 62
     7
176
     1
 40
1.0
176
     1
 90
        1
176
     1
 90
        6
176
     1
 90
        2
176
     1
 62
     7
176
     1
 90
        6
176
     1
 90
        0
176
     1
 90
        0
176
     1
290
     0
176
     1
 90
        1
176
     1
 40
0.0
176
     1
 90
        0
176
     1
290
     0
176
     1
290
     1
176
     1
290
     1
176
     1
290
     0
176
     1
290
     0
176
     1
290
     0
176
     1
290
     0
176
     1
290
     0
176
     1
290
     0
176
     1
 90
       50
176
     1
 40
0.0
176
     1
 40
1.0
176
     1
 90
        0
176
     1
 62
    18
420
        0
176
     1
 90
       50
176
     1
 90
        3
176
     1
 62
     5
420
      255
176
     1
290
     0
176
     1
 90
       50
176
     1
 90
       50
176
     1
 90
       50
176
     1
290
     0
176
     1
 90
       50
176
     1
 62
   256
176
     0
 40
1.0
176
     0
 90
        2
176
     1
  1
strokes_ogs.tif
176
     1
290
     0
176
     1
 40
1.0
176
     1
 40
1.0
176
     1
  0
VISUALSTYLE
  5
37
102
{ACAD_REACTORS
330
2A
102
}
330
2A
100
AcDbVisualStyle
  2
Thicken
 70
    13
177
     3
291
     1
 70
    58
 90
        2
176
     1
 90
        2
176
     1
 90
        0
176
     1
 90
        0
176
     1
 40
0.6
176
     1
 40
30.0
176
     1
 62
     7
420
 16777215
176
     1
 90
        1
176
     1
 90
        4
176
     1
 62
     7
176
     1
 62
   257
176
     1
 90
        1
176
     1
 90
        1
176
     1
 40
1.0
176
     1
 90
       12
176
     1
 62
     7
176
     1
 40
1.0
176
     1
 90
        1
176
     1
 90
        6
176
     1
 90
        2
176
     1
 62
     7
176
     1
 90
        5
176
     1
 90
        0
176
     1
 90
        0
176
     1
290
     0
176
     1
 90
        1
176
     1
 40
0.0
176
     1
 90
        0
176
     1
290
     0
176
     1
290
     1
176
     1
290
     1
176
     1
290
     0
176
     1
290
     0
176
     1
290
     0
176
     1
290
     0
176
     1
290
     0
176
     1
290
     0
176
     1
 90
       50
176
     1
 40
0.0
176
     1
 40
1.0
176
     1
 90
        0
176
     1
 62
    18
420
        0
176
     1
 90
       50
176
     1
 90
        3
176
     1
 62
     5
420
      255
176
     1
290
     0
176
     1
 90
       50
176
     1
 90
       50
176
     1
 90
       50
176
     1
290
     0
176
     1
 90
       50
176
     1
 62
   256
176
     0
 40
1.0
176
     0
 90
        2
176
     1
  1
strokes_ogs.tif
176
     1
290
     0
176
     1
 40
1.0
176
     1
 40
1.0
176
     1
  0
VISUALSTYLE
  5
30
102
{ACAD_REACTORS
330
2A
102
}
330
2A
100
AcDbVisualStyle
  2
Wireframe
 70
     5
177
     3
291
     0
 70
    58
 90
        0
176
     1
 90
        2
176
     1
 90
        0
176
     1
 90
        0
176
     1
 40
0.6
176
     1
 40
30.0
176
     1
 62
     7
420
 16777215
176
     1
 90
        1
176
     1
 90
        4
176
     1
 62
     7
176
     1
 62
   257
176
     1
 90
        1
176
     1
 90
        1
176
     1
 40
1.0
176
     1
 90
        0
176
     1
 62
   257
176
     1
 40
1.0
176
     1
 90
        1
176
     1
 90
        6
176
     1
 90
        2
176
     1
 62
     7
176
     1
 90
        3
176
     1
 90
        0
176
     1
 90
        0
176
     1
290
     0
176
     1
 90
        1
176
     1
 40
0.0
176
     1
 90
        0
176
     1
290
     0
176
     1
290
     1
176
     1
290
     1
176
     1
290
     0
176
     1
290
     0
176
     1
290
     0
176
     1
290
     0
176
     1
290
     0
176
     1
290
     0
176
     1
 90
       50
176
     1
 40
0.0
176
     1
 40
1.0
176
     1
 90
        0
176
     1
 62
    18
420
        0
176
     1
 90
       50
176
     1
 90
        3
176
     1
 62
     5
420
      255
176
     1
290
     0
176
     1
 90
       50
176
     1
 90
       50
176
     1
 90
       50
176
     1
290
     0
176
     1
 90
       50
176
     1
 62
   256
176
     0
 40
1.0
176
     0
 90
        2
176
     1
  1
strokes_ogs.tif
176
     1
290
     0
176
     1
 40
1.0
176
     1
 40
1.0
176
     1
  0
VISUALSTYLE
  5
40
102
{ACAD_REACTORS
330
2A
102
}
330
2A
100
AcDbVisualStyle
  2
X-Ray
 70
    25
177
     3
291
     0
 70
    58
 90
        2
176
     1
 90
        2
176
     1
 90
        1
176
     1
 90
        1
176
     1
 40
0.5
176
     1
 40
30.0
176
     1
 62
     7
420
 16777215
176
     1
 90
        1
176
     1
 90
        0
176
     1
 62
     7
176
     1
 62
   257
176
     1
 90
        1
176
     1
 90
        1
176
     1
 40
1.0
176
     1
 90
        8
176
     1
 62
     7
176
     1
 40
1.0
176
     1
 90
        1
176
     1
 90
        6
176
     1
 90
        2
176
     1
 62
     7
176
     1
 90
        3
176
     1
 90
        0
176
     1
 90
        0
176
     1
290
     0
176
     1
 90
       13
176
     1
 40
0.0
176
     1
 90
        0
176
     1
290
     0
176
     1
290
     1
176
     1
290
     1
176
     1
290
     0
176
     1
290
     0
176
     1
290
     0
176
     1
290
     0
176
     1
290
     0
176
     1
290
     0
176
     1
 90
       50
176
     1
 40
0.0
176
     1
 40
1.0
176
     1
 90
        0
176
     1
 62
    18
420
        0
176
     1
 90
       50
176
     1
 90
        3
176
     1
 62
     5
420
      255
176
     1
290
     0
176
     1
 90
       50
176
     1
 90
       50
176
     1
 90
       50
176
     1
290
     0
176
     1
 90
       50
176
     1
 62
   256
176
     0
 40
1.0
176
     0
 90
        2
176
     1
  1
strokes_ogs.tif
176
     1
290
     0
176
     1
 40
1.0
176
     1
 40
1.0
176
     1
  0
DICTIONARYVAR
  5
1B1
102
{ACAD_REACTORS
330
1B0
102
}
330
1B0
100
DictionaryVariables
280
     0
  1
1:1
  0
DICTIONARYVAR
  5
1B6
102
{ACAD_REACTORS
330
1B0
102
}
330
1B0
100
DictionaryVariables
280
     0
  1
Standard
  0
DICTIONARYVAR
  5
1B5
102
{ACAD_REACTORS
330
1B0
102
}
330
1B0
100
DictionaryVariables
280
     0
  1
Standard
  0
DICTIONARY
  5
1B2
330
6A
100
AcDbDictionary
280
     1
281
     1
  3
ACAD_ROUNDTRIP_2008_TABLESTYLE_CELLSTYLEMAP
360
1B3
  0
CELLSTYLEMAP
  5
1B3
102
{ACAD_REACTORS
330
1B2
102
}
330
1B2
100
AcDbCellStyleMap
 90
        3
300
CELLSTYLE
  1
TABLEFORMAT_BEGIN
 90
        5
170
     1
 91
        0
 92
    32768
 62
   257
 93
        1
300
CONTENTFORMAT
  1
CONTENTFORMAT_BEGIN
 90
        0
 91
        0
 92
        4
 93
        0
300

 40
0.0
140
1.0
 94
        5
 62
     0
340
11
144
0.25
309
CONTENTFORMAT_END
171
     1
301
MARGIN
  1
CELLMARGIN_BEGIN
 40
0.06
 40
0.06
 40
0.06
 40
0.06
 40
0.06
 40
0.06
309
CELLMARGIN_END
 94
        6
 95
        1
302
GRIDFORMAT
  1
GRIDFORMAT_BEGIN
 90
        0
 91
        1
 62
     0
 92
       -2
340
14
 93
        0
 40
0.045
309
GRIDFORMAT_END
 95
        2
302
GRIDFORMAT
  1
GRIDFORMAT_BEGIN
 90
        0
 91
        1
 62
     0
 92
       -2
340
14
 93
        0
 40
0.045
309
GRIDFORMAT_END
 95
        4
302
GRIDFORMAT
  1
GRIDFORMAT_BEGIN
 90
        0
 91
        1
 62
     0
 92
       -2
340
14
 93
        0
 40
0.045
309
GRIDFORMAT_END
 95
        8
302
GRIDFORMAT
  1
GRIDFORMAT_BEGIN
 90
        0
 91
        1
 62
     0
 92
       -2
340
14
 93
        0
 40
0.045
309
GRIDFORMAT_END
 95
       16
302
GRIDFORMAT
  1
GRIDFORMAT_BEGIN
 90
        0
 91
        1
 62
     0
 92
       -2
340
14
 93
        0
 40
0.045
309
GRIDFORMAT_END
 95
       32
302
GRIDFORMAT
  1
GRIDFORMAT_BEGIN
 90
        0
 91
        1
 62
     0
 92
       -2
340
14
 93
        0
 40
0.045
309
GRIDFORMAT_END
309
TABLEFORMAT_END
  1
CELLSTYLE_BEGIN
 90
        1
 91
        1
300
_TITLE
309
CELLSTYLE_END
300
CELLSTYLE
  1
TABLEFORMAT_BEGIN
 90
        5
170
     1
 91
        0
 92
        0
 62
   257
 93
        1
300
CONTENTFORMAT
  1
CONTENTFORMAT_BEGIN
 90
        0
 91
        0
 92
        4
 93
        0
300

 40
0.0
140
1.0
 94
        5
 62
     0
340
11
144
0.18
309
CONTENTFORMAT_END
171
     1
301
MARGIN
  1
CELLMARGIN_BEGIN
 40
0.06
 40
0.06
 40
0.06
 40
0.06
 40
0.06
 40
0.06
309
CELLMARGIN_END
 94
        6
 95
        1
302
GRIDFORMAT
  1
GRIDFORMAT_BEGIN
 90
        0
 91
        1
 62
     0
 92
       -2
340
14
 93
        0
 40
0.045
309
GRIDFORMAT_END
 95
        2
302
GRIDFORMAT
  1
GRIDFORMAT_BEGIN
 90
        0
 91
        1
 62
     0
 92
       -2
340
14
 93
        0
 40
0.045
309
GRIDFORMAT_END
 95
        4
302
GRIDFORMAT
  1
GRIDFORMAT_BEGIN
 90
        0
 91
        1
 62
     0
 92
       -2
340
14
 93
        0
 40
0.045
309
GRIDFORMAT_END
 95
        8
302
GRIDFORMAT
  1
GRIDFORMAT_BEGIN
 90
        0
 91
        1
 62
     0
 92
       -2
340
14
 93
        0
 40
0.045
309
GRIDFORMAT_END
 95
       16
302
GRIDFORMAT
  1
GRIDFORMAT_BEGIN
 90
        0
 91
        1
 62
     0
 92
       -2
340
14
 93
        0
 40
0.045
309
GRIDFORMAT_END
 95
       32
302
GRIDFORMAT
  1
GRIDFORMAT_BEGIN
 90
        0
 91
        1
 62
     0
 92
       -2
340
14
 93
        0
 40
0.045
309
GRIDFORMAT_END
309
TABLEFORMAT_END
  1
CELLSTYLE_BEGIN
 90
        2
 91
        1
300
_HEADER
309
CELLSTYLE_END
300
CELLSTYLE
  1
TABLEFORMAT_BEGIN
 90
        5
170
     1
 91
        0
 92
        0
 62
   257
 93
        1
300
CONTENTFORMAT
  1
CONTENTFORMAT_BEGIN
 90
        0
 91
        0
 92
        4
 93
        0
300

 40
0.0
140
1.0
 94
        2
 62
     0
340
11
144
0.18
309
CONTENTFORMAT_END
171
     1
301
MARGIN
  1
CELLMARGIN_BEGIN
 40
0.06
 40
0.06
 40
0.06
 40
0.06
 40
0.06
 40
0.06
309
CELLMARGIN_END
 94
        6
 95
        1
302
GRIDFORMAT
  1
GRIDFORMAT_BEGIN
 90
        0
 91
        1
 62
     0
 92
       -2
340
14
 93
        0
 40
0.045
309
GRIDFORMAT_END
 95
        2
302
GRIDFORMAT
  1
GRIDFORMAT_BEGIN
 90
        0
 91
        1
 62
     0
 92
       -2
340
14
 93
        0
 40
0.045
309
GRIDFORMAT_END
 95
        4
302
GRIDFORMAT
  1
GRIDFORMAT_BEGIN
 90
        0
 91
        1
 62
     0
 92
       -2
340
14
 93
        0
 40
0.045
309
GRIDFORMAT_END
 95
        8
302
GRIDFORMAT
  1
GRIDFORMAT_BEGIN
 90
        0
 91
        1
 62
     0
 92
       -2
340
14
 93
        0
 40
0.045
309
GRIDFORMAT_END
 95
       16
302
GRIDFORMAT
  1
GRIDFORMAT_BEGIN
 90
        0
 91
        1
 62
     0
 92
       -2
340
14
 93
        0
 40
0.045
309
GRIDFORMAT_END
 95
       32
302
GRIDFORMAT
  1
GRIDFORMAT_BEGIN
 90
        0
 91
        1
 62
     0
 92
       -2
340
14
 93
        0
 40
0.045
309
GRIDFORMAT_END
309
TABLEFORMAT_END
  1
CELLSTYLE_BEGIN
 90
        3
 91
        2
300
_DATA
309
CELLSTYLE_END
  0
ENDSEC
  0
EOF