0
SECTION
  2
HEADER
  9
$ACADVER
  1
AC1027
  9
$ACADMAINTVER
 70
     8
  9
$DWGCODEPAGE
  3
ANSI_1252
  9
$REQUIREDVERSIONS
160
                 0
  9
$COMMENTS
  1
File was created by Cadenas
  9
$CUSTOMPROPERTYTAG
  1
NN
  9
$CUSTOMPROPERTY
  1
Unisphere II Pillow Block Inch Bore
  9
$CUSTOMPROPERTYTAG
  1
NT
  9
$CUSTOMPROPERTY
  1
Unisphere II
  9
$CUSTOMPROPERTYTAG
  1
NB
  9
$CUSTOMPROPERTY
  1
048023
  9
$CUSTOMPROPERTYTAG
  1
NBSYN
  9
$CUSTOMPROPERTY
  1
$PN.
  9
$CUSTOMPROPERTYTAG
  1
LINA
  9
$CUSTOMPROPERTY
  1
048023
  9
$CUSTOMPROPERTYTAG
  1
SS
  9
$CUSTOMPROPERTY
  1
2-3/16
  9
$CUSTOMPROPERTYTAG
  1
TYPE
  9
$CUSTOMPROPERTY
  1
Expansion Type
  9
$CUSTOMPROPERTYTAG
  1
PN
  9
$CUSTOMPROPERTY
  1
048023
  9
$CUSTOMPROPERTYTAG
  1
DESCRIPTION
  9
$CUSTOMPROPERTY
  1
P2B-UN2-203E
  9
$CUSTOMPROPERTYTAG
  1
WEIGHT
  9
$CUSTOMPROPERTY
  1
9.8
  9
$CUSTOMPROPERTYTAG
  1
A
  9
$CUSTOMPROPERTY
  1
2
  9
$CUSTOMPROPERTYTAG
  1
B
  9
$CUSTOMPROPERTY
  1
8-7/8
  9
$CUSTOMPROPERTYTAG
  1
C
  9
$CUSTOMPROPERTY
  1
2-5/16
  9
$CUSTOMPROPERTYTAG
  1
DMIN
  9
$CUSTOMPROPERTY
  1
6-7/16
  9
$CUSTOMPROPERTYTAG
  1
DMAX
  9
$CUSTOMPROPERTY
  1
7-1/8
  9
$CUSTOMPROPERTYTAG
  1
E
  9
$CUSTOMPROPERTY
  1
5/32
  9
$CUSTOMPROPERTYTAG
  1
F
  9
$CUSTOMPROPERTY
  1
5/8
  9
$CUSTOMPROPERTYTAG
  1
G
  9
$CUSTOMPROPERTY
  1
1-1/32
  9
$CUSTOMPROPERTYTAG
  1
H
  9
$CUSTOMPROPERTY
  1
1-5/8
  9
$CUSTOMPROPERTYTAG
  1
J
  9
$CUSTOMPROPERTY
  1
5
  9
$CUSTOMPROPERTYTAG
  1
L
  9
$CUSTOMPROPERTY
  1
3-1/2
  9
$CUSTOMPROPERTYTAG
  1
M
  9
$CUSTOMPROPERTY
  1
2-1/2
  9
$CUSTOMPROPERTYTAG
  1
R
  9
$CUSTOMPROPERTY
  1
33/64
  9
$CUSTOMPROPERTYTAG
  1
S
  9
$CUSTOMPROPERTY
  1
1-31/64
  9
$CUSTOMPROPERTYTAG
  1
MRPM
  9
$CUSTOMPROPERTY
  1
2325
  9
$CUSTOMPROPERTYTAG
  1
CS
  9
$CUSTOMPROPERTY
  1
32500
  9
$CUSTOMPROPERTYTAG
  1
CD
  9
$CUSTOMPROPERTY
  1
27000
  9
$CUSTOMPROPERTYTAG
  1
RN
  9
$CUSTOMPROPERTY
  1
19
  9
$CUSTOMPROPERTYTAG
  1
RM
  9
$CUSTOMPROPERTY
  1
0.4646
  9
$CUSTOMPROPERTYTAG
  1
PD
  9
$CUSTOMPROPERTY
  1
3.189
  9
$CUSTOMPROPERTYTAG
  1
RC
  9
$CUSTOMPROPERTY
  1
0.0016-0.0026
  9
$CUSTOMPROPERTYTAG
  1
CSS
  9
$CUSTOMPROPERTY
  1
3/8-16x3/4
  9
$CUSTOMPROPERTYTAG
  1
CST
  9
$CUSTOMPROPERTY
  1
290
  9
$CUSTOMPROPERTYTAG
  1
MH
  9
$CUSTOMPROPERTY
  1
Ductile Iron Grade 65-45-12 ASTM A536
  9
$CUSTOMPROPERTYTAG
  1
MIR
  9
$CUSTOMPROPERTY
  1
4118 Case Carb.
  9
$CUSTOMPROPERTYTAG
  1
MOR
  9
$CUSTOMPROPERTY
  1
E52100 Steel
  9
$CUSTOMPROPERTYTAG
  1
MR
  9
$CUSTOMPROPERTY
  1
Polyamide
  9
$CUSTOMPROPERTYTAG
  1
MRO
  9
$CUSTOMPROPERTY
  1
E52100 Steel
  9
$CUSTOMPROPERTYTAG
  1
SM
  9
$CUSTOMPROPERTY
  1
2°
  9
$CUSTOMPROPERTYTAG
  1
COMPANY
  9
$CUSTOMPROPERTY
  1
baldor
  9
$INSBASE
 10
0.0
 20
0.0
 30
0.0
  9
$EXTMIN
 10
1.000000000000000E+20
 20
1.000000000000000E+20
 30
1.000000000000000E+20
  9
$EXTMAX
 10
-1.000000000000000E+20
 20
-1.000000000000000E+20
 30
-1.000000000000000E+20
  9
$LIMMIN
 10
0.0
 20
0.0
  9
$LIMMAX
 10
12.0
 20
9.0
  9
$ORTHOMODE
 70
     0
  9
$REGENMODE
 70
     1
  9
$FILLMODE
 70
     1
  9
$QTEXTMODE
 70
     0
  9
$MIRRTEXT
 70
     1
  9
$LTSCALE
 40
1.0
  9
$ATTMODE
 70
     1
  9
$TEXTSIZE
 40
0.2
  9
$TRACEWID
 40
0.05
  9
$TEXTSTYLE
  7
Standard
  9
$CLAYER
  8
0
  9
$CELTYPE
  6
ByLayer
  9
$CECOLOR
 62
   256
  9
$CELTSCALE
 40
1.0
  9
$DISPSILH
 70
     0
  9
$DIMSCALE
 40
1.0
  9
$DIMASZ
 40
0.18
  9
$DIMEXO
 40
0.0625
  9
$DIMDLI
 40
0.38
  9
$DIMRND
 40
0.0
  9
$DIMDLE
 40
0.0
  9
$DIMEXE
 40
0.18
  9
$DIMTP
 40
0.0
  9
$DIMTM
 40
0.0
  9
$DIMTXT
 40
0.18
  9
$DIMCEN
 40
0.09
  9
$DIMTSZ
 40
0.0
  9
$DIMTOL
 70
     0
  9
$DIMLIM
 70
     0
  9
$DIMTIH
 70
     1
  9
$DIMTOH
 70
     1
  9
$DIMSE1
 70
     0
  9
$DIMSE2
 70
     0
  9
$DIMTAD
 70
     0
  9
$DIMZIN
 70
     0
  9
$DIMBLK
  1

  9
$DIMASO
 70
     1
  9
$DIMSHO
 70
     1
  9
$DIMPOST
  1

  9
$DIMAPOST
  1

  9
$DIMALT
 70
     0
  9
$DIMALTD
 70
     2
  9
$DIMALTF
 40
25.4
  9
$DIMLFAC
 40
1.0
  9
$DIMTOFL
 70
     0
  9
$DIMTVP
 40
0.0
  9
$DIMTIX
 70
     0
  9
$DIMSOXD
 70
     0
  9
$DIMSAH
 70
     0
  9
$DIMBLK1
  1

  9
$DIMBLK2
  1

  9
$DIMSTYLE
  2
Standard
  9
$DIMCLRD
 70
     0
  9
$DIMCLRE
 70
     0
  9
$DIMCLRT
 70
     0
  9
$DIMTFAC
 40
1.0
  9
$DIMGAP
 40
0.09
  9
$DIMJUST
 70
     0
  9
$DIMSD1
 70
     0
  9
$DIMSD2
 70
     0
  9
$DIMTOLJ
 70
     1
  9
$DIMTZIN
 70
     0
  9
$DIMALTZ
 70
     0
  9
$DIMALTTZ
 70
     0
  9
$DIMUPT
 70
     0
  9
$DIMDEC
 70
     4
  9
$DIMTDEC
 70
     4
  9
$DIMALTU
 70
     2
  9
$DIMALTTD
 70
     2
  9
$DIMTXSTY
  7
Standard
  9
$DIMAUNIT
 70
     0
  9
$DIMADEC
 70
     0
  9
$DIMALTRND
 40
0.0
  9
$DIMAZIN
 70
     0
  9
$DIMDSEP
 70
    46
  9
$DIMATFIT
 70
     3
  9
$DIMFRAC
 70
     0
  9
$DIMLDRBLK
  1

  9
$DIMLUNIT
 70
     2
  9
$DIMLWD
 70
    -2
  9
$DIMLWE
 70
    -2
  9
$DIMTMOVE
 70
     0
  9
$DIMFXL
 40
1.0
  9
$DIMFXLON
 70
     0
  9
$DIMJOGANG
 40
0.7853981633974483
  9
$DIMTFILL
 70
     0
  9
$DIMTFILLCLR
 70
     0
  9
$DIMARCSYM
 70
     0
  9
$DIMLTYPE
  6

  9
$DIMLTEX1
  6

  9
$DIMLTEX2
  6

  9
$DIMTXTDIRECTION
 70
     0
  9
$LUNITS
 70
     2
  9
$LUPREC
 70
     4
  9
$SKETCHINC
 40
0.1
  9
$FILLETRAD
 40
0.5
  9
$AUNITS
 70
     0
  9
$AUPREC
 70
     0
  9
$MENU
  1
.
  9
$ELEVATION
 40
0.0
  9
$PELEVATION
 40
0.0
  9
$THICKNESS
 40
0.0
  9
$LIMCHECK
 70
     0
  9
$CHAMFERA
 40
0.0
  9
$CHAMFERB
 40
0.0
  9
$CHAMFERC
 40
0.0
  9
$CHAMFERD
 40
0.0
  9
$SKPOLY
 70
     0
  9
$TDCREATE
 40
2458169.003036783
  9
$TDUCREATE
 40
2458168.961370116
  9
$TDUPDATE
 40
2458169.003036967
  9
$TDUUPDATE
 40
2458168.961370301
  9
$TDINDWG
 40
0.0000000116
  9
$TDUSRTIMER
 40
0.0000000116
  9
$USRTIMER
 70
     1
  9
$ANGBASE
 50
0.0
  9
$ANGDIR
 70
     0
  9
$PDMODE
 70
     0
  9
$PDSIZE
 40
0.0
  9
$PLINEWID
 40
0.0
  9
$SPLFRAME
 70
     0
  9
$SPLINETYPE
 70
     6
  9
$SPLINESEGS
 70
     8
  9
$HANDSEED
  5
1FE
  9
$SURFTAB1
 70
     6
  9
$SURFTAB2
 70
     6
  9
$SURFTYPE
 70
     6
  9
$SURFU
 70
     6
  9
$SURFV
 70
     6
  9
$UCSBASE
  2

  9
$UCSNAME
  2

  9
$UCSORG
 10
0.0
 20
0.0
 30
0.0
  9
$UCSXDIR
 10
1.0
 20
0.0
 30
0.0
  9
$UCSYDIR
 10
0.0
 20
1.0
 30
0.0
  9
$UCSORTHOREF
  2

  9
$UCSORTHOVIEW
 70
     0
  9
$UCSORGTOP
 10
0.0
 20
0.0
 30
0.0
  9
$UCSORGBOTTOM
 10
0.0
 20
0.0
 30
0.0
  9
$UCSORGLEFT
 10
0.0
 20
0.0
 30
0.0
  9
$UCSORGRIGHT
 10
0.0
 20
0.0
 30
0.0
  9
$UCSORGFRONT
 10
0.0
 20
0.0
 30
0.0
  9
$UCSORGBACK
 10
0.0
 20
0.0
 30
0.0
  9
$PUCSBASE
  2

  9
$PUCSNAME
  2

  9
$PUCSORG
 10
0.0
 20
0.0
 30
0.0
  9
$PUCSXDIR
 10
1.0
 20
0.0
 30
0.0
  9
$PUCSYDIR
 10
0.0
 20
1.0
 30
0.0
  9
$PUCSORTHOREF
  2

  9
$PUCSORTHOVIEW
 70
     0
  9
$PUCSORGTOP
 10
0.0
 20
0.0
 30
0.0
  9
$PUCSORGBOTTOM
 10
0.0
 20
0.0
 30
0.0
  9
$PUCSORGLEFT
 10
0.0
 20
0.0
 30
0.0
  9
$PUCSORGRIGHT
 10
0.0
 20
0.0
 30
0.0
  9
$PUCSORGFRONT
 10
0.0
 20
0.0
 30
0.0
  9
$PUCSORGBACK
 10
0.0
 20
0.0
 30
0.0
  9
$USERI1
 70
     0
  9
$USERI2
 70
     0
  9
$USERI3
 70
     0
  9
$USERI4
 70
     0
  9
$USERI5
 70
     0
  9
$USERR1
 40
0.0
  9
$USERR2
 40
0.0
  9
$USERR3
 40
0.0
  9
$USERR4
 40
0.0
  9
$USERR5
 40
0.0
  9
$WORLDVIEW
 70
     1
  9
$SHADEDGE
 70
     3
  9
$SHADEDIF
 70
    70
  9
$TILEMODE
 70
     1
  9
$MAXACTVP
 70
    64
  9
$PINSBASE
 10
0.0
 20
0.0
 30
0.0
  9
$PLIMCHECK
 70
     0
  9
$PEXTMIN
 10
1.000000000000000E+20
 20
1.000000000000000E+20
 30
1.000000000000000E+20
  9
$PEXTMAX
 10
-1.000000000000000E+20
 20
-1.000000000000000E+20
 30
-1.000000000000000E+20
  9
$PLIMMIN
 10
0.0
 20
0.0
  9
$PLIMMAX
 10
12.0
 20
9.0
  9
$UNITMODE
 70
     0
  9
$VISRETAIN
 70
     1
  9
$PLINEGEN
 70
     0
  9
$PSLTSCALE
 70
     1
  9
$TREEDEPTH
 70
  3020
  9
$CMLSTYLE
  2
Standard
  9
$CMLJUST
 70
     0
  9
$CMLSCALE
 40
1.0
  9
$PROXYGRAPHICS
 70
     1
  9
$MEASUREMENT
 70
     0
  9
$CELWEIGHT
370
    -1
  9
$ENDCAPS
280
     0
  9
$JOINSTYLE
280
     0
  9
$LWDISPLAY
290
     0
  9
$INSUNITS
 70
     1
  9
$HYPERLINKBASE
  1

  9
$STYLESHEET
  1

  9
$XEDIT
290
     1
  9
$CEPSNTYPE
380
     0
  9
$PSTYLEMODE
290
     1
  9
$FINGERPRINTGUID
  2
{7CD12B10-7BB9-4580-81BF-E0DD0E78D7DE}
  9
$VERSIONGUID
  2
{FAEB1C32-E019-11D5-929B-00C0DF256EC4}
  9
$EXTNAMES
290
     1
  9
$PSVPSCALE
 40
0.0
  9
$OLESTARTUP
290
     0
  9
$SORTENTS
280
   127
  9
$INDEXCTL
280
     0
  9
$HIDETEXT
280
     1
  9
$XCLIPFRAME
280
     2
  9
$HALOGAP
280
     0
  9
$OBSCOLOR
 70
   257
  9
$OBSLTYPE
280
     0
  9
$INTERSECTIONDISPLAY
280
     0
  9
$INTERSECTIONCOLOR
 70
   257
  9
$DIMASSOC
280
     2
  9
$PROJECTNAME
  1

  9
$CAMERADISPLAY
290
     0
  9
$LENSLENGTH
 40
50.0
  9
$CAMERAHEIGHT
 40
0.0
  9
$STEPSPERSEC
 40
2.0
  9
$STEPSIZE
 40
6.0
  9
$3DDWFPREC
 40
2.0
  9
$PSOLWIDTH
 40
0.25
  9
$PSOLHEIGHT
 40
4.0
  9
$LOFTANG1
 40
1.570796326794897
  9
$LOFTANG2
 40
1.570796326794897
  9
$LOFTMAG1
 40
0.0
  9
$LOFTMAG2
 40
0.0
  9
$LOFTPARAM
 70
     7
  9
$LOFTNORMALS
280
     1
  9
$LATITUDE
 40
37.795
  9
$LONGITUDE
 40
-122.394
  9
$NORTHDIRECTION
 40
0.0
  9
$TIMEZONE
 70
 -8000
  9
$LIGHTGLYPHDISPLAY
280
     1
  9
$TILEMODELIGHTSYNCH
280
     1
  9
$CMATERIAL
347
44
  9
$SOLIDHIST
280
     0
  9
$SHOWHIST
280
     1
  9
$DWFFRAME
280
     2
  9
$DGNFRAME
280
     2
  9
$REALWORLDSCALE
290
     1
  9
$INTERFERECOLOR
 62
   256
  9
$CSHADOW
280
     0
  9
$SHADOWPLANELOCATION
 40
0.0
  0
ENDSEC
  0
SECTION
  2
CLASSES
  0
CLASS
  1
ACDBDICTIONARYWDFLT
  2
AcDbDictionaryWithDefault
  3
ObjectDBX Classes
 90
        0
 91
        4
280
     0
281
     0
  0
CLASS
  1
VISUALSTYLE
  2
AcDbVisualStyle
  3
ObjectDBX Classes
 90
     4095
 91
        4
280
     0
281
     0
  0
CLASS
  1
MATERIAL
  2
AcDbMaterial
  3
ObjectDBX Classes
 90
     1153
 91
        4
280
     0
281
     0
  0
CLASS
  1
SCALE
  2
AcDbScale
  3
ObjectDBX Classes
 90
     1153
 91
        4
280
     0
281
     0
  0
CLASS
  1
TABLESTYLE
  2
AcDbTableStyle
  3
ObjectDBX Classes
 90
     4095
 91
        4
280
     0
281
     0
  0
CLASS
  1
MLEADERSTYLE
  2
AcDbMLeaderStyle
  3
ACDB_MLEADERSTYLE_CLASS
 90
     4095
 91
        4
280
     0
281
     0
  0
CLASS
  1
SUN
  2
AcDbSun
  3
SCENEOE
 90
     1153
 91
        4
280
     0
281
     0
  0
CLASS
  1
DICTIONARYVAR
  2
AcDbDictionaryVar
  3
ObjectDBX Classes
 90
        0
 91
        4
280
     0
281
     0
  0
CLASS
  1
CELLSTYLEMAP
  2
AcDbCellStyleMap
  3
ObjectDBX Classes
 90
     1152
 91
        4
280
     0
281
     0
  0
ENDSEC
  0
SECTION
  2
TABLES
  0
TABLE
  2
VPORT
  5
8
330
0
100
AcDbSymbolTable
 70
     1
  0
VPORT
  5
29
330
8
100
AcDbSymbolTableRecord
100
AcDbViewportTableRecord
  2
*Active
 70
     0
 10
0.0
 20
0.0
 11
1.0
 21
1.0
 12
0.0
 22
-0.0781274999999999
 13
0.0
 23
0.0
 14
0.5
 24
0.5
 15
0.5
 25
0.5
 16
0.0
 26
0.0
 36
1.0
 17
0.0
 27
0.0
 37
0.0
 40
2.754005100000001
 41
3.307920703489211
 42
50.0
 43
0.0
 44
0.0
 50
0.0
 51
0.0
 71
     0
 72
   100
 73
     1
 74
     3
 75
     0
 76
     0
 77
     0
 78
     0
281
     0
 65
     1
110
0.0
120
0.0
130
0.0
111
1.0
121
0.0
131
0.0
112
0.0
122
1.0
132
0.0
 79
     0
146
0.0
348
2F
 60
     3
 61
     5
292
     1
282
     1
141
0.0
142
0.0
 63
   250
361
6D
  0
ENDTAB
  0
TABLE
  2
LTYPE
  5
5
330
0
100
AcDbSymbolTable
 70
     3
  0
LTYPE
  5
14
330
5
100
AcDbSymbolTableRecord
100
AcDbLinetypeTableRecord
  2
ByBlock
 70
     0
  3

 72
    65
 73
     0
 40
0.0
  0
LTYPE
  5
15
330
5
100
AcDbSymbolTableRecord
100
AcDbLinetypeTableRecord
  2
ByLayer
 70
     0
  3

 72
    65
 73
     0
 40
0.0
  0
LTYPE
  5
16
330
5
100
AcDbSymbolTableRecord
100
AcDbLinetypeTableRecord
  2
Continuous
 70
     0
  3
Solid line
 72
    65
 73
     0
 40
0.0
  0
LTYPE
  5
B2
330
5
100
AcDbSymbolTableRecord
100
AcDbLinetypeTableRecord
  2
Dashed
 70
     0
  3

 72
    65
 73
     2
 40
2.0
 49
1.0
 74
     0
 49
-1.0
 74
     0
  0
LTYPE
  5
D2
330
5
100
AcDbSymbolTableRecord
100
AcDbLinetypeTableRecord
  2
Center
 70
     0
  3

 72
    65
 73
     4
 40
1.5
 49
0.45
 74
     0
 49
-0.5
 74
     0
 49
0.05
 74
     0
 49
-0.5
 74
     0
  0
ENDTAB
  0
TABLE
  2
LAYER
  5
2
330
0
100
AcDbSymbolTable
 70
     7
  0
LAYER
  5
10
330
2
100
AcDbSymbolTableRecord
100
AcDbLayerTableRecord
  2
0
 70
     0
 62
     7
  6
Continuous
370
    -3
390
F
347
46
348
0
  0
LAYER
  5
72
330
2
100
AcDbSymbolTableRecord
100
AcDbLayerTableRecord
  2
AM_6
 70
     0
 62
    -2
  6
Continuous
370
    35
390
F
347
46
348
0
  0
LAYER
  5
B3
330
2
100
AcDbSymbolTableRecord
100
AcDbLayerTableRecord
  2
AM_9
 70
     0
 62
     6
  6
Dashed
370
    25
390
F
347
46
348
0
  0
LAYER
  5
D3
330
2
100
AcDbSymbolTableRecord
100
AcDbLayerTableRecord
  2
AM_7
 70
     0
 62
     7
  6
Center
370
    25
390
F
347
46
348
0
  0
LAYER
  5
D5
330
2
100
AcDbSymbolTableRecord
100
AcDbLayerTableRecord
  2
AM_4
 70
     0
 62
     7
  6
Continuous
370
    50
390
F
347
46
348
0
  0
LAYER
  5
E1
330
2
100
AcDbSymbolTableRecord
100
AcDbLayerTableRecord
  2
AM_5
 70
     0
 62
     3
  6
Continuous
370
    25
390
F
347
46
348
0
  0
LAYER
  5
1F1
330
2
100
AcDbSymbolTableRecord
100
AcDbLayerTableRecord
  2
ConnectionPoints
 70
     0
 62
     7
  6
Continuous
370
    50
390
F
347
46
348
0
  0
ENDTAB
  0
TABLE
  2
STYLE
  5
3
330
0
100
AcDbSymbolTable
 70
     1
  0
STYLE
  5
11
330
3
100
AcDbSymbolTableRecord
100
AcDbTextStyleTableRecord
  2
Standard
 70
     0
 40
0.0
 41
1.0
 50
0.0
 71
     0
 42
0.2
  3
txt
  4

  0
ENDTAB
  0
TABLE
  2
VIEW
  5
6
330
0
100
AcDbSymbolTable
 70
     0
  0
ENDTAB
  0
TABLE
  2
UCS
  5
7
330
0
100
AcDbSymbolTable
 70
     0
  0
ENDTAB
  0
TABLE
  2
APPID
  5
9
330
0
100
AcDbSymbolTable
 70
     1
  0
APPID
  5
12
330
9
100
AcDbSymbolTableRecord
100
AcDbRegAppTableRecord
  2
ACAD
 70
     0
  0
ENDTAB
  0
TABLE
  2
DIMSTYLE
  5
A
330
0
100
AcDbSymbolTable
 70
     1
100
AcDbDimStyleTable
  0
DIMSTYLE
105
27
330
A
100
AcDbSymbolTableRecord
100
AcDbDimStyleTableRecord
  2
Standard
 70
     0
178
     0
340
11
  0
ENDTAB
  0
TABLE
  2
BLOCK_RECORD
  5
1
330
0
100
AcDbSymbolTable
 70
     5
  0
BLOCK_RECORD
  5
1F
330
1
100
AcDbSymbolTableRecord
100
AcDbBlockTableRecord
  2
*Model_Space
340
22
 70
     0
280
     1
281
     0
  0
BLOCK_RECORD
  5
1B
330
1
100
AcDbSymbolTableRecord
100
AcDbBlockTableRecord
  2
*Paper_Space
340
1E
 70
     0
280
     1
281
     0
  0
BLOCK_RECORD
  5
23
330
1
100
AcDbSymbolTableRecord
100
AcDbBlockTableRecord
  2
*Paper_Space0
340
26
 70
     0
280
     1
281
     0
  0
BLOCK_RECORD
  5
6E
330
1
100
AcDbSymbolTableRecord
100
AcDbBlockTableRecord
  2
1_048023_4
340
0
102
{BLKREFS
331
6F
102
}
 70
     0
280
     1
281
     0
  0
BLOCK_RECORD
  5
9B
330
1
100
AcDbSymbolTableRecord
100
AcDbBlockTableRecord
  2
2_421249_0_in_048023_4
340
0
102
{BLKREFS
331
9C
102
}
 70
     0
280
     1
281
     0
  0
BLOCK_RECORD
  5
E3
330
1
100
AcDbSymbolTableRecord
100
AcDbBlockTableRecord
  2
3_405020c_Inch_0_in_048023_4
340
0
102
{BLKREFS
331
E4
102
}
 70
     0
280
     1
281
     0
  0
BLOCK_RECORD
  5
13F
330
1
100
AcDbSymbolTableRecord
100
AcDbBlockTableRecord
  2
4_048023B_0_in_048023_4
340
0
102
{BLKREFS
331
140
102
}
 70
     0
280
     1
281
     0
  0
ENDTAB
  0
ENDSEC
  0
SECTION
  2
BLOCKS
  0
BLOCK
  5
20
330
1F
100
AcDbEntity
  8
0
100
AcDbBlockBegin
  2
*Model_Space
 70
     0
 10
0.0
 20
0.0
 30
0.0
  3
*Model_Space
  1

  0
ENDBLK
  5
21
330
1F
100
AcDbEntity
  8
0
100
AcDbBlockEnd
  0
BLOCK
  5
1C
330
1B
100
AcDbEntity
 67
     1
  8
0
100
AcDbBlockBegin
  2
*Paper_Space
 70
     0
 10
0.0
 20
0.0
 30
0.0
  3
*Paper_Space
  1

  0
ENDBLK
  5
1D
330
1B
100
AcDbEntity
 67
     1
  8
0
100
AcDbBlockEnd
  0
BLOCK
  5
24
330
23
100
AcDbEntity
  8
0
100
AcDbBlockBegin
  2
*Paper_Space0
 70
     0
 10
0.0
 20
0.0
 30
0.0
  3
*Paper_Space0
  1

  0
ENDBLK
  5
25
330
23
100
AcDbEntity
  8
0
100
AcDbBlockEnd
  0
BLOCK
  5
70
330
6E
100
AcDbEntity
  8
0
100
AcDbBlockBegin
  2
1_048023_4
 70
     2
 10
0.0
 20
0.0
 30
0.0
  3
1_048023_4
  1

  0
ATTDEF
  5
73
330
6E
100
AcDbEntity
  8
AM_6
100
AcDbText
 10
9.465701219512194
 20
1.271875
 30
0.0
 40
0.5
  1
Unisphere II Pillow Block Inch Bore
100
AcDbAttributeDefinition
  3

  2
NN
 70
     8
280
     0
  0
ATTDEF
  5
74
330
6E
100
AcDbEntity
  8
AM_6
100
AcDbText
 10
9.465701219512194
 20
0.7718750000000001
 30
0.0
 40
0.5
  1
Unisphere II
100
AcDbAttributeDefinition
  3

  2
NT
 70
     8
280
     0
  0
ATTDEF
  5
75
330
6E
100
AcDbEntity
  8
AM_6
100
AcDbText
 10
9.465701219512194
 20
0.2718750000000001
 30
0.0
 40
0.5
  1
048023
100
AcDbAttributeDefinition
  3

  2
NB
 70
     8
280
     0
  0
ATTDEF
  5
76
330
6E
100
AcDbEntity
  8
AM_6
100
AcDbText
 10
9.465701219512194
 20
-0.2281249999999999
 30
0.0
 40
0.5
  1
$PN.
100
AcDbAttributeDefinition
  3

  2
NBSYN
 70
     8
280
     0
  0
ATTDEF
  5
77
330
6E
100
AcDbEntity
  8
AM_6
100
AcDbText
 10
9.465701219512194
 20
-0.7281249999999999
 30
0.0
 40
0.5
  1
048023
100
AcDbAttributeDefinition
  3

  2
LINA
 70
     8
280
     0
  0
ATTDEF
  5
78
330
6E
100
AcDbEntity
  8
AM_6
100
AcDbText
 10
9.465701219512194
 20
-1.228125
 30
0.0
 40
0.5
  1
2-3/16
100
AcDbAttributeDefinition
  3

  2
SS
 70
     8
280
     0
  0
ATTDEF
  5
79
330
6E
100
AcDbEntity
  8
AM_6
100
AcDbText
 10
9.465701219512194
 20
-1.728125
 30
0.0
 40
0.5
  1
Expansion Type
100
AcDbAttributeDefinition
  3

  2
TYPE
 70
     8
280
     0
  0
ATTDEF
  5
7A
330
6E
100
AcDbEntity
  8
AM_6
100
AcDbText
 10
9.465701219512194
 20
-2.228125
 30
0.0
 40
0.5
  1
048023
100
AcDbAttributeDefinition
  3

  2
PN
 70
     8
280
     0
  0
ATTDEF
  5
7B
330
6E
100
AcDbEntity
  8
AM_6
100
AcDbText
 10
9.465701219512194
 20
-2.728125
 30
0.0
 40
0.5
  1
P2B-UN2-203E
100
AcDbAttributeDefinition
  3

  2
DESCRIPTION
 70
     8
280
     0
  0
ATTDEF
  5
7C
330
6E
100
AcDbEntity
  8
AM_6
100
AcDbText
 10
9.465701219512194
 20
-3.228125
 30
0.0
 40
0.5
  1
9.8
100
AcDbAttributeDefinition
  3

  2
WEIGHT
 70
     8
280
     0
  0
ATTDEF
  5
7D
330
6E
100
AcDbEntity
  8
AM_6
100
AcDbText
 10
9.465701219512194
 20
-3.728125
 30
0.0
 40
0.5
  1
2
100
AcDbAttributeDefinition
  3

  2
A
 70
     8
280
     0
  0
ATTDEF
  5
7E
330
6E
100
AcDbEntity
  8
AM_6
100
AcDbText
 10
9.465701219512194
 20
-4.228125
 30
0.0
 40
0.5
  1
8-7/8
100
AcDbAttributeDefinition
  3

  2
B
 70
     8
280
     0
  0
ATTDEF
  5
7F
330
6E
100
AcDbEntity
  8
AM_6
100
AcDbText
 10
9.465701219512194
 20
-4.728125
 30
0.0
 40
0.5
  1
2-5/16
100
AcDbAttributeDefinition
  3

  2
C
 70
     8
280
     0
  0
ATTDEF
  5
80
330
6E
100
AcDbEntity
  8
AM_6
100
AcDbText
 10
9.465701219512194
 20
-5.228125
 30
0.0
 40
0.5
  1
6-7/16
100
AcDbAttributeDefinition
  3

  2
DMIN
 70
     8
280
     0
  0
ATTDEF
  5
81
330
6E
100
AcDbEntity
  8
AM_6
100
AcDbText
 10
9.465701219512194
 20
-5.728125
 30
0.0
 40
0.5
  1
7-1/8
100
AcDbAttributeDefinition
  3

  2
DMAX
 70
     8
280
     0
  0
ATTDEF
  5
82
330
6E
100
AcDbEntity
  8
AM_6
100
AcDbText
 10
9.465701219512194
 20
-6.228125
 30
0.0
 40
0.5
  1
5/32
100
AcDbAttributeDefinition
  3

  2
E
 70
     8
280
     0
  0
ATTDEF
  5
83
330
6E
100
AcDbEntity
  8
AM_6
100
AcDbText
 10
9.465701219512194
 20
-6.728125
 30
0.0
 40
0.5
  1
5/8
100
AcDbAttributeDefinition
  3

  2
F
 70
     8
280
     0
  0
ATTDEF
  5
84
330
6E
100
AcDbEntity
  8
AM_6
100
AcDbText
 10
9.465701219512194
 20
-7.228125
 30
0.0
 40
0.5
  1
1-1/32
100
AcDbAttributeDefinition
  3

  2
G
 70
     8
280
     0
  0
ATTDEF
  5
85
330
6E
100
AcDbEntity
  8
AM_6
100
AcDbText
 10
9.465701219512194
 20
-7.728125
 30
0.0
 40
0.5
  1
1-5/8
100
AcDbAttributeDefinition
  3

  2
H
 70
     8
280
     0
  0
ATTDEF
  5
86
330
6E
100
AcDbEntity
  8
AM_6
100
AcDbText
 10
9.465701219512194
 20
-8.228125
 30
0.0
 40
0.5
  1
5
100
AcDbAttributeDefinition
  3

  2
J
 70
     8
280
     0
  0
ATTDEF
  5
87
330
6E
100
AcDbEntity
  8
AM_6
100
AcDbText
 10
9.465701219512194
 20
-8.728125
 30
0.0
 40
0.5
  1
3-1/2
100
AcDbAttributeDefinition
  3

  2
L
 70
     8
280
     0
  0
ATTDEF
  5
88
330
6E
100
AcDbEntity
  8
AM_6
100
AcDbText
 10
9.465701219512194
 20
-9.228125
 30
0.0
 40
0.5
  1
2-1/2
100
AcDbAttributeDefinition
  3

  2
M
 70
     8
280
     0
  0
ATTDEF
  5
89
330
6E
100
AcDbEntity
  8
AM_6
100
AcDbText
 10
9.465701219512194
 20
-9.728125
 30
0.0
 40
0.5
  1
33/64
100
AcDbAttributeDefinition
  3

  2
R
 70
     8
280
     0
  0
ATTDEF
  5
8A
330
6E
100
AcDbEntity
  8
AM_6
100
AcDbText
 10
9.465701219512194
 20
-10.228125
 30
0.0
 40
0.5
  1
1-31/64
100
AcDbAttributeDefinition
  3

  2
S
 70
     8
280
     0
  0
ATTDEF
  5
8B
330
6E
100
AcDbEntity
  8
AM_6
100
AcDbText
 10
9.465701219512194
 20
-10.728125
 30
0.0
 40
0.5
  1
2325
100
AcDbAttributeDefinition
  3

  2
MRPM
 70
     8
280
     0
  0
ATTDEF
  5
8C
330
6E
100
AcDbEntity
  8
AM_6
100
AcDbText
 10
9.465701219512194
 20
-11.228125
 30
0.0
 40
0.5
  1
32500
100
AcDbAttributeDefinition
  3

  2
CS
 70
     8
280
     0
  0
ATTDEF
  5
8D
330
6E
100
AcDbEntity
  8
AM_6
100
AcDbText
 10
9.465701219512194
 20
-11.728125
 30
0.0
 40
0.5
  1
27000
100
AcDbAttributeDefinition
  3

  2
CD
 70
     8
280
     0
  0
ATTDEF
  5
8E
330
6E
100
AcDbEntity
  8
AM_6
100
AcDbText
 10
9.465701219512194
 20
-12.228125
 30
0.0
 40
0.5
  1
19
100
AcDbAttributeDefinition
  3

  2
RN
 70
     8
280
     0
  0
ATTDEF
  5
8F
330
6E
100
AcDbEntity
  8
AM_6
100
AcDbText
 10
9.465701219512194
 20
-12.728125
 30
0.0
 40
0.5
  1
0.4646
100
AcDbAttributeDefinition
  3

  2
RM
 70
     8
280
     0
  0
ATTDEF
  5
90
330
6E
100
AcDbEntity
  8
AM_6
100
AcDbText
 10
9.465701219512194
 20
-13.228125
 30
0.0
 40
0.5
  1
3.189
100
AcDbAttributeDefinition
  3

  2
PD
 70
     8
280
     0
  0
ATTDEF
  5
91
330
6E
100
AcDbEntity
  8
AM_6
100
AcDbText
 10
9.465701219512194
 20
-13.728125
 30
0.0
 40
0.5
  1
0.0016-0.0026
100
AcDbAttributeDefinition
  3

  2
RC
 70
     8
280
     0
  0
ATTDEF
  5
92
330
6E
100
AcDbEntity
  8
AM_6
100
AcDbText
 10
9.465701219512194
 20
-14.228125
 30
0.0
 40
0.5
  1
3/8-16x3/4
100
AcDbAttributeDefinition
  3

  2
CSS
 70
     8
280
     0
  0
ATTDEF
  5
93
330
6E
100
AcDbEntity
  8
AM_6
100
AcDbText
 10
9.465701219512194
 20
-14.728125
 30
0.0
 40
0.5
  1
290
100
AcDbAttributeDefinition
  3

  2
CST
 70
     8
280
     0
  0
ATTDEF
  5
94
330
6E
100
AcDbEntity
  8
AM_6
100
AcDbText
 10
9.465701219512194
 20
-15.228125
 30
0.0
 40
0.5
  1
Ductile Iron Grade 65-45-12 ASTM A536
100
AcDbAttributeDefinition
  3

  2
MH
 70
     8
280
     0
  0
ATTDEF
  5
95
330
6E
100
AcDbEntity
  8
AM_6
100
AcDbText
 10
9.465701219512194
 20
-15.728125
 30
0.0
 40
0.5
  1
4118 Case Carb.
100
AcDbAttributeDefinition
  3

  2
MIR
 70
     8
280
     0
  0
ATTDEF
  5
96
330
6E
100
AcDbEntity
  8
AM_6
100
AcDbText
 10
9.465701219512194
 20
-16.228125
 30
0.0
 40
0.5
  1
E52100 Steel
100
AcDbAttributeDefinition
  3

  2
MOR
 70
     8
280
     0
  0
ATTDEF
  5
97
330
6E
100
AcDbEntity
  8
AM_6
100
AcDbText
 10
9.465701219512194
 20
-16.728125
 30
0.0
 40
0.5
  1
Polyamide
100
AcDbAttributeDefinition
  3

  2
MR
 70
     8
280
     0
  0
ATTDEF
  5
98
330
6E
100
AcDbEntity
  8
AM_6
100
AcDbText
 10
9.465701219512194
 20
-17.228125
 30
0.0
 40
0.5
  1
E52100 Steel
100
AcDbAttributeDefinition
  3

  2
MRO
 70
     8
280
     0
  0
ATTDEF
  5
99
330
6E
100
AcDbEntity
  8
AM_6
100
AcDbText
 10
9.465701219512194
 20
-17.728125
 30
0.0
 40
0.5
  1
2°
100
AcDbAttributeDefinition
  3

  2
SM
 70
     8
280
     0
  0
ATTDEF
  5
9A
330
6E
100
AcDbEntity
  8
AM_6
100
AcDbText
 10
9.465701219512194
 20
-18.228125
 30
0.0
 40
0.5
  1
baldor
100
AcDbAttributeDefinition
  3

  2
COMPANY
 70
     8
280
     0
  0
INSERT
  5
9C
330
6E
100
AcDbEntity
  8
0
100
AcDbBlockReference
  2
2_421249_0_in_048023_4
 10
0.0
 20
0.0
 30
0.0
  0
INSERT
  5
E4
330
6E
100
AcDbEntity
  8
0
100
AcDbBlockReference
  2
3_405020c_Inch_0_in_048023_4
 10
0.0
 20
0.0
 30
0.0
  0
INSERT
  5
140
330
6E
100
AcDbEntity
  8
0
100
AcDbBlockReference
  2
4_048023B_0_in_048023_4
 10
0.0
 20
0.0
 30
0.0
  0
ENDBLK
  5
71
330
6E
100
AcDbEntity
  8
0
100
AcDbBlockEnd
  0
BLOCK
  5
9D
330
9B
100
AcDbEntity
  8
0
100
AcDbBlockBegin
  2
2_421249_0_in_048023_4
 70
     2
 10
0.0
 20
0.0
 30
0.0
  3
2_421249_0_in_048023_4
  1

  0
ATTDEF
  5
9F
330
9B
100
AcDbEntity
  8
AM_6
100
AcDbText
 10
6.75
 20
0.67187
 30
0.0
 40
0.5
  1
Unisphere II Insert With Seal - Inch
100
AcDbAttributeDefinition
  3

  2
NN
 70
     8
280
     0
  0
ATTDEF
  5
A0
330
9B
100
AcDbEntity
  8
AM_6
100
AcDbText
 10
6.75
 20
0.17187
 30
0.0
 40
0.5
  1
Unisphere II
100
AcDbAttributeDefinition
  3

  2
NT
 70
     8
280
     0
  0
ATTDEF
  5
A1
330
9B
100
AcDbEntity
  8
AM_6
100
AcDbText
 10
6.75
 20
-0.32813
 30
0.0
 40
0.5
  1
421249
100
AcDbAttributeDefinition
  3

  2
NB
 70
     8
280
     0
  0
ATTDEF
  5
A2
330
9B
100
AcDbEntity
  8
AM_6
100
AcDbText
 10
6.75
 20
-0.82813
 30
0.0
 40
0.5
  1
$PN.
100
AcDbAttributeDefinition
  3

  2
NBSYN
 70
     8
280
     0
  0
ATTDEF
  5
A3
330
9B
100
AcDbEntity
  8
AM_6
100
AcDbText
 10
6.75
 20
-1.32813
 30
0.0
 40
0.5
  1
421249
100
AcDbAttributeDefinition
  3

  2
LINA
 70
     8
280
     0
  0
ATTDEF
  5
A4
330
9B
100
AcDbEntity
  8
AM_6
100
AcDbText
 10
6.75
 20
-1.82813
 30
0.0
 40
0.5
  1
2-3/16
100
AcDbAttributeDefinition
  3

  2
SS
 70
     8
280
     0
  0
ATTDEF
  5
A5
330
9B
100
AcDbEntity
  8
AM_6
100
AcDbText
 10
6.75
 20
-2.32813
 30
0.0
 40
0.5
  1
2.18750
100
AcDbAttributeDefinition
  3

  2
SS1
 70
     8
280
     0
  0
ATTDEF
  5
A6
330
9B
100
AcDbEntity
  8
AM_6
100
AcDbText
 10
6.75
 20
-2.82813
 30
0.0
 40
0.5
  1
3.9370
100
AcDbAttributeDefinition
  3

  2
A
 70
     8
280
     0
  0
ATTDEF
  5
A7
330
9B
100
AcDbEntity
  8
AM_6
100
AcDbText
 10
6.75
 20
-3.32813
 30
0.0
 40
0.5
  1
3.50000
100
AcDbAttributeDefinition
  3

  2
A1
 70
     8
280
     0
  0
ATTDEF
  5
A8
330
9B
100
AcDbEntity
  8
AM_6
100
AcDbText
 10
6.75
 20
-3.82813
 30
0.0
 40
0.5
  1
1.0343
100
AcDbAttributeDefinition
  3

  2
B
 70
     8
280
     0
  0
ATTDEF
  5
A9
330
9B
100
AcDbEntity
  8
AM_6
100
AcDbText
 10
6.75
 20
-4.32813
 30
0.0
 40
0.5
  1
1.03430
100
AcDbAttributeDefinition
  3

  2
B1
 70
     8
280
     0
  0
ATTDEF
  5
AA
330
9B
100
AcDbEntity
  8
AM_6
100
AcDbText
 10
6.75
 20
-4.82813
 30
0.0
 40
0.5
  1
2
100
AcDbAttributeDefinition
  3

  2
C
 70
     8
280
     0
  0
ATTDEF
  5
AB
330
9B
100
AcDbEntity
  8
AM_6
100
AcDbText
 10
6.75
 20
-5.32813
 30
0.0
 40
0.5
  1
2.00000
100
AcDbAttributeDefinition
  3

  2
C1
 70
     8
280
     0
  0
ATTDEF
  5
AC
330
9B
100
AcDbEntity
  8
AM_6
100
AcDbText
 10
6.75
 20
-5.82813
 30
0.0
 40
0.5
  1
0.644
100
AcDbAttributeDefinition
  3

  2
D
 70
     8
280
     0
  0
ATTDEF
  5
AD
330
9B
100
AcDbEntity
  8
AM_6
100
AcDbText
 10
6.75
 20
-6.32813
 30
0.0
 40
0.5
  1
0.64400
100
AcDbAttributeDefinition
  3

  2
D1
 70
     8
280
     0
  0
ATTDEF
  5
AE
330
9B
100
AcDbEntity
  8
AM_6
100
AcDbText
 10
6.75
 20
-6.82813
 30
0.0
 40
0.5
  1
0.317
100
AcDbAttributeDefinition
  3

  2
E
 70
     8
280
     0
  0
ATTDEF
  5
AF
330
9B
100
AcDbEntity
  8
AM_6
100
AcDbText
 10
6.75
 20
-7.32813
 30
0.0
 40
0.5
  1
0.31700
100
AcDbAttributeDefinition
  3

  2
E1
 70
     8
280
     0
  0
ATTDEF
  5
B0
330
9B
100
AcDbEntity
  8
AM_6
100
AcDbText
 10
6.75
 20
-7.82813
 30
0.0
 40
0.5
  1
421249
100
AcDbAttributeDefinition
  3

  2
PN
 70
     8
280
     0
  0
ATTDEF
  5
B1
330
9B
100
AcDbEntity
  8
AM_6
100
AcDbText
 10
6.75
 20
-8.32813
 30
0.0
 40
0.5
  1
baldor
100
AcDbAttributeDefinition
  3

  2
COMPANY
 70
     8
280
     0
  0
LINE
  5
B4
330
9B
100
AcDbEntity
  8
AM_9
100
AcDbLine
 10
-1.557018468880742
 20
-1.155220909090909
 30
0.0
 11
-0.9912700558235118
 21
-1.155220909090909
 31
0.0
  0
LINE
  5
B5
330
9B
100
AcDbEntity
  8
AM_9
100
AcDbLine
 10
-0.9912176740059444
 20
-0.867039090909091
 30
0.0
 11
-1.557018468880742
 21
-0.8670390909090909
 31
0.0
  0
LWPOLYLINE
  5
B6
330
9B
100
AcDbEntity
  8
AM_9
100
AcDbPolyline
 90
       21
 70
     0
 43
0.0
 10
-0.9912688068491546
 20
-0.8670390914620988
 10
-0.9979646289252729
 20
-0.8679396618521619
 10
-1.00739457025845
 20
-0.872629939336575
 10
-1.015954967257704
 20
-0.8811532247653743
 10
-1.023488778637305
 20
-0.893357132659958
 10
-1.029883453511277
 20
-0.908830139313848
 10
-1.035098487096144
 20
-0.9273351377559458
 10
-1.03907115703669
 20
-0.9482134263249137
 10
-1.041783012494065
 20
-0.9709217031611445
 10
-1.043248430249186
 20
-0.9947826645643916
 10
-1.043463168633588
 20
-1.018938080335026
 10
-1.042454983010119
 20
-1.042872012115305
 10
-1.040219963639054
 20
-1.065809551100127
 10
-1.036763880024645
 20
-1.087219651608121
 10
-1.032042803513402
 20
-1.106592587756805
 10
-1.026104419117672
 20
-1.123295368843851
 10
-1.018926302181582
 20
-1.136900512290957
 10
-1.010648574263686
 20
-1.146950446807703
 10
-1.001423244644382
 20
-1.153087377245121
 10
-0.9914493086344359
 20
-1.155220312477002
 10
-0.9912753239871115
 20
-1.155220909063769
  0
LWPOLYLINE
  5
B7
330
9B
100
AcDbEntity
  8
AM_9
100
AcDbPolyline
 90
       10
 70
     0
 43
0.0
 10
-0.9912753239871115
 20
-1.155220909063769
 10
-0.9810587785044764
 20
-1.153257566185989
 10
-0.9705033410396351
 20
-1.147345996430275
 10
-0.960136528192446
 20
-1.137609662327674
 10
-0.9503274368320191
 20
-1.124375436590331
 10
-0.9414011441924042
 20
-1.107835939239389
 10
-0.9337870377870462
 20
-1.088577841101496
 10
-0.927819418410976
 20
-1.067014368788827
 10
-0.9237773663267262
 20
-1.043851441855552
 10
-0.9217390147674913
 20
-1.01113
  0
ELLIPSE
  5
B8
330
9B
100
AcDbEntity
  8
AM_9
100
AcDbEllipse
 10
-1.557018468880741
 20
-1.01113
 30
0.0
 11
-2.646907059066214E-17
 21
-0.1440909090909093
 31
0.0
210
0.0
220
0.0
230
1.0
 40
0.4226182617406951
 41
0.3189245466971
 42
2.830687628270266
  0
LINE
  5
B9
330
9B
100
AcDbEntity
  8
AM_9
100
AcDbLine
 10
-1.528622454416882
 20
-0.8836639234485077
 30
0.0
 11
-1.549790580281096
 21
-0.8572612040137219
 31
0.0
  0
LINE
  5
BA
330
9B
100
AcDbEntity
  8
AM_9
100
AcDbLine
 10
-1.549945315879152
 20
-1.165191795622064
 30
0.0
 11
-1.528622454416882
 21
-1.138596076551492
 31
0.0
  0
LINE
  5
BB
330
9B
100
AcDbEntity
  8
AM_9
100
AcDbLine
 10
-1.549983939336327
 20
-0.8570200319628951
 30
0.0
 11
-1.548679014295187
 21
-0.8586825921161476
 31
0.0
  0
LWPOLYLINE
  5
BC
330
9B
100
AcDbEntity
  8
AM_9
100
AcDbPolyline
 90
       11
 70
     0
 43
0.0
 10
-0.9217390147674913
 20
-1.01113
 10
-0.9228464204974774
 20
-0.9870593864012147
 10
-0.9260779901970588
 20
-0.9636701126045418
 10
-0.9313123398231888
 20
-0.9416443097481624
 10
-0.9382797163396348
 20
-0.9215641932863022
 10
-0.9467470562524715
 20
-0.9039253868898566
 10
-0.9563054030386658
 20
-0.8892963727759847
 10
-0.9666222571735318
 20
-0.8780985913132865
 10
-0.9772684324766989
 20
-0.8706665881619504
 10
-0.9878041134051317
 20
-0.8672839666008567
 10
-0.9912688068491546
 20
-0.8670390914620988
  0
LINE
  5
BD
330
9B
100
AcDbEntity
  8
AM_9
100
AcDbLine
 10
1.09375
 20
-1.32813
 30
0.0
 11
1.09375
 21
0.67187
 31
0.0
  0
LINE
  5
BE
330
9B
100
AcDbEntity
  8
AM_9
100
AcDbLine
 10
-1.09375
 20
0.67187
 30
0.0
 11
-1.09375
 21
-1.32813
 31
0.0
  0
LINE
  5
BF
330
9B
100
AcDbEntity
  8
AM_9
100
AcDbLine
 10
1.25
 20
-0.6941300000000001
 30
0.0
 11
1.25
 21
-0.36243
 31
0.0
  0
LINE
  5
C0
330
9B
100
AcDbEntity
  8
AM_9
100
AcDbLine
 10
-1.25
 20
-0.36243
 30
0.0
 11
-1.25
 21
-0.6941300000000001
 31
0.0
  0
LINE
  5
C1
330
9B
100
AcDbEntity
  8
AM_9
100
AcDbLine
 10
-1.73
 20
-0.6941300000000001
 30
0.0
 11
1.72999999999703
 21
-0.6941300000000001
 31
0.0
  0
ARC
  5
C2
330
9B
100
AcDbEntity
  8
AM_9
100
AcDbCircle
 10
1.730000000000001
 20
-0.7141299999999988
 30
0.0
 40
0.0199999999999987
100
AcDbArc
 50
0.0
 51
90.0
  0
ARC
  5
C3
330
9B
100
AcDbEntity
  8
AM_9
100
AcDbCircle
 10
-1.730000000000001
 20
-0.7141299999999988
 30
0.0
 40
0.0199999999999987
100
AcDbArc
 50
90.0
 51
180.0
  0
LINE
  5
C4
330
9B
100
AcDbEntity
  8
AM_9
100
AcDbLine
 10
-1.75
 20
-0.7141299999999997
 30
0.0
 11
1.75
 21
-0.7141299999999997
 31
0.0
  0
LWPOLYLINE
  5
C5
330
9B
100
AcDbEntity
  8
AM_9
100
AcDbPolyline
 90
        9
 70
     0
 43
0.0
 10
-1.623755426062901
 20
-0.8657341146822725
 10
-1.621300480423022
 20
-0.8612921299043198
 10
-1.612675720846803
 20
-0.8490509188664705
 10
-1.60212460832969
 20
-0.8398586911552365
 10
-1.590714471425656
 20
-0.8354071058478241
 10
-1.579197716444742
 20
-0.8358413937313035
 10
-1.567508132765811
 20
-0.8408186659136302
 10
-1.556115555681934
 20
-0.8501125991597294
 10
-1.549983939336327
 20
-0.8570200319628951
  0
LINE
  5
C6
330
9B
100
AcDbEntity
  8
AM_9
100
AcDbLine
 10
1.75
 20
-0.8799407376841655
 30
0.0
 11
1.75
 21
-0.7141299999999997
 31
0.0
  0
LINE
  5
C7
330
9B
100
AcDbEntity
  8
AM_9
100
AcDbLine
 10
-1.75
 20
-0.7141299999999997
 30
0.0
 11
-1.75
 21
-0.8799407376841655
 31
0.0
  0
LINE
  5
C8
330
9B
100
AcDbEntity
  8
AM_9
100
AcDbLine
 10
-1.73
 20
-0.3624300000000001
 30
0.0
 11
1.729999069032164
 21
-0.3624300000000001
 31
0.0
  0
ARC
  5
C9
330
9B
100
AcDbEntity
  8
AM_9
100
AcDbCircle
 10
1.73
 20
-0.3424300000000001
 30
0.0
 40
0.02
100
AcDbArc
 50
270.0
 51
0.0
  0
ARC
  5
CA
330
9B
100
AcDbEntity
  8
AM_9
100
AcDbCircle
 10
-1.73
 20
-0.3424300000000001
 30
0.0
 40
0.02
100
AcDbArc
 50
180.0
 51
270.0
  0
LINE
  5
CB
330
9B
100
AcDbEntity
  8
AM_9
100
AcDbLine
 10
-1.73
 20
0.67187
 30
0.0
 11
1.72999999999703
 21
0.67187
 31
0.0
  0
ARC
  5
CC
330
9B
100
AcDbEntity
  8
AM_9
100
AcDbCircle
 10
1.73
 20
0.6518699999999998
 30
0.0
 40
0.02
100
AcDbArc
 50
0.0
 51
90.0
  0
ARC
  5
CD
330
9B
100
AcDbEntity
  8
AM_9
100
AcDbCircle
 10
-1.73
 20
0.6518699999999998
 30
0.0
 40
0.0200000000000001
100
AcDbArc
 50
90.0
 51
180.0
  0
LINE
  5
CE
330
9B
100
AcDbEntity
  8
AM_9
100
AcDbLine
 10
-1.75
 20
-0.3424300000000001
 30
0.0
 11
1.75
 21
-0.3424300000000001
 31
0.0
  0
LINE
  5
CF
330
9B
100
AcDbEntity
  8
AM_9
100
AcDbLine
 10
-1.75
 20
0.6518700000000003
 30
0.0
 11
1.75
 21
0.6518700000000003
 31
0.0
  0
LINE
  5
D0
330
9B
100
AcDbEntity
  8
AM_9
100
AcDbLine
 10
1.75
 20
-0.3424300000000001
 30
0.0
 11
1.75
 21
0.6518700000000003
 31
0.0
  0
LINE
  5
D1
330
9B
100
AcDbEntity
  8
AM_9
100
AcDbLine
 10
-1.75
 20
0.6518700000000003
 30
0.0
 11
-1.75
 21
-0.3424300000000001
 31
0.0
  0
LINE
  5
D4
330
9B
100
AcDbEntity
  8
AM_7
100
AcDbLine
 10
-0.1512954545454545
 20
-1.01113
 30
0.0
 11
0.1512954545454545
 21
-1.01113
 31
0.0
  0
ELLIPSE
  5
D6
330
9B
100
AcDbEntity
  8
AM_4
100
AcDbEllipse
 10
-1.557018468880742
 20
-1.01113
 30
0.0
 11
-2.646907059066210E-17
 21
-0.144090909090909
 31
0.0
210
0.0
220
0.0
230
1.0
 40
0.4226182617407003
 41
2.83068762827026
 42
6.602109853876693
  0
LWPOLYLINE
  5
D7
330
9B
100
AcDbEntity
  8
AM_4
100
AcDbPolyline
 90
       15
 70
     0
 43
0.0
 10
-1.548679014295187
 20
-0.8586825921161476
 10
-1.545263045853601
 20
-0.8633713639970023
 10
-1.535052380563497
 20
-0.8807099236768638
 10
-1.526096111899654
 20
-0.9012537256665347
 10
-1.51840241108001
 20
-0.9255659651448592
 10
-1.512647607941011
 20
-0.9520644220005291
 10
-1.508953085078968
 20
-0.981246815049465
 10
-1.507700159688642
 20
-1.011234216144596
 10
-1.509029572258826
 20
-1.041902395498774
 10
-1.512910214439923
 20
-1.071703026577136
 10
-1.519240603264981
 20
-1.099777355012949
 10
-1.527740825160834
 20
-1.125271469796893
 10
-1.537862870952589
 20
-1.146860099331712
 10
-1.549365102109806
 20
-1.164460142288211
 10
-1.549990131132032
 20
-1.165247692755884
  0
LWPOLYLINE
  5
D8
330
9B
100
AcDbEntity
  8
AM_4
100
AcDbPolyline
 90
       19
 70
     0
 43
0.0
 10
-1.549990131132032
 20
-1.165247692755884
 10
-1.561267544045229
 20
-1.176892898819227
 10
-1.573603504357877
 20
-1.184609572720903
 10
-1.585371336563874
 20
-1.187214135349569
 10
-1.596776557263826
 20
-1.185146068517642
 10
-1.607264190685672
 20
-1.178604410507124
 10
-1.616858555308157
 20
-1.167890694833877
 10
-1.625488158131068
 20
-1.153048421268926
 10
-1.632886819971853
 20
-1.134735138711213
 10
-1.639189806394769
 20
-1.112497524679001
 10
-1.644035667430156
 20
-1.087709515661132
 10
-1.647511014576193
 20
-1.059779142365637
 10
-1.649377044841343
 20
-1.030560179296403
 10
-1.649603910233349
 20
-0.9999405276391167
 10
-1.648127100821606
 20
-0.9696321882136013
 10
-1.644895319757837
 20
-0.9402726098707052
 10
-1.639931402252189
 20
-0.9129578522791149
 10
-1.634911560980676
 20
-0.8938333482860492
 10
-1.628885571022863
 20
-0.8768184191334399
  0
LWPOLYLINE
  5
D9
330
9B
100
AcDbEntity
  8
AM_4
100
AcDbPolyline
 90
       39
 70
     0
 43
0.0
 10
-0.1214344694256388
 20
-0.8894714582178063
 10
-0.1031238786706234
 20
-0.8721382697887807
 10
-0.0819453780433384
 20
-0.8574172008529516
 10
-0.0564898502750638
 20
-0.8452878103496724
 10
-0.0284363468582707
 20
-0.8375639617005729
 10
-0.0015102963046089
 20
-0.8350260167557224
 10
0.0262702313607255
 20
-0.8371886803213747
 10
0.05196592843345
 20
-0.8436682401192115
 10
0.0769186488044602
 20
-0.8545866736600608
 10
0.0995008938417702
 20
-0.8692653647296158
 10
0.1199552647692066
 20
-0.8878699809039201
 10
0.1374153676867049
 20
-0.9098476621630742
 10
0.1514888119789806
 20
-0.9350010468787258
 10
0.1615024487783996
 20
-0.9625771485954498
 10
0.1670519278555904
 20
-0.9922127899694407
 10
0.1676803798132845
 20
-1.022408253447293
 10
0.1631666118347724
 20
-1.053139620082294
 10
0.1537731259674745
 20
-1.082056217812337
 10
0.1391730944306728
 20
-1.10974232894155
 10
0.1208799010798771
 20
-1.133393704009136
 10
0.0980409926151935
 20
-1.154107531540368
 10
0.0736722163994195
 20
-1.16938134141473
 10
0.0461288969725715
 20
-1.180462342790372
 10
0.0193034478332506
 20
-1.186072881127296
 10
-0.0089394907441453
 20
-1.186991215855179
 10
-0.0352530437553164
 20
-1.183314183375273
 10
-0.0613095604886852
 20
-1.175078243072707
 10
-0.0850918895103354
 20
-1.162951234363164
 10
-0.1071747950217873
 20
-1.146711912197312
 10
-0.1265264213102016
 20
-1.126948804466943
 10
-0.1428829043242471
 20
-1.103735544261255
 10
-0.1555397949987966
 20
-1.07769585520831
 10
-0.1640475603846469
 20
-1.049191540667384
 10
-0.1678383583802331
 20
-1.019441477573472
 10
-0.1666461059839704
 20
-0.9886276977056343
 10
-0.1604387474348234
 20
-0.9588520911567424
 10
-0.1489700476201025
 20
-0.9297295114546994
 10
-0.1367313294275487
 20
-0.9088363502907304
 10
-0.1214344694994078
 20
-0.8894714581715356
  0
LINE
  5
DA
330
9B
100
AcDbEntity
  8
AM_4
100
AcDbLine
 10
-1.628885571022863
 20
-0.8768184191334399
 30
0.0
 11
-1.623755426062901
 21
-0.8657341146822725
 31
0.0
  0
LINE
  5
DB
330
9B
100
AcDbEntity
  8
AM_4
100
AcDbLine
 10
1.75
 20
-1.28813
 30
0.0
 11
1.75
 21
-0.8799407376841655
 31
0.0
  0
LINE
  5
DC
330
9B
100
AcDbEntity
  8
AM_4
100
AcDbLine
 10
-1.75
 20
-0.8799407376841655
 30
0.0
 11
-1.75
 21
-1.28813
 31
0.0
  0
LINE
  5
DD
330
9B
100
AcDbEntity
  8
AM_4
100
AcDbLine
 10
-1.71
 20
-1.32813
 30
0.0
 11
1.709999999998022
 21
-1.32813
 31
0.0
  0
LINE
  5
DE
330
9B
100
AcDbEntity
  8
AM_4
100
AcDbLine
 10
-1.75
 20
-1.28813
 30
0.0
 11
1.75
 21
-1.28813
 31
0.0
  0
ARC
  5
DF
330
9B
100
AcDbEntity
  8
AM_4
100
AcDbCircle
 10
1.71
 20
-1.28813
 30
0.0
 40
0.0400000000000003
100
AcDbArc
 50
270.0
 51
0.0
  0
ARC
  5
E0
330
9B
100
AcDbEntity
  8
AM_4
100
AcDbCircle
 10
-1.71
 20
-1.28813
 30
0.0
 40
0.04
100
AcDbArc
 50
180.0
 51
270.0
  0
ARC
  5
E2
330
9B
100
AcDbEntity
  8
AM_5
100
AcDbCircle
 10
0.0000000000000001
 20
-1.01113
 30
0.0
 40
0.144090909090909
100
AcDbArc
 50
75.00000000000001
 51
14.99999999999997
  0
ENDBLK
  5
9E
330
9B
100
AcDbEntity
  8
0
100
AcDbBlockEnd
  0
BLOCK
  5
E5
330
E3
100
AcDbEntity
  8
0
100
AcDbBlockBegin
  2
3_405020c_Inch_0_in_048023_4
 70
     2
 10
0.0
 20
0.0
 30
0.0
  3
3_405020c_Inch_0_in_048023_4
  1

  0
ATTDEF
  5
E7
330
E3
100
AcDbEntity
  8
AM_6
100
AcDbText
 10
6.504842453027621
 20
0.1624086307230418
 30
0.0
 40
0.5
  1
405020C -Inch
100
AcDbAttributeDefinition
  3

  2
NN
 70
     8
280
     0
  0
ATTDEF
  5
E8
330
E3
100
AcDbEntity
  8
AM_6
100
AcDbText
 10
6.504842453027621
 20
-0.3375913692769582
 30
0.0
 40
0.5
  1
Grease fitting
100
AcDbAttributeDefinition
  3

  2
NT
 70
     8
280
     0
  0
ATTDEF
  5
E9
330
E3
100
AcDbEntity
  8
AM_6
100
AcDbText
 10
6.504842453027621
 20
-0.8375913692769581
 30
0.0
 40
0.5
  1
405020c-Inch
100
AcDbAttributeDefinition
  3

  2
NB
 70
     8
280
     0
  0
ATTDEF
  5
EA
330
E3
100
AcDbEntity
  8
AM_6
100
AcDbText
 10
6.504842453027621
 20
-1.337591369276958
 30
0.0
 40
0.5
  1
$MN.-Inch
100
AcDbAttributeDefinition
  3

  2
NBSYN
 70
     8
280
     0
  0
ATTDEF
  5
EB
330
E3
100
AcDbEntity
  8
AM_6
100
AcDbText
 10
6.504842453027621
 20
-1.837591369276958
 30
0.0
 40
0.5
  1
405020c
100
AcDbAttributeDefinition
  3

  2
LINA
 70
     8
280
     0
  0
ATTDEF
  5
EC
330
E3
100
AcDbEntity
  8
AM_6
100
AcDbText
 10
6.504842453027621
 20
-2.337591369276958
 30
0.0
 40
0.5
  1
405020c
100
AcDbAttributeDefinition
  3

  2
MN
 70
     8
280
     0
  0
ATTDEF
  5
ED
330
E3
100
AcDbEntity
  8
AM_6
100
AcDbText
 10
6.504842453027621
 20
-2.837591369276958
 30
0.0
 40
0.5
  1
0.230
100
AcDbAttributeDefinition
  3

  2
NDR
 70
     8
280
     0
  0
ATTDEF
  5
EE
330
E3
100
AcDbEntity
  8
AM_6
100
AcDbText
 10
6.504842453027621
 20
-3.337591369276958
 30
0.0
 40
0.5
  1
0.210
100
AcDbAttributeDefinition
  3

  2
KDR
 70
     8
280
     0
  0
ATTDEF
  5
EF
330
E3
100
AcDbEntity
  8
AM_6
100
AcDbText
 10
6.504842453027621
 20
-3.837591369276958
 30
0.0
 40
0.5
  1
0.157
100
AcDbAttributeDefinition
  3

  2
BZE
 70
     8
280
     0
  0
ATTDEF
  5
F0
330
E3
100
AcDbEntity
  8
AM_6
100
AcDbText
 10
6.504842453027621
 20
-4.337591369276958
 30
0.0
 40
0.5
  1
9/32
100
AcDbAttributeDefinition
  3

  2
WAF
 70
     8
280
     0
  0
ATTDEF
  5
F1
330
E3
100
AcDbEntity
  8
AM_6
100
AcDbText
 10
6.504842453027621
 20
-4.837591369276958
 30
0.0
 40
0.5
  1
0.2813
100
AcDbAttributeDefinition
  3

  2
WAF1
 70
     8
280
     0
  0
ATTDEF
  5
F2
330
E3
100
AcDbEntity
  8
AM_6
100
AcDbText
 10
6.504842453027621
 20
-5.337591369276958
 30
0.0
 40
0.5
  1
0.545
100
AcDbAttributeDefinition
  3

  2
BL
 70
     8
280
     0
  0
ATTDEF
  5
F3
330
E3
100
AcDbEntity
  8
AM_6
100
AcDbText
 10
6.504842453027621
 20
-5.837591369276958
 30
0.0
 40
0.5
  1
0.200
100
AcDbAttributeDefinition
  3

  2
TL
 70
     8
280
     0
  0
ATTDEF
  5
F4
330
E3
100
AcDbEntity
  8
AM_6
100
AcDbText
 10
6.504842453027621
 20
-6.337591369276958
 30
0.0
 40
0.5
  1
baldor
100
AcDbAttributeDefinition
  3

  2
COMPANY
 70
     8
280
     0
  0
ELLIPSE
  5
F5
330
E3
100
AcDbEntity
  8
AM_9
100
AcDbEllipse
 10
1.15
 20
0.0000000000000001
 30
0.0
 11
-1.838598171376523E-17
 21
-0.1000886227036577
 31
0.0
210
0.0
220
0.0
230
1.0
 40
0.8660254037844382
 41
0.0
 42
6.283185307179586
  0
LINE
  5
F6
330
E3
100
AcDbEntity
  8
AM_9
100
AcDbLine
 10
1.355050716183345
 20
0.0933634043188812
 30
0.0
 11
1.374721576807604
 21
0.081204315361521
 31
0.0
  0
LWPOLYLINE
  5
F7
330
E3
100
AcDbEntity
  8
AM_9
100
AcDbPolyline
 90
        3
 70
     0
 43
0.0
 10
1.310903236521141
 20
0.1218064730422815
 10
1.342124292512946
 20
0.1015053942019012
 10
1.355050716183345
 20
0.0933634043188812
  0
LWPOLYLINE
  5
F8
330
E3
100
AcDbEntity
  8
AM_9
100
AcDbPolyline
 90
        4
 70
     0
 43
0.0
 10
1.374721576807604
 20
0.081204315361521
 10
1.373572372260407
 20
0.0623017518439033
 10
1.372265768908418
 20
0.0312428256208205
 10
1.371806473042281
 20
0.0000000000000001
  0
LINE
  5
F9
330
E3
100
AcDbEntity
  8
AM_9
100
AcDbLine
 10
1.352913328254655
 20
-0.0947005893743751
 30
0.0
 11
1.310903236521141
 21
-0.1218064730422812
 31
0.0
  0
LINE
  5
FA
330
E3
100
AcDbEntity
  8
AM_9
100
AcDbLine
 10
1.374721576807604
 20
-0.0812043153615207
 30
0.0
 11
1.352913328254655
 21
-0.0947005893743751
 31
0.0
  0
LWPOLYLINE
  5
FB
330
E3
100
AcDbEntity
  8
AM_9
100
AcDbPolyline
 90
        3
 70
     0
 43
0.0
 10
1.371806473042281
 20
0.0000000000000001
 10
1.372575910773516
 20
-0.0406021576807603
 10
1.374721576807604
 20
-0.0812043153615207
  0
LINE
  5
FC
330
E3
100
AcDbEntity
  8
AM_9
100
AcDbLine
 10
1.402224702610292
 20
-0.0812043153615207
 30
0.0
 11
1.374721576807604
 21
-0.0812043153615207
 31
0.0
  0
LINE
  5
FD
330
E3
100
AcDbEntity
  8
AM_9
100
AcDbLine
 10
1.402224702610292
 20
0.081204315361521
 30
0.0
 11
1.374721576807604
 21
0.081204315361521
 31
0.0
  0
LWPOLYLINE
  5
FE
330
E3
100
AcDbEntity
  8
AM_9
100
AcDbPolyline
 90
        3
 70
     0
 43
0.0
 10
1.344236569854474
 20
-0.1218064730422811
 10
1.37391875038381
 20
-0.1015053942019009
 10
1.402224702610292
 20
-0.0812043153615207
  0
LWPOLYLINE
  5
FF
330
E3
100
AcDbEntity
  8
AM_9
100
AcDbPolyline
 90
        3
 70
     0
 43
0.0
 10
1.402224702610292
 20
-0.0812043153615207
 10
1.404363571097526
 20
-0.0407847159147453
 10
1.405139806375614
 20
0.0000000000000001
  0
LWPOLYLINE
  5
100
330
E3
100
AcDbEntity
  8
AM_9
100
AcDbPolyline
 90
        3
 70
     0
 43
0.0
 10
1.402224702610292
 20
0.081204315361521
 10
1.374048871512444
 20
0.1014141150849087
 10
1.344236569854474
 20
0.1218064730422814
  0
LWPOLYLINE
  5
101
330
E3
100
AcDbEntity
  8
AM_9
100
AcDbPolyline
 90
        4
 70
     0
 43
0.0
 10
1.405139806375614
 20
0.0000000000000001
 10
1.404683178075432
 20
0.0311508759219517
 10
1.403373907157489
 20
0.0623017518439033
 10
1.402224702610292
 20
0.081204315361521
  0
LWPOLYLINE
  5
102
330
E3
100
AcDbEntity
  8
AM_9
100
AcDbPolyline
 90
        3
 70
     0
 43
0.0
 10
1.252915103765323
 20
0.1624086307230418
 10
1.281090934863171
 20
0.1421988309996542
 10
1.310903236521141
 20
0.1218064730422815
  0
LWPOLYLINE
  5
103
330
E3
100
AcDbEntity
  8
AM_9
100
AcDbPolyline
 90
        3
 70
     0
 43
0.0
 10
1.310903236521141
 20
-0.1218064730422812
 10
1.281221055991805
 20
-0.1421075518826614
 10
1.252915103765323
 20
-0.1624086307230416
  0
LINE
  5
104
330
E3
100
AcDbEntity
  8
AM_9
100
AcDbLine
 10
1.149987797620406
 20
-0.1102543821984235
 30
0.0
 11
1.244542156672533
 21
-0.1161730020514926
 31
0.0
  0
LINE
  5
105
330
E3
100
AcDbEntity
  8
AM_9
100
AcDbLine
 10
1.244542156672533
 20
0.1161730020514928
 30
0.0
 11
1.149987797620406
 21
0.1102543821984237
 31
0.0
  0
LINE
  5
106
330
E3
100
AcDbEntity
  8
AM_9
100
AcDbLine
 10
1.344236569854474
 20
0.1218064730422814
 30
0.0
 11
1.33322793019212
 21
0.1290785799094416
 31
0.0
  0
LINE
  5
107
330
E3
100
AcDbEntity
  8
AM_9
100
AcDbLine
 10
1.333370179405186
 20
-0.1289854474666646
 30
0.0
 11
1.344236569854474
 21
-0.1218064730422811
 31
0.0
  0
ELLIPSE
  5
108
330
E3
100
AcDbEntity
  8
AM_9
100
AcDbEllipse
 10
1.283333333333288
 20
0.0000000000000061
 30
0.0
 11
8.612328615003337E-18
 21
0.1406499999999931
 31
0.0
210
0.0
220
0.0
230
1.0
 40
0.8660254037845816
 41
3.548931831925884
 42
5.871175487598856
  0
ELLIPSE
  5
109
330
E3
100
AcDbEntity
  8
AM_9
100
AcDbEllipse
 10
1.298993608043448
 20
0.0
 30
0.0
 11
6.694498085252783E-18
 21
0.1093294505797713
 31
0.0
210
0.0
220
0.0
230
1.0
 40
0.8660254037844274
 41
3.121353557967685
 42
6.283185307179586
  0
LWPOLYLINE
  5
10A
330
E3
100
AcDbEntity
  8
AM_9
100
AcDbPolyline
 90
        3
 70
     0
 43
0.0
 10
1.263669126967119
 20
-0.0669343221146565
 10
1.262550774553404
 20
-0.0655066723846543
 10
1.25908346944788
 20
-0.0606696075125702
  0
LWPOLYLINE
  5
10B
330
E3
100
AcDbEntity
  8
AM_9
100
AcDbPolyline
 90
       29
 70
     0
 43
0.0
 10
1.316671277573111
 20
0.0946847896390989
 10
1.320623625920804
 20
0.0945512255433859
 10
1.330841475292989
 20
0.0929552124706236
 10
1.34084426914477
 20
0.0895699538390087
 10
1.350336773470319
 20
0.08451285322528
 10
1.359136882954747
 20
0.0779359065238814
 10
1.367122135399224
 20
0.0699807423841527
 10
1.374181686301187
 20
0.0607850493999628
 10
1.38020292703277
 20
0.0504991855414361
 10
1.385076338593417
 20
0.039295661408074
 10
1.388704827599109
 20
0.0273712104775787
 10
1.391012341772404
 20
0.0149440898168286
 10
1.391950382431433
 20
0.0022486180910782
 10
1.391502232017525
 20
-0.0104718225862192
 10
1.389685139169562
 20
-0.0229718481847117
 10
1.386550760314264
 20
-0.0350119179629041
 10
1.38218276772505
 20
-0.0463683483527185
 10
1.376692682932392
 20
-0.0568395535252807
 10
1.370213022196596
 20
-0.0662529168432144
 10
1.362887427078165
 20
-0.0744696017821511
 10
1.354857778714222
 20
-0.0813856843591483
 10
1.346249216151851
 20
-0.0869273270910363
 10
1.337156318623684
 20
-0.0910373446234193
 10
1.327638999123777
 20
-0.0936519964488161
 10
1.317745693964509
 20
-0.094674925069738
 10
1.307582343960228
 20
-0.0939765924474954
 10
1.297427102731649
 20
-0.0914724905792202
 10
1.287651611943328
 20
-0.0872285147255238
 10
1.279781962673788
 20
-0.0823347400982391
  0
LWPOLYLINE
  5
10C
330
E3
100
AcDbEntity
  8
AM_9
100
AcDbPolyline
 90
        5
 70
     0
 43
0.0
 10
1.285970079386431
 20
0.0863009010170337
 10
1.291605865248456
 20
0.0891747972789384
 10
1.300917750904969
 20
0.0925429778539475
 10
1.31063145789608
 20
0.0943726250676849
 10
1.316671277573111
 20
0.0946847896390989
  0
LINE
  5
10D
330
E3
100
AcDbEntity
  8
AM_9
100
AcDbLine
 10
1.258163301602029
 20
0.0592682584468524
 30
0.0
 11
1.259422518882667
 21
0.0611725944425319
 31
0.0
  0
ELLIPSE
  5
10E
330
E3
100
AcDbEntity
  8
AM_9
100
AcDbEllipse
 10
1.327236734117996
 20
0.0000000000001327
 30
0.0
 11
6.084620899762511E-18
 21
0.09936940028747654
 31
0.0
210
0.0
220
0.0
230
1.0
 40
0.8660254037942992
 41
2.201405349607439
 42
6.283185307179586
  0
ELLIPSE
  5
10F
330
E3
100
AcDbEntity
  8
AM_9
100
AcDbEllipse
 10
1.361412144387321
 20
0.0000000000000005
 30
0.0
 11
8.036249332247487E-18
 21
0.1312419113468902
 31
0.0
210
0.0
220
0.0
230
1.0
 40
0.8660254037844427
 41
2.353943699746911
 42
7.144400291072973
  0
ELLIPSE
  5
110
330
E3
100
AcDbEntity
  8
AM_9
100
AcDbEllipse
 10
1.361412144387442
 20
0.0000000000000372
 30
0.0
 11
8.036249332243686E-18
 21
0.1312419113468281
 31
0.0
210
0.0
220
0.0
230
1.0
 40
0.8660254037854362
 41
0.8737703708799573
 42
0.9401873039797983
  0
ELLIPSE
  5
111
330
E3
100
AcDbEntity
  8
AM_9
100
AcDbEllipse
 10
1.36141214438723
 20
-0.00000000000007
 30
0.0
 11
8.036249332240894E-18
 21
0.1312419113467825
 31
0.0
210
0.0
220
0.0
230
1.0
 40
0.8660254037843342
 41
2.201405349610283
 42
2.334370429631912
  0
ELLIPSE
  5
112
330
E3
100
AcDbEntity
  8
AM_9
100
AcDbEllipse
 10
1.381745879150894
 20
-0.0000000000098518
 30
0.0
 11
8.079715311209880E-18
 21
0.131951764653046
 31
0.0
210
0.0
220
0.0
230
1.0
 40
0.8660254037930242
 41
3.967571964595667
 42
5.457205996283497
  0
ELLIPSE
  5
113
330
E3
100
AcDbEntity
  8
AM_9
100
AcDbEllipse
 10
1.414884139107035
 20
0.0000000000004375
 30
0.0
 11
6.357083428173540E-18
 21
0.1038190510537338
 31
0.0
210
0.0
220
0.0
230
1.0
 40
0.8660254037740125
 41
4.024348172629558
 42
5.447150431132334
  0
ELLIPSE
  5
114
330
E3
100
AcDbEntity
  8
AM_9
100
AcDbEllipse
 10
1.250000000000002
 20
0.0000000000000009
 30
0.0
 11
8.612328615003852E-18
 21
0.1406500000000015
 31
0.0
210
0.0
220
0.0
230
1.0
 40
0.86602540378444
 41
0.0
 42
6.283185307179586
  0
ELLIPSE
  5
115
330
E3
100
AcDbEntity
  8
AM_9
100
AcDbEllipse
 10
1.25
 20
0.0000000000000001
 30
0.0
 11
7.124004163867301E-18
 21
0.1163438171532773
 31
0.0
210
0.0
220
0.0
230
1.0
 40
0.8660254037844317
 41
0.0
 42
6.283185307179586
  0
ELLIPSE
  5
116
330
E3
100
AcDbEntity
  8
AM_9
100
AcDbEllipse
 10
1.155163818445166
 20
0.0000000000000001
 30
0.0
 11
6.761045944280095E-18
 21
0.110416259593989
 31
0.0
210
0.0
220
0.0
230
1.0
 40
0.8660254037844191
 41
0.0
 42
6.283185307179586
  0
LWPOLYLINE
  5
117
330
E3
100
AcDbEntity
  8
AM_4
100
AcDbPolyline
 90
        3
 70
     0
 43
0.0
 10
1.33322793019212
 20
0.1290785799094416
 10
1.313015513862669
 20
0.1421075518826617
 10
1.28041822956801
 20
0.1624086307230418
  0
LWPOLYLINE
  5
118
330
E3
100
AcDbEntity
  8
AM_4
100
AcDbPolyline
 90
        3
 70
     0
 43
0.0
 10
1.28041822956801
 20
-0.1624086307230416
 10
1.312871797640326
 20
-0.1421988309996539
 10
1.333370179405186
 20
-0.1289854474666646
  0
LWPOLYLINE
  5
119
330
E3
100
AcDbEntity
  8
AM_4
100
AcDbPolyline
 90
        4
 70
     0
 43
0.0
 10
1.128193526957719
 20
0.0000000000000001
 10
1.128650155257902
 20
0.0311508759219517
 10
1.129959426175845
 20
0.0623017518439033
 10
1.131108630723042
 20
0.081204315361521
  0
LWPOLYLINE
  5
11A
330
E3
100
AcDbEntity
  8
AM_4
100
AcDbPolyline
 90
        3
 70
     0
 43
0.0
 10
1.131108630723042
 20
-0.0812043153615207
 10
1.128969762235808
 20
-0.0407847159147453
 10
1.128193526957719
 20
0.0000000000000001
  0
LINE
  5
11B
330
E3
100
AcDbEntity
  8
AM_4
100
AcDbLine
 10
1.158611756525729
 20
-0.0812043153615207
 30
0.0
 11
1.131108630723042
 21
-0.0812043153615207
 31
0.0
  0
LWPOLYLINE
  5
11C
330
E3
100
AcDbEntity
  8
AM_4
100
AcDbPolyline
 90
        3
 70
     0
 43
0.0
 10
1.189096763478859
 20
-0.1218064730422811
 10
1.159414582949524
 20
-0.1015053942019009
 10
1.131108630723042
 20
-0.0812043153615207
  0
LWPOLYLINE
  5
11D
330
E3
100
AcDbEntity
  8
AM_4
100
AcDbPolyline
 90
        3
 70
     0
 43
0.0
 10
1.252915103765323
 20
-0.1624086307230416
 10
1.220461535693008
 20
-0.1421988309996539
 10
1.189096763478859
 20
-0.1218064730422811
  0
LINE
  5
11E
330
E3
100
AcDbEntity
  8
AM_4
100
AcDbLine
 10
1.28041822956801
 20
-0.1624086307230416
 30
0.0
 11
1.252915103765323
 21
-0.1624086307230416
 31
0.0
  0
LWPOLYLINE
  5
11F
330
E3
100
AcDbEntity
  8
AM_4
100
AcDbPolyline
 90
        3
 70
     0
 43
0.0
 10
1.222430096812193
 20
-0.1218064730422812
 10
1.252112277341529
 20
-0.1421075518826614
 10
1.28041822956801
 20
-0.1624086307230416
  0
LWPOLYLINE
  5
120
330
E3
100
AcDbEntity
  8
AM_4
100
AcDbPolyline
 90
        3
 70
     0
 43
0.0
 10
1.161526860291052
 20
0.0000000000000001
 10
1.160757422559817
 20
-0.0406021576807603
 10
1.158611756525729
 20
-0.0812043153615207
  0
LWPOLYLINE
  5
121
330
E3
100
AcDbEntity
  8
AM_4
100
AcDbPolyline
 90
        3
 70
     0
 43
0.0
 10
1.158611756525729
 20
-0.0812043153615207
 10
1.191065324598044
 20
-0.1014141150849084
 10
1.222430096812193
 20
-0.1218064730422812
  0
LINE
  5
122
330
E3
100
AcDbEntity
  8
AM_4
100
AcDbLine
 10
1.28041822956801
 20
0.1624086307230418
 30
0.0
 11
1.252915103765323
 21
0.1624086307230418
 31
0.0
  0
LWPOLYLINE
  5
123
330
E3
100
AcDbEntity
  8
AM_4
100
AcDbPolyline
 90
        3
 70
     0
 43
0.0
 10
1.189096763478859
 20
0.1218064730422814
 10
1.220317819470664
 20
0.1421075518826616
 10
1.252915103765323
 20
0.1624086307230418
  0
LWPOLYLINE
  5
124
330
E3
100
AcDbEntity
  8
AM_4
100
AcDbPolyline
 90
        3
 70
     0
 43
0.0
 10
1.131108630723042
 20
0.081204315361521
 10
1.15928446182089
 20
0.1014141150849087
 10
1.189096763478859
 20
0.1218064730422814
  0
LINE
  5
125
330
E3
100
AcDbEntity
  8
AM_4
100
AcDbLine
 10
1.158611756525729
 20
0.081204315361521
 30
0.0
 11
1.131108630723042
 21
0.081204315361521
 31
0.0
  0
LWPOLYLINE
  5
126
330
E3
100
AcDbEntity
  8
AM_4
100
AcDbPolyline
 90
        3
 70
     0
 43
0.0
 10
1.28041822956801
 20
0.1624086307230418
 10
1.252242398470162
 20
0.1421988309996542
 10
1.222430096812193
 20
0.1218064730422814
  0
LWPOLYLINE
  5
127
330
E3
100
AcDbEntity
  8
AM_4
100
AcDbPolyline
 90
        3
 70
     0
 43
0.0
 10
1.222430096812193
 20
0.1218064730422814
 10
1.191209040820388
 20
0.1015053942019012
 10
1.158611756525729
 20
0.081204315361521
  0
LWPOLYLINE
  5
128
330
E3
100
AcDbEntity
  8
AM_4
100
AcDbPolyline
 90
        4
 70
     0
 43
0.0
 10
1.158611756525729
 20
0.081204315361521
 10
1.159760961072926
 20
0.0623017518439033
 10
1.161067564424916
 20
0.0312428256208205
 10
1.161526860291052
 20
0.0000000000000001
  0
ELLIPSE
  5
129
330
E3
100
AcDbEntity
  8
AM_4
100
AcDbEllipse
 10
1.283333333333334
 20
-0.0000000000000004
 30
0.0
 11
8.612328615003789E-18
 21
0.1406500000000004
 31
0.0
210
0.0
220
0.0
230
1.0
 40
0.86602540378444
 41
5.87117548759916
 42
9.832117139105204
  0
ELLIPSE
  5
12A
330
E3
100
AcDbEntity
  8
AM_4
100
AcDbEllipse
 10
1.298993608043448
 20
0.0
 30
0.0
 11
6.694498085252781E-18
 21
0.1093294505797713
 31
0.0
210
0.0
220
0.0
230
1.0
 40
0.8660254037844295
 41
0.0
 42
3.121353557967691
  0
LINE
  5
12B
330
E3
100
AcDbEntity
  8
AM_4
100
AcDbLine
 10
1.257731665606296
 20
-0.0585918508151906
 30
0.0
 11
1.269613481889388
 21
-0.077385054836875
 31
0.0
  0
LINE
  5
12C
330
E3
100
AcDbEntity
  8
AM_4
100
AcDbLine
 10
1.269613481889388
 20
0.0773850548368752
 30
0.0
 11
1.257731665606296
 21
0.0585918508151908
 31
0.0
  0
ELLIPSE
  5
12D
330
E3
100
AcDbEntity
  8
AM_4
100
AcDbEllipse
 10
1.327236734116628
 20
0.0000000000000001
 30
0.0
 11
6.084620899749645E-18
 21
0.09936940028726643
 31
0.0
210
0.0
220
0.0
230
1.0
 40
0.8660254037844302
 41
0.9401873039794868
 42
2.201405349610306
  0
ELLIPSE
  5
12E
330
E3
100
AcDbEntity
  8
AM_4
100
AcDbEllipse
 10
1.361412144390052
 20
0.0000000000011642
 30
0.0
 11
8.036249332368950E-18
 21
0.1312419113488738
 31
0.0
210
0.0
220
0.0
230
1.0
 40
0.8660254037927402
 41
-4.097573758572004
 42
-4.081779957571722
  0
LINE
  5
12F
330
E3
100
AcDbEntity
  8
AM_4
100
AcDbLine
 10
1.266932981125406
 20
0.0729627549548869
 30
0.0
 11
1.266283016433824
 21
0.0718311878664993
 31
0.0
  0
LWPOLYLINE
  5
130
330
E3
100
AcDbEntity
  8
AM_4
100
AcDbPolyline
 90
       11
 70
     0
 43
0.0
 10
1.371977600930837
 20
0.1359265219950581
 10
1.36197139407966
 20
0.1354883673683864
 10
1.347818430035002
 20
0.1333516589813421
 10
1.334025787293439
 20
0.1294778471881899
 10
1.32076030627952
 20
0.123926349263481
 10
1.308177499082755
 20
0.1167693502738604
 10
1.296426448410362
 20
0.1080924868367002
 10
1.285650503234826
 20
0.097996463930698
 10
1.275986652957102
 20
0.0865991570416331
 10
1.267563438274346
 20
0.0740372298518971
 10
1.266932981125406
 20
0.0729627549548869
  0
LWPOLYLINE
  5
131
330
E3
100
AcDbEntity
  8
AM_4
100
AcDbPolyline
 90
        3
 70
     0
 43
0.0
 10
1.454680157248938
 20
-0.1016579278770178
 10
1.457004248246127
 20
-0.0993440069578974
 10
1.466633245008763
 20
-0.0883376693916805
  0
LWPOLYLINE
  5
132
330
E3
100
AcDbEntity
  8
AM_4
100
AcDbPolyline
 90
       16
 70
     0
 43
0.0
 10
1.26853563761778
 20
-0.0756517473450478
 10
1.277025478070276
 20
-0.0879567491874692
 10
1.287112229929164
 20
-0.0995084250450614
 10
1.298370935818501
 20
-0.1096800355681328
 10
1.310631207967633
 20
-0.1183246669597514
 10
1.323705680436277
 20
-0.1253249434036192
 10
1.337396858439134
 20
-0.130595454002201
 10
1.351503918819152
 20
-0.1340824346892348
 10
1.365828362177025
 20
-0.1357612170389299
 10
1.380177932228739
 20
-0.135632407707213
 10
1.39436806301153
 20
-0.133717937133535
 10
1.408215759096156
 20
-0.1300601760733929
 10
1.421556437855169
 20
-0.1247165433858002
 10
1.434233674595493
 20
-0.1177575872334723
 10
1.446097636666742
 20
-0.1092671784641916
 10
1.453410189838323
 20
-0.1028736605149185
  0
LWPOLYLINE
  5
133
330
E3
100
AcDbEntity
  8
AM_4
100
AcDbPolyline
 90
        9
 70
     0
 43
0.0
 10
1.458625224356696
 20
0.097658270700707
 10
1.458182887530912
 20
0.0981243528717595
 10
1.447063008565632
 20
0.1084786647836849
 10
1.434919007118324
 20
0.1173229775511025
 10
1.421936471868273
 20
0.1245359993125023
 10
1.408312008404985
 20
0.1300282509498473
 10
1.394246363355067
 20
0.1337420801757686
 10
1.37993858354151
 20
0.1356493438152672
 10
1.371977600930837
 20
0.1359265219950581
  0
LINE
  5
134
330
E3
100
AcDbEntity
  8
AM_4
100
AcDbLine
 10
1.465486442719024
 20
0.089784752064262
 30
0.0
 11
1.458625224356696
 21
0.097658270700707
 31
0.0
  0
ELLIPSE
  5
135
330
E3
100
AcDbEntity
  8
AM_4
100
AcDbEllipse
 10
1.36141214438732
 20
0.0000000000000003
 30
0.0
 11
8.036249332247525E-18
 21
0.1312419113468908
 31
0.0
210
0.0
220
0.0
230
1.0
 40
0.8660254037844387
 41
0.9900972034313877
 42
2.185611548609684
  0
ELLIPSE
  5
136
330
E3
100
AcDbEntity
  8
AM_4
100
AcDbEllipse
 10
1.361412144387359
 20
-0.000000000000015
 30
0.0
 11
8.036249332248636E-18
 21
0.1312419113469089
 31
0.0
210
0.0
220
0.0
230
1.0
 40
0.8660254037846032
 41
0.9401873039795037
 42
0.9900972034313902
  0
ELLIPSE
  5
137
330
E3
100
AcDbEntity
  8
AM_4
100
AcDbEllipse
 10
1.4225
 20
0.0000000000000002
 30
0.0
 11
-1.484390032546748E-17
 21
-0.08080642971672804
 31
0.0
210
0.0
220
0.0
230
1.0
 40
0.8660254037844377
 41
0.0
 42
6.283185307179586
  0
LWPOLYLINE
  5
138
330
E3
100
AcDbEntity
  8
AM_4
100
AcDbPolyline
 90
       12
 70
     0
 43
0.0
 10
1.485881190527393
 20
-0.0637145787963877
 10
1.489636853967816
 20
-0.057738644886183
 10
1.495688239127587
 20
-0.0457137291380807
 10
1.500292124782559
 20
-0.0328873247293442
 10
1.503363199300737
 20
-0.0194770555278813
 10
1.504842453027621
 20
-0.0057114936484508
 10
1.504697579448921
 20
0.008174555306663
 10
1.502922777042015
 20
0.0219436250181352
 10
1.499539121925503
 20
0.0353570877667474
 10
1.494594652492569
 20
0.0481806576750143
 10
1.488165526916607
 20
0.0601856230816122
 10
1.481610269789063
 20
0.0695839408751512
  0
LINE
  5
139
330
E3
100
AcDbEntity
  8
AM_4
100
AcDbLine
 10
1.484443195759279
 20
-0.0657881124465329
 30
0.0
 11
1.485881190527393
 21
-0.0637145787963877
 31
0.0
  0
ELLIPSE
  5
13A
330
E3
100
AcDbEntity
  8
AM_4
100
AcDbEllipse
 10
1.414884139106703
 20
-0.0000000000002741
 30
0.0
 11
6.357083428105149E-18
 21
0.1038190510526169
 31
0.0
210
0.0
220
0.0
230
1.0
 40
0.866025403782183
 41
3.96757196459094
 42
4.024348172632568
  0
ELLIPSE
  5
13B
330
E3
100
AcDbEntity
  8
AM_4
100
AcDbEllipse
 10
1.381745879143071
 20
0.0000000000000016
 30
0.0
 11
8.079715312105869E-18
 21
0.1319517646676786
 31
0.0
210
0.0
220
0.0
230
1.0
 40
0.8660254037844344
 41
5.45720599617725
 42
10.2507572717717
  0
ELLIPSE
  5
13C
330
E3
100
AcDbEntity
  8
AM_4
100
AcDbEllipse
 10
1.414884139106116
 20
0.0000000000000018
 30
0.0
 11
6.357083428130892E-18
 21
0.1038190510530373
 31
0.0
210
0.0
220
0.0
230
1.0
 40
0.8660254037844423
 41
5.457205996177241
 42
10.2507572717717
  0
LINE
  5
13D
330
E3
100
AcDbEntity
  8
AM_4
100
AcDbLine
 10
1.480986998028307
 20
0.0703724241776375
 30
0.0
 11
1.465761180726839
 21
0.0894418265240921
 31
0.0
  0
LINE
  5
13E
330
E3
100
AcDbEntity
  8
AM_4
100
AcDbLine
 10
1.465761180726839
 20
-0.0894418265240917
 30
0.0
 11
1.480986998028307
 21
-0.0703724241776372
 31
0.0
  0
ENDBLK
  5
E6
330
E3
100
AcDbEntity
  8
0
100
AcDbBlockEnd
  0
BLOCK
  5
141
330
13F
100
AcDbEntity
  8
0
100
AcDbBlockBegin
  2
4_048023B_0_in_048023_4
 70
     2
 10
0.0
 20
0.0
 30
0.0
  3
4_048023B_0_in_048023_4
  1

  0
ATTDEF
  5
143
330
13F
100
AcDbEntity
  8
AM_6
100
AcDbText
 10
9.465701219512194
 20
1.271875
 30
0.0
 40
0.5
  1
Unisphere II - Pillow Block Bearing - Inch - Body
100
AcDbAttributeDefinition
  3

  2
NN
 70
     8
280
     0
  0
ATTDEF
  5
144
330
13F
100
AcDbEntity
  8
AM_6
100
AcDbText
 10
9.465701219512194
 20
0.7718750000000001
 30
0.0
 40
0.5
  1
Unisphere II
100
AcDbAttributeDefinition
  3

  2
NT
 70
     8
280
     0
  0
ATTDEF
  5
145
330
13F
100
AcDbEntity
  8
AM_6
100
AcDbText
 10
9.465701219512194
 20
0.2718750000000001
 30
0.0
 40
0.5
  1
048023B
100
AcDbAttributeDefinition
  3

  2
NB
 70
     8
280
     0
  0
ATTDEF
  5
146
330
13F
100
AcDbEntity
  8
AM_6
100
AcDbText
 10
9.465701219512194
 20
-0.2281249999999999
 30
0.0
 40
0.5
  1
$PN.
100
AcDbAttributeDefinition
  3

  2
NBSYN
 70
     8
280
     0
  0
ATTDEF
  5
147
330
13F
100
AcDbEntity
  8
AM_6
100
AcDbText
 10
9.465701219512194
 20
-0.7281249999999999
 30
0.0
 40
0.5
  1
048023B
100
AcDbAttributeDefinition
  3

  2
LINA
 70
     8
280
     0
  0
ATTDEF
  5
148
330
13F
100
AcDbEntity
  8
AM_6
100
AcDbText
 10
9.465701219512194
 20
-1.228125
 30
0.0
 40
0.5
  1
2-3/16
100
AcDbAttributeDefinition
  3

  2
SS
 70
     8
280
     0
  0
ATTDEF
  5
149
330
13F
100
AcDbEntity
  8
AM_6
100
AcDbText
 10
9.465701219512194
 20
-1.728125
 30
0.0
 40
0.5
  1
2.18750
100
AcDbAttributeDefinition
  3

  2
SS1
 70
     8
280
     0
  0
ATTDEF
  5
14A
330
13F
100
AcDbEntity
  8
AM_6
100
AcDbText
 10
9.465701219512194
 20
-2.228125
 30
0.0
 40
0.5
  1
Expansion Type
100
AcDbAttributeDefinition
  3

  2
TYPE
 70
     8
280
     0
  0
ATTDEF
  5
14B
330
13F
100
AcDbEntity
  8
AM_6
100
AcDbText
 10
9.465701219512194
 20
-2.728125
 30
0.0
 40
0.5
  1
048006B
100
AcDbAttributeDefinition
  3

  2
PNNE
 70
     8
280
     0
  0
ATTDEF
  5
14C
330
13F
100
AcDbEntity
  8
AM_6
100
AcDbText
 10
9.465701219512194
 20
-3.228125
 30
0.0
 40
0.5
  1
048023B
100
AcDbAttributeDefinition
  3

  2
PNE
 70
     8
280
     0
  0
ATTDEF
  5
14D
330
13F
100
AcDbEntity
  8
AM_6
100
AcDbText
 10
9.465701219512194
 20
-3.728125
 30
0.0
 40
0.5
  1
P2B-UN2-203
100
AcDbAttributeDefinition
  3

  2
DESCRIPTIONNE
 70
     8
280
     0
  0
ATTDEF
  5
14E
330
13F
100
AcDbEntity
  8
AM_6
100
AcDbText
 10
9.465701219512194
 20
-4.228125
 30
0.0
 40
0.5
  1
P2B-UN2-203E
100
AcDbAttributeDefinition
  3

  2
DESCRIPTIONE
 70
     8
280
     0
  0
ATTDEF
  5
14F
330
13F
100
AcDbEntity
  8
AM_6
100
AcDbText
 10
9.465701219512194
 20
-4.728125
 30
0.0
 40
0.5
  1
9.8
100
AcDbAttributeDefinition
  3

  2
WEIGHT
 70
     8
280
     0
  0
ATTDEF
  5
150
330
13F
100
AcDbEntity
  8
AM_6
100
AcDbText
 10
9.465701219512194
 20
-5.228125
 30
0.0
 40
0.5
  1
2
100
AcDbAttributeDefinition
  3

  2
A
 70
     8
280
     0
  0
ATTDEF
  5
151
330
13F
100
AcDbEntity
  8
AM_6
100
AcDbText
 10
9.465701219512194
 20
-5.728125
 30
0.0
 40
0.5
  1
2.00000
100
AcDbAttributeDefinition
  3

  2
A1
 70
     8
280
     0
  0
ATTDEF
  5
152
330
13F
100
AcDbEntity
  8
AM_6
100
AcDbText
 10
9.465701219512194
 20
-6.228125
 30
0.0
 40
0.5
  1
8-7/8
100
AcDbAttributeDefinition
  3

  2
B
 70
     8
280
     0
  0
ATTDEF
  5
153
330
13F
100
AcDbEntity
  8
AM_6
100
AcDbText
 10
9.465701219512194
 20
-6.728125
 30
0.0
 40
0.5
  1
8.87500
100
AcDbAttributeDefinition
  3

  2
B1
 70
     8
280
     0
  0
ATTDEF
  5
154
330
13F
100
AcDbEntity
  8
AM_6
100
AcDbText
 10
9.465701219512194
 20
-7.228125
 30
0.0
 40
0.5
  1
2-5/16
100
AcDbAttributeDefinition
  3

  2
C
 70
     8
280
     0
  0
ATTDEF
  5
155
330
13F
100
AcDbEntity
  8
AM_6
100
AcDbText
 10
9.465701219512194
 20
-7.728125
 30
0.0
 40
0.5
  1
2.31250
100
AcDbAttributeDefinition
  3

  2
C1
 70
     8
280
     0
  0
ATTDEF
  5
156
330
13F
100
AcDbEntity
  8
AM_6
100
AcDbText
 10
9.465701219512194
 20
-8.228125
 30
0.0
 40
0.5
  1
6-7/16
100
AcDbAttributeDefinition
  3

  2
DMIN
 70
     8
280
     0
  0
ATTDEF
  5
157
330
13F
100
AcDbEntity
  8
AM_6
100
AcDbText
 10
9.465701219512194
 20
-8.728125
 30
0.0
 40
0.5
  1
6.43750
100
AcDbAttributeDefinition
  3

  2
DMIN1
 70
     8
280
     0
  0
ATTDEF
  5
158
330
13F
100
AcDbEntity
  8
AM_6
100
AcDbText
 10
9.465701219512194
 20
-9.228125
 30
0.0
 40
0.5
  1
7-1/8
100
AcDbAttributeDefinition
  3

  2
DMAX
 70
     8
280
     0
  0
ATTDEF
  5
159
330
13F
100
AcDbEntity
  8
AM_6
100
AcDbText
 10
9.465701219512194
 20
-9.728125
 30
0.0
 40
0.5
  1
7.12500
100
AcDbAttributeDefinition
  3

  2
DMAX1
 70
     8
280
     0
  0
ATTDEF
  5
15A
330
13F
100
AcDbEntity
  8
AM_6
100
AcDbText
 10
9.465701219512194
 20
-10.228125
 30
0.0
 40
0.5
  1
5/32
100
AcDbAttributeDefinition
  3

  2
E
 70
     8
280
     0
  0
ATTDEF
  5
15B
330
13F
100
AcDbEntity
  8
AM_6
100
AcDbText
 10
9.465701219512194
 20
-10.728125
 30
0.0
 40
0.5
  1
0.15625
100
AcDbAttributeDefinition
  3

  2
E1
 70
     8
280
     0
  0
ATTDEF
  5
15C
330
13F
100
AcDbEntity
  8
AM_6
100
AcDbText
 10
9.465701219512194
 20
-11.228125
 30
0.0
 40
0.5
  1
5/8
100
AcDbAttributeDefinition
  3

  2
F
 70
     8
280
     0
  0
ATTDEF
  5
15D
330
13F
100
AcDbEntity
  8
AM_6
100
AcDbText
 10
9.465701219512194
 20
-11.728125
 30
0.0
 40
0.5
  1
0.62500
100
AcDbAttributeDefinition
  3

  2
F1
 70
     8
280
     0
  0
ATTDEF
  5
15E
330
13F
100
AcDbEntity
  8
AM_6
100
AcDbText
 10
9.465701219512194
 20
-12.228125
 30
0.0
 40
0.5
  1
1-1/32
100
AcDbAttributeDefinition
  3

  2
G
 70
     8
280
     0
  0
ATTDEF
  5
15F
330
13F
100
AcDbEntity
  8
AM_6
100
AcDbText
 10
9.465701219512194
 20
-12.728125
 30
0.0
 40
0.5
  1
1.03125
100
AcDbAttributeDefinition
  3

  2
G1
 70
     8
280
     0
  0
ATTDEF
  5
160
330
13F
100
AcDbEntity
  8
AM_6
100
AcDbText
 10
9.465701219512194
 20
-13.228125
 30
0.0
 40
0.5
  1
1-5/8
100
AcDbAttributeDefinition
  3

  2
H
 70
     8
280
     0
  0
ATTDEF
  5
161
330
13F
100
AcDbEntity
  8
AM_6
100
AcDbText
 10
9.465701219512194
 20
-13.728125
 30
0.0
 40
0.5
  1
1.62500
100
AcDbAttributeDefinition
  3

  2
H1
 70
     8
280
     0
  0
ATTDEF
  5
162
330
13F
100
AcDbEntity
  8
AM_6
100
AcDbText
 10
9.465701219512194
 20
-14.228125
 30
0.0
 40
0.5
  1
5
100
AcDbAttributeDefinition
  3

  2
J
 70
     8
280
     0
  0
ATTDEF
  5
163
330
13F
100
AcDbEntity
  8
AM_6
100
AcDbText
 10
9.465701219512194
 20
-14.728125
 30
0.0
 40
0.5
  1
5.00000
100
AcDbAttributeDefinition
  3

  2
J1
 70
     8
280
     0
  0
ATTDEF
  5
164
330
13F
100
AcDbEntity
  8
AM_6
100
AcDbText
 10
9.465701219512194
 20
-15.228125
 30
0.0
 40
0.5
  1
3-1/2
100
AcDbAttributeDefinition
  3

  2
L
 70
     8
280
     0
  0
ATTDEF
  5
165
330
13F
100
AcDbEntity
  8
AM_6
100
AcDbText
 10
9.465701219512194
 20
-15.728125
 30
0.0
 40
0.5
  1
3.50000
100
AcDbAttributeDefinition
  3

  2
L1
 70
     8
280
     0
  0
ATTDEF
  5
166
330
13F
100
AcDbEntity
  8
AM_6
100
AcDbText
 10
9.465701219512194
 20
-16.228125
 30
0.0
 40
0.5
  1
2-1/2
100
AcDbAttributeDefinition
  3

  2
M
 70
     8
280
     0
  0
ATTDEF
  5
167
330
13F
100
AcDbEntity
  8
AM_6
100
AcDbText
 10
9.465701219512194
 20
-16.728125
 30
0.0
 40
0.5
  1
2.50000
100
AcDbAttributeDefinition
  3

  2
M1
 70
     8
280
     0
  0
ATTDEF
  5
168
330
13F
100
AcDbEntity
  8
AM_6
100
AcDbText
 10
9.465701219512194
 20
-17.228125
 30
0.0
 40
0.5
  1
33/64
100
AcDbAttributeDefinition
  3

  2
R
 70
     8
280
     0
  0
ATTDEF
  5
169
330
13F
100
AcDbEntity
  8
AM_6
100
AcDbText
 10
9.465701219512194
 20
-17.728125
 30
0.0
 40
0.5
  1
0.51563
100
AcDbAttributeDefinition
  3

  2
R1
 70
     8
280
     0
  0
ATTDEF
  5
16A
330
13F
100
AcDbEntity
  8
AM_6
100
AcDbText
 10
9.465701219512194
 20
-18.228125
 30
0.0
 40
0.5
  1
1-31/64
100
AcDbAttributeDefinition
  3

  2
S
 70
     8
280
     0
  0
ATTDEF
  5
16B
330
13F
100
AcDbEntity
  8
AM_6
100
AcDbText
 10
9.465701219512194
 20
-18.728125
 30
0.0
 40
0.5
  1
1.48438
100
AcDbAttributeDefinition
  3

  2
S1
 70
     8
280
     0
  0
ATTDEF
  5
16C
330
13F
100
AcDbEntity
  8
AM_6
100
AcDbText
 10
9.465701219512194
 20
-19.228125
 30
0.0
 40
0.5
  1
2325
100
AcDbAttributeDefinition
  3

  2
MRP
 70
     8
280
     0
  0
ATTDEF
  5
16D
330
13F
100
AcDbEntity
  8
AM_6
100
AcDbText
 10
9.465701219512194
 20
-19.728125
 30
0.0
 40
0.5
  1
32500
100
AcDbAttributeDefinition
  3

  2
CS
 70
     8
280
     0
  0
ATTDEF
  5
16E
330
13F
100
AcDbEntity
  8
AM_6
100
AcDbText
 10
9.465701219512194
 20
-20.228125
 30
0.0
 40
0.5
  1
27000
100
AcDbAttributeDefinition
  3

  2
CD
 70
     8
280
     0
  0
ATTDEF
  5
16F
330
13F
100
AcDbEntity
  8
AM_6
100
AcDbText
 10
9.465701219512194
 20
-20.728125
 30
0.0
 40
0.5
  1
19
100
AcDbAttributeDefinition
  3

  2
RN
 70
     8
280
     0
  0
ATTDEF
  5
170
330
13F
100
AcDbEntity
  8
AM_6
100
AcDbText
 10
9.465701219512194
 20
-21.228125
 30
0.0
 40
0.5
  1
0.4646
100
AcDbAttributeDefinition
  3

  2
RM
 70
     8
280
     0
  0
ATTDEF
  5
171
330
13F
100
AcDbEntity
  8
AM_6
100
AcDbText
 10
9.465701219512194
 20
-21.728125
 30
0.0
 40
0.5
  1
3.189
100
AcDbAttributeDefinition
  3

  2
PDI
 70
     8
280
     0
  0
ATTDEF
  5
172
330
13F
100
AcDbEntity
  8
AM_6
100
AcDbText
 10
9.465701219512194
 20
-22.228125
 30
0.0
 40
0.5
  1
0.0016-0.0026
100
AcDbAttributeDefinition
  3

  2
RC
 70
     8
280
     0
  0
ATTDEF
  5
173
330
13F
100
AcDbEntity
  8
AM_6
100
AcDbText
 10
9.465701219512194
 20
-22.728125
 30
0.0
 40
0.5
  1
3/8-16x3/4
100
AcDbAttributeDefinition
  3

  2
COS
 70
     8
280
     0
  0
ATTDEF
  5
174
330
13F
100
AcDbEntity
  8
AM_6
100
AcDbText
 10
9.465701219512194
 20
-23.228125
 30
0.0
 40
0.5
  1
290
100
AcDbAttributeDefinition
  3

  2
CT
 70
     8
280
     0
  0
ATTDEF
  5
175
330
13F
100
AcDbEntity
  8
AM_6
100
AcDbText
 10
9.465701219512194
 20
-23.728125
 30
0.0
 40
0.5
  1
Ductile Iron Grade 65-45-13 ASTM A536
100
AcDbAttributeDefinition
  3

  2
MH
 70
     8
280
     0
  0
ATTDEF
  5
176
330
13F
100
AcDbEntity
  8
AM_6
100
AcDbText
 10
9.465701219512194
 20
-24.228125
 30
0.0
 40
0.5
  1
4118 Case Carb,
100
AcDbAttributeDefinition
  3

  2
MIR
 70
     8
280
     0
  0
ATTDEF
  5
177
330
13F
100
AcDbEntity
  8
AM_6
100
AcDbText
 10
9.465701219512194
 20
-24.728125
 30
0.0
 40
0.5
  1
E52100 Steel
100
AcDbAttributeDefinition
  3

  2
MOR
 70
     8
280
     0
  0
ATTDEF
  5
178
330
13F
100
AcDbEntity
  8
AM_6
100
AcDbText
 10
9.465701219512194
 20
-25.228125
 30
0.0
 40
0.5
  1
Polyamide
100
AcDbAttributeDefinition
  3

  2
MR
 70
     8
280
     0
  0
ATTDEF
  5
179
330
13F
100
AcDbEntity
  8
AM_6
100
AcDbText
 10
9.465701219512194
 20
-25.728125
 30
0.0
 40
0.5
  1
E52100 Steel
100
AcDbAttributeDefinition
  3

  2
MRO
 70
     8
280
     0
  0
ATTDEF
  5
17A
330
13F
100
AcDbEntity
  8
AM_6
100
AcDbText
 10
9.465701219512194
 20
-26.228125
 30
0.0
 40
0.5
  1
2°
100
AcDbAttributeDefinition
  3

  2
SM
 70
     8
280
     0
  0
ATTDEF
  5
17B
330
13F
100
AcDbEntity
  8
AM_6
100
AcDbText
 10
9.465701219512194
 20
-26.728125
 30
0.0
 40
0.5
  1
baldor
100
AcDbAttributeDefinition
  3

  2
COMPANY
 70
     8
280
     0
  0
LINE
  5
17C
330
13F
100
AcDbEntity
  8
AM_9
100
AcDbLine
 10
-4.34875
 20
-0.303706711760364
 30
0.0
 11
-4.34875
 21
0.3037067117603638
 31
0.0
  0
LINE
  5
17D
330
13F
100
AcDbEntity
  8
AM_9
100
AcDbLine
 10
-2.485558529663577
 20
0.5234355539715292
 30
0.0
 11
-2.485558529663577
 21
0.9892361111111111
 31
0.0
  0
LINE
  5
17E
330
13F
100
AcDbEntity
  8
AM_9
100
AcDbLine
 10
-2.485558529663577
 20
-0.9892361111111112
 30
0.0
 11
-2.485558529663577
 21
-0.5234151926116132
 31
0.0
  0
LINE
  5
17F
330
13F
100
AcDbEntity
  8
AM_9
100
AcDbLine
 10
-2.493969490553545
 20
-0.5271873248303985
 30
0.0
 11
-2.499930906176032
 21
-0.5298301543489744
 31
0.0
  0
LINE
  5
180
330
13F
100
AcDbEntity
  8
AM_9
100
AcDbLine
 10
-2.485558529664561
 20
-0.5233203770439386
 30
0.0
 11
-2.487460052940083
 21
-0.524208906198209
 31
0.0
  0
LINE
  5
181
330
13F
100
AcDbEntity
  8
AM_9
100
AcDbLine
 10
2.485558529663578
 20
0.9892361111111111
 30
0.0
 11
2.485558529663578
 21
0.5235043485606987
 31
0.0
  0
LINE
  5
182
330
13F
100
AcDbEntity
  8
AM_9
100
AcDbLine
 10
2.485558529663578
 20
-0.5234952961310103
 30
0.0
 11
2.485558529663578
 21
-0.9892361111111112
 31
0.0
  0
LINE
  5
183
330
13F
100
AcDbEntity
  8
AM_9
100
AcDbLine
 10
1.75
 20
-0.558552631578947
 30
0.0
 11
1.75
 21
0.5585526315789472
 31
0.0
  0
LINE
  5
184
330
13F
100
AcDbEntity
  8
AM_9
100
AcDbLine
 10
-1.75
 20
0.5585526315789472
 30
0.0
 11
-1.75
 21
-0.558552631578947
 31
0.0
  0
LINE
  5
185
330
13F
100
AcDbEntity
  8
AM_9
100
AcDbLine
 10
-1.75
 20
-0.558552631578947
 30
0.0
 11
1.75
 21
-0.558552631578947
 31
0.0
  0
ARC
  5
186
330
13F
100
AcDbEntity
  8
AM_9
100
AcDbCircle
 10
1.799999999999999
 20
-0.5585526315789472
 30
0.0
 40
0.0499999999999998
100
AcDbArc
 50
180.0
 51
270.0
  0
ARC
  5
187
330
13F
100
AcDbEntity
  8
AM_9
100
AcDbCircle
 10
-1.799999999999999
 20
-0.5585526315789472
 30
0.0
 40
0.05
100
AcDbArc
 50
270.0
 51
0.0
  0
LINE
  5
188
330
13F
100
AcDbEntity
  8
AM_9
100
AcDbLine
 10
-1.75
 20
0.5585526315789472
 30
0.0
 11
1.75
 21
0.5585526315789472
 31
0.0
  0
ARC
  5
189
330
13F
100
AcDbEntity
  8
AM_9
100
AcDbCircle
 10
1.8
 20
0.558552631578947
 30
0.0
 40
0.0500000000000003
100
AcDbArc
 50
90.0
 51
180.0
  0
ARC
  5
18A
330
13F
100
AcDbEntity
  8
AM_9
100
AcDbCircle
 10
-1.8
 20
0.558552631578947
 30
0.0
 40
0.0500000000000003
100
AcDbArc
 50
0.0
 51
90.0
  0
LINE
  5
18B
330
13F
100
AcDbEntity
  8
AM_9
100
AcDbLine
 10
-2.008823530156813
 20
-0.6085526315789472
 30
0.0
 11
2.00882353015565
 21
-0.6085526315789472
 31
0.0
  0
ARC
  5
18C
330
13F
100
AcDbEntity
  8
AM_9
100
AcDbCircle
 10
2.008823529411754
 20
-0.6585526315789478
 30
0.0
 40
0.0500000000000007
100
AcDbArc
 50
0.0
 51
90.0
  0
ARC
  5
18D
330
13F
100
AcDbEntity
  8
AM_9
100
AcDbCircle
 10
-2.008823529411754
 20
-0.6585526315789478
 30
0.0
 40
0.0500000000000006
100
AcDbArc
 50
90.0
 51
180.0
  0
LINE
  5
18E
330
13F
100
AcDbEntity
  8
AM_9
100
AcDbLine
 10
-2.058823529411755
 20
-0.6585526315789464
 30
0.0
 11
2.05882352941176
 21
-0.6585526315789464
 31
0.0
  0
LINE
  5
18F
330
13F
100
AcDbEntity
  8
AM_9
100
AcDbLine
 10
2.05882352941176
 20
-0.9635416666666669
 30
0.0
 11
2.05882352941176
 21
-0.6585526315789464
 31
0.0
  0
LINE
  5
190
330
13F
100
AcDbEntity
  8
AM_9
100
AcDbLine
 10
-2.05882352941176
 20
-0.6585526315789464
 30
0.0
 11
-2.05882352941176
 21
-0.9635416666666669
 31
0.0
  0
LWPOLYLINE
  5
191
330
13F
100
AcDbEntity
  8
AM_9
100
AcDbPolyline
 90
        4
 70
     0
 43
0.0
 10
-1.513018156856677
 20
-1.07116972131875
 10
-1.628952381138523
 20
-1.060595322022195
 10
-1.732489294211564
 20
-1.049282285805785
 10
-1.749999999999999
 20
-1.047142595649168
  0
LWPOLYLINE
  5
192
330
13F
100
AcDbEntity
  8
AM_9
100
AcDbPolyline
 90
        5
 70
     0
 43
0.0
 10
-1.033656079248786
 20
-1.100791338048589
 10
-1.184906667542765
 20
-1.093324696313621
 10
-1.327139400630536
 20
-1.084870327357903
 10
-1.459271801530829
 20
-1.075492574034077
 10
-1.513018156856677
 20
-1.07116972131875
  0
LWPOLYLINE
  5
193
330
13F
100
AcDbEntity
  8
AM_9
100
AcDbPolyline
 90
        7
 70
     0
 43
0.0
 10
-0.0919310647179903
 20
-1.122084357384128
 10
-0.2708405599109757
 20
-1.120863438229764
 10
-0.4476887949050371
 20
-1.118445205400321
 10
-0.621129847847986
 20
-1.114848063107802
 10
-0.7898437276003555
 20
-1.110099387777065
 10
-0.9525464196650041
 20
-1.104235319694707
 10
-1.033656079248786
 20
-1.100791338048589
  0
LINE
  5
194
330
13F
100
AcDbEntity
  8
AM_9
100
AcDbLine
 10
0.0919310647179908
 20
-1.122084357384128
 30
0.0
 11
-0.0919310647179903
 21
-1.122084357384128
 31
0.0
  0
LWPOLYLINE
  5
195
330
13F
100
AcDbEntity
  8
AM_9
100
AcDbPolyline
 90
       13
 70
     0
 43
0.0
 10
1.749999999999999
 20
-1.047142595649168
 10
1.648815734937993
 20
-1.05858141542231
 10
1.535082986550947
 20
-1.069296925320852
 10
1.409667329727799
 20
-1.079207573844265
 10
1.273523253345016
 20
-1.088237934973072
 10
1.127686896029913
 20
-1.096319282206402
 10
0.9732681605200577
 20
-1.103390111612158
 10
0.8114422666332617
 20
-1.10939660990908
 10
0.6434408071351501
 20
-1.114293064018303
 10
0.4705423745745581
 20
-1.118042208967499
 10
0.2940628304221997
 20
-1.120615511499807
 10
0.1153452905703368
 20
-1.121993387229154
 10
0.0919310647179908
 20
-1.122084357384128
  0
LINE
  5
196
330
13F
100
AcDbEntity
  8
AM_9
100
AcDbLine
 10
-2.008823529411765
 20
0.6085526315789473
 30
0.0
 11
2.008823529410602
 21
0.6085526315789473
 31
0.0
  0
ARC
  5
197
330
13F
100
AcDbEntity
  8
AM_9
100
AcDbCircle
 10
2.008823529411766
 20
0.6585526315789467
 30
0.0
 40
0.0499999999999994
100
AcDbArc
 50
270.0
 51
0.0
  0
ARC
  5
198
330
13F
100
AcDbEntity
  8
AM_9
100
AcDbCircle
 10
-2.008823529411766
 20
0.6585526315789467
 30
0.0
 40
0.0499999999999994
100
AcDbArc
 50
180.0
 51
270.0
  0
LINE
  5
199
330
13F
100
AcDbEntity
  8
AM_9
100
AcDbLine
 10
-2.058823529411765
 20
0.658552631578947
 30
0.0
 11
2.058823529411765
 21
0.658552631578947
 31
0.0
  0
LINE
  5
19A
330
13F
100
AcDbEntity
  8
AM_9
100
AcDbLine
 10
2.058823529411765
 20
0.658552631578947
 30
0.0
 11
2.058823529411765
 21
0.9635416666666667
 31
0.0
  0
LINE
  5
19B
330
13F
100
AcDbEntity
  8
AM_9
100
AcDbLine
 10
-2.058823529411765
 20
0.9635416666666667
 30
0.0
 11
-2.058823529411765
 21
0.658552631578947
 31
0.0
  0
LINE
  5
19C
330
13F
100
AcDbEntity
  8
AM_9
100
AcDbLine
 10
-1.749999999999999
 20
-1.15625
 30
0.0
 11
1.750000000000001
 21
-1.15625
 31
0.0
  0
LINE
  5
19D
330
13F
100
AcDbEntity
  8
AM_9
100
AcDbLine
 10
-2.49063255978178
 20
-0.9802083333333335
 30
0.0
 11
-2.49063255978178
 21
-0.5256726767560124
 31
0.0
  0
LINE
  5
19E
330
13F
100
AcDbEntity
  8
AM_9
100
AcDbLine
 10
2.490632559781781
 20
-0.9802083333333335
 30
0.0
 11
2.490632559781781
 21
-0.5256726767560131
 31
0.0
  0
LINE
  5
19F
330
13F
100
AcDbEntity
  8
AM_9
100
AcDbLine
 10
2.490632559781781
 20
0.5256726767560131
 30
0.0
 11
2.490632559781781
 21
0.9802083333333331
 31
0.0
  0
LINE
  5
1A0
330
13F
100
AcDbEntity
  8
AM_9
100
AcDbLine
 10
-2.49063255978178
 20
0.5256726767560124
 30
0.0
 11
-2.49063255978178
 21
0.9802083333333335
 31
0.0
  0
LINE
  5
1A1
330
13F
100
AcDbEntity
  8
AM_7
100
AcDbLine
 10
0.0
 20
-1.42813
 30
0.0
 11
0.0
 21
1.271875
 31
0.0
  0
LINE
  5
1A2
330
13F
100
AcDbEntity
  8
AM_7
100
AcDbLine
 10
3.188920454545457
 20
-0.3296164772727271
 30
0.0
 11
3.188920454545457
 21
0.329616477272734
 31
0.0
  0
LINE
  5
1A3
330
13F
100
AcDbEntity
  8
AM_7
100
AcDbLine
 10
-3.873475609756097
 20
-0.5922256097560978
 30
0.0
 11
-3.873475609756097
 21
0.5922256097560981
 31
0.0
  0
LINE
  5
1A4
330
13F
100
AcDbEntity
  8
AM_7
100
AcDbLine
 10
-3.188920454545457
 20
-0.329616477272727
 30
0.0
 11
-3.188920454545457
 21
0.3296164772727341
 31
0.0
  0
LINE
  5
1A5
330
13F
100
AcDbEntity
  8
AM_7
100
AcDbLine
 10
-4.465701219512195
 20
0.0000000000000001
 30
0.0
 11
-2.139024390243903
 21
-0.0000000000000001
 31
0.0
  0
LINE
  5
1A6
330
13F
100
AcDbEntity
  8
AM_7
100
AcDbLine
 10
-2.73125
 20
-0.5922256097560976
 30
0.0
 11
-2.73125
 21
0.5922256097560974
 31
0.0
  0
LINE
  5
1A7
330
13F
100
AcDbEntity
  8
AM_7
100
AcDbLine
 10
-3.592329545454542
 20
-0.3296164772727269
 30
0.0
 11
-3.592329545454542
 21
0.3296164772727342
 31
0.0
  0
LINE
  5
1A8
330
13F
100
AcDbEntity
  8
AM_7
100
AcDbLine
 10
2.73125
 20
-0.5922256097560976
 30
0.0
 11
2.73125
 21
0.5922256097560974
 31
0.0
  0
LINE
  5
1A9
330
13F
100
AcDbEntity
  8
AM_7
100
AcDbLine
 10
3.592329545454542
 20
-0.3296164772727269
 30
0.0
 11
3.592329545454542
 21
0.3296164772727342
 31
0.0
  0
LINE
  5
1AA
330
13F
100
AcDbEntity
  8
AM_7
100
AcDbLine
 10
2.139024390243903
 20
-0.0000000000000001
 30
0.0
 11
4.465701219512195
 21
-0.0000000000000002
 31
0.0
  0
LINE
  5
1AB
330
13F
100
AcDbEntity
  8
AM_7
100
AcDbLine
 10
3.873475609756097
 20
-0.5922256097560981
 30
0.0
 11
3.873475609756097
 21
0.5922256097560978
 31
0.0
  0
LINE
  5
1AC
330
13F
100
AcDbEntity
  8
AM_4
100
AcDbLine
 10
-4.34875
 20
-1.093619791666667
 30
0.0
 11
-4.34875
 21
-0.303706711760364
 31
0.0
  0
LINE
  5
1AD
330
13F
100
AcDbEntity
  8
AM_4
100
AcDbLine
 10
-4.34875
 20
0.3037067117603638
 30
0.0
 11
-4.34875
 21
1.093619791666667
 31
0.0
  0
LINE
  5
1AE
330
13F
100
AcDbEntity
  8
AM_4
100
AcDbLine
 10
3.873475609756098
 20
0.5640243902439024
 30
0.0
 11
2.73125
 21
0.5640243902439024
 31
0.0
  0
ARC
  5
1AF
330
13F
100
AcDbEntity
  8
AM_4
100
AcDbCircle
 10
2.73125
 20
0.0
 30
0.0
 40
0.5640243902439024
100
AcDbArc
 50
90.0
 51
270.0
  0
ARC
  5
1B0
330
13F
100
AcDbEntity
  8
AM_4
100
AcDbCircle
 10
3.188920454545457
 20
0.0000000000000034
 30
0.0
 40
0.313920454545458
100
AcDbArc
 50
84.54737801217426
 51
275.4526219878121
  0
LINE
  5
1B1
330
13F
100
AcDbEntity
  8
AM_4
100
AcDbLine
 10
3.562499999999925
 20
0.3125000000000001
 30
0.0
 11
3.218750000000075
 21
0.3124999999999999
 31
0.0
  0
ARC
  5
1B2
330
13F
100
AcDbEntity
  8
AM_4
100
AcDbCircle
 10
3.592329545454542
 20
0.0000000000000037
 30
0.0
 40
0.313920454545458
100
AcDbArc
 50
264.5473780121881
 51
95.45262198782557
  0
LINE
  5
1B3
330
13F
100
AcDbEntity
  8
AM_4
100
AcDbLine
 10
3.21875
 20
-0.3125000000000001
 30
0.0
 11
3.5625
 21
-0.3125000000000001
 31
0.0
  0
LINE
  5
1B4
330
13F
100
AcDbEntity
  8
AM_4
100
AcDbLine
 10
2.73125
 20
-0.5640243902439025
 30
0.0
 11
3.873475609756098
 21
-0.5640243902439025
 31
0.0
  0
ARC
  5
1B5
330
13F
100
AcDbEntity
  8
AM_4
100
AcDbCircle
 10
3.873475609756097
 20
0.0000000000000001
 30
0.0
 40
0.5640243902439026
100
AcDbArc
 50
270.0
 51
90.0
  0
ARC
  5
1B6
330
13F
100
AcDbEntity
  8
AM_4
100
AcDbCircle
 10
-3.873475609756097
 20
-0.0000000000000001
 30
0.0
 40
0.5640243902439024
100
AcDbArc
 50
90.0
 51
270.0
  0
ARC
  5
1B7
330
13F
100
AcDbEntity
  8
AM_4
100
AcDbCircle
 10
-3.592329545454542
 20
0.0000000000000037
 30
0.0
 40
0.3139204545454576
100
AcDbArc
 50
84.54737801217442
 51
275.4526219878119
  0
LINE
  5
1B8
330
13F
100
AcDbEntity
  8
AM_4
100
AcDbLine
 10
-3.218750000000075
 20
0.3125000000000001
 30
0.0
 11
-3.562499999999925
 21
0.3124999999999999
 31
0.0
  0
ARC
  5
1B9
330
13F
100
AcDbEntity
  8
AM_4
100
AcDbCircle
 10
-3.188920454545457
 20
0.0000000000000035
 30
0.0
 40
0.3139204545454579
100
AcDbArc
 50
264.5473780121879
 51
95.45262198782575
  0
LINE
  5
1BA
330
13F
100
AcDbEntity
  8
AM_4
100
AcDbLine
 10
-3.5625
 20
-0.3125000000000001
 30
0.0
 11
-3.21875
 21
-0.3125000000000001
 31
0.0
  0
LINE
  5
1BB
330
13F
100
AcDbEntity
  8
AM_4
100
AcDbLine
 10
-2.73125
 20
0.5640243902439024
 30
0.0
 11
-3.873475609756098
 21
0.5640243902439024
 31
0.0
  0
LINE
  5
1BC
330
13F
100
AcDbEntity
  8
AM_4
100
AcDbLine
 10
-3.873475609756098
 20
-0.5640243902439025
 30
0.0
 11
-2.73125
 21
-0.5640243902439025
 31
0.0
  0
ARC
  5
1BD
330
13F
100
AcDbEntity
  8
AM_4
100
AcDbCircle
 10
-2.73125
 20
-0.0000000000000001
 30
0.0
 40
0.5640243902439024
100
AcDbArc
 50
270.0
 51
90.0
  0
LINE
  5
1BE
330
13F
100
AcDbEntity
  8
AM_4
100
AcDbLine
 10
-2.499932013788162
 20
0.5298306379211191
 30
0.0
 11
-2.485558529664714
 21
0.5233203770440102
 31
0.0
  0
LWPOLYLINE
  5
1BF
330
13F
100
AcDbEntity
  8
AM_4
100
AcDbPolyline
 90
       14
 70
     0
 43
0.0
 10
-2.73125
 20
0.5781249999999998
 10
-2.702665813026918
 20
0.5774181297922014
 10
-2.675718705608794
 20
0.575451814636323
 10
-2.650269816017376
 20
0.5724255353719669
 10
-2.626561827519106
 20
0.5685674121576177
 10
-2.604197207147312
 20
0.5639914980508337
 10
-2.583696074633366
 20
0.5589779554990497
 10
-2.564972492062294
 20
0.5536972957837342
 10
-2.548176481657334
 20
0.5483726857773258
 10
-2.533281176549795
 20
0.5431734817764412
 10
-2.520367626951248
 20
0.5382909439720553
 10
-2.50939456036605
 20
0.5338628476522119
 10
-2.500470612247766
 20
0.5300654580461774
 10
-2.499932013788162
 20
0.5298306379211191
  0
LINE
  5
1C0
330
13F
100
AcDbEntity
  8
AM_4
100
AcDbLine
 10
-3.839725196330244
 20
0.5781249999999999
 30
0.0
 11
-3.839725196330244
 21
1.093619791666667
 31
0.0
  0
LINE
  5
1C1
330
13F
100
AcDbEntity
  8
AM_4
100
AcDbLine
 10
-3.839725196330244
 20
0.5781249999999999
 30
0.0
 11
-2.73125
 21
0.5781249999999999
 31
0.0
  0
LINE
  5
1C2
330
13F
100
AcDbEntity
  8
AM_4
100
AcDbLine
 10
-2.485558529663577
 20
0.9892361111111111
 30
0.0
 11
-2.5
 21
0.9635416666666669
 31
0.0
  0
LINE
  5
1C3
330
13F
100
AcDbEntity
  8
AM_4
100
AcDbLine
 10
-2.73125
 20
-0.5781250000000001
 30
0.0
 11
-3.839725196330244
 21
-0.5781250000000001
 31
0.0
  0
LINE
  5
1C4
330
13F
100
AcDbEntity
  8
AM_4
100
AcDbLine
 10
-3.839725196330244
 20
-1.093619791666667
 30
0.0
 11
-3.839725196330244
 21
-0.5781250000000001
 31
0.0
  0
LWPOLYLINE
  5
1C5
330
13F
100
AcDbEntity
  8
AM_4
100
AcDbPolyline
 90
       19
 70
     0
 43
0.0
 10
-2.485558529663577
 20
-0.9892361111111112
 10
-2.490711542664338
 20
-0.998333748320665
 10
-2.506131364126212
 20
-1.00736214701775
 10
-2.531700639897131
 20
-1.016252595636787
 10
-2.567224772349326
 20
-1.024937432495583
 10
-2.61243340138478
 20
-1.033350560741596
 10
-2.666982462038816
 20
-1.041427951388889
 10
-2.730456803022234
 20
-1.049108130617373
 10
-2.802373346273293
 20
-1.0563326476257
 10
-2.88218476347346
 20
-1.063046519477155
 10
-2.969283641546387
 20
-1.069198649553001
 10
-3.063007105438202
 20
-1.074742216428604
 10
-3.16264186299691
 20
-1.079635030212742
 10
-3.267429633556378
 20
-1.083839853638157
 10
-3.376572918910066
 20
-1.08732468545964
 10
-3.489241072753912
 20
-1.09006300400283
 10
-3.604576622406274
 20
-1.092033969010172
 10
-3.721701794692788
 20
-1.093222580247858
 10
-3.839725196330241
 20
-1.093619791666667
  0
LWPOLYLINE
  5
1C6
330
13F
100
AcDbEntity
  8
AM_4
100
AcDbPolyline
 90
       13
 70
     0
 43
0.0
 10
-2.499930906176032
 20
-0.5298301543489744
 10
-2.507939778102618
 20
-0.5332559603805657
 10
-2.518528752087654
 20
-0.5375669133341582
 10
-2.530838669719588
 20
-0.5422770108182638
 10
-2.545049656820968
 20
-0.5473188721622989
 10
-2.561243759327923
 20
-0.5525638217086835
 10
-2.579322418284911
 20
-0.5578050963725638
 10
-2.599643566942095
 20
-0.5629463453177749
 10
-2.621876484561956
 20
-0.5676847274198278
 10
-2.646165355522047
 20
-0.5718298976848012
 10
-2.67233856153677
 20
-0.5751156040686038
 10
-2.700829892190222
 20
-0.5773241140519263
 10
-2.73125
 20
-0.5781250000000001
  0
LINE
  5
1C7
330
13F
100
AcDbEntity
  8
AM_4
100
AcDbLine
 10
2.73125
 20
0.5781249999999999
 30
0.0
 11
3.839725196330246
 21
0.5781249999999999
 31
0.0
  0
LINE
  5
1C8
330
13F
100
AcDbEntity
  8
AM_4
100
AcDbLine
 10
3.839725196330246
 20
0.5781249999999999
 30
0.0
 11
3.839725196330244
 21
1.093619791666667
 31
0.0
  0
LWPOLYLINE
  5
1C9
330
13F
100
AcDbEntity
  8
AM_4
100
AcDbPolyline
 90
       19
 70
     0
 43
0.0
 10
2.485558529663578
 20
0.9892361111111111
 10
2.49071154266434
 20
0.9983337483206647
 10
2.506131364126214
 20
1.00736214701775
 10
2.531700639897132
 20
1.016252595636786
 10
2.567224772349328
 20
1.024937432495583
 10
2.612433401384782
 20
1.033350560741596
 10
2.666982462038817
 20
1.041427951388889
 10
2.730456803022235
 20
1.049108130617373
 10
2.802373346273295
 20
1.0563326476257
 10
2.882184763473461
 20
1.063046519477155
 10
2.969283641546389
 20
1.069198649553001
 10
3.063007105438202
 20
1.074742216428603
 10
3.162641862996911
 20
1.079635030212742
 10
3.26742963355638
 20
1.083839853638157
 10
3.376572918910068
 20
1.08732468545964
 10
3.489241072753913
 20
1.09006300400283
 10
3.604576622406275
 20
1.092033969010172
 10
3.721701794692789
 20
1.093222580247858
 10
3.839725196330243
 20
1.093619791666667
  0
LWPOLYLINE
  5
1CA
330
13F
100
AcDbEntity
  8
AM_4
100
AcDbPolyline
 90
       11
 70
     0
 43
0.0
 10
2.499543419648892
 20
0.5296608124517005
 10
2.504907642100781
 20
0.5319867922542606
 10
2.518528752087655
 20
0.5375669133341585
 10
2.53541863518623
 20
0.5439526486323218
 10
2.555707312892707
 20
0.5508347580172477
 10
2.579322418284913
 20
0.557805096372564
 10
2.606938068016075
 20
0.564605139508009
 10
2.637979690465738
 20
0.5705551926342793
 10
2.672338561536771
 20
0.5751156040686038
 10
2.700864249856273
 20
0.5773261886692105
 10
2.73125
 20
0.578125
  0
LINE
  5
1CB
330
13F
100
AcDbEntity
  8
AM_4
100
AcDbLine
 10
2.496205910576877
 20
0.5281882161240051
 30
0.0
 11
2.499543419648892
 21
0.5296608124517005
 31
0.0
  0
LWPOLYLINE
  5
1CC
330
13F
100
AcDbEntity
  8
AM_4
100
AcDbPolyline
 90
        5
 70
     0
 43
0.0
 10
2.485558529669142
 20
0.5233203770460897
 10
2.485709753889578
 20
0.5234051976703215
 10
2.488437978137973
 20
0.5246625941157559
 10
2.494858842306489
 20
0.5275987047745696
 10
2.496205910576877
 20
0.5281882161240051
  0
LWPOLYLINE
  5
1CD
330
13F
100
AcDbEntity
  8
AM_4
100
AcDbPolyline
 90
        3
 70
     0
 43
0.0
 10
2.491505182833035
 20
-0.5260712292708832
 10
2.486691448007901
 20
-0.5238676625597346
 10
2.485558529673095
 20
-0.5233203770479453
  0
LWPOLYLINE
  5
1CE
330
13F
100
AcDbEntity
  8
AM_4
100
AcDbPolyline
 90
        3
 70
     0
 43
0.0
 10
2.499902066807234
 20
-0.5298175624046784
 10
2.491634254444547
 20
-0.5261466083093507
 10
2.491505182833035
 20
-0.5260712292708832
  0
LWPOLYLINE
  5
1CF
330
13F
100
AcDbEntity
  8
AM_4
100
AcDbPolyline
 90
       11
 70
     0
 43
0.0
 10
2.73125
 20
-0.5781250000000001
 10
2.693379441478582
 20
-0.576886230691919
 10
2.658433243259568
 20
-0.5735235529744197
 10
2.626561827519106
 20
-0.5685674121576181
 10
2.597080215808401
 20
-0.5623444389193946
 10
2.570923805214854
 20
-0.5554532938878469
 10
2.548176481657335
 20
-0.5483726857773262
 10
2.528706553083642
 20
-0.5414918686859812
 10
2.512780602698834
 20
-0.5352651631999824
 10
2.500470612247767
 20
-0.530065458046178
 10
2.499902066807234
 20
-0.5298175624046784
  0
LINE
  5
1D0
330
13F
100
AcDbEntity
  8
AM_4
100
AcDbLine
 10
3.839725196330244
 20
-1.093619791666667
 30
0.0
 11
3.839725196330246
 21
-0.5781250000000001
 31
0.0
  0
LINE
  5
1D1
330
13F
100
AcDbEntity
  8
AM_4
100
AcDbLine
 10
3.839725196330246
 20
-0.5781250000000001
 30
0.0
 11
2.73125
 21
-0.5781250000000001
 31
0.0
  0
LINE
  5
1D2
330
13F
100
AcDbEntity
  8
AM_4
100
AcDbLine
 10
2.485558529663578
 20
-0.9892361111111112
 30
0.0
 11
2.5
 21
-0.963541666666667
 31
0.0
  0
LWPOLYLINE
  5
1D3
330
13F
100
AcDbEntity
  8
AM_4
100
AcDbPolyline
 90
        8
 70
     0
 43
0.0
 10
-1.749999999999999
 20
-1.047142595649168
 10
-1.837865708383115
 20
-1.035067522326848
 10
-1.91174414899178
 20
-1.022448094054462
 10
-1.971073062283939
 20
-1.009380352300981
 10
-2.015400919405662
 20
-0.995963750471668
 10
-2.044390358598361
 20
-0.9823003970076093
 10
-2.057820752725477
 20
-0.9684942782788251
 10
-2.05882352941176
 20
-0.9635416666666669
  0
LWPOLYLINE
  5
1D4
330
13F
100
AcDbEntity
  8
AM_4
100
AcDbPolyline
 90
        8
 70
     0
 43
0.0
 10
2.05882352941176
 20
-0.9635416666666669
 10
2.05098908430653
 20
-0.9773733684875268
 10
2.027545373848659
 20
-0.9910998027057201
 10
1.98867081883043
 20
-1.004616502868599
 10
1.934661278088631
 20
-1.017820598726316
 10
1.865927796840158
 20
-1.030611599136545
 10
1.782993478379723
 20
-1.042892156862745
 10
1.749999999999999
 20
-1.047142595649168
  0
LWPOLYLINE
  5
1D5
330
13F
100
AcDbEntity
  8
AM_4
100
AcDbPolyline
 90
       19
 70
     0
 43
0.0
 10
-2.05882352941176
 20
-0.9635416666666669
 10
-2.05098908430653
 20
-0.9497099648458069
 10
-2.027545373848659
 20
-0.9359835306276136
 10
-1.98867081883043
 20
-0.9224668304647352
 10
-1.934661278088631
 20
-0.9092627346070175
 10
-1.865927796840158
 20
-0.8964717341967888
 10
-1.782993478379723
 20
-0.8841911764705888
 10
-1.686489502947921
 20
-0.8725145238879166
 10
-1.577150324068482
 20
-0.8615306428254823
 10
-1.455808078913478
 20
-0.8513231272504197
 10
-1.323386255236991
 20
-0.8419696625197216
 10
-1.180892663075683
 20
-0.8335414341477647
 10
-1.029411764705882
 20
-0.8261025860415634
 10
-0.8700964212308525
 20
-0.8197097323269048
 10
-0.7041591186116725
 20
-0.8144115264806683
 10
-0.5328627399169567
 20
-0.810248291048488
 10
-0.3575109540201536
 20
-0.8072517107658328
 10
-0.1794382938922409
 20
-0.8054445914180385
 10
-0.0000000000000042
 20
-0.8048406862745103
  0
LWPOLYLINE
  5
1D6
330
13F
100
AcDbEntity
  8
AM_4
100
AcDbPolyline
 90
       37
 70
     0
 43
0.0
 10
2.058823529411765
 20
0.9635416666666667
 10
2.050989084306535
 20
0.9497099648458068
 10
2.027545373848664
 20
0.9359835306276135
 10
1.988670818830435
 20
0.9224668304647349
 10
1.934661278088635
 20
0.9092627346070172
 10
1.865927796840162
 20
0.8964717341967887
 10
1.782993478379728
 20
0.8841911764705884
 10
1.686489502947925
 20
0.8725145238879163
 10
1.577150324068485
 20
0.861530642825482
 10
1.455808078913482
 20
0.8513231272504195
 10
1.323386255236994
 20
0.8419696625197213
 10
1.180892663075685
 20
0.8335414341477645
 10
1.029411764705885
 20
0.826102586041563
 10
0.8700964212308545
 20
0.8197097323269044
 10
0.7041591186116738
 20
0.814411526480668
 10
0.5328627399169577
 20
0.8102482910484875
 10
0.3575109540201542
 20
0.8072517107658324
 10
0.1794382938922411
 20
0.8054445914180381
 10
0.0000000000000039
 20
0.80484068627451
 10
-0.1794382938922333
 20
0.8054445914180381
 10
-0.3575109540201465
 20
0.8072517107658324
 10
-0.5328627399169501
 20
0.8102482910484874
 10
-0.7041591186116665
 20
0.8144115264806677
 10
-0.8700964212308474
 20
0.8197097323269041
 10
-1.029411764705878
 20
0.8261025860415627
 10
-1.180892663075679
 20
0.833541434147764
 10
-1.323386255236988
 20
0.8419696625197208
 10
-1.455808078913476
 20
0.851323127250419
 10
-1.57715032406848
 20
0.8615306428254815
 10
-1.686489502947921
 20
0.8725145238879158
 10
-1.782993478379723
 20
0.8841911764705879
 10
-1.865927796840159
 20
0.8964717341967882
 10
-1.934661278088633
 20
0.9092627346070167
 10
-1.988670818830433
 20
0.9224668304647343
 10
-2.027545373848663
 20
0.9359835306276129
 10
-2.050989084306535
 20
0.9497099648458062
 10
-2.058823529411765
 20
0.9635416666666662
  0
LWPOLYLINE
  5
1D7
330
13F
100
AcDbEntity
  8
AM_4
100
AcDbPolyline
 90
       19
 70
     0
 43
0.0
 10
-2.058823529411765
 20
0.9635416666666667
 10
-2.050989084306535
 20
0.9773733684875267
 10
-2.027545373848664
 20
0.9910998027057198
 10
-1.988670818830435
 20
1.004616502868598
 10
-1.934661278088635
 20
1.017820598726316
 10
-1.865927796840163
 20
1.030611599136545
 10
-1.782993478379728
 20
1.042892156862745
 10
-1.686489502947925
 20
1.054568809445417
 10
-1.577150324068486
 20
1.065552690507851
 10
-1.455808078913482
 20
1.075760206082914
 10
-1.323386255236995
 20
1.085113670813612
 10
-1.180892663075685
 20
1.093541899185569
 10
-1.029411764705885
 20
1.100980747291771
 10
-0.8700964212308547
 20
1.107373601006429
 10
-0.7041591186116741
 20
1.112671806852666
 10
-0.5328627399169579
 20
1.116835042284846
 10
-0.3575109540201544
 20
1.119831622567501
 10
-0.1794382938922414
 20
1.121638741915295
 10
-0.0000000000000042
 20
1.122242647058823
  0
LWPOLYLINE
  5
1D8
330
13F
100
AcDbEntity
  8
AM_4
100
AcDbPolyline
 90
       19
 70
     0
 43
0.0
 10
0.0
 20
-0.8048406862745103
 10
0.179438293892237
 20
-0.8054445914180385
 10
0.3575109540201498
 20
-0.8072517107658326
 10
0.5328627399169532
 20
-0.8102482910484878
 10
0.7041591186116692
 20
-0.8144115264806683
 10
0.8700964212308498
 20
-0.8197097323269047
 10
1.02941176470588
 20
-0.8261025860415632
 10
1.18089266307568
 20
-0.8335414341477646
 10
1.323386255236989
 20
-0.8419696625197214
 10
1.455808078913477
 20
-0.8513231272504196
 10
1.577150324068481
 20
-0.8615306428254823
 10
1.68648950294792
 20
-0.8725145238879164
 10
1.782993478379722
 20
-0.8841911764705886
 10
1.865927796840157
 20
-0.8964717341967888
 10
1.93466127808863
 20
-0.9092627346070173
 10
1.98867081883043
 20
-0.922466830464735
 10
2.027545373848659
 20
-0.9359835306276135
 10
2.05098908430653
 20
-0.9497099648458068
 10
2.05882352941176
 20
-0.9635416666666667
  0
LWPOLYLINE
  5
1D9
330
13F
100
AcDbEntity
  8
AM_4
100
AcDbPolyline
 90
       19
 70
     0
 43
0.0
 10
3.839725196330246
 20
-1.093619791666667
 10
3.721701794692792
 20
-1.093222580247858
 10
3.604576622406278
 20
-1.092033969010172
 10
3.489241072753916
 20
-1.090063004002831
 10
3.37657291891007
 20
-1.08732468545964
 10
3.267429633556383
 20
-1.083839853638157
 10
3.162641862996913
 20
-1.079635030212742
 10
3.063007105438205
 20
-1.074742216428604
 10
2.969283641546391
 20
-1.069198649553001
 10
2.882184763473463
 20
-1.063046519477155
 10
2.802373346273297
 20
-1.0563326476257
 10
2.730456803022236
 20
-1.049108130617373
 10
2.666982462038819
 20
-1.041427951388889
 10
2.612433401384783
 20
-1.033350560741597
 10
2.567224772349328
 20
-1.024937432495583
 10
2.531700639897132
 20
-1.016252595636787
 10
2.506131364126214
 20
-1.007362147017751
 10
2.490711542664341
 20
-0.9983337483206651
 10
2.485558529663578
 20
-0.9892361111111113
  0
LINE
  5
1DA
330
13F
100
AcDbEntity
  8
AM_4
100
AcDbLine
 10
-2.5
 20
-0.963541666666667
 30
0.0
 11
-2.485558529663577
 21
-0.9892361111111112
 31
0.0
  0
LINE
  5
1DB
330
13F
100
AcDbEntity
  8
AM_4
100
AcDbLine
 10
-4.34875
 20
-1.093619791666667
 30
0.0
 11
-3.839725196330244
 21
-1.093619791666667
 31
0.0
  0
LWPOLYLINE
  5
1DC
330
13F
100
AcDbEntity
  8
AM_4
100
AcDbPolyline
 90
       19
 70
     0
 43
0.0
 10
-4.4375
 20
-1.1004609375
 10
-4.437162279455642
 20
-1.099864692353651
 10
-4.436151688079833
 20
-1.099272984992888
 10
-4.434475917083155
 20
-1.09869031866801
 10
-4.432147720094749
 20
-1.098121127821572
 10
-4.429184816099503
 20
-1.097569744339602
 10
-4.425609754585869
 20
-1.097040364583334
 10
-4.421449743930648
 20
-1.096537017452359
 10
-4.416736444326809
 20
-1.096063533722275
 10
-4.411505726830306
 20
-1.095623516890164
 10
-4.40579740035968
 20
-1.095220315749809
 10
-4.399654908726156
 20
-1.094856998905346
 10
-4.393125
 20
-1.09453633141734
 10
-4.386257370729488
 20
-1.094260753758997
 10
-4.379104287720153
 20
-1.094032363242697
 10
-4.371720190252849
 20
-1.093852898058174
 10
-4.36416127576794
 20
-1.093723724043846
 10
-4.356485072168855
 20
-1.093645824291961
 10
-4.348750000000001
 20
-1.093619791666667
  0
LINE
  5
1DD
330
13F
100
AcDbEntity
  8
AM_4
100
AcDbLine
 10
-4.4375
 20
1.15625
 30
0.0
 11
-4.4375
 21
-1.15625
 31
0.0
  0
LINE
  5
1DE
330
13F
100
AcDbEntity
  8
AM_4
100
AcDbLine
 10
1.750000000000001
 20
-1.15625
 30
0.0
 11
4.4375
 21
-1.15625
 31
0.0
  0
LINE
  5
1DF
330
13F
100
AcDbEntity
  8
AM_4
100
AcDbLine
 10
-4.4375
 20
-1.15625
 30
0.0
 11
-1.749999999999999
 21
-1.15625
 31
0.0
  0
LINE
  5
1E0
330
13F
100
AcDbEntity
  8
AM_4
100
AcDbLine
 10
3.839725196330244
 20
-1.093619791666667
 30
0.0
 11
4.4375
 21
-1.093619791666667
 31
0.0
  0
LWPOLYLINE
  5
1E1
330
13F
100
AcDbEntity
  8
AM_4
100
AcDbPolyline
 90
       19
 70
     0
 43
0.0
 10
0.0
 20
1.122242647058823
 10
0.1794382938922374
 20
1.121638741915295
 10
0.3575109540201507
 20
1.119831622567501
 10
0.5328627399169544
 20
1.116835042284846
 10
0.704159118611671
 20
1.112671806852666
 10
0.8700964212308518
 20
1.107373601006429
 10
1.029411764705882
 20
1.100980747291771
 10
1.180892663075683
 20
1.093541899185569
 10
1.323386255236993
 20
1.085113670813612
 10
1.45580807891348
 20
1.075760206082914
 10
1.577150324068484
 20
1.065552690507851
 10
1.686489502947925
 20
1.054568809445417
 10
1.782993478379727
 20
1.042892156862745
 10
1.865927796840162
 20
1.030611599136545
 10
1.934661278088635
 20
1.017820598726316
 10
1.988670818830435
 20
1.004616502868599
 10
2.027545373848664
 20
0.9910998027057201
 10
2.050989084306535
 20
0.9773733684875268
 10
2.058823529411765
 20
0.9635416666666669
  0
LINE
  5
1E2
330
13F
100
AcDbEntity
  8
AM_4
100
AcDbLine
 10
4.437499999999999
 20
1.15625
 30
0.0
 11
4.4375
 21
-1.15625
 31
0.0
  0
LINE
  5
1E3
330
13F
100
AcDbEntity
  8
AM_4
100
AcDbLine
 10
-4.4375
 20
1.15625
 30
0.0
 11
4.437499999999999
 21
1.15625
 31
0.0
  0
LWPOLYLINE
  5
1E4
330
13F
100
AcDbEntity
  8
AM_4
100
AcDbPolyline
 90
       19
 70
     0
 43
0.0
 10
-4.348749999999999
 20
1.093619791666667
 10
-4.356485072168854
 20
1.093645824291961
 10
-4.364161275767939
 20
1.093723724043846
 10
-4.371720190252848
 20
1.093852898058174
 10
-4.379104287720152
 20
1.094032363242696
 10
-4.386257370729487
 20
1.094260753758997
 10
-4.393125
 20
1.094536331417339
 10
-4.399654908726155
 20
1.094856998905346
 10
-4.40579740035968
 20
1.095220315749808
 10
-4.411505726830305
 20
1.095623516890164
 10
-4.416736444326808
 20
1.096063533722275
 10
-4.421449743930648
 20
1.096537017452359
 10
-4.425609754585868
 20
1.097040364583333
 10
-4.429184816099503
 20
1.097569744339602
 10
-4.432147720094749
 20
1.098121127821572
 10
-4.434475917083154
 20
1.09869031866801
 10
-4.436151688079833
 20
1.099272984992888
 10
-4.437162279455642
 20
1.099864692353651
 10
-4.4375
 20
1.1004609375
  0
LINE
  5
1E5
330
13F
100
AcDbEntity
  8
AM_4
100
AcDbLine
 10
-3.839725196330244
 20
1.093619791666667
 30
0.0
 11
-4.34875
 21
1.093619791666667
 31
0.0
  0
LWPOLYLINE
  5
1E6
330
13F
100
AcDbEntity
  8
AM_4
100
AcDbPolyline
 90
       19
 70
     0
 43
0.0
 10
-3.839725196330244
 20
1.093619791666667
 10
-3.721701794692791
 20
1.093222580247858
 10
-3.604576622406276
 20
1.092033969010172
 10
-3.489241072753914
 20
1.09006300400283
 10
-3.376572918910068
 20
1.08732468545964
 10
-3.267429633556381
 20
1.083839853638157
 10
-3.162641862996911
 20
1.079635030212742
 10
-3.063007105438202
 20
1.074742216428603
 10
-2.969283641546389
 20
1.069198649553001
 10
-2.882184763473461
 20
1.063046519477155
 10
-2.802373346273295
 20
1.0563326476257
 10
-2.730456803022234
 20
1.049108130617373
 10
-2.666982462038817
 20
1.041427951388889
 10
-2.612433401384781
 20
1.033350560741596
 10
-2.567224772349327
 20
1.024937432495583
 10
-2.531700639897131
 20
1.016252595636787
 10
-2.506131364126212
 20
1.00736214701775
 10
-2.490711542664338
 20
0.9983337483206648
 10
-2.485558529663577
 20
0.9892361111111112
  0
LINE
  5
1E7
330
13F
100
AcDbEntity
  8
AM_4
100
AcDbLine
 10
2.5
 20
0.9635416666666669
 30
0.0
 11
2.485558529663578
 21
0.9892361111111111
 31
0.0
  0
LINE
  5
1E8
330
13F
100
AcDbEntity
  8
AM_4
100
AcDbLine
 10
4.4375
 20
1.093619791666667
 30
0.0
 11
3.839725196330244
 21
1.093619791666667
 31
0.0
  0
LINE
  5
1E9
330
13F
100
AcDbEntity
  8
AM_4
100
AcDbLine
 10
2.5
 20
-0.963541666666667
 30
0.0
 11
2.5
 21
-0.5298086600026325
 31
0.0
  0
LINE
  5
1EA
330
13F
100
AcDbEntity
  8
AM_4
100
AcDbLine
 10
2.5
 20
0.5296941444868927
 30
0.0
 11
2.5
 21
0.9635416666666669
 31
0.0
  0
LINE
  5
1EB
330
13F
100
AcDbEntity
  8
AM_4
100
AcDbLine
 10
-2.5
 20
0.9635416666666669
 30
0.0
 11
-2.5
 21
0.529808660002632
 31
0.0
  0
LINE
  5
1EC
330
13F
100
AcDbEntity
  8
AM_4
100
AcDbLine
 10
-2.5
 20
-0.5296941444868921
 30
0.0
 11
-2.5
 21
-0.963541666666667
 31
0.0
  0
LWPOLYLINE
  5
1ED
330
13F
100
AcDbEntity
  8
AM_4
100
AcDbPolyline
 90
       37
 70
     0
 43
0.0
 10
-2.5
 20
-0.963541666666667
 10
-2.490486745229363
 20
-0.9467460287413371
 10
-2.46201938253052
 20
-0.9300782157621024
 10
-2.414814565722671
 20
-0.9136650798500354
 10
-2.349231551964771
 20
-0.8976315348799497
 10
-2.265769467591625
 20
-0.8820996058103865
 10
-2.165063509461097
 20
-0.8671875000000004
 10
-2.04788011072248
 20
-0.8530087075781841
 10
-1.915111107797446
 20
-0.8396711377166569
 10
-1.76776695296637
 20
-0.8272762973755095
 10
-1.60696902421635
 20
-0.8159185187739474
 10
-1.433941090877617
 20
-0.8056842414651426
 10
-1.250000000000002
 20
-0.7966513544790409
 10
-1.056545654351752
 20
-0.7888886035398126
 10
-0.8550503583141751
 20
-0.7824550678693826
 10
-0.6470476127563055
 20
-0.7773997105588778
 10
-0.4341204441673298
 20
-0.7737610059299395
 10
-0.2178893568691497
 20
-0.7715666467219036
 10
-0.0000000000000045
 20
-0.7708333333333336
 10
0.2178893568691407
 20
-0.7715666467219033
 10
0.434120444167321
 20
-0.7737610059299392
 10
0.6470476127562969
 20
-0.7773997105588776
 10
0.8550503583141666
 20
-0.7824550678693823
 10
1.056545654351744
 20
-0.7888886035398124
 10
1.249999999999995
 20
-0.7966513544790405
 10
1.43394109087761
 20
-0.8056842414651422
 10
1.606969024216343
 20
-0.8159185187739468
 10
1.767766952966364
 20
-0.8272762973755089
 10
1.915111107797441
 20
-0.8396711377166564
 10
2.047880110722476
 20
-0.8530087075781837
 10
2.165063509461093
 20
-0.8671874999999998
 10
2.265769467591622
 20
-0.8820996058103857
 10
2.349231551964769
 20
-0.8976315348799488
 10
2.414814565722669
 20
-0.9136650798500348
 10
2.462019382530519
 20
-0.9300782157621015
 10
2.490486745229364
 20
-0.9467460287413363
 10
2.5
 20
-0.9635416666666663
  0
LWPOLYLINE
  5
1EE
330
13F
100
AcDbEntity
  8
AM_4
100
AcDbPolyline
 90
       53
 70
     0
 43
0.0
 10
2.499999999998598
 20
0.5298603147286574
 10
2.499172683491287
 20
0.5295020180897824
 10
2.494990140748345
 20
0.5276455197681399
 10
2.487074527662732
 20
0.5240337439634472
 10
2.475505773759862
 20
0.5184818283892241
 10
2.460180388254248
 20
0.5106424232012556
 10
2.441245730819115
 20
0.5001260235999133
 10
2.422047757583551
 20
0.488494825278193
 10
2.400318506625086
 20
0.4740388827065236
 10
2.375910742806945
 20
0.4560374136329344
 10
2.349259701691201
 20
0.4339492224016014
 10
2.320881474170505
 20
0.4072320819408802
 10
2.291048559500771
 20
0.3747682049045839
 10
2.26990676339776
 20
0.3484312515524212
 10
2.248679501135097
 20
0.318384215082701
 10
2.227864321730351
 20
0.2843085903345262
 10
2.216593693067394
 20
0.2633581050646792
 10
2.205731270404029
 20
0.2409534819603912
 10
2.195237745044172
 20
0.2166076264564963
 10
2.185480756415913
 20
0.1906946469690582
 10
2.176771967282015
 20
0.1636489087649824
 10
2.169149232323553
 20
0.1351711603950658
 10
2.162612797562473
 20
0.1042892735738468
 10
2.157655379679932
 20
0.0722338367033132
 10
2.154790835336362
 20
0.0438188083838971
 10
2.153319441192275
 20
0.0149928256573435
 10
2.153327329070858
 20
-0.0151592439038415
 10
2.154891078904174
 20
-0.0451542877062149
 10
2.157308215876094
 20
-0.0694104605929731
 10
2.160688111260551
 20
-0.0932075465993648
 10
2.165087667077325
 20
-0.1169939094364166
 10
2.170344526141726
 20
-0.1400484381234761
 10
2.178364672371878
 20
-0.1689516480487501
 10
2.187484546799776
 20
-0.1963355483119518
 10
2.197795632623593
 20
-0.2228328553531456
 10
2.208852015933637
 20
-0.2476466471979792
 10
2.225813861788392
 20
-0.2806490955026865
 10
2.243501227069833
 20
-0.3103701824114487
 10
2.262007667350238
 20
-0.3377014017467211
 10
2.280574638435622
 20
-0.3621052804141613
 10
2.301461034911264
 20
-0.3866801390005176
 10
2.321864680348051
 20
-0.4082195925509118
 10
2.341548956669175
 20
-0.4270381861752727
 10
2.370056717465676
 20
-0.4514173703634469
 10
2.396162195607718
 20
-0.4711100497469353
 10
2.423732538974996
 20
-0.4895964440147406
 10
2.447285006419444
 20
-0.5036208218651681
 10
2.466607548746591
 20
-0.5139969733564465
 10
2.481903255485218
 20
-0.5216168278917097
 10
2.492580324145806
 20
-0.5265874334047249
 10
2.498582954993609
 20
-0.5292396071657844
 10
2.499982855207349
 20
-0.5298542564834935
 10
2.499999999999624
 20
-0.529860314729105
  0
LWPOLYLINE
  5
1EF
330
13F
100
AcDbEntity
  8
AM_4
100
AcDbPolyline
 90
       37
 70
     0
 43
0.0
 10
2.5
 20
0.9635416666666669
 10
2.490486745229364
 20
0.946746028741337
 10
2.462019382530521
 20
0.9300782157621021
 10
2.414814565722672
 20
0.9136650798500353
 10
2.349231551964772
 20
0.8976315348799496
 10
2.265769467591626
 20
0.8820996058103865
 10
2.165063509461098
 20
0.8671875000000004
 10
2.047880110722481
 20
0.8530087075781841
 10
1.915111107797447
 20
0.8396711377166569
 10
1.767766952966371
 20
0.8272762973755095
 10
1.606969024216351
 20
0.8159185187739474
 10
1.433941090877618
 20
0.8056842414651426
 10
1.250000000000003
 20
0.7966513544790409
 10
1.056545654351752
 20
0.7888886035398126
 10
0.855050358314176
 20
0.7824550678693826
 10
0.6470476127563063
 20
0.7773997105588779
 10
0.4341204441673306
 20
0.7737610059299395
 10
0.2178893568691505
 20
0.7715666467219036
 10
0.0000000000000053
 20
0.7708333333333337
 10
-0.2178893568691399
 20
0.7715666467219036
 10
-0.4341204441673202
 20
0.7737610059299393
 10
-0.6470476127562961
 20
0.7773997105588776
 10
-0.8550503583141659
 20
0.7824550678693823
 10
-1.056545654351743
 20
0.7888886035398124
 10
-1.249999999999994
 20
0.7966513544790405
 10
-1.433941090877609
 20
0.8056842414651422
 10
-1.606969024216343
 20
0.8159185187739469
 10
-1.767766952966363
 20
0.8272762973755089
 10
-1.91511110779744
 20
0.8396711377166564
 10
-2.047880110722475
 20
0.8530087075781837
 10
-2.165063509461092
 20
0.8671874999999998
 10
-2.265769467591621
 20
0.8820996058103857
 10
-2.349231551964768
 20
0.8976315348799488
 10
-2.414814565722668
 20
0.9136650798500346
 10
-2.462019382530519
 20
0.9300782157621015
 10
-2.490486745229363
 20
0.9467460287413362
 10
-2.5
 20
0.9635416666666662
  0
LWPOLYLINE
  5
1F0
330
13F
100
AcDbEntity
  8
AM_4
100
AcDbPolyline
 90
       53
 70
     0
 43
0.0
 10
-2.499999999998598
 20
-0.5298603147286569
 10
-2.499172683491286
 20
-0.529502018089782
 10
-2.494990140748344
 20
-0.5276455197681396
 10
-2.487074527662732
 20
-0.5240337439634469
 10
-2.475505773759861
 20
-0.5184818283892237
 10
-2.460180388254247
 20
-0.5106424232012553
 10
-2.441245730819115
 20
-0.500126023599913
 10
-2.42204775758355
 20
-0.4884948252781927
 10
-2.400318506625085
 20
-0.4740388827065233
 10
-2.375910742806945
 20
-0.4560374136329341
 10
-2.3492597016912
 20
-0.4339492224016009
 10
-2.320881474170504
 20
-0.4072320819408794
 10
-2.291048559500771
 20
-0.3747682049045827
 10
-2.269906763397759
 20
-0.3484312515524196
 10
-2.248679501135096
 20
-0.3183842150826988
 10
-2.227864321730349
 20
-0.2843085903345233
 10
-2.216593693067393
 20
-0.2633581050646764
 10
-2.205731270404028
 20
-0.2409534819603885
 10
-2.195237745044171
 20
-0.2166076264564936
 10
-2.185480756415912
 20
-0.1906946469690556
 10
-2.176771967282014
 20
-0.1636489087649798
 10
-2.169149232323552
 20
-0.1351711603950634
 10
-2.162612797562473
 20
-0.1042892735738449
 10
-2.157655379679932
 20
-0.0722338367033117
 10
-2.154790835336362
 20
-0.0438188083838957
 10
-2.153319441192276
 20
-0.014992825657342
 10
-2.153327329070859
 20
0.0151592439038429
 10
-2.154891078904174
 20
0.0451542877062163
 10
-2.157308215876095
 20
0.0694104605929744
 10
-2.160688111260551
 20
0.0932075465993661
 10
-2.165087667077325
 20
0.1169939094364177
 10
-2.170344526141726
 20
0.1400484381234771
 10
-2.178364672371878
 20
0.1689516480487513
 10
-2.187484546799777
 20
0.1963355483119533
 10
-2.197795632623594
 20
0.2228328553531468
 10
-2.208852015933638
 20
0.24764664719798
 10
-2.225813861788393
 20
0.2806490955026874
 10
-2.243501227069833
 20
0.3103701824114498
 10
-2.262007667350239
 20
0.3377014017467221
 10
-2.280574638435623
 20
0.3621052804141621
 10
-2.301461034911265
 20
0.3866801390005185
 10
-2.321864680348052
 20
0.4082195925509128
 10
-2.341548956669177
 20
0.4270381861752736
 10
-2.370056717465677
 20
0.4514173703634478
 10
-2.396162195607719
 20
0.471110049746936
 10
-2.423732538974997
 20
0.4895964440147413
 10
-2.447285006419444
 20
0.5036208218651684
 10
-2.466607548746591
 20
0.5139969733564466
 10
-2.481903255485218
 20
0.5216168278917097
 10
-2.492580324145806
 20
0.5265874334047247
 10
-2.498582954993608
 20
0.5292396071657841
 10
-2.499982855207348
 20
0.529854256483493
 10
-2.499999999999623
 20
0.5298603147291044
  0
ENDBLK
  5
142
330
13F
100
AcDbEntity
  8
0
100
AcDbBlockEnd
  0
ENDSEC
  0
SECTION
  2
ENTITIES
  0
INSERT
  5
6F
330
1F
100
AcDbEntity
  8
0
100
AcDbBlockReference
  2
1_048023_4
 10
0.0
 20
0.0
 30
0.0
  0
POINT
  5
1F2
330
1F
100
AcDbEntity
  8
ConnectionPoints
100
AcDbPoint
 10
1.25
 20
0.0000000000000001
 30
2.165063509461096
  0
POINT
  5
1F3
330
1F
100
AcDbEntity
  8
ConnectionPoints
100
AcDbPoint
 10
1.25
 20
0.0000000000000001
 30
2.165063509461096
  0
POINT
  5
1F4
330
1F
100
AcDbEntity
  8
ConnectionPoints
100
AcDbPoint
 10
0.0
 20
-1.32813
 30
0.0000000000000001
  0
ENDSEC
  0
SECTION
  2
OBJECTS
  0
DICTIONARY
  5
C
330
0
100
AcDbDictionary
281
     1
  3
ACAD_DETAILVIEWSTYLE
350
1FC
  3
ACAD_GROUP
350
D
  3
ACAD_LAYOUT
350
1A
  3
ACAD_MATERIAL
350
43
  3
ACAD_MLEADERSTYLE
350
6B
  3
ACAD_MLINESTYLE
350
17
  3
ACAD_PLOTSETTINGS
350
19
  3
ACAD_PLOTSTYLENAME
350
E
  3
ACAD_SCALELIST
350
47
  3
ACAD_SECTIONVIEWSTYLE
350
1FD
  3
ACAD_TABLESTYLE
350
69
  3
ACAD_VISUALSTYLE
350
2A
  3
ACDB_RECOMPOSE_DATA
350
1F9
  3
AcDbVariableDictionary
350
1F5
  0
SUN
  5
6D
330
29
100
AcDbSun
 90
        1
290
     0
 63
     7
421
 16777215
 40
1.0
291
     1
 91
  2455826
 92
 54000000
292
     0
 70
     2
 71
   256
280
     1
  0
DICTIONARY
  5
1FC
102
{ACAD_REACTORS
330
C
102
}
330
C
100
AcDbDictionary
281
     1
  0
DICTIONARY
  5
D
102
{ACAD_REACTORS
330
C
102
}
330
C
100
AcDbDictionary
281
     1
  0
DICTIONARY
  5
1A
102
{ACAD_REACTORS
330
C
102
}
330
C
100
AcDbDictionary
281
     1
  3
Layout1
350
1E
  3
Layout2
350
26
  3
Model
350
22
  0
DICTIONARY
  5
43
102
{ACAD_REACTORS
330
C
102
}
330
C
100
AcDbDictionary
281
     1
  3
ByBlock
350
45
  3
ByLayer
350
44
  3
Global
350
46
  0
DICTIONARY
  5
6B
102
{ACAD_REACTORS
330
C
102
}
330
C
100
AcDbDictionary
281
     1
  3
Standard
350
6C
  0
DICTIONARY
  5
17
102
{ACAD_REACTORS
330
C
102
}
330
C
100
AcDbDictionary
281
     1
  3
Standard
350
18
  0
DICTIONARY
  5
19
102
{ACAD_REACTORS
330
C
102
}
330
C
100
AcDbDictionary
281
     1
  0
ACDBDICTIONARYWDFLT
  5
E
102
{ACAD_REACTORS
330
C
102
}
330
C
100
AcDbDictionary
281
     1
  3
Normal
350
F
100
AcDbDictionaryWithDefault
340
F
  0
DICTIONARY
  5
47
102
{ACAD_REACTORS
330
C
102
}
330
C
100
AcDbDictionary
281
     1
  3
A0
350
48
  3
A1
350
49
  3
A2
350
4A
  3
A3
350
4B
  3
A4
350
4C
  3
A5
350
4D
  3
A6
350
4E
  3
A7
350
4F
  3
A8
350
50
  3
A9
350
51
  3
B0
350
52
  3
B1
350
53
  3
B2
350
54
  3
B3
350
55
  3
B4
350
56
  3
B5
350
57
  3
B6
350
58
  3
B7
350
59
  3
B8
350
5A
  3
B9
350
5B
  3
C0
350
5C
  3
C1
350
5D
  3
C2
350
5E
  3
C3
350
5F
  3
C4
350
60
  3
C5
350
61
  3
C6
350
62
  3
C7
350
63
  3
C8
350
64
  3
C9
350
65
  3
D0
350
66
  3
D1
350
67
  3
D2
350
68
  0
DICTIONARY
  5
1FD
102
{ACAD_REACTORS
330
C
102
}
330
C
100
AcDbDictionary
281
     1
  0
DICTIONARY
  5
69
102
{ACAD_REACTORS
330
C
102
}
330
C
100
AcDbDictionary
281
     1
  3
Standard
350
6A
  0
DICTIONARY
  5
2A
102
{ACAD_REACTORS
330
C
102
}
330
C
100
AcDbDictionary
281
     1
  3
2dWireframe
350
2F
  3
Basic
350
32
  3
Brighten
350
36
  3
ColorChange
350
3A
  3
Conceptual
350
34
  3
Dim
350
35
  3
EdgeColorOff
350
3D
  3
Facepattern
350
39
  3
Flat
350
2B
  3
FlatWithEdges
350
2C
  3
Gouraud
350
2D
  3
GouraudWithEdges
350
2E
  3
Hidden
350
31
  3
JitterOff
350
3B
  3
Linepattern
350
38
  3
OverhangOff
350
3C
  3
Realistic
350
33
  3
Shaded
350
42
  3
Shaded with edges
350
41
  3
Shades of Gray
350
3E
  3
Sketchy
350
3F
  3
Thicken
350
37
  3
Wireframe
350
30
  3
X-Ray
350
40
  0
XRECORD
  5
1F9
102
{ACAD_REACTORS
330
C
102
}
330
C
100
AcDbXrecord
280
     1
 90
        1
330
6A
  0
DICTIONARY
  5
1F5
102
{ACAD_REACTORS
330
C
102
}
330
C
100
AcDbDictionary
281
     1
  3
CANNOSCALE
350
1F6
  3
CMLEADERSTYLE
350
1FB
  3
CTABLESTYLE
350
1FA
  0
LAYOUT
  5
1E
102
{ACAD_REACTORS
330
1A
102
}
330
1A
100
AcDbPlotSettings
  1

  2
none_device
  4

  6

 40
0.0
 41
0.0
 42
0.0
 43
0.0
 44
0.0
 45
0.0
 46
0.0
 47
0.0
 48
0.0
 49
0.0
140
0.0
141
0.0
142
1.0
143
1.0
 70
   688
 72
     0
 73
     0
 74
     5
  7

 75
    16
 76
     0
 77
     2
 78
   300
147
1.0
148
0.0
149
0.0
100
AcDbLayout
  1
Layout1
 70
     1
 71
     1
 10
0.0
 20
0.0
 11
12.0
 21
9.0
 12
0.0
 22
0.0
 32
0.0
 14
1.000000000000000E+20
 24
1.000000000000000E+20
 34
1.000000000000000E+20
 15
-1.000000000000000E+20
 25
-1.000000000000000E+20
 35
-1.000000000000000E+20
146
0.0
 13
0.0
 23
0.0
 33
0.0
 16
1.0
 26
0.0
 36
0.0
 17
0.0
 27
1.0
 37
0.0
 76
     0
330
1B
  0
LAYOUT
  5
26
102
{ACAD_REACTORS
330
1A
102
}
330
1A
100
AcDbPlotSettings
  1

  2
none_device
  4

  6

 40
0.0
 41
0.0
 42
0.0
 43
0.0
 44
0.0
 45
0.0
 46
0.0
 47
0.0
 48
0.0
 49
0.0
140
0.0
141
0.0
142
1.0
143
1.0
 70
   688
 72
     0
 73
     0
 74
     5
  7

 75
    16
 76
     0
 77
     2
 78
   300
147
1.0
148
0.0
149
0.0
100
AcDbLayout
  1
Layout2
 70
     1
 71
     2
 10
0.0
 20
0.0
 11
0.0
 21
0.0
 12
0.0
 22
0.0
 32
0.0
 14
0.0
 24
0.0
 34
0.0
 15
0.0
 25
0.0
 35
0.0
146
0.0
 13
0.0
 23
0.0
 33
0.0
 16
1.0
 26
0.0
 36
0.0
 17
0.0
 27
1.0
 37
0.0
 76
     0
330
23
  0
LAYOUT
  5
22
102
{ACAD_REACTORS
330
1A
102
}
330
1A
100
AcDbPlotSettings
  1

  2
none_device
  4
Letter_(8.50_x_11.00_Inches)
  6

 40
6.35
 41
6.35
 42
6.35000508
 43
6.35000508
 44
215.9
 45
279.4
 46
0.0
 47
0.0
 48
0.0
 49
0.0
140
0.0
141
0.0
142
1.0
143
1.0
 70
  1712
 72
     0
 73
     0
 74
     0
  7

 75
     0
 76
     0
 77
     2
 78
   300
147
1.0
148
0.0
149
0.0
100
AcDbLayout
  1
Model
 70
     1
 71
     0
 10
0.0
 20
0.0
 11
12.0
 21
9.0
 12
0.0
 22
0.0
 32
0.0
 14
1.000000000000000E+20
 24
1.000000000000000E+20
 34
1.000000000000000E+20
 15
-1.000000000000000E+20
 25
-1.000000000000000E+20
 35
-1.000000000000000E+20
146
0.0
 13
0.0
 23
0.0
 33
0.0
 16
1.0
 26
0.0
 36
0.0
 17
0.0
 27
1.0
 37
0.0
 76
     0
330
1F
331
29
  0
MATERIAL
  5
45
102
{ACAD_REACTORS
330
43
102
}
330
43
100
AcDbMaterial
  1
ByBlock
 72
     1
 94
      127
  0
MATERIAL
  5
44
102
{ACAD_REACTORS
330
43
102
}
330
43
100
AcDbMaterial
  1
ByLayer
 72
     1
 94
      127
  0
MATERIAL
  5
46
102
{ACAD_REACTORS
330
43
102
}
330
43
100
AcDbMaterial
  1
Global
 72
     1
 94
      127
  0
MLEADERSTYLE
  5
6C
102
{ACAD_REACTORS
330
6B
102
}
330
6B
100
AcDbMLeaderStyle
179
     2
170
     2
171
     1
172
     0
 90
        2
 40
0.0
 41
0.0
173
     1
 91
-1056964608
340
14
 92
       -2
290
     1
 42
0.09
291
     1
 43
0.36
  3
Standard
341
0
 44
0.18
300

342
11
174
     1
178
     6
175
     1
176
     0
 93
-1056964608
 45
0.18
292
     0
297
     0
 46
0.18
343
0
 94
-1056964608
 47
1.0
 49
1.0
140
1.0
293
     1
141
0.0
294
     1
177
     0
142
1.0
295
     0
296
     0
143
0.125
271
     0
272
     9
273
     9
298
     0
  0
MLINESTYLE
  5
18
102
{ACAD_REACTORS
330
17
102
}
330
17
100
AcDbMlineStyle
  2
Standard
 70
     0
  3

 62
   256
 51
90.0
 52
90.0
 71
     2
 49
0.5
 62
   256
  6
BYLAYER
 49
-0.5
 62
   256
  6
BYLAYER
  0
ACDBPLACEHOLDER
  5
F
102
{ACAD_REACTORS
330
E
102
}
330
E
  0
SCALE
  5
48
102
{ACAD_REACTORS
330
47
102
}
330
47
100
AcDbScale
 70
     0
300
1:1
140
1.0
141
1.0
290
     1
  0
SCALE
  5
49
102
{ACAD_REACTORS
330
47
102
}
330
47
100
AcDbScale
 70
     0
300
1:2
140
1.0
141
2.0
290
     0
  0
SCALE
  5
4A
102
{ACAD_REACTORS
330
47
102
}
330
47
100
AcDbScale
 70
     0
300
1:4
140
1.0
141
4.0
290
     0
  0
SCALE
  5
4B
102
{ACAD_REACTORS
330
47
102
}
330
47
100
AcDbScale
 70
     0
300
1:5
140
1.0
141
5.0
290
     0
  0
SCALE
  5
4C
102
{ACAD_REACTORS
330
47
102
}
330
47
100
AcDbScale
 70
     0
300
1:8
140
1.0
141
8.0
290
     0
  0
SCALE
  5
4D
102
{ACAD_REACTORS
330
47
102
}
330
47
100
AcDbScale
 70
     0
300
1:10
140
1.0
141
10.0
290
     0
  0
SCALE
  5
4E
102
{ACAD_REACTORS
330
47
102
}
330
47
100
AcDbScale
 70
     0
300
1:16
140
1.0
141
16.0
290
     0
  0
SCALE
  5
4F
102
{ACAD_REACTORS
330
47
102
}
330
47
100
AcDbScale
 70
     0
300
1:20
140
1.0
141
20.0
290
     0
  0
SCALE
  5
50
102
{ACAD_REACTORS
330
47
102
}
330
47
100
AcDbScale
 70
     0
300
1:30
140
1.0
141
30.0
290
     0
  0
SCALE
  5
51
102
{ACAD_REACTORS
330
47
102
}
330
47
100
AcDbScale
 70
     0
300
1:40
140
1.0
141
40.0
290
     0
  0
SCALE
  5
52
102
{ACAD_REACTORS
330
47
102
}
330
47
100
AcDbScale
 70
     0
300
1:50
140
1.0
141
50.0
290
     0
  0
SCALE
  5
53
102
{ACAD_REACTORS
330
47
102
}
330
47
100
AcDbScale
 70
     0
300
1:100
140
1.0
141
100.0
290
     0
  0
SCALE
  5
54
102
{ACAD_REACTORS
330
47
102
}
330
47
100
AcDbScale
 70
     0
300
2:1
140
2.0
141
1.0
290
     0
  0
SCALE
  5
55
102
{ACAD_REACTORS
330
47
102
}
330
47
100
AcDbScale
 70
     0
300
4:1
140
4.0
141
1.0
290
     0
  0
SCALE
  5
56
102
{ACAD_REACTORS
330
47
102
}
330
47
100
AcDbScale
 70
     0
300
8:1
140
8.0
141
1.0
290
     0
  0
SCALE
  5
57
102
{ACAD_REACTORS
330
47
102
}
330
47
100
AcDbScale
 70
     0
300
10:1
140
10.0
141
1.0
290
     0
  0
SCALE
  5
58
102
{ACAD_REACTORS
330
47
102
}
330
47
100
AcDbScale
 70
     0
300
100:1
140
100.0
141
1.0
290
     0
  0
SCALE
  5
59
102
{ACAD_REACTORS
330
47
102
}
330
47
100
AcDbScale
 70
     0
300
1/128" = 1'-0"
140
0.0078125
141
12.0
290
     0
  0
SCALE
  5
5A
102
{ACAD_REACTORS
330
47
102
}
330
47
100
AcDbScale
 70
     0
300
1/64" = 1'-0"
140
0.015625
141
12.0
290
     0
  0
SCALE
  5
5B
102
{ACAD_REACTORS
330
47
102
}
330
47
100
AcDbScale
 70
     0
300
1/32" = 1'-0"
140
0.03125
141
12.0
290
     0
  0
SCALE
  5
5C
102
{ACAD_REACTORS
330
47
102
}
330
47
100
AcDbScale
 70
     0
300
1/16" = 1'-0"
140
0.0625
141
12.0
290
     0
  0
SCALE
  5
5D
102
{ACAD_REACTORS
330
47
102
}
330
47
100
AcDbScale
 70
     0
300
3/32" = 1'-0"
140
0.09375
141
12.0
290
     0
  0
SCALE
  5
5E
102
{ACAD_REACTORS
330
47
102
}
330
47
100
AcDbScale
 70
     0
300
1/8" = 1'-0"
140
0.125
141
12.0
290
     0
  0
SCALE
  5
5F
102
{ACAD_REACTORS
330
47
102
}
330
47
100
AcDbScale
 70
     0
300
3/16" = 1'-0"
140
0.1875
141
12.0
290
     0
  0
SCALE
  5
60
102
{ACAD_REACTORS
330
47
102
}
330
47
100
AcDbScale
 70
     0
300
1/4" = 1'-0"
140
0.25
141
12.0
290
     0
  0
SCALE
  5
61
102
{ACAD_REACTORS
330
47
102
}
330
47
100
AcDbScale
 70
     0
300
3/8" = 1'-0"
140
0.375
141
12.0
290
     0
  0
SCALE
  5
62
102
{ACAD_REACTORS
330
47
102
}
330
47
100
AcDbScale
 70
     0
300
1/2" = 1'-0"
140
0.5
141
12.0
290
     0
  0
SCALE
  5
63
102
{ACAD_REACTORS
330
47
102
}
330
47
100
AcDbScale
 70
     0
300
3/4" = 1'-0"
140
0.75
141
12.0
290
     0
  0
SCALE
  5
64
102
{ACAD_REACTORS
330
47
102
}
330
47
100
AcDbScale
 70
     0
300
1" = 1'-0"
140
1.0
141
12.0
290
     0
  0
SCALE
  5
65
102
{ACAD_REACTORS
330
47
102
}
330
47
100
AcDbScale
 70
     0
300
1-1/2" = 1'-0"
140
1.5
141
12.0
290
     0
  0
SCALE
  5
66
102
{ACAD_REACTORS
330
47
102
}
330
47
100
AcDbScale
 70
     0
300
3" = 1'-0"
140
3.0
141
12.0
290
     0
  0
SCALE
  5
67
102
{ACAD_REACTORS
330
47
102
}
330
47
100
AcDbScale
 70
     0
300
6" = 1'-0"
140
6.0
141
12.0
290
     0
  0
SCALE
  5
68
102
{ACAD_REACTORS
330
47
102
}
330
47
100
AcDbScale
 70
     0
300
1'-0" = 1'-0"
140
12.0
141
12.0
290
     0
  0
TABLESTYLE
  5
6A
102
{ACAD_REACTORS
330
69
102
}
102
{ACAD_XDICTIONARY
360
1F7
102
}
330
69
100
AcDbTableStyle
  3
Standard
 70
     0
 71
     0
 40
0.06
 41
0.06
280
     0
281
     0
  7
Standard
140
0.18
170
     2
 62
     0
 63
   257
283
     0
 90
        4
 91
        0
  1

274
    -2
284
     1
 64
     0
275
    -2
285
     1
 65
     0
276
    -2
286
     1
 66
     0
277
    -2
287
     1
 67
     0
278
    -2
288
     1
 68
     0
279
    -2
289
     1
 69
     0
  7
Standard
140
0.25
170
     5
 62
     0
 63
   257
283
     0
 90
        4
 91
        0
  1

274
    -2
284
     1
 64
     0
275
    -2
285
     1
 65
     0
276
    -2
286
     1
 66
     0
277
    -2
287
     1
 67
     0
278
    -2
288
     1
 68
     0
279
    -2
289
     1
 69
     0
  7
Standard
140
0.18
170
     5
 62
     0
 63
   257
283
     0
 90
        4
 91
        0
  1

274
    -2
284
     1
 64
     0
275
    -2
285
     1
 65
     0
276
    -2
286
     1
 66
     0
277
    -2
287
     1
 67
     0
278
    -2
288
     1
 68
     0
279
    -2
289
     1
 69
     0
  0
VISUALSTYLE
  5
2F
102
{ACAD_REACTORS
330
2A
102
}
330
2A
100
AcDbVisualStyle
  2
2dWireframe
 70
     4
177
     3
291
     0
 70
    58
 90
        0
176
     1
 90
        2
176
     1
 90
        0
176
     1
 90
        0
176
     1
 40
0.6
176
     1
 40
30.0
176
     1
 62
     7
420
 16777215
176
     1
 90
        1
176
     1
 90
        4
176
     1
 62
     7
176
     1
 62
   257
176
     1
 90
        1
176
     1
 90
        1
176
     1
 40
1.0
176
     1
 90
        0
176
     1
 62
   257
176
     1
 40
1.0
176
     1
 90
        1
176
     1
 90
        6
176
     1
 90
        2
176
     1
 62
     7
176
     1
 90
        5
176
     1
 90
        0
176
     1
 90
        0
176
     1
290
     0
176
     1
 90
        1
176
     1
 40
0.0
176
     1
 90
        0
176
     1
290
     1
176
     1
290
     1
176
     1
290
     0
176
     1
290
     0
176
     1
290
     0
176
     1
290
     0
176
     1
290
     0
176
     1
290
     0
176
     1
290
     0
176
     1
 90
       50
176
     1
 40
0.0
176
     1
 40
1.0
176
     1
 90
        0
176
     1
 62
    18
420
        0
176
     1
 90
       50
176
     1
 90
        3
176
     1
 62
     5
420
      255
176
     1
290
     0
176
     1
 90
       50
176
     1
 90
       50
176
     1
 90
       50
176
     1
290
     0
176
     1
 90
       50
176
     1
 62
   256
176
     0
 40
1.0
176
     0
 90
        2
176
     1
  1
strokes_ogs.tif
176
     1
290
     0
176
     1
 40
1.0
176
     1
 40
1.0
176
     1
  0
VISUALSTYLE
  5
32
102
{ACAD_REACTORS
330
2A
102
}
330
2A
100
AcDbVisualStyle
  2
Basic
 70
     7
177
     3
291
     1
 70
    58
 90
        1
176
     1
 90
        0
176
     1
 90
        1
176
     1
 90
        0
176
     1
 40
0.6
176
     1
 40
30.0
176
     1
 62
     7
420
 16777215
176
     1
 90
        0
176
     1
 90
        4
176
     1
 62
     7
176
     1
 62
   257
176
     1
 90
        1
176
     1
 90
        1
176
     1
 40
1.0
176
     1
 90
        8
176
     1
 62
     7
176
     1
 40
1.0
176
     1
 90
        1
176
     1
 90
        6
176
     1
 90
        2
176
     1
 62
     7
176
     1
 90
        5
176
     1
 90
        0
176
     1
 90
        0
176
     1
290
     0
176
     1
 90
        1
176
     1
 40
0.0
176
     1
 90
        0
176
     1
290
     0
176
     1
290
     1
176
     1
290
     1
176
     1
290
     0
176
     1
290
     0
176
     1
290
     0
176
     1
290
     0
176
     1
290
     0
176
     1
290
     0
176
     1
 90
       50
176
     1
 40
0.0
176
     1
 40
1.0
176
     1
 90
        0
176
     1
 62
    18
420
        0
176
     1
 90
       50
176
     1
 90
        3
176
     1
 62
     5
420
      255
176
     1
290
     0
176
     1
 90
       50
176
     1
 90
       50
176
     1
 90
       50
176
     1
290
     0
176
     1
 90
       50
176
     1
 62
   256
176
     0
 40
1.0
176
     0
 90
        2
176
     1
  1
strokes_ogs.tif
176
     1
290
     0
176
     1
 40
1.0
176
     1
 40
1.0
176
     1
  0
VISUALSTYLE
  5
36
102
{ACAD_REACTORS
330
2A
102
}
330
2A
100
AcDbVisualStyle
  2
Brighten
 70
    12
177
     3
291
     1
 70
    58
 90
        2
176
     1
 90
        2
176
     1
 90
        0
176
     1
 90
        0
176
     1
 40
0.6
176
     1
 40
30.0
176
     1
 62
     7
420
 16777215
176
     1
 90
        1
176
     1
 90
        4
176
     1
 62
     7
176
     1
 62
   257
176
     1
 90
        1
176
     1
 90
        1
176
     1
 40
1.0
176
     1
 90
        8
176
     1
 62
     7
176
     1
 40
1.0
176
     1
 90
        1
176
     1
 90
        6
176
     1
 90
        2
176
     1
 62
     7
176
     1
 90
        5
176
     1
 90
        0
176
     1
 90
        0
176
     1
290
     0
176
     1
 90
        1
176
     1
 40
50.0
176
     1
 90
        0
176
     1
290
     0
176
     1
290
     1
176
     1
290
     1
176
     1
290
     0
176
     1
290
     0
176
     1
290
     0
176
     1
290
     0
176
     1
290
     0
176
     1
290
     0
176
     1
 90
       50
176
     1
 40
0.0
176
     1
 40
1.0
176
     1
 90
        0
176
     1
 62
    18
420
        0
176
     1
 90
       50
176
     1
 90
        3
176
     1
 62
     5
420
      255
176
     1
290
     0
176
     1
 90
       50
176
     1
 90
       50
176
     1
 90
       50
176
     1
290
     0
176
     1
 90
       50
176
     1
 62
   256
176
     0
 40
1.0
176
     0
 90
        2
176
     1
  1
strokes_ogs.tif
176
     1
290
     0
176
     1
 40
1.0
176
     1
 40
1.0
176
     1
  0
VISUALSTYLE
  5
3A
102
{ACAD_REACTORS
330
2A
102
}
330
2A
100
AcDbVisualStyle
  2
ColorChange
 70
    16
177
     3
291
     1
 70
    58
 90
        2
176
     1
 90
        2
176
     1
 90
        3
176
     1
 90
        0
176
     1
 40
0.6
176
     1
 40
30.0
176
     1
 62
     8
420
  8421504
176
     1
 90
        1
176
     1
 90
        4
176
     1
 62
     7
176
     1
 62
   257
176
     1
 90
        1
176
     1
 90
        1
176
     1
 40
1.0
176
     1
 90
        8
176
     1
 62
     8
420
  8421504
176
     1
 40
1.0
176
     1
 90
        1
176
     1
 90
        6
176
     1
 90
        2
176
     1
 62
     7
176
     1
 90
        5
176
     1
 90
        0
176
     1
 90
        0
176
     1
290
     0
176
     1
 90
        1
176
     1
 40
0.0
176
     1
 90
        0
176
     1
290
     0
176
     1
290
     1
176
     1
290
     1
176
     1
290
     0
176
     1
290
     0
176
     1
290
     0
176
     1
290
     0
176
     1
290
     0
176
     1
290
     0
176
     1
 90
       50
176
     1
 40
0.0
176
     1
 40
1.0
176
     1
 90
        0
176
     1
 62
    18
420
        0
176
     1
 90
       50
176
     1
 90
        3
176
     1
 62
     5
420
      255
176
     1
290
     0
176
     1
 90
       50
176
     1
 90
       50
176
     1
 90
       50
176
     1
290
     0
176
     1
 90
       50
176
     1
 62
   256
176
     0
 40
1.0
176
     0
 90
        2
176
     1
  1
strokes_ogs.tif
176
     1
290
     0
176
     1
 40
1.0
176
     1
 40
1.0
176
     1
  0
VISUALSTYLE
  5
34
102
{ACAD_REACTORS
330
2A
102
}
330
2A
100
AcDbVisualStyle
  2
Conceptual
 70
     9
177
     3
291
     0
 70
    58
 90
        3
176
     1
 90
        2
176
     1
 90
        0
176
     1
 90
        0
176
     1
 40
0.6
176
     1
 40
30.0
176
     1
 62
     7
420
 16777215
176
     1
 90
        2
176
     1
 90
        2
176
     1
 62
     7
176
     1
 62
   257
176
     1
 90
        1
176
     1
 90
        1
176
     1
 40
179.0
176
     1
 90
        8
176
     1
 62
     7
176
     1
 40
1.0
176
     1
 90
        1
176
     1
 90
        6
176
     1
 90
        2
176
     1
 62
     7
176
     1
 90
        3
176
     1
 90
        0
176
     1
 90
        0
176
     1
290
     0
176
     1
 90
        1
176
     1
 40
0.0
176
     1
 90
        0
176
     1
290
     0
176
     1
290
     1
176
     1
290
     1
176
     1
290
     0
176
     1
290
     0
176
     1
290
     0
176
     1
290
     0
176
     1
290
     0
176
     1
290
     0
176
     1
 90
       50
176
     1
 40
0.0
176
     1
 40
1.0
176
     1
 90
        0
176
     1
 62
    18
420
        0
176
     1
 90
       50
176
     1
 90
        3
176
     1
 62
     5
420
      255
176
     1
290
     0
176
     1
 90
       50
176
     1
 90
       50
176
     1
 90
       50
176
     1
290
     0
176
     1
 90
       50
176
     1
 62
   256
176
     0
 40
1.0
176
     0
 90
        2
176
     1
  1
strokes_ogs.tif
176
     1
290
     0
176
     1
 40
1.0
176
     1
 40
1.0
176
     1
  0
VISUALSTYLE
  5
35
102
{ACAD_REACTORS
330
2A
102
}
330
2A
100
AcDbVisualStyle
  2
Dim
 70
    11
177
     3
291
     1
 70
    58
 90
        2
176
     1
 90
        2
176
     1
 90
        0
176
     1
 90
        0
176
     1
 40
0.6
176
     1
 40
30.0
176
     1
 62
     7
420
 16777215
176
     1
 90
        1
176
     1
 90
        4
176
     1
 62
     7
176
     1
 62
   257
176
     1
 90
        1
176
     1
 90
        1
176
     1
 40
1.0
176
     1
 90
        8
176
     1
 62
     7
176
     1
 40
1.0
176
     1
 90
        1
176
     1
 90
        6
176
     1
 90
        2
176
     1
 62
     7
176
     1
 90
        5
176
     1
 90
        0
176
     1
 90
        0
176
     1
290
     0
176
     1
 90
        1
176
     1
 40
-50.0
176
     1
 90
        0
176
     1
290
     0
176
     1
290
     1
176
     1
290
     1
176
     1
290
     0
176
     1
290
     0
176
     1
290
     0
176
     1
290
     0
176
     1
290
     0
176
     1
290
     0
176
     1
 90
       50
176
     1
 40
0.0
176
     1
 40
1.0
176
     1
 90
        0
176
     1
 62
    18
420
        0
176
     1
 90
       50
176
     1
 90
        3
176
     1
 62
     5
420
      255
176
     1
290
     0
176
     1
 90
       50
176
     1
 90
       50
176
     1
 90
       50
176
     1
290
     0
176
     1
 90
       50
176
     1
 62
   256
176
     0
 40
1.0
176
     0
 90
        2
176
     1
  1
strokes_ogs.tif
176
     1
290
     0
176
     1
 40
1.0
176
     1
 40
1.0
176
     1
  0
VISUALSTYLE
  5
3D
102
{ACAD_REACTORS
330
2A
102
}
330
2A
100
AcDbVisualStyle
  2
EdgeColorOff
 70
    22
177
     3
291
     1
 70
    58
 90
        2
176
     0
 90
        2
176
     0
 90
        0
176
     0
 90
        0
176
     0
 40
0.6
176
     0
 40
30.0
176
     0
 62
     7
420
 16777215
176
     0
 90
        1
176
     0
 90
        4
176
     0
 62
     7
176
     0
 62
   257
176
     0
 90
        1
176
     0
 90
        1
176
     0
 40
1.0
176
     0
 90
        8
176
     2
 62
     7
176
     0
 40
1.0
176
     0
 90
        1
176
     0
 90
        6
176
     0
 90
        2
176
     0
 62
     7
176
     0
 90
        5
176
     0
 90
        0
176
     0
 90
        0
176
     0
290
     0
176
     0
 90
        1
176
     0
 40
0.0
176
     0
 90
        0
176
     0
290
     0
176
     0
290
     1
176
     0
290
     1
176
     0
290
     0
176
     0
290
     0
176
     0
290
     0
176
     0
290
     0
176
     0
290
     0
176
     0
290
     0
176
     0
 90
       50
176
     0
 40
0.0
176
     0
 40
1.0
176
     0
 90
        0
176
     0
 62
    18
420
        0
176
     0
 90
       50
176
     0
 90
        3
176
     0
 62
     5
420
      255
176
     0
290
     0
176
     0
 90
       50
176
     0
 90
       50
176
     0
 90
       50
176
     0
290
     0
176
     0
 90
       50
176
     0
 62
   256
176
     0
 40
1.0
176
     0
 90
        2
176
     0
  1
strokes_ogs.tif
176
     0
290
     0
176
     0
 40
1.0
176
     0
 40
1.0
176
     0
  0
VISUALSTYLE
  5
39
102
{ACAD_REACTORS
330
2A
102
}
330
2A
100
AcDbVisualStyle
  2
Facepattern
 70
    15
177
     3
291
     1
 70
    58
 90
        2
176
     1
 90
        2
176
     1
 90
        0
176
     1
 90
        0
176
     1
 40
0.6
176
     1
 40
30.0
176
     1
 62
     7
420
 16777215
176
     1
 90
        1
176
     1
 90
        4
176
     1
 62
     7
176
     1
 62
   257
176
     1
 90
        1
176
     1
 90
        1
176
     1
 40
1.0
176
     1
 90
        8
176
     1
 62
     7
176
     1
 40
1.0
176
     1
 90
        1
176
     1
 90
        6
176
     1
 90
        2
176
     1
 62
     7
176
     1
 90
        5
176
     1
 90
        0
176
     1
 90
        0
176
     1
290
     0
176
     1
 90
        1
176
     1
 40
0.0
176
     1
 90
        0
176
     1
290
     0
176
     1
290
     1
176
     1
290
     1
176
     1
290
     0
176
     1
290
     0
176
     1
290
     0
176
     1
290
     0
176
     1
290
     0
176
     1
290
     0
176
     1
 90
       50
176
     1
 40
0.0
176
     1
 40
1.0
176
     1
 90
        0
176
     1
 62
    18
420
        0
176
     1
 90
       50
176
     1
 90
        3
176
     1
 62
     5
420
      255
176
     1
290
     0
176
     1
 90
       50
176
     1
 90
       50
176
     1
 90
       50
176
     1
290
     0
176
     1
 90
       50
176
     1
 62
   256
176
     0
 40
1.0
176
     0
 90
        2
176
     1
  1
strokes_ogs.tif
176
     1
290
     0
176
     1
 40
1.0
176
     1
 40
1.0
176
     1
  0
VISUALSTYLE
  5
2B
102
{ACAD_REACTORS
330
2A
102
}
330
2A
100
AcDbVisualStyle
  2
Flat
 70
     0
177
     3
291
     1
 70
    58
 90
        2
176
     1
 90
        1
176
     1
 90
        1
176
     1
 90
        2
176
     1
 40
0.6
176
     1
 40
30.0
176
     1
 62
     7
420
 16777215
176
     1
 90
        0
176
     1
 90
        0
176
     1
 62
     7
176
     1
 62
   257
176
     1
 90
        1
176
     1
 90
        1
176
     1
 40
1.0
176
     1
 90
        8
176
     1
 62
     7
176
     1
 40
1.0
176
     1
 90
        1
176
     1
 90
        6
176
     1
 90
        2
176
     1
 62
     7
176
     1
 90
        5
176
     1
 90
        0
176
     1
 90
        0
176
     1
290
     0
176
     1
 90
       13
176
     1
 40
0.0
176
     1
 90
        0
176
     1
290
     0
176
     1
290
     1
176
     1
290
     1
176
     1
290
     0
176
     1
290
     0
176
     1
290
     0
176
     1
290
     0
176
     1
290
     0
176
     1
290
     0
176
     1
 90
       50
176
     1
 40
0.0
176
     1
 40
1.0
176
     1
 90
        0
176
     1
 62
    18
420
        0
176
     1
 90
       50
176
     1
 90
        3
176
     1
 62
     5
420
      255
176
     1
290
     0
176
     1
 90
       50
176
     1
 90
       50
176
     1
 90
       50
176
     1
290
     0
176
     1
 90
       50
176
     1
 62
   256
176
     0
 40
1.0
176
     0
 90
        2
176
     1
  1
strokes_ogs.tif
176
     1
290
     0
176
     1
 40
1.0
176
     1
 40
1.0
176
     1
  0
VISUALSTYLE
  5
2C
102
{ACAD_REACTORS
330
2A
102
}
330
2A
100
AcDbVisualStyle
  2
FlatWithEdges
 70
     1
177
     3
291
     1
 70
    58
 90
        2
176
     1
 90
        1
176
     1
 90
        1
176
     1
 90
        2
176
     1
 40
0.6
176
     1
 40
30.0
176
     1
 62
     7
420
 16777215
176
     1
 90
        1
176
     1
 90
        0
176
     1
 62
     7
176
     1
 62
   257
176
     1
 90
        1
176
     1
 90
        1
176
     1
 40
1.0
176
     1
 90
        0
176
     1
 62
   257
176
     1
 40
1.0
176
     1
 90
        1
176
     1
 90
        6
176
     1
 90
        2
176
     1
 62
     7
176
     1
 90
        5
176
     1
 90
        0
176
     1
 90
        0
176
     1
290
     0
176
     1
 90
       13
176
     1
 40
0.0
176
     1
 90
        0
176
     1
290
     0
176
     1
290
     1
176
     1
290
     1
176
     1
290
     0
176
     1
290
     0
176
     1
290
     0
176
     1
290
     0
176
     1
290
     0
176
     1
290
     0
176
     1
 90
       50
176
     1
 40
0.0
176
     1
 40
1.0
176
     1
 90
        0
176
     1
 62
    18
420
        0
176
     1
 90
       50
176
     1
 90
        3
176
     1
 62
     5
420
      255
176
     1
290
     0
176
     1
 90
       50
176
     1
 90
       50
176
     1
 90
       50
176
     1
290
     0
176
     1
 90
       50
176
     1
 62
   256
176
     0
 40
1.0
176
     0
 90
        2
176
     1
  1
strokes_ogs.tif
176
     1
290
     0
176
     1
 40
1.0
176
     1
 40
1.0
176
     1
  0
VISUALSTYLE
  5
2D
102
{ACAD_REACTORS
330
2A
102
}
330
2A
100
AcDbVisualStyle
  2
Gouraud
 70
     2
177
     3
291
     1
 70
    58
 90
        2
176
     1
 90
        2
176
     1
 90
        1
176
     1
 90
        2
176
     1
 40
0.6
176
     1
 40
30.0
176
     1
 62
     7
420
 16777215
176
     1
 90
        0
176
     1
 90
        0
176
     1
 62
     7
176
     1
 62
   257
176
     1
 90
        1
176
     1
 90
        1
176
     1
 40
1.0
176
     1
 90
        0
176
     1
 62
     7
176
     1
 40
1.0
176
     1
 90
        1
176
     1
 90
        6
176
     1
 90
        2
176
     1
 62
     7
176
     1
 90
        5
176
     1
 90
        0
176
     1
 90
        0
176
     1
290
     0
176
     1
 90
       13
176
     1
 40
0.0
176
     1
 90
        0
176
     1
290
     0
176
     1
290
     1
176
     1
290
     1
176
     1
290
     0
176
     1
290
     0
176
     1
290
     0
176
     1
290
     0
176
     1
290
     0
176
     1
290
     0
176
     1
 90
       50
176
     1
 40
0.0
176
     1
 40
1.0
176
     1
 90
        0
176
     1
 62
    18
420
        0
176
     1
 90
       50
176
     1
 90
        3
176
     1
 62
     5
420
      255
176
     1
290
     0
176
     1
 90
       50
176
     1
 90
       50
176
     1
 90
       50
176
     1
290
     0
176
     1
 90
       50
176
     1
 62
   256
176
     0
 40
1.0
176
     0
 90
        2
176
     1
  1
strokes_ogs.tif
176
     1
290
     0
176
     1
 40
1.0
176
     1
 40
1.0
176
     1
  0
VISUALSTYLE
  5
2E
102
{ACAD_REACTORS
330
2A
102
}
330
2A
100
AcDbVisualStyle
  2
GouraudWithEdges
 70
     3
177
     3
291
     1
 70
    58
 90
        2
176
     1
 90
        2
176
     1
 90
        1
176
     1
 90
        2
176
     1
 40
0.6
176
     1
 40
30.0
176
     1
 62
     7
420
 16777215
176
     1
 90
        1
176
     1
 90
        0
176
     1
 62
     7
176
     1
 62
   257
176
     1
 90
        1
176
     1
 90
        1
176
     1
 40
1.0
176
     1
 90
        0
176
     1
 62
   257
176
     1
 40
1.0
176
     1
 90
        1
176
     1
 90
        6
176
     1
 90
        2
176
     1
 62
     7
176
     1
 90
        5
176
     1
 90
        0
176
     1
 90
        0
176
     1
290
     0
176
     1
 90
       13
176
     1
 40
0.0
176
     1
 90
        0
176
     1
290
     0
176
     1
290
     1
176
     1
290
     1
176
     1
290
     0
176
     1
290
     0
176
     1
290
     0
176
     1
290
     0
176
     1
290
     0
176
     1
290
     0
176
     1
 90
       50
176
     1
 40
0.0
176
     1
 40
1.0
176
     1
 90
        0
176
     1
 62
    18
420
        0
176
     1
 90
       50
176
     1
 90
        3
176
     1
 62
     5
420
      255
176
     1
290
     0
176
     1
 90
       50
176
     1
 90
       50
176
     1
 90
       50
176
     1
290
     0
176
     1
 90
       50
176
     1
 62
   256
176
     0
 40
1.0
176
     0
 90
        2
176
     1
  1
strokes_ogs.tif
176
     1
290
     0
176
     1
 40
1.0
176
     1
 40
1.0
176
     1
  0
VISUALSTYLE
  5
31
102
{ACAD_REACTORS
330
2A
102
}
330
2A
100
AcDbVisualStyle
  2
Hidden
 70
     6
177
     3
291
     0
 70
    58
 90
        1
176
     1
 90
        2
176
     1
 90
        2
176
     1
 90
        0
176
     1
 40
0.6
176
     1
 40
30.0
176
     1
 62
     7
420
 16777215
176
     1
 90
        2
176
     1
 90
        2
176
     1
 62
     7
176
     1
 62
   257
176
     1
 90
        2
176
     1
 90
        1
176
     1
 40
40.0
176
     1
 90
        0
176
     1
 62
   257
176
     1
 40
1.0
176
     1
 90
        1
176
     1
 90
        6
176
     1
 90
        2
176
     1
 62
     7
176
     1
 90
        3
176
     1
 90
        0
176
     1
 90
        0
176
     1
290
     0
176
     1
 90
        1
176
     1
 40
0.0
176
     1
 90
        0
176
     1
290
     0
176
     1
290
     1
176
     1
290
     1
176
     1
290
     0
176
     1
290
     0
176
     1
290
     0
176
     1
290
     0
176
     1
290
     0
176
     1
290
     0
176
     1
 90
       50
176
     1
 40
0.0
176
     1
 40
1.0
176
     1
 90
        0
176
     1
 62
    18
420
        0
176
     1
 90
       50
176
     1
 90
        3
176
     1
 62
     5
420
      255
176
     1
290
     0
176
     1
 90
       50
176
     1
 90
       50
176
     1
 90
       50
176
     1
290
     0
176
     1
 90
       50
176
     1
 62
   256
176
     0
 40
1.0
176
     0
 90
        2
176
     1
  1
strokes_ogs.tif
176
     1
290
     0
176
     1
 40
1.0
176
     1
 40
1.0
176
     1
  0
VISUALSTYLE
  5
3B
102
{ACAD_REACTORS
330
2A
102
}
330
2A
100
AcDbVisualStyle
  2
JitterOff
 70
    20
177
     3
291
     1
 70
    58
 90
        2
176
     0
 90
        2
176
     0
 90
        0
176
     0
 90
        0
176
     0
 40
0.6
176
     0
 40
30.0
176
     0
 62
     7
420
 16777215
176
     0
 90
        1
176
     0
 90
        4
176
     0
 62
     7
176
     0
 62
   257
176
     0
 90
        1
176
     0
 90
        1
176
     0
 40
1.0
176
     0
 90
       10
176
     2
 62
     7
176
     0
 40
1.0
176
     0
 90
        1
176
     0
 90
        6
176
     0
 90
        2
176
     0
 62
     7
176
     0
 90
        5
176
     0
 90
        0
176
     0
 90
        0
176
     0
290
     0
176
     0
 90
        1
176
     0
 40
0.0
176
     0
 90
        0
176
     0
290
     0
176
     0
290
     1
176
     0
290
     1
176
     0
290
     0
176
     0
290
     0
176
     0
290
     0
176
     0
290
     0
176
     0
290
     0
176
     0
290
     0
176
     0
 90
       50
176
     0
 40
0.0
176
     0
 40
1.0
176
     0
 90
        0
176
     0
 62
    18
420
        0
176
     0
 90
       50
176
     0
 90
        3
176
     0
 62
     5
420
      255
176
     0
290
     0
176
     0
 90
       50
176
     0
 90
       50
176
     0
 90
       50
176
     0
290
     0
176
     0
 90
       50
176
     0
 62
   256
176
     0
 40
1.0
176
     0
 90
        2
176
     0
  1
strokes_ogs.tif
176
     0
290
     0
176
     0
 40
1.0
176
     0
 40
1.0
176
     0
  0
VISUALSTYLE
  5
38
102
{ACAD_REACTORS
330
2A
102
}
330
2A
100
AcDbVisualStyle
  2
Linepattern
 70
    14
177
     3
291
     1
 70
    58
 90
        2
176
     1
 90
        2
176
     1
 90
        0
176
     1
 90
        0
176
     1
 40
0.6
176
     1
 40
30.0
176
     1
 62
     7
420
 16777215
176
     1
 90
        1
176
     1
 90
        4
176
     1
 62
     7
176
     1
 62
   257
176
     1
 90
        7
176
     1
 90
        7
176
     1
 40
1.0
176
     1
 90
        8
176
     1
 62
     7
176
     1
 40
1.0
176
     1
 90
        1
176
     1
 90
        6
176
     1
 90
        2
176
     1
 62
     7
176
     1
 90
        5
176
     1
 90
        0
176
     1
 90
        0
176
     1
290
     0
176
     1
 90
        1
176
     1
 40
0.0
176
     1
 90
        0
176
     1
290
     0
176
     1
290
     1
176
     1
290
     1
176
     1
290
     0
176
     1
290
     0
176
     1
290
     0
176
     1
290
     0
176
     1
290
     0
176
     1
290
     0
176
     1
 90
       50
176
     1
 40
0.0
176
     1
 40
1.0
176
     1
 90
        0
176
     1
 62
    18
420
        0
176
     1
 90
       50
176
     1
 90
        3
176
     1
 62
     5
420
      255
176
     1
290
     0
176
     1
 90
       50
176
     1
 90
       50
176
     1
 90
       50
176
     1
290
     0
176
     1
 90
       50
176
     1
 62
   256
176
     0
 40
1.0
176
     0
 90
        2
176
     1
  1
strokes_ogs.tif
176
     1
290
     0
176
     1
 40
1.0
176
     1
 40
1.0
176
     1
  0
VISUALSTYLE
  5
3C
102
{ACAD_REACTORS
330
2A
102
}
330
2A
100
AcDbVisualStyle
  2
OverhangOff
 70
    21
177
     3
291
     1
 70
    58
 90
        2
176
     0
 90
        2
176
     0
 90
        0
176
     0
 90
        0
176
     0
 40
0.6
176
     0
 40
30.0
176
     0
 62
     7
420
 16777215
176
     0
 90
        1
176
     0
 90
        4
176
     0
 62
     7
176
     0
 62
   257
176
     0
 90
        1
176
     0
 90
        1
176
     0
 40
1.0
176
     0
 90
        9
176
     2
 62
     7
176
     0
 40
1.0
176
     0
 90
        1
176
     0
 90
        6
176
     0
 90
        2
176
     0
 62
     7
176
     0
 90
        5
176
     0
 90
        0
176
     0
 90
        0
176
     0
290
     0
176
     0
 90
        1
176
     0
 40
0.0
176
     0
 90
        0
176
     0
290
     0
176
     0
290
     1
176
     0
290
     1
176
     0
290
     0
176
     0
290
     0
176
     0
290
     0
176
     0
290
     0
176
     0
290
     0
176
     0
290
     0
176
     0
 90
       50
176
     0
 40
0.0
176
     0
 40
1.0
176
     0
 90
        0
176
     0
 62
    18
420
        0
176
     0
 90
       50
176
     0
 90
        3
176
     0
 62
     5
420
      255
176
     0
290
     0
176
     0
 90
       50
176
     0
 90
       50
176
     0
 90
       50
176
     0
290
     0
176
     0
 90
       50
176
     0
 62
   256
176
     0
 40
1.0
176
     0
 90
        2
176
     0
  1
strokes_ogs.tif
176
     0
290
     0
176
     0
 40
1.0
176
     0
 40
1.0
176
     0
  0
VISUALSTYLE
  5
33
102
{ACAD_REACTORS
330
2A
102
}
330
2A
100
AcDbVisualStyle
  2
Realistic
 70
     8
177
     3
291
     0
 70
    58
 90
        2
176
     1
 90
        3
176
     1
 90
        0
176
     1
 90
        2
176
     1
 40
0.6
176
     1
 40
30.0
176
     1
 62
     7
420
 16777215
176
     1
 90
        0
176
     1
 90
        0
176
     1
 62
     7
176
     1
 62
   257
176
     1
 90
        1
176
     1
 90
        1
176
     1
 40
1.0
176
     1
 90
        8
176
     1
 62
   257
176
     1
 40
1.0
176
     1
 90
        1
176
     1
 90
        6
176
     1
 90
        2
176
     1
 62
     7
176
     1
 90
        3
176
     1
 90
        0
176
     1
 90
        0
176
     1
290
     0
176
     1
 90
       13
176
     1
 40
0.0
176
     1
 90
        0
176
     1
290
     0
176
     1
290
     1
176
     1
290
     1
176
     1
290
     0
176
     1
290
     0
176
     1
290
     0
176
     1
290
     0
176
     1
290
     0
176
     1
290
     0
176
     1
 90
       50
176
     1
 40
0.0
176
     1
 40
1.0
176
     1
 90
        0
176
     1
 62
    18
420
        0
176
     1
 90
       50
176
     1
 90
        3
176
     1
 62
     5
420
      255
176
     1
290
     0
176
     1
 90
       50
176
     1
 90
       50
176
     1
 90
       50
176
     1
290
     0
176
     1
 90
       50
176
     1
 62
   256
176
     0
 40
1.0
176
     0
 90
        2
176
     1
  1
strokes_ogs.tif
176
     1
290
     0
176
     1
 40
1.0
176
     1
 40
1.0
176
     1
  0
VISUALSTYLE
  5
42
102
{ACAD_REACTORS
330
2A
102
}
330
2A
100
AcDbVisualStyle
  2
Shaded
 70
    27
177
     3
291
     0
 70
    58
 90
        2
176
     1
 90
        2
176
     1
 90
        1
176
     1
 90
        2
176
     1
 40
0.6
176
     1
 40
30.0
176
     1
 62
     7
420
 16777215
176
     1
 90
        0
176
     1
 90
        4
176
     1
 62
     7
176
     1
 62
   257
176
     1
 90
        1
176
     1
 90
        1
176
     1
 40
1.0
176
     1
 90
        8
176
     1
 62
   257
176
     1
 40
1.0
176
     1
 90
        1
176
     1
 90
        6
176
     1
 90
        2
176
     1
 62
     8
420
  7895160
176
     1
 90
        3
176
     1
 90
        0
176
     1
 90
        0
176
     1
290
     0
176
     1
 90
        5
176
     1
 40
0.0
176
     1
 90
        0
176
     1
290
     0
176
     1
290
     1
176
     1
290
     1
176
     1
290
     0
176
     1
290
     0
176
     1
290
     0
176
     1
290
     0
176
     1
290
     0
176
     1
290
     0
176
     1
 90
       50
176
     1
 40
0.0
176
     1
 40
1.0
176
     1
 90
        0
176
     1
 62
    18
420
        0
176
     1
 90
       50
176
     1
 90
        3
176
     1
 62
     5
420
      255
176
     1
290
     0
176
     1
 90
       50
176
     1
 90
       50
176
     1
 90
       50
176
     1
290
     0
176
     1
 90
       50
176
     1
 62
   256
176
     0
 40
1.0
176
     0
 90
        2
176
     1
  1
strokes_ogs.tif
176
     1
290
     0
176
     1
 40
1.0
176
     1
 40
1.0
176
     1
  0
VISUALSTYLE
  5
41
102
{ACAD_REACTORS
330
2A
102
}
330
2A
100
AcDbVisualStyle
  2
Shaded with edges
 70
    26
177
     3
291
     0
 70
    58
 90
        2
176
     1
 90
        2
176
     1
 90
        1
176
     1
 90
        2
176
     1
 40
0.6
176
     1
 40
30.0
176
     1
 62
     7
420
 16777215
176
     1
 90
        1
176
     1
 90
       10
176
     1
 62
     7
176
     1
 62
   257
176
     1
 90
        2
176
     1
 90
        1
176
     1
 40
1.0
176
     1
 90
        8
176
     1
 62
   257
176
     1
 40
1.0
176
     1
 90
        1
176
     1
 90
        6
176
     1
 90
        2
176
     1
 62
     7
176
     1
 90
        3
176
     1
 90
        0
176
     1
 90
        0
176
     1
290
     0
176
     1
 90
        5
176
     1
 40
0.0
176
     1
 90
        0
176
     1
290
     0
176
     1
290
     1
176
     1
290
     1
176
     1
290
     0
176
     1
290
     0
176
     1
290
     0
176
     1
290
     0
176
     1
290
     0
176
     1
290
     0
176
     1
 90
       50
176
     1
 40
0.0
176
     1
 40
1.0
176
     1
 90
        0
176
     1
 62
    18
420
        0
176
     1
 90
       50
176
     1
 90
        3
176
     1
 62
     5
420
      255
176
     1
290
     0
176
     1
 90
       50
176
     1
 90
       50
176
     1
 90
       50
176
     1
290
     0
176
     1
 90
       50
176
     1
 62
   256
176
     0
 40
1.0
176
     0
 90
        2
176
     1
  1
strokes_ogs.tif
176
     1
290
     0
176
     1
 40
1.0
176
     1
 40
1.0
176
     1
  0
VISUALSTYLE
  5
3E
102
{ACAD_REACTORS
330
2A
102
}
330
2A
100
AcDbVisualStyle
  2
Shades of Gray
 70
    23
177
     3
291
     0
 70
    58
 90
        2
176
     1
 90
        2
176
     1
 90
        3
176
     1
 90
        0
176
     1
 40
0.6
176
     1
 40
30.0
176
     1
 62
     7
420
 16777215
176
     1
 90
        2
176
     1
 90
        2
176
     1
 62
     7
176
     1
 62
     7
176
     1
 90
        1
176
     1
 90
        1
176
     1
 40
40.0
176
     1
 90
        8
176
     1
 62
     7
176
     1
 40
1.0
176
     1
 90
        1
176
     1
 90
        6
176
     1
 90
        2
176
     1
 62
     7
176
     1
 90
        3
176
     1
 90
        0
176
     1
 90
        0
176
     1
290
     0
176
     1
 90
        1
176
     1
 40
0.0
176
     1
 90
        0
176
     1
290
     0
176
     1
290
     1
176
     1
290
     1
176
     1
290
     0
176
     1
290
     0
176
     1
290
     0
176
     1
290
     0
176
     1
290
     0
176
     1
290
     0
176
     1
 90
       50
176
     1
 40
0.0
176
     1
 40
1.0
176
     1
 90
        0
176
     1
 62
    18
420
        0
176
     1
 90
       50
176
     1
 90
        3
176
     1
 62
     5
420
      255
176
     1
290
     0
176
     1
 90
       50
176
     1
 90
       50
176
     1
 90
       50
176
     1
290
     0
176
     1
 90
       50
176
     1
 62
   256
176
     0
 40
1.0
176
     0
 90
        2
176
     1
  1
strokes_ogs.tif
176
     1
290
     0
176
     1
 40
1.0
176
     1
 40
1.0
176
     1
  0
VISUALSTYLE
  5
3F
102
{ACAD_REACTORS
330
2A
102
}
330
2A
100
AcDbVisualStyle
  2
Sketchy
 70
    24
177
     3
291
     0
 70
    58
 90
        1
176
     1
 90
        2
176
     1
 90
        2
176
     1
 90
        0
176
     1
 40
0.6
176
     1
 40
30.0
176
     1
 62
     7
420
 16777215
176
     1
 90
        2
176
     1
 90
        2
176
     1
 62
     7
176
     1
 62
     7
176
     1
 90
        1
176
     1
 90
        1
176
     1
 40
40.0
176
     1
 90
       11
176
     1
 62
     7
176
     1
 40
1.0
176
     1
 90
        1
176
     1
 90
        6
176
     1
 90
        2
176
     1
 62
     7
176
     1
 90
        6
176
     1
 90
        0
176
     1
 90
        0
176
     1
290
     0
176
     1
 90
        1
176
     1
 40
0.0
176
     1
 90
        0
176
     1
290
     0
176
     1
290
     1
176
     1
290
     1
176
     1
290
     0
176
     1
290
     0
176
     1
290
     0
176
     1
290
     0
176
     1
290
     0
176
     1
290
     0
176
     1
 90
       50
176
     1
 40
0.0
176
     1
 40
1.0
176
     1
 90
        0
176
     1
 62
    18
420
        0
176
     1
 90
       50
176
     1
 90
        3
176
     1
 62
     5
420
      255
176
     1
290
     0
176
     1
 90
       50
176
     1
 90
       50
176
     1
 90
       50
176
     1
290
     0
176
     1
 90
       50
176
     1
 62
   256
176
     0
 40
1.0
176
     0
 90
        2
176
     1
  1
strokes_ogs.tif
176
     1
290
     0
176
     1
 40
1.0
176
     1
 40
1.0
176
     1
  0
VISUALSTYLE
  5
37
102
{ACAD_REACTORS
330
2A
102
}
330
2A
100
AcDbVisualStyle
  2
Thicken
 70
    13
177
     3
291
     1
 70
    58
 90
        2
176
     1
 90
        2
176
     1
 90
        0
176
     1
 90
        0
176
     1
 40
0.6
176
     1
 40
30.0
176
     1
 62
     7
420
 16777215
176
     1
 90
        1
176
     1
 90
        4
176
     1
 62
     7
176
     1
 62
   257
176
     1
 90
        1
176
     1
 90
        1
176
     1
 40
1.0
176
     1
 90
       12
176
     1
 62
     7
176
     1
 40
1.0
176
     1
 90
        1
176
     1
 90
        6
176
     1
 90
        2
176
     1
 62
     7
176
     1
 90
        5
176
     1
 90
        0
176
     1
 90
        0
176
     1
290
     0
176
     1
 90
        1
176
     1
 40
0.0
176
     1
 90
        0
176
     1
290
     0
176
     1
290
     1
176
     1
290
     1
176
     1
290
     0
176
     1
290
     0
176
     1
290
     0
176
     1
290
     0
176
     1
290
     0
176
     1
290
     0
176
     1
 90
       50
176
     1
 40
0.0
176
     1
 40
1.0
176
     1
 90
        0
176
     1
 62
    18
420
        0
176
     1
 90
       50
176
     1
 90
        3
176
     1
 62
     5
420
      255
176
     1
290
     0
176
     1
 90
       50
176
     1
 90
       50
176
     1
 90
       50
176
     1
290
     0
176
     1
 90
       50
176
     1
 62
   256
176
     0
 40
1.0
176
     0
 90
        2
176
     1
  1
strokes_ogs.tif
176
     1
290
     0
176
     1
 40
1.0
176
     1
 40
1.0
176
     1
  0
VISUALSTYLE
  5
30
102
{ACAD_REACTORS
330
2A
102
}
330
2A
100
AcDbVisualStyle
  2
Wireframe
 70
     5
177
     3
291
     0
 70
    58
 90
        0
176
     1
 90
        2
176
     1
 90
        0
176
     1
 90
        0
176
     1
 40
0.6
176
     1
 40
30.0
176
     1
 62
     7
420
 16777215
176
     1
 90
        1
176
     1
 90
        4
176
     1
 62
     7
176
     1
 62
   257
176
     1
 90
        1
176
     1
 90
        1
176
     1
 40
1.0
176
     1
 90
        0
176
     1
 62
   257
176
     1
 40
1.0
176
     1
 90
        1
176
     1
 90
        6
176
     1
 90
        2
176
     1
 62
     7
176
     1
 90
        3
176
     1
 90
        0
176
     1
 90
        0
176
     1
290
     0
176
     1
 90
        1
176
     1
 40
0.0
176
     1
 90
        0
176
     1
290
     0
176
     1
290
     1
176
     1
290
     1
176
     1
290
     0
176
     1
290
     0
176
     1
290
     0
176
     1
290
     0
176
     1
290
     0
176
     1
290
     0
176
     1
 90
       50
176
     1
 40
0.0
176
     1
 40
1.0
176
     1
 90
        0
176
     1
 62
    18
420
        0
176
     1
 90
       50
176
     1
 90
        3
176
     1
 62
     5
420
      255
176
     1
290
     0
176
     1
 90
       50
176
     1
 90
       50
176
     1
 90
       50
176
     1
290
     0
176
     1
 90
       50
176
     1
 62
   256
176
     0
 40
1.0
176
     0
 90
        2
176
     1
  1
strokes_ogs.tif
176
     1
290
     0
176
     1
 40
1.0
176
     1
 40
1.0
176
     1
  0
VISUALSTYLE
  5
40
102
{ACAD_REACTORS
330
2A
102
}
330
2A
100
AcDbVisualStyle
  2
X-Ray
 70
    25
177
     3
291
     0
 70
    58
 90
        2
176
     1
 90
        2
176
     1
 90
        1
176
     1
 90
        1
176
     1
 40
0.5
176
     1
 40
30.0
176
     1
 62
     7
420
 16777215
176
     1
 90
        1
176
     1
 90
        0
176
     1
 62
     7
176
     1
 62
   257
176
     1
 90
        1
176
     1
 90
        1
176
     1
 40
1.0
176
     1
 90
        8
176
     1
 62
     7
176
     1
 40
1.0
176
     1
 90
        1
176
     1
 90
        6
176
     1
 90
        2
176
     1
 62
     7
176
     1
 90
        3
176
     1
 90
        0
176
     1
 90
        0
176
     1
290
     0
176
     1
 90
       13
176
     1
 40
0.0
176
     1
 90
        0
176
     1
290
     0
176
     1
290
     1
176
     1
290
     1
176
     1
290
     0
176
     1
290
     0
176
     1
290
     0
176
     1
290
     0
176
     1
290
     0
176
     1
290
     0
176
     1
 90
       50
176
     1
 40
0.0
176
     1
 40
1.0
176
     1
 90
        0
176
     1
 62
    18
420
        0
176
     1
 90
       50
176
     1
 90
        3
176
     1
 62
     5
420
      255
176
     1
290
     0
176
     1
 90
       50
176
     1
 90
       50
176
     1
 90
       50
176
     1
290
     0
176
     1
 90
       50
176
     1
 62
   256
176
     0
 40
1.0
176
     0
 90
        2
176
     1
  1
strokes_ogs.tif
176
     1
290
     0
176
     1
 40
1.0
176
     1
 40
1.0
176
     1
  0
DICTIONARYVAR
  5
1F6
102
{ACAD_REACTORS
330
1F5
102
}
330
1F5
100
DictionaryVariables
280
     0
  1
1:1
  0
DICTIONARYVAR
  5
1FB
102
{ACAD_REACTORS
330
1F5
102
}
330
1F5
100
DictionaryVariables
280
     0
  1
Standard
  0
DICTIONARYVAR
  5
1FA
102
{ACAD_REACTORS
330
1F5
102
}
330
1F5
100
DictionaryVariables
280
     0
  1
Standard
  0
DICTIONARY
  5
1F7
330
6A
100
AcDbDictionary
280
     1
281
     1
  3
ACAD_ROUNDTRIP_2008_TABLESTYLE_CELLSTYLEMAP
360
1F8
  0
CELLSTYLEMAP
  5
1F8
102
{ACAD_REACTORS
330
1F7
102
}
330
1F7
100
AcDbCellStyleMap
 90
        3
300
CELLSTYLE
  1
TABLEFORMAT_BEGIN
 90
        5
170
     1
 91
        0
 92
    32768
 62
   257
 93
        1
300
CONTENTFORMAT
  1
CONTENTFORMAT_BEGIN
 90
        0
 91
        0
 92
        4
 93
        0
300

 40
0.0
140
1.0
 94
        5
 62
     0
340
11
144
0.25
309
CONTENTFORMAT_END
171
     1
301
MARGIN
  1
CELLMARGIN_BEGIN
 40
0.06
 40
0.06
 40
0.06
 40
0.06
 40
0.06
 40
0.06
309
CELLMARGIN_END
 94
        6
 95
        1
302
GRIDFORMAT
  1
GRIDFORMAT_BEGIN
 90
        0
 91
        1
 62
     0
 92
       -2
340
14
 93
        0
 40
0.045
309
GRIDFORMAT_END
 95
        2
302
GRIDFORMAT
  1
GRIDFORMAT_BEGIN
 90
        0
 91
        1
 62
     0
 92
       -2
340
14
 93
        0
 40
0.045
309
GRIDFORMAT_END
 95
        4
302
GRIDFORMAT
  1
GRIDFORMAT_BEGIN
 90
        0
 91
        1
 62
     0
 92
       -2
340
14
 93
        0
 40
0.045
309
GRIDFORMAT_END
 95
        8
302
GRIDFORMAT
  1
GRIDFORMAT_BEGIN
 90
        0
 91
        1
 62
     0
 92
       -2
340
14
 93
        0
 40
0.045
309
GRIDFORMAT_END
 95
       16
302
GRIDFORMAT
  1
GRIDFORMAT_BEGIN
 90
        0
 91
        1
 62
     0
 92
       -2
340
14
 93
        0
 40
0.045
309
GRIDFORMAT_END
 95
       32
302
GRIDFORMAT
  1
GRIDFORMAT_BEGIN
 90
        0
 91
        1
 62
     0
 92
       -2
340
14
 93
        0
 40
0.045
309
GRIDFORMAT_END
309
TABLEFORMAT_END
  1
CELLSTYLE_BEGIN
 90
        1
 91
        1
300
_TITLE
309
CELLSTYLE_END
300
CELLSTYLE
  1
TABLEFORMAT_BEGIN
 90
        5
170
     1
 91
        0
 92
        0
 62
   257
 93
        1
300
CONTENTFORMAT
  1
CONTENTFORMAT_BEGIN
 90
        0
 91
        0
 92
        4
 93
        0
300

 40
0.0
140
1.0
 94
        5
 62
     0
340
11
144
0.18
309
CONTENTFORMAT_END
171
     1
301
MARGIN
  1
CELLMARGIN_BEGIN
 40
0.06
 40
0.06
 40
0.06
 40
0.06
 40
0.06
 40
0.06
309
CELLMARGIN_END
 94
        6
 95
        1
302
GRIDFORMAT
  1
GRIDFORMAT_BEGIN
 90
        0
 91
        1
 62
     0
 92
       -2
340
14
 93
        0
 40
0.045
309
GRIDFORMAT_END
 95
        2
302
GRIDFORMAT
  1
GRIDFORMAT_BEGIN
 90
        0
 91
        1
 62
     0
 92
       -2
340
14
 93
        0
 40
0.045
309
GRIDFORMAT_END
 95
        4
302
GRIDFORMAT
  1
GRIDFORMAT_BEGIN
 90
        0
 91
        1
 62
     0
 92
       -2
340
14
 93
        0
 40
0.045
309
GRIDFORMAT_END
 95
        8
302
GRIDFORMAT
  1
GRIDFORMAT_BEGIN
 90
        0
 91
        1
 62
     0
 92
       -2
340
14
 93
        0
 40
0.045
309
GRIDFORMAT_END
 95
       16
302
GRIDFORMAT
  1
GRIDFORMAT_BEGIN
 90
        0
 91
        1
 62
     0
 92
       -2
340
14
 93
        0
 40
0.045
309
GRIDFORMAT_END
 95
       32
302
GRIDFORMAT
  1
GRIDFORMAT_BEGIN
 90
        0
 91
        1
 62
     0
 92
       -2
340
14
 93
        0
 40
0.045
309
GRIDFORMAT_END
309
TABLEFORMAT_END
  1
CELLSTYLE_BEGIN
 90
        2
 91
        1
300
_HEADER
309
CELLSTYLE_END
300
CELLSTYLE
  1
TABLEFORMAT_BEGIN
 90
        5
170
     1
 91
        0
 92
        0
 62
   257
 93
        1
300
CONTENTFORMAT
  1
CONTENTFORMAT_BEGIN
 90
        0
 91
        0
 92
        4
 93
        0
300

 40
0.0
140
1.0
 94
        2
 62
     0
340
11
144
0.18
309
CONTENTFORMAT_END
171
     1
301
MARGIN
  1
CELLMARGIN_BEGIN
 40
0.06
 40
0.06
 40
0.06
 40
0.06
 40
0.06
 40
0.06
309
CELLMARGIN_END
 94
        6
 95
        1
302
GRIDFORMAT
  1
GRIDFORMAT_BEGIN
 90
        0
 91
        1
 62
     0
 92
       -2
340
14
 93
        0
 40
0.045
309
GRIDFORMAT_END
 95
        2
302
GRIDFORMAT
  1
GRIDFORMAT_BEGIN
 90
        0
 91
        1
 62
     0
 92
       -2
340
14
 93
        0
 40
0.045
309
GRIDFORMAT_END
 95
        4
302
GRIDFORMAT
  1
GRIDFORMAT_BEGIN
 90
        0
 91
        1
 62
     0
 92
       -2
340
14
 93
        0
 40
0.045
309
GRIDFORMAT_END
 95
        8
302
GRIDFORMAT
  1
GRIDFORMAT_BEGIN
 90
        0
 91
        1
 62
     0
 92
       -2
340
14
 93
        0
 40
0.045
309
GRIDFORMAT_END
 95
       16
302
GRIDFORMAT
  1
GRIDFORMAT_BEGIN
 90
        0
 91
        1
 62
     0
 92
       -2
340
14
 93
        0
 40
0.045
309
GRIDFORMAT_END
 95
       32
302
GRIDFORMAT
  1
GRIDFORMAT_BEGIN
 90
        0
 91
        1
 62
     0
 92
       -2
340
14
 93
        0
 40
0.045
309
GRIDFORMAT_END
309
TABLEFORMAT_END
  1
CELLSTYLE_BEGIN
 90
        3
 91
        2
300
_DATA
309
CELLSTYLE_END
  0
ENDSEC
  0
EOF