0
SECTION
  2
HEADER
  9
$ACADVER
  1
AC1027
  9
$ACADMAINTVER
 70
     8
  9
$DWGCODEPAGE
  3
ANSI_1252
  9
$REQUIREDVERSIONS
160
                 0
  9
$COMMENTS
  1
File was created by Cadenas
  9
$CUSTOMPROPERTYTAG
  1
NN
  9
$CUSTOMPROPERTY
  1
Unisphere II Pillow Block Inch Bore
  9
$CUSTOMPROPERTYTAG
  1
NT
  9
$CUSTOMPROPERTY
  1
Unisphere II
  9
$CUSTOMPROPERTYTAG
  1
NB
  9
$CUSTOMPROPERTY
  1
048023
  9
$CUSTOMPROPERTYTAG
  1
NBSYN
  9
$CUSTOMPROPERTY
  1
$PN.
  9
$CUSTOMPROPERTYTAG
  1
LINA
  9
$CUSTOMPROPERTY
  1
048023
  9
$CUSTOMPROPERTYTAG
  1
SS
  9
$CUSTOMPROPERTY
  1
2-3/16
  9
$CUSTOMPROPERTYTAG
  1
TYPE
  9
$CUSTOMPROPERTY
  1
Expansion Type
  9
$CUSTOMPROPERTYTAG
  1
PN
  9
$CUSTOMPROPERTY
  1
048023
  9
$CUSTOMPROPERTYTAG
  1
DESCRIPTION
  9
$CUSTOMPROPERTY
  1
P2B-UN2-203E
  9
$CUSTOMPROPERTYTAG
  1
WEIGHT
  9
$CUSTOMPROPERTY
  1
9.8
  9
$CUSTOMPROPERTYTAG
  1
A
  9
$CUSTOMPROPERTY
  1
2
  9
$CUSTOMPROPERTYTAG
  1
B
  9
$CUSTOMPROPERTY
  1
8-7/8
  9
$CUSTOMPROPERTYTAG
  1
C
  9
$CUSTOMPROPERTY
  1
2-5/16
  9
$CUSTOMPROPERTYTAG
  1
DMIN
  9
$CUSTOMPROPERTY
  1
6-7/16
  9
$CUSTOMPROPERTYTAG
  1
DMAX
  9
$CUSTOMPROPERTY
  1
7-1/8
  9
$CUSTOMPROPERTYTAG
  1
E
  9
$CUSTOMPROPERTY
  1
5/32
  9
$CUSTOMPROPERTYTAG
  1
F
  9
$CUSTOMPROPERTY
  1
5/8
  9
$CUSTOMPROPERTYTAG
  1
G
  9
$CUSTOMPROPERTY
  1
1-1/32
  9
$CUSTOMPROPERTYTAG
  1
H
  9
$CUSTOMPROPERTY
  1
1-5/8
  9
$CUSTOMPROPERTYTAG
  1
J
  9
$CUSTOMPROPERTY
  1
5
  9
$CUSTOMPROPERTYTAG
  1
L
  9
$CUSTOMPROPERTY
  1
3-1/2
  9
$CUSTOMPROPERTYTAG
  1
M
  9
$CUSTOMPROPERTY
  1
2-1/2
  9
$CUSTOMPROPERTYTAG
  1
R
  9
$CUSTOMPROPERTY
  1
33/64
  9
$CUSTOMPROPERTYTAG
  1
S
  9
$CUSTOMPROPERTY
  1
1-31/64
  9
$CUSTOMPROPERTYTAG
  1
MRPM
  9
$CUSTOMPROPERTY
  1
2325
  9
$CUSTOMPROPERTYTAG
  1
CS
  9
$CUSTOMPROPERTY
  1
32500
  9
$CUSTOMPROPERTYTAG
  1
CD
  9
$CUSTOMPROPERTY
  1
27000
  9
$CUSTOMPROPERTYTAG
  1
RN
  9
$CUSTOMPROPERTY
  1
19
  9
$CUSTOMPROPERTYTAG
  1
RM
  9
$CUSTOMPROPERTY
  1
0.4646
  9
$CUSTOMPROPERTYTAG
  1
PD
  9
$CUSTOMPROPERTY
  1
3.189
  9
$CUSTOMPROPERTYTAG
  1
RC
  9
$CUSTOMPROPERTY
  1
0.0016-0.0026
  9
$CUSTOMPROPERTYTAG
  1
CSS
  9
$CUSTOMPROPERTY
  1
3/8-16x3/4
  9
$CUSTOMPROPERTYTAG
  1
CST
  9
$CUSTOMPROPERTY
  1
290
  9
$CUSTOMPROPERTYTAG
  1
MH
  9
$CUSTOMPROPERTY
  1
Ductile Iron Grade 65-45-12 ASTM A536
  9
$CUSTOMPROPERTYTAG
  1
MIR
  9
$CUSTOMPROPERTY
  1
4118 Case Carb.
  9
$CUSTOMPROPERTYTAG
  1
MOR
  9
$CUSTOMPROPERTY
  1
E52100 Steel
  9
$CUSTOMPROPERTYTAG
  1
MR
  9
$CUSTOMPROPERTY
  1
Polyamide
  9
$CUSTOMPROPERTYTAG
  1
MRO
  9
$CUSTOMPROPERTY
  1
E52100 Steel
  9
$CUSTOMPROPERTYTAG
  1
SM
  9
$CUSTOMPROPERTY
  1
2°
  9
$CUSTOMPROPERTYTAG
  1
COMPANY
  9
$CUSTOMPROPERTY
  1
baldor
  9
$INSBASE
 10
0.0
 20
0.0
 30
0.0
  9
$EXTMIN
 10
1.000000000000000E+20
 20
1.000000000000000E+20
 30
1.000000000000000E+20
  9
$EXTMAX
 10
-1.000000000000000E+20
 20
-1.000000000000000E+20
 30
-1.000000000000000E+20
  9
$LIMMIN
 10
0.0
 20
0.0
  9
$LIMMAX
 10
12.0
 20
9.0
  9
$ORTHOMODE
 70
     0
  9
$REGENMODE
 70
     1
  9
$FILLMODE
 70
     1
  9
$QTEXTMODE
 70
     0
  9
$MIRRTEXT
 70
     1
  9
$LTSCALE
 40
1.0
  9
$ATTMODE
 70
     1
  9
$TEXTSIZE
 40
0.2
  9
$TRACEWID
 40
0.05
  9
$TEXTSTYLE
  7
Standard
  9
$CLAYER
  8
0
  9
$CELTYPE
  6
ByLayer
  9
$CECOLOR
 62
   256
  9
$CELTSCALE
 40
1.0
  9
$DISPSILH
 70
     0
  9
$DIMSCALE
 40
1.0
  9
$DIMASZ
 40
0.18
  9
$DIMEXO
 40
0.0625
  9
$DIMDLI
 40
0.38
  9
$DIMRND
 40
0.0
  9
$DIMDLE
 40
0.0
  9
$DIMEXE
 40
0.18
  9
$DIMTP
 40
0.0
  9
$DIMTM
 40
0.0
  9
$DIMTXT
 40
0.18
  9
$DIMCEN
 40
0.09
  9
$DIMTSZ
 40
0.0
  9
$DIMTOL
 70
     0
  9
$DIMLIM
 70
     0
  9
$DIMTIH
 70
     1
  9
$DIMTOH
 70
     1
  9
$DIMSE1
 70
     0
  9
$DIMSE2
 70
     0
  9
$DIMTAD
 70
     0
  9
$DIMZIN
 70
     0
  9
$DIMBLK
  1

  9
$DIMASO
 70
     1
  9
$DIMSHO
 70
     1
  9
$DIMPOST
  1

  9
$DIMAPOST
  1

  9
$DIMALT
 70
     0
  9
$DIMALTD
 70
     2
  9
$DIMALTF
 40
25.4
  9
$DIMLFAC
 40
1.0
  9
$DIMTOFL
 70
     0
  9
$DIMTVP
 40
0.0
  9
$DIMTIX
 70
     0
  9
$DIMSOXD
 70
     0
  9
$DIMSAH
 70
     0
  9
$DIMBLK1
  1

  9
$DIMBLK2
  1

  9
$DIMSTYLE
  2
Standard
  9
$DIMCLRD
 70
     0
  9
$DIMCLRE
 70
     0
  9
$DIMCLRT
 70
     0
  9
$DIMTFAC
 40
1.0
  9
$DIMGAP
 40
0.09
  9
$DIMJUST
 70
     0
  9
$DIMSD1
 70
     0
  9
$DIMSD2
 70
     0
  9
$DIMTOLJ
 70
     1
  9
$DIMTZIN
 70
     0
  9
$DIMALTZ
 70
     0
  9
$DIMALTTZ
 70
     0
  9
$DIMUPT
 70
     0
  9
$DIMDEC
 70
     4
  9
$DIMTDEC
 70
     4
  9
$DIMALTU
 70
     2
  9
$DIMALTTD
 70
     2
  9
$DIMTXSTY
  7
Standard
  9
$DIMAUNIT
 70
     0
  9
$DIMADEC
 70
     0
  9
$DIMALTRND
 40
0.0
  9
$DIMAZIN
 70
     0
  9
$DIMDSEP
 70
    46
  9
$DIMATFIT
 70
     3
  9
$DIMFRAC
 70
     0
  9
$DIMLDRBLK
  1

  9
$DIMLUNIT
 70
     2
  9
$DIMLWD
 70
    -2
  9
$DIMLWE
 70
    -2
  9
$DIMTMOVE
 70
     0
  9
$DIMFXL
 40
1.0
  9
$DIMFXLON
 70
     0
  9
$DIMJOGANG
 40
0.7853981633974483
  9
$DIMTFILL
 70
     0
  9
$DIMTFILLCLR
 70
     0
  9
$DIMARCSYM
 70
     0
  9
$DIMLTYPE
  6

  9
$DIMLTEX1
  6

  9
$DIMLTEX2
  6

  9
$DIMTXTDIRECTION
 70
     0
  9
$LUNITS
 70
     2
  9
$LUPREC
 70
     4
  9
$SKETCHINC
 40
0.1
  9
$FILLETRAD
 40
0.5
  9
$AUNITS
 70
     0
  9
$AUPREC
 70
     0
  9
$MENU
  1
.
  9
$ELEVATION
 40
0.0
  9
$PELEVATION
 40
0.0
  9
$THICKNESS
 40
0.0
  9
$LIMCHECK
 70
     0
  9
$CHAMFERA
 40
0.0
  9
$CHAMFERB
 40
0.0
  9
$CHAMFERC
 40
0.0
  9
$CHAMFERD
 40
0.0
  9
$SKPOLY
 70
     0
  9
$TDCREATE
 40
2458169.003031725
  9
$TDUCREATE
 40
2458168.961365058
  9
$TDUPDATE
 40
2458169.003031898
  9
$TDUUPDATE
 40
2458168.961365231
  9
$TDINDWG
 40
0.0000000116
  9
$TDUSRTIMER
 40
0.0000000116
  9
$USRTIMER
 70
     1
  9
$ANGBASE
 50
0.0
  9
$ANGDIR
 70
     0
  9
$PDMODE
 70
     0
  9
$PDSIZE
 40
0.0
  9
$PLINEWID
 40
0.0
  9
$SPLFRAME
 70
     0
  9
$SPLINETYPE
 70
     6
  9
$SPLINESEGS
 70
     8
  9
$HANDSEED
  5
1BC
  9
$SURFTAB1
 70
     6
  9
$SURFTAB2
 70
     6
  9
$SURFTYPE
 70
     6
  9
$SURFU
 70
     6
  9
$SURFV
 70
     6
  9
$UCSBASE
  2

  9
$UCSNAME
  2

  9
$UCSORG
 10
0.0
 20
0.0
 30
0.0
  9
$UCSXDIR
 10
1.0
 20
0.0
 30
0.0
  9
$UCSYDIR
 10
0.0
 20
1.0
 30
0.0
  9
$UCSORTHOREF
  2

  9
$UCSORTHOVIEW
 70
     0
  9
$UCSORGTOP
 10
0.0
 20
0.0
 30
0.0
  9
$UCSORGBOTTOM
 10
0.0
 20
0.0
 30
0.0
  9
$UCSORGLEFT
 10
0.0
 20
0.0
 30
0.0
  9
$UCSORGRIGHT
 10
0.0
 20
0.0
 30
0.0
  9
$UCSORGFRONT
 10
0.0
 20
0.0
 30
0.0
  9
$UCSORGBACK
 10
0.0
 20
0.0
 30
0.0
  9
$PUCSBASE
  2

  9
$PUCSNAME
  2

  9
$PUCSORG
 10
0.0
 20
0.0
 30
0.0
  9
$PUCSXDIR
 10
1.0
 20
0.0
 30
0.0
  9
$PUCSYDIR
 10
0.0
 20
1.0
 30
0.0
  9
$PUCSORTHOREF
  2

  9
$PUCSORTHOVIEW
 70
     0
  9
$PUCSORGTOP
 10
0.0
 20
0.0
 30
0.0
  9
$PUCSORGBOTTOM
 10
0.0
 20
0.0
 30
0.0
  9
$PUCSORGLEFT
 10
0.0
 20
0.0
 30
0.0
  9
$PUCSORGRIGHT
 10
0.0
 20
0.0
 30
0.0
  9
$PUCSORGFRONT
 10
0.0
 20
0.0
 30
0.0
  9
$PUCSORGBACK
 10
0.0
 20
0.0
 30
0.0
  9
$USERI1
 70
     0
  9
$USERI2
 70
     0
  9
$USERI3
 70
     0
  9
$USERI4
 70
     0
  9
$USERI5
 70
     0
  9
$USERR1
 40
0.0
  9
$USERR2
 40
0.0
  9
$USERR3
 40
0.0
  9
$USERR4
 40
0.0
  9
$USERR5
 40
0.0
  9
$WORLDVIEW
 70
     1
  9
$SHADEDGE
 70
     3
  9
$SHADEDIF
 70
    70
  9
$TILEMODE
 70
     1
  9
$MAXACTVP
 70
    64
  9
$PINSBASE
 10
0.0
 20
0.0
 30
0.0
  9
$PLIMCHECK
 70
     0
  9
$PEXTMIN
 10
1.000000000000000E+20
 20
1.000000000000000E+20
 30
1.000000000000000E+20
  9
$PEXTMAX
 10
-1.000000000000000E+20
 20
-1.000000000000000E+20
 30
-1.000000000000000E+20
  9
$PLIMMIN
 10
0.0
 20
0.0
  9
$PLIMMAX
 10
12.0
 20
9.0
  9
$UNITMODE
 70
     0
  9
$VISRETAIN
 70
     1
  9
$PLINEGEN
 70
     0
  9
$PSLTSCALE
 70
     1
  9
$TREEDEPTH
 70
  3020
  9
$CMLSTYLE
  2
Standard
  9
$CMLJUST
 70
     0
  9
$CMLSCALE
 40
1.0
  9
$PROXYGRAPHICS
 70
     1
  9
$MEASUREMENT
 70
     0
  9
$CELWEIGHT
370
    -1
  9
$ENDCAPS
280
     0
  9
$JOINSTYLE
280
     0
  9
$LWDISPLAY
290
     0
  9
$INSUNITS
 70
     1
  9
$HYPERLINKBASE
  1

  9
$STYLESHEET
  1

  9
$XEDIT
290
     1
  9
$CEPSNTYPE
380
     0
  9
$PSTYLEMODE
290
     1
  9
$FINGERPRINTGUID
  2
{909F4668-8853-410F-A565-444D4459FF97}
  9
$VERSIONGUID
  2
{FAEB1C32-E019-11D5-929B-00C0DF256EC4}
  9
$EXTNAMES
290
     1
  9
$PSVPSCALE
 40
0.0
  9
$OLESTARTUP
290
     0
  9
$SORTENTS
280
   127
  9
$INDEXCTL
280
     0
  9
$HIDETEXT
280
     1
  9
$XCLIPFRAME
280
     2
  9
$HALOGAP
280
     0
  9
$OBSCOLOR
 70
   257
  9
$OBSLTYPE
280
     0
  9
$INTERSECTIONDISPLAY
280
     0
  9
$INTERSECTIONCOLOR
 70
   257
  9
$DIMASSOC
280
     2
  9
$PROJECTNAME
  1

  9
$CAMERADISPLAY
290
     0
  9
$LENSLENGTH
 40
50.0
  9
$CAMERAHEIGHT
 40
0.0
  9
$STEPSPERSEC
 40
2.0
  9
$STEPSIZE
 40
6.0
  9
$3DDWFPREC
 40
2.0
  9
$PSOLWIDTH
 40
0.25
  9
$PSOLHEIGHT
 40
4.0
  9
$LOFTANG1
 40
1.570796326794897
  9
$LOFTANG2
 40
1.570796326794897
  9
$LOFTMAG1
 40
0.0
  9
$LOFTMAG2
 40
0.0
  9
$LOFTPARAM
 70
     7
  9
$LOFTNORMALS
280
     1
  9
$LATITUDE
 40
37.795
  9
$LONGITUDE
 40
-122.394
  9
$NORTHDIRECTION
 40
0.0
  9
$TIMEZONE
 70
 -8000
  9
$LIGHTGLYPHDISPLAY
280
     1
  9
$TILEMODELIGHTSYNCH
280
     1
  9
$CMATERIAL
347
44
  9
$SOLIDHIST
280
     0
  9
$SHOWHIST
280
     1
  9
$DWFFRAME
280
     2
  9
$DGNFRAME
280
     2
  9
$REALWORLDSCALE
290
     1
  9
$INTERFERECOLOR
 62
   256
  9
$CSHADOW
280
     0
  9
$SHADOWPLANELOCATION
 40
0.0
  0
ENDSEC
  0
SECTION
  2
CLASSES
  0
CLASS
  1
ACDBDICTIONARYWDFLT
  2
AcDbDictionaryWithDefault
  3
ObjectDBX Classes
 90
        0
 91
        4
280
     0
281
     0
  0
CLASS
  1
VISUALSTYLE
  2
AcDbVisualStyle
  3
ObjectDBX Classes
 90
     4095
 91
        4
280
     0
281
     0
  0
CLASS
  1
MATERIAL
  2
AcDbMaterial
  3
ObjectDBX Classes
 90
     1153
 91
        4
280
     0
281
     0
  0
CLASS
  1
SCALE
  2
AcDbScale
  3
ObjectDBX Classes
 90
     1153
 91
        4
280
     0
281
     0
  0
CLASS
  1
TABLESTYLE
  2
AcDbTableStyle
  3
ObjectDBX Classes
 90
     4095
 91
        4
280
     0
281
     0
  0
CLASS
  1
MLEADERSTYLE
  2
AcDbMLeaderStyle
  3
ACDB_MLEADERSTYLE_CLASS
 90
     4095
 91
        4
280
     0
281
     0
  0
CLASS
  1
SUN
  2
AcDbSun
  3
SCENEOE
 90
     1153
 91
        4
280
     0
281
     0
  0
CLASS
  1
DICTIONARYVAR
  2
AcDbDictionaryVar
  3
ObjectDBX Classes
 90
        0
 91
        4
280
     0
281
     0
  0
CLASS
  1
CELLSTYLEMAP
  2
AcDbCellStyleMap
  3
ObjectDBX Classes
 90
     1152
 91
        4
280
     0
281
     0
  0
ENDSEC
  0
SECTION
  2
TABLES
  0
TABLE
  2
VPORT
  5
8
330
0
100
AcDbSymbolTable
 70
     1
  0
VPORT
  5
29
330
8
100
AcDbSymbolTableRecord
100
AcDbViewportTableRecord
  2
*Active
 70
     0
 10
0.0
 20
0.0
 11
1.0
 21
1.0
 12
-0.0781275000000008
 22
0.0037465940561274
 13
0.0
 23
0.0
 14
0.5
 24
0.5
 15
0.5
 25
0.5
 16
0.0
 26
0.0
 36
1.0
 17
0.0
 27
0.0
 37
0.0
 40
5.1076430518745
 41
0.5391929451666126
 42
50.0
 43
0.0
 44
0.0
 50
0.0
 51
0.0
 71
     0
 72
   100
 73
     1
 74
     3
 75
     0
 76
     0
 77
     0
 78
     0
281
     0
 65
     1
110
0.0
120
0.0
130
0.0
111
1.0
121
0.0
131
0.0
112
0.0
122
1.0
132
0.0
 79
     0
146
0.0
348
2F
 60
     3
 61
     5
292
     1
282
     1
141
0.0
142
0.0
 63
   250
361
6D
  0
ENDTAB
  0
TABLE
  2
LTYPE
  5
5
330
0
100
AcDbSymbolTable
 70
     3
  0
LTYPE
  5
14
330
5
100
AcDbSymbolTableRecord
100
AcDbLinetypeTableRecord
  2
ByBlock
 70
     0
  3

 72
    65
 73
     0
 40
0.0
  0
LTYPE
  5
15
330
5
100
AcDbSymbolTableRecord
100
AcDbLinetypeTableRecord
  2
ByLayer
 70
     0
  3

 72
    65
 73
     0
 40
0.0
  0
LTYPE
  5
16
330
5
100
AcDbSymbolTableRecord
100
AcDbLinetypeTableRecord
  2
Continuous
 70
     0
  3
Solid line
 72
    65
 73
     0
 40
0.0
  0
LTYPE
  5
B2
330
5
100
AcDbSymbolTableRecord
100
AcDbLinetypeTableRecord
  2
Dashed
 70
     0
  3

 72
    65
 73
     2
 40
2.0
 49
1.0
 74
     0
 49
-1.0
 74
     0
  0
LTYPE
  5
DB
330
5
100
AcDbSymbolTableRecord
100
AcDbLinetypeTableRecord
  2
Center
 70
     0
  3

 72
    65
 73
     4
 40
1.5
 49
0.45
 74
     0
 49
-0.5
 74
     0
 49
0.05
 74
     0
 49
-0.5
 74
     0
  0
ENDTAB
  0
TABLE
  2
LAYER
  5
2
330
0
100
AcDbSymbolTable
 70
     7
  0
LAYER
  5
10
330
2
100
AcDbSymbolTableRecord
100
AcDbLayerTableRecord
  2
0
 70
     0
 62
     7
  6
Continuous
370
    -3
390
F
347
46
348
0
  0
LAYER
  5
72
330
2
100
AcDbSymbolTableRecord
100
AcDbLayerTableRecord
  2
AM_6
 70
     0
 62
    -2
  6
Continuous
370
    35
390
F
347
46
348
0
  0
LAYER
  5
B3
330
2
100
AcDbSymbolTableRecord
100
AcDbLayerTableRecord
  2
AM_9
 70
     0
 62
     6
  6
Dashed
370
    25
390
F
347
46
348
0
  0
LAYER
  5
D7
330
2
100
AcDbSymbolTableRecord
100
AcDbLayerTableRecord
  2
AM_5
 70
     0
 62
     3
  6
Continuous
370
    25
390
F
347
46
348
0
  0
LAYER
  5
DC
330
2
100
AcDbSymbolTableRecord
100
AcDbLayerTableRecord
  2
AM_7
 70
     0
 62
     7
  6
Center
370
    25
390
F
347
46
348
0
  0
LAYER
  5
DE
330
2
100
AcDbSymbolTableRecord
100
AcDbLayerTableRecord
  2
AM_4
 70
     0
 62
     7
  6
Continuous
370
    50
390
F
347
46
348
0
  0
LAYER
  5
1AF
330
2
100
AcDbSymbolTableRecord
100
AcDbLayerTableRecord
  2
ConnectionPoints
 70
     0
 62
     7
  6
Continuous
370
    50
390
F
347
46
348
0
  0
ENDTAB
  0
TABLE
  2
STYLE
  5
3
330
0
100
AcDbSymbolTable
 70
     1
  0
STYLE
  5
11
330
3
100
AcDbSymbolTableRecord
100
AcDbTextStyleTableRecord
  2
Standard
 70
     0
 40
0.0
 41
1.0
 50
0.0
 71
     0
 42
0.2
  3
txt
  4

  0
ENDTAB
  0
TABLE
  2
VIEW
  5
6
330
0
100
AcDbSymbolTable
 70
     0
  0
ENDTAB
  0
TABLE
  2
UCS
  5
7
330
0
100
AcDbSymbolTable
 70
     0
  0
ENDTAB
  0
TABLE
  2
APPID
  5
9
330
0
100
AcDbSymbolTable
 70
     1
  0
APPID
  5
12
330
9
100
AcDbSymbolTableRecord
100
AcDbRegAppTableRecord
  2
ACAD
 70
     0
  0
ENDTAB
  0
TABLE
  2
DIMSTYLE
  5
A
330
0
100
AcDbSymbolTable
 70
     1
100
AcDbDimStyleTable
  0
DIMSTYLE
105
27
330
A
100
AcDbSymbolTableRecord
100
AcDbDimStyleTableRecord
  2
Standard
 70
     0
178
     0
340
11
  0
ENDTAB
  0
TABLE
  2
BLOCK_RECORD
  5
1
330
0
100
AcDbSymbolTable
 70
     5
  0
BLOCK_RECORD
  5
1F
330
1
100
AcDbSymbolTableRecord
100
AcDbBlockTableRecord
  2
*Model_Space
340
22
 70
     0
280
     1
281
     0
  0
BLOCK_RECORD
  5
1B
330
1
100
AcDbSymbolTableRecord
100
AcDbBlockTableRecord
  2
*Paper_Space
340
1E
 70
     0
280
     1
281
     0
  0
BLOCK_RECORD
  5
23
330
1
100
AcDbSymbolTableRecord
100
AcDbBlockTableRecord
  2
*Paper_Space0
340
26
 70
     0
280
     1
281
     0
  0
BLOCK_RECORD
  5
6E
330
1
100
AcDbSymbolTableRecord
100
AcDbBlockTableRecord
  2
1_048023_2
340
0
102
{BLKREFS
331
6F
102
}
 70
     0
280
     1
281
     0
  0
BLOCK_RECORD
  5
9B
330
1
100
AcDbSymbolTableRecord
100
AcDbBlockTableRecord
  2
2_421249_0_in_048023_2
340
0
102
{BLKREFS
331
9C
102
}
 70
     0
280
     1
281
     0
  0
BLOCK_RECORD
  5
E7
330
1
100
AcDbSymbolTableRecord
100
AcDbBlockTableRecord
  2
3_405020c_Inch_0_in_048023_2
340
0
102
{BLKREFS
331
E8
102
}
 70
     0
280
     1
281
     0
  0
BLOCK_RECORD
  5
143
330
1
100
AcDbSymbolTableRecord
100
AcDbBlockTableRecord
  2
4_048023B_0_in_048023_2
340
0
102
{BLKREFS
331
144
102
}
 70
     0
280
     1
281
     0
  0
ENDTAB
  0
ENDSEC
  0
SECTION
  2
BLOCKS
  0
BLOCK
  5
20
330
1F
100
AcDbEntity
  8
0
100
AcDbBlockBegin
  2
*Model_Space
 70
     0
 10
0.0
 20
0.0
 30
0.0
  3
*Model_Space
  1

  0
ENDBLK
  5
21
330
1F
100
AcDbEntity
  8
0
100
AcDbBlockEnd
  0
BLOCK
  5
1C
330
1B
100
AcDbEntity
 67
     1
  8
0
100
AcDbBlockBegin
  2
*Paper_Space
 70
     0
 10
0.0
 20
0.0
 30
0.0
  3
*Paper_Space
  1

  0
ENDBLK
  5
1D
330
1B
100
AcDbEntity
 67
     1
  8
0
100
AcDbBlockEnd
  0
BLOCK
  5
24
330
23
100
AcDbEntity
  8
0
100
AcDbBlockBegin
  2
*Paper_Space0
 70
     0
 10
0.0
 20
0.0
 30
0.0
  3
*Paper_Space0
  1

  0
ENDBLK
  5
25
330
23
100
AcDbEntity
  8
0
100
AcDbBlockEnd
  0
BLOCK
  5
70
330
6E
100
AcDbEntity
  8
0
100
AcDbBlockBegin
  2
1_048023_2
 70
     2
 10
0.0
 20
0.0
 30
0.0
  3
1_048023_2
  1

  0
ATTDEF
  5
73
330
6E
100
AcDbEntity
  8
AM_6
100
AcDbText
 10
6.271875
 20
2.507493188112255
 30
0.0
 40
0.5
  1
Unisphere II Pillow Block Inch Bore
100
AcDbAttributeDefinition
  3

  2
NN
 70
     8
280
     0
  0
ATTDEF
  5
74
330
6E
100
AcDbEntity
  8
AM_6
100
AcDbText
 10
6.271875
 20
2.007493188112255
 30
0.0
 40
0.5
  1
Unisphere II
100
AcDbAttributeDefinition
  3

  2
NT
 70
     8
280
     0
  0
ATTDEF
  5
75
330
6E
100
AcDbEntity
  8
AM_6
100
AcDbText
 10
6.271875
 20
1.507493188112255
 30
0.0
 40
0.5
  1
048023
100
AcDbAttributeDefinition
  3

  2
NB
 70
     8
280
     0
  0
ATTDEF
  5
76
330
6E
100
AcDbEntity
  8
AM_6
100
AcDbText
 10
6.271875
 20
1.007493188112255
 30
0.0
 40
0.5
  1
$PN.
100
AcDbAttributeDefinition
  3

  2
NBSYN
 70
     8
280
     0
  0
ATTDEF
  5
77
330
6E
100
AcDbEntity
  8
AM_6
100
AcDbText
 10
6.271875
 20
0.5074931881122553
 30
0.0
 40
0.5
  1
048023
100
AcDbAttributeDefinition
  3

  2
LINA
 70
     8
280
     0
  0
ATTDEF
  5
78
330
6E
100
AcDbEntity
  8
AM_6
100
AcDbText
 10
6.271875
 20
0.0074931881122553
 30
0.0
 40
0.5
  1
2-3/16
100
AcDbAttributeDefinition
  3

  2
SS
 70
     8
280
     0
  0
ATTDEF
  5
79
330
6E
100
AcDbEntity
  8
AM_6
100
AcDbText
 10
6.271875
 20
-0.4925068118877447
 30
0.0
 40
0.5
  1
Expansion Type
100
AcDbAttributeDefinition
  3

  2
TYPE
 70
     8
280
     0
  0
ATTDEF
  5
7A
330
6E
100
AcDbEntity
  8
AM_6
100
AcDbText
 10
6.271875
 20
-0.9925068118877447
 30
0.0
 40
0.5
  1
048023
100
AcDbAttributeDefinition
  3

  2
PN
 70
     8
280
     0
  0
ATTDEF
  5
7B
330
6E
100
AcDbEntity
  8
AM_6
100
AcDbText
 10
6.271875
 20
-1.492506811887745
 30
0.0
 40
0.5
  1
P2B-UN2-203E
100
AcDbAttributeDefinition
  3

  2
DESCRIPTION
 70
     8
280
     0
  0
ATTDEF
  5
7C
330
6E
100
AcDbEntity
  8
AM_6
100
AcDbText
 10
6.271875
 20
-1.992506811887745
 30
0.0
 40
0.5
  1
9.8
100
AcDbAttributeDefinition
  3

  2
WEIGHT
 70
     8
280
     0
  0
ATTDEF
  5
7D
330
6E
100
AcDbEntity
  8
AM_6
100
AcDbText
 10
6.271875
 20
-2.492506811887745
 30
0.0
 40
0.5
  1
2
100
AcDbAttributeDefinition
  3

  2
A
 70
     8
280
     0
  0
ATTDEF
  5
7E
330
6E
100
AcDbEntity
  8
AM_6
100
AcDbText
 10
6.271875
 20
-2.992506811887745
 30
0.0
 40
0.5
  1
8-7/8
100
AcDbAttributeDefinition
  3

  2
B
 70
     8
280
     0
  0
ATTDEF
  5
7F
330
6E
100
AcDbEntity
  8
AM_6
100
AcDbText
 10
6.271875
 20
-3.492506811887745
 30
0.0
 40
0.5
  1
2-5/16
100
AcDbAttributeDefinition
  3

  2
C
 70
     8
280
     0
  0
ATTDEF
  5
80
330
6E
100
AcDbEntity
  8
AM_6
100
AcDbText
 10
6.271875
 20
-3.992506811887745
 30
0.0
 40
0.5
  1
6-7/16
100
AcDbAttributeDefinition
  3

  2
DMIN
 70
     8
280
     0
  0
ATTDEF
  5
81
330
6E
100
AcDbEntity
  8
AM_6
100
AcDbText
 10
6.271875
 20
-4.492506811887745
 30
0.0
 40
0.5
  1
7-1/8
100
AcDbAttributeDefinition
  3

  2
DMAX
 70
     8
280
     0
  0
ATTDEF
  5
82
330
6E
100
AcDbEntity
  8
AM_6
100
AcDbText
 10
6.271875
 20
-4.992506811887745
 30
0.0
 40
0.5
  1
5/32
100
AcDbAttributeDefinition
  3

  2
E
 70
     8
280
     0
  0
ATTDEF
  5
83
330
6E
100
AcDbEntity
  8
AM_6
100
AcDbText
 10
6.271875
 20
-5.492506811887745
 30
0.0
 40
0.5
  1
5/8
100
AcDbAttributeDefinition
  3

  2
F
 70
     8
280
     0
  0
ATTDEF
  5
84
330
6E
100
AcDbEntity
  8
AM_6
100
AcDbText
 10
6.271875
 20
-5.992506811887745
 30
0.0
 40
0.5
  1
1-1/32
100
AcDbAttributeDefinition
  3

  2
G
 70
     8
280
     0
  0
ATTDEF
  5
85
330
6E
100
AcDbEntity
  8
AM_6
100
AcDbText
 10
6.271875
 20
-6.492506811887745
 30
0.0
 40
0.5
  1
1-5/8
100
AcDbAttributeDefinition
  3

  2
H
 70
     8
280
     0
  0
ATTDEF
  5
86
330
6E
100
AcDbEntity
  8
AM_6
100
AcDbText
 10
6.271875
 20
-6.992506811887745
 30
0.0
 40
0.5
  1
5
100
AcDbAttributeDefinition
  3

  2
J
 70
     8
280
     0
  0
ATTDEF
  5
87
330
6E
100
AcDbEntity
  8
AM_6
100
AcDbText
 10
6.271875
 20
-7.492506811887745
 30
0.0
 40
0.5
  1
3-1/2
100
AcDbAttributeDefinition
  3

  2
L
 70
     8
280
     0
  0
ATTDEF
  5
88
330
6E
100
AcDbEntity
  8
AM_6
100
AcDbText
 10
6.271875
 20
-7.992506811887745
 30
0.0
 40
0.5
  1
2-1/2
100
AcDbAttributeDefinition
  3

  2
M
 70
     8
280
     0
  0
ATTDEF
  5
89
330
6E
100
AcDbEntity
  8
AM_6
100
AcDbText
 10
6.271875
 20
-8.492506811887745
 30
0.0
 40
0.5
  1
33/64
100
AcDbAttributeDefinition
  3

  2
R
 70
     8
280
     0
  0
ATTDEF
  5
8A
330
6E
100
AcDbEntity
  8
AM_6
100
AcDbText
 10
6.271875
 20
-8.992506811887745
 30
0.0
 40
0.5
  1
1-31/64
100
AcDbAttributeDefinition
  3

  2
S
 70
     8
280
     0
  0
ATTDEF
  5
8B
330
6E
100
AcDbEntity
  8
AM_6
100
AcDbText
 10
6.271875
 20
-9.492506811887745
 30
0.0
 40
0.5
  1
2325
100
AcDbAttributeDefinition
  3

  2
MRPM
 70
     8
280
     0
  0
ATTDEF
  5
8C
330
6E
100
AcDbEntity
  8
AM_6
100
AcDbText
 10
6.271875
 20
-9.992506811887745
 30
0.0
 40
0.5
  1
32500
100
AcDbAttributeDefinition
  3

  2
CS
 70
     8
280
     0
  0
ATTDEF
  5
8D
330
6E
100
AcDbEntity
  8
AM_6
100
AcDbText
 10
6.271875
 20
-10.49250681188775
 30
0.0
 40
0.5
  1
27000
100
AcDbAttributeDefinition
  3

  2
CD
 70
     8
280
     0
  0
ATTDEF
  5
8E
330
6E
100
AcDbEntity
  8
AM_6
100
AcDbText
 10
6.271875
 20
-10.99250681188775
 30
0.0
 40
0.5
  1
19
100
AcDbAttributeDefinition
  3

  2
RN
 70
     8
280
     0
  0
ATTDEF
  5
8F
330
6E
100
AcDbEntity
  8
AM_6
100
AcDbText
 10
6.271875
 20
-11.49250681188775
 30
0.0
 40
0.5
  1
0.4646
100
AcDbAttributeDefinition
  3

  2
RM
 70
     8
280
     0
  0
ATTDEF
  5
90
330
6E
100
AcDbEntity
  8
AM_6
100
AcDbText
 10
6.271875
 20
-11.99250681188775
 30
0.0
 40
0.5
  1
3.189
100
AcDbAttributeDefinition
  3

  2
PD
 70
     8
280
     0
  0
ATTDEF
  5
91
330
6E
100
AcDbEntity
  8
AM_6
100
AcDbText
 10
6.271875
 20
-12.49250681188775
 30
0.0
 40
0.5
  1
0.0016-0.0026
100
AcDbAttributeDefinition
  3

  2
RC
 70
     8
280
     0
  0
ATTDEF
  5
92
330
6E
100
AcDbEntity
  8
AM_6
100
AcDbText
 10
6.271875
 20
-12.99250681188775
 30
0.0
 40
0.5
  1
3/8-16x3/4
100
AcDbAttributeDefinition
  3

  2
CSS
 70
     8
280
     0
  0
ATTDEF
  5
93
330
6E
100
AcDbEntity
  8
AM_6
100
AcDbText
 10
6.271875
 20
-13.49250681188775
 30
0.0
 40
0.5
  1
290
100
AcDbAttributeDefinition
  3

  2
CST
 70
     8
280
     0
  0
ATTDEF
  5
94
330
6E
100
AcDbEntity
  8
AM_6
100
AcDbText
 10
6.271875
 20
-13.99250681188775
 30
0.0
 40
0.5
  1
Ductile Iron Grade 65-45-12 ASTM A536
100
AcDbAttributeDefinition
  3

  2
MH
 70
     8
280
     0
  0
ATTDEF
  5
95
330
6E
100
AcDbEntity
  8
AM_6
100
AcDbText
 10
6.271875
 20
-14.49250681188775
 30
0.0
 40
0.5
  1
4118 Case Carb.
100
AcDbAttributeDefinition
  3

  2
MIR
 70
     8
280
     0
  0
ATTDEF
  5
96
330
6E
100
AcDbEntity
  8
AM_6
100
AcDbText
 10
6.271875
 20
-14.99250681188775
 30
0.0
 40
0.5
  1
E52100 Steel
100
AcDbAttributeDefinition
  3

  2
MOR
 70
     8
280
     0
  0
ATTDEF
  5
97
330
6E
100
AcDbEntity
  8
AM_6
100
AcDbText
 10
6.271875
 20
-15.49250681188775
 30
0.0
 40
0.5
  1
Polyamide
100
AcDbAttributeDefinition
  3

  2
MR
 70
     8
280
     0
  0
ATTDEF
  5
98
330
6E
100
AcDbEntity
  8
AM_6
100
AcDbText
 10
6.271875
 20
-15.99250681188775
 30
0.0
 40
0.5
  1
E52100 Steel
100
AcDbAttributeDefinition
  3

  2
MRO
 70
     8
280
     0
  0
ATTDEF
  5
99
330
6E
100
AcDbEntity
  8
AM_6
100
AcDbText
 10
6.271875
 20
-16.49250681188774
 30
0.0
 40
0.5
  1
2°
100
AcDbAttributeDefinition
  3

  2
SM
 70
     8
280
     0
  0
ATTDEF
  5
9A
330
6E
100
AcDbEntity
  8
AM_6
100
AcDbText
 10
6.271875
 20
-16.99250681188774
 30
0.0
 40
0.5
  1
baldor
100
AcDbAttributeDefinition
  3

  2
COMPANY
 70
     8
280
     0
  0
INSERT
  5
9C
330
6E
100
AcDbEntity
  8
0
100
AcDbBlockReference
  2
2_421249_0_in_048023_2
 10
0.0
 20
0.0
 30
0.0
  0
INSERT
  5
E8
330
6E
100
AcDbEntity
  8
0
100
AcDbBlockReference
  2
3_405020c_Inch_0_in_048023_2
 10
0.0
 20
0.0
 30
0.0
  0
INSERT
  5
144
330
6E
100
AcDbEntity
  8
0
100
AcDbBlockReference
  2
4_048023B_0_in_048023_2
 10
0.0
 20
0.0
 30
0.0
  0
ENDBLK
  5
71
330
6E
100
AcDbEntity
  8
0
100
AcDbBlockEnd
  0
BLOCK
  5
9D
330
9B
100
AcDbEntity
  8
0
100
AcDbBlockBegin
  2
2_421249_0_in_048023_2
 70
     2
 10
0.0
 20
0.0
 30
0.0
  3
2_421249_0_in_048023_2
  1

  0
ATTDEF
  5
9F
330
9B
100
AcDbEntity
  8
AM_6
100
AcDbText
 10
5.67187
 20
1.785416666666667
 30
0.0
 40
0.5
  1
Unisphere II Insert With Seal - Inch
100
AcDbAttributeDefinition
  3

  2
NN
 70
     8
280
     0
  0
ATTDEF
  5
A0
330
9B
100
AcDbEntity
  8
AM_6
100
AcDbText
 10
5.67187
 20
1.285416666666667
 30
0.0
 40
0.5
  1
Unisphere II
100
AcDbAttributeDefinition
  3

  2
NT
 70
     8
280
     0
  0
ATTDEF
  5
A1
330
9B
100
AcDbEntity
  8
AM_6
100
AcDbText
 10
5.67187
 20
0.7854166666666667
 30
0.0
 40
0.5
  1
421249
100
AcDbAttributeDefinition
  3

  2
NB
 70
     8
280
     0
  0
ATTDEF
  5
A2
330
9B
100
AcDbEntity
  8
AM_6
100
AcDbText
 10
5.67187
 20
0.2854166666666667
 30
0.0
 40
0.5
  1
$PN.
100
AcDbAttributeDefinition
  3

  2
NBSYN
 70
     8
280
     0
  0
ATTDEF
  5
A3
330
9B
100
AcDbEntity
  8
AM_6
100
AcDbText
 10
5.67187
 20
-0.2145833333333333
 30
0.0
 40
0.5
  1
421249
100
AcDbAttributeDefinition
  3

  2
LINA
 70
     8
280
     0
  0
ATTDEF
  5
A4
330
9B
100
AcDbEntity
  8
AM_6
100
AcDbText
 10
5.67187
 20
-0.7145833333333333
 30
0.0
 40
0.5
  1
2-3/16
100
AcDbAttributeDefinition
  3

  2
SS
 70
     8
280
     0
  0
ATTDEF
  5
A5
330
9B
100
AcDbEntity
  8
AM_6
100
AcDbText
 10
5.67187
 20
-1.214583333333333
 30
0.0
 40
0.5
  1
2.18750
100
AcDbAttributeDefinition
  3

  2
SS1
 70
     8
280
     0
  0
ATTDEF
  5
A6
330
9B
100
AcDbEntity
  8
AM_6
100
AcDbText
 10
5.67187
 20
-1.714583333333333
 30
0.0
 40
0.5
  1
3.9370
100
AcDbAttributeDefinition
  3

  2
A
 70
     8
280
     0
  0
ATTDEF
  5
A7
330
9B
100
AcDbEntity
  8
AM_6
100
AcDbText
 10
5.67187
 20
-2.214583333333334
 30
0.0
 40
0.5
  1
3.50000
100
AcDbAttributeDefinition
  3

  2
A1
 70
     8
280
     0
  0
ATTDEF
  5
A8
330
9B
100
AcDbEntity
  8
AM_6
100
AcDbText
 10
5.67187
 20
-2.714583333333334
 30
0.0
 40
0.5
  1
1.0343
100
AcDbAttributeDefinition
  3

  2
B
 70
     8
280
     0
  0
ATTDEF
  5
A9
330
9B
100
AcDbEntity
  8
AM_6
100
AcDbText
 10
5.67187
 20
-3.214583333333334
 30
0.0
 40
0.5
  1
1.03430
100
AcDbAttributeDefinition
  3

  2
B1
 70
     8
280
     0
  0
ATTDEF
  5
AA
330
9B
100
AcDbEntity
  8
AM_6
100
AcDbText
 10
5.67187
 20
-3.714583333333334
 30
0.0
 40
0.5
  1
2
100
AcDbAttributeDefinition
  3

  2
C
 70
     8
280
     0
  0
ATTDEF
  5
AB
330
9B
100
AcDbEntity
  8
AM_6
100
AcDbText
 10
5.67187
 20
-4.214583333333334
 30
0.0
 40
0.5
  1
2.00000
100
AcDbAttributeDefinition
  3

  2
C1
 70
     8
280
     0
  0
ATTDEF
  5
AC
330
9B
100
AcDbEntity
  8
AM_6
100
AcDbText
 10
5.67187
 20
-4.714583333333334
 30
0.0
 40
0.5
  1
0.644
100
AcDbAttributeDefinition
  3

  2
D
 70
     8
280
     0
  0
ATTDEF
  5
AD
330
9B
100
AcDbEntity
  8
AM_6
100
AcDbText
 10
5.67187
 20
-5.214583333333334
 30
0.0
 40
0.5
  1
0.64400
100
AcDbAttributeDefinition
  3

  2
D1
 70
     8
280
     0
  0
ATTDEF
  5
AE
330
9B
100
AcDbEntity
  8
AM_6
100
AcDbText
 10
5.67187
 20
-5.714583333333334
 30
0.0
 40
0.5
  1
0.317
100
AcDbAttributeDefinition
  3

  2
E
 70
     8
280
     0
  0
ATTDEF
  5
AF
330
9B
100
AcDbEntity
  8
AM_6
100
AcDbText
 10
5.67187
 20
-6.214583333333334
 30
0.0
 40
0.5
  1
0.31700
100
AcDbAttributeDefinition
  3

  2
E1
 70
     8
280
     0
  0
ATTDEF
  5
B0
330
9B
100
AcDbEntity
  8
AM_6
100
AcDbText
 10
5.67187
 20
-6.714583333333334
 30
0.0
 40
0.5
  1
421249
100
AcDbAttributeDefinition
  3

  2
PN
 70
     8
280
     0
  0
ATTDEF
  5
B1
330
9B
100
AcDbEntity
  8
AM_6
100
AcDbText
 10
5.67187
 20
-7.214583333333334
 30
0.0
 40
0.5
  1
baldor
100
AcDbAttributeDefinition
  3

  2
COMPANY
 70
     8
280
     0
  0
LINE
  5
B4
330
9B
100
AcDbEntity
  8
AM_9
100
AcDbLine
 10
-1.155220909090909
 20
0.7260496359278602
 30
0.0
 11
-1.155220909090909
 21
0.4622368183302366
 31
0.0
  0
LINE
  5
B5
330
9B
100
AcDbEntity
  8
AM_9
100
AcDbLine
 10
-0.867039090909091
 20
0.4622123922875568
 30
0.0
 11
-0.867039090909091
 21
0.7260496359278602
 31
0.0
  0
LWPOLYLINE
  5
B6
330
9B
100
AcDbEntity
  8
AM_9
100
AcDbPolyline
 90
       15
 70
     0
 43
0.0
 10
-0.9364456467448105
 20
0.3476158561937713
 10
-0.9482134263249137
 20
0.3414969884412364
 10
-0.9709217031611445
 20
0.3331371952654175
 10
-0.9947826645643916
 20
0.3285144978271267
 10
-1.018938080335026
 20
0.3278380008496027
 10
-1.042872012115305
 20
0.3310236712039979
 10
-1.065809551100127
 20
0.3379847393654364
 10
-1.087219651608121
 20
0.3484389753977647
 10
-1.106592587756805
 20
0.3621813568757106
 10
-1.123295368843851
 20
0.3786803184312395
 10
-1.136900512290957
 20
0.3975837798053717
 10
-1.146950446807703
 20
0.418184793887558
 10
-1.153087377245121
 20
0.4398096610374446
 10
-1.155220312477002
 20
0.4618628918935782
 10
-1.155220909063769
 20
0.4622361891438695
  0
LWPOLYLINE
  5
B7
330
9B
100
AcDbEntity
  8
AM_9
100
AcDbPolyline
 90
        8
 70
     0
 43
0.0
 10
-0.8670390914620988
 20
0.4622501650273944
 10
-0.8679396618521619
 20
0.4476110609826823
 10
-0.872629939336575
 20
0.425955525711985
 10
-0.8811532247653745
 20
0.4051229035791445
 10
-0.8933571326599581
 20
0.3856886166335206
 10
-0.908830139313848
 20
0.368278610135976
 10
-0.9273351377559458
 20
0.3533553643383103
 10
-0.9364456467448105
 20
0.3476158561937713
  0
LWPOLYLINE
  5
B8
330
9B
100
AcDbEntity
  8
AM_9
100
AcDbPolyline
 90
       10
 70
     0
 43
0.0
 10
-1.155220909063769
 20
0.4622361891438695
 10
-1.153257566185989
 20
0.4835337997777054
 10
-1.147345996430275
 20
0.5043930288286166
 10
-1.137609662327674
 20
0.5238526960598112
 10
-1.124375436590331
 20
0.5414488205770556
 10
-1.107835939239389
 20
0.5568226068799539
 10
-1.088577841101496
 20
0.5695005097108287
 10
-1.067014368788827
 20
0.5791739029266976
 10
-1.043851441855552
 20
0.585597506793239
 10
-1.01113
 20
0.5888006888204653
  0
LINE
  5
B9
330
9B
100
AcDbEntity
  8
AM_9
100
AcDbLine
 10
-1.155220909090909
 20
1.717979797979798
 30
0.0
 11
-1.155220909090909
 21
1.09375
 31
0.0
  0
LINE
  5
BA
330
9B
100
AcDbEntity
  8
AM_9
100
AcDbLine
 10
-0.867039090909091
 20
1.09375
 30
0.0
 11
-0.867039090909091
 21
1.717979797979798
 31
0.0
  0
LINE
  5
BB
330
9B
100
AcDbEntity
  8
AM_9
100
AcDbLine
 10
-0.867039090909091
 20
1.717979797979798
 30
0.0
 11
-1.155220909090909
 21
1.717979797979798
 31
0.0
  0
LINE
  5
BC
330
9B
100
AcDbEntity
  8
AM_9
100
AcDbLine
 10
-0.867039090909091
 20
1.717979797979798
 30
0.0
 11
-0.8350188888888891
 21
1.75
 31
0.0
  0
LINE
  5
BD
330
9B
100
AcDbEntity
  8
AM_9
100
AcDbLine
 10
-1.187241111111111
 20
1.75
 30
0.0
 11
-1.155220909090909
 21
1.717979797979798
 31
0.0
  0
LWPOLYLINE
  5
BE
330
9B
100
AcDbEntity
  8
AM_9
100
AcDbPolyline
 90
        7
 70
     0
 43
0.0
 10
-0.9202087394696652
 20
0.5611284007181923
 10
-0.9039253868898567
 20
0.5476826614039747
 10
-0.8892963727759848
 20
0.5308192146287237
 10
-0.8780985913132865
 20
0.5117850387628495
 10
-0.8706665881619505
 20
0.4911572796819116
 10
-0.8672839666008567
 20
0.4695996462573747
 10
-0.8670390914620988
 20
0.4622501650273944
  0
LWPOLYLINE
  5
BF
330
9B
100
AcDbEntity
  8
AM_9
100
AcDbPolyline
 90
        6
 70
     0
 43
0.0
 10
-1.01113
 20
0.5888006888204653
 10
-0.9870593864012147
 20
0.5870666764444625
 10
-0.9636701126045418
 20
0.5819524195091695
 10
-0.9416443097481626
 20
0.5735394535686152
 10
-0.9215641932863025
 20
0.5620678218912861
 10
-0.9202087394696652
 20
0.5611284007181923
  0
LINE
  5
C0
330
9B
100
AcDbEntity
  8
AM_9
100
AcDbLine
 10
-1.32813
 20
-1.09375
 30
0.0
 11
0.67187
 21
-1.09375
 31
0.0
  0
LINE
  5
C1
330
9B
100
AcDbEntity
  8
AM_9
100
AcDbLine
 10
0.67187
 20
1.09375
 30
0.0
 11
-0.8670390909090906
 21
1.09375
 31
0.0
  0
LINE
  5
C2
330
9B
100
AcDbEntity
  8
AM_9
100
AcDbLine
 10
-1.155220909090909
 20
1.09375
 30
0.0
 11
-1.32813
 21
1.09375
 31
0.0
  0
LWPOLYLINE
  5
C3
330
9B
100
AcDbEntity
  8
AM_9
100
AcDbPolyline
 90
       20
 70
     0
 43
0.0
 10
-1.15522090909073
 20
1.093749999999976
 10
-1.155027838217366
 20
1.093724581538235
 10
-1.151681785278588
 20
1.093289383814896
 10
-1.144569411806696
 20
1.092397797984174
 10
-1.133490090754882
 20
1.091099841548379
 10
-1.119276424120129
 20
1.089597412564534
 10
-1.101576664292575
 20
1.087983212875552
 10
-1.081724752263025
 20
1.086512996454453
 10
-1.059242743688566
 20
1.085284160265226
 10
-1.036095289142502
 20
1.084504558809839
 10
-1.011540239774624
 20
1.084217247932364
 10
-0.9878496675191121
 20
1.084467079397884
 10
-0.9641472568842344
 20
1.085234652307066
 10
-0.9424237908225677
 20
1.086391925410387
 10
-0.9220408929020005
 20
1.087871197072923
 10
-0.9045550465298151
 20
1.089442560727516
 10
-0.8896242481074906
 20
1.091004363034502
 10
-0.8784587452980703
 20
1.092304231540618
 10
-0.8708043092656319
 20
1.093260340402703
 10
-0.867039090909091
 20
1.09375
  0
LINE
  5
C4
330
9B
100
AcDbEntity
  8
AM_9
100
AcDbLine
 10
-0.6941300000000001
 20
-1.25
 30
0.0
 11
-0.36243
 21
-1.25
 31
0.0
  0
LINE
  5
C5
330
9B
100
AcDbEntity
  8
AM_9
100
AcDbLine
 10
-0.36243
 20
1.25
 30
0.0
 11
-0.6941300000000001
 21
1.25
 31
0.0
  0
LINE
  5
C6
330
9B
100
AcDbEntity
  8
AM_9
100
AcDbLine
 10
-0.6941300000000001
 20
1.73
 30
0.0
 11
-0.6941300000000001
 21
-1.73
 31
0.0
  0
ARC
  5
C7
330
9B
100
AcDbEntity
  8
AM_9
100
AcDbCircle
 10
-0.7141299999999988
 20
-1.730000000000001
 30
0.0
 40
0.0199999999999987
100
AcDbArc
 50
270.0
 51
0.0
  0
ARC
  5
C8
330
9B
100
AcDbEntity
  8
AM_9
100
AcDbCircle
 10
-0.7141299999999988
 20
1.730000000000001
 30
0.0
 40
0.0199999999999987
100
AcDbArc
 50
0.0
 51
90.0
  0
LINE
  5
C9
330
9B
100
AcDbEntity
  8
AM_9
100
AcDbLine
 10
-0.3624300000000001
 20
1.73
 30
0.0
 11
-0.3624300000000001
 21
-1.73
 31
0.0
  0
ARC
  5
CA
330
9B
100
AcDbEntity
  8
AM_9
100
AcDbCircle
 10
-0.3424300000000002
 20
-1.73
 30
0.0
 40
0.0199999999999999
100
AcDbArc
 50
180.0
 51
270.0
  0
ARC
  5
CB
330
9B
100
AcDbEntity
  8
AM_9
100
AcDbCircle
 10
-0.3424300000000002
 20
1.73
 30
0.0
 40
0.0199999999999998
100
AcDbArc
 50
90.0
 51
180.0
  0
LWPOLYLINE
  5
CC
330
9B
100
AcDbEntity
  8
AM_9
100
AcDbPolyline
 90
       39
 70
     0
 43
0.0
 10
-0.8768184191646669
 20
0.639712276411107
 10
-0.8612921299043199
 20
0.6586962500143959
 10
-0.8490509188664707
 20
0.6795417716308869
 10
-0.8398586911552368
 20
0.7040496187765557
 10
-0.8354071058478242
 20
0.7294706782297652
 10
-0.8358413937313036
 20
0.7540717540628661
 10
-0.8408186659136302
 20
0.7780862765227519
 10
-0.8501125991597296
 20
0.8006232380128723
 10
-0.8633713639970024
 20
0.8213781827631224
 10
-0.8807099236768641
 20
0.8403045645733768
 10
-0.901253725666535
 20
0.8564640431709651
 10
-0.9255659651448593
 20
0.8700322937630511
 10
-0.9520644220005292
 20
0.8799984171521759
 10
-0.9812468150494652
 20
0.8863217244084683
 10
-1.011234216144596
 20
0.8884482137270806
 10
-1.041902395498774
 20
0.8861917765593679
 10
-1.071703026577136
 20
0.8795468623350012
 10
-1.099777355012949
 20
0.8685679858848628
 10
-1.125271469796893
 20
0.853526784077039
 10
-1.146860099331713
 20
0.8351487030297916
 10
-1.164460142288211
 20
0.8136140241934547
 10
-1.176892898819227
 20
0.7905273422165693
 10
-1.184609572720903
 20
0.7656840151606977
 10
-1.187214135349569
 20
0.741003834468799
 10
-1.185146068517642
 20
0.7161037817053358
 10
-1.178604410507125
 20
0.6922381968103675
 10
-1.167890694833877
 20
0.6695284998615203
 10
-1.153048421268926
 20
0.6482934327644505
 10
-1.134735138711213
 20
0.6294288150078671
 10
-1.112497524679001
 20
0.6128274097155739
 10
-1.087709515661132
 20
0.5997055312546979
 10
-1.059779142365637
 20
0.5900950399934278
 10
-1.030560179296403
 20
0.5848549939518669
 10
-0.9999405276391168
 20
0.5842202847571587
 10
-0.9696321882136014
 20
0.5883681326664166
 10
-0.9402726098707053
 20
0.5973469652278268
 10
-0.912957852279115
 20
0.6108395827933601
 10
-0.8938333482860493
 20
0.6241503780987583
 10
-0.8768184191405862
 20
0.6397122763429866
  0
LINE
  5
CD
330
9B
100
AcDbEntity
  8
AM_9
100
AcDbLine
 10
-1.0984375
 20
-1.75
 30
0.0
 11
-0.7141299999999997
 21
-1.75
 31
0.0
  0
LINE
  5
CE
330
9B
100
AcDbEntity
  8
AM_9
100
AcDbLine
 10
-0.7141299999999997
 20
1.75
 30
0.0
 11
-0.8286458333333335
 21
1.75
 31
0.0
  0
LINE
  5
CF
330
9B
100
AcDbEntity
  8
AM_9
100
AcDbLine
 10
-0.7141299999999997
 20
1.75
 30
0.0
 11
-0.7141299999999997
 21
-1.75
 31
0.0
  0
LINE
  5
D0
330
9B
100
AcDbEntity
  8
AM_9
100
AcDbLine
 10
-0.3424300000000001
 20
-1.75
 30
0.0
 11
0.6518700000000003
 21
-1.75
 31
0.0
  0
LINE
  5
D1
330
9B
100
AcDbEntity
  8
AM_9
100
AcDbLine
 10
0.6518700000000003
 20
1.75
 30
0.0
 11
-0.3424300000000001
 21
1.75
 31
0.0
  0
LINE
  5
D2
330
9B
100
AcDbEntity
  8
AM_9
100
AcDbLine
 10
-0.3424300000000001
 20
1.75
 30
0.0
 11
-0.3424300000000001
 21
-1.75
 31
0.0
  0
LINE
  5
D3
330
9B
100
AcDbEntity
  8
AM_9
100
AcDbLine
 10
0.67187
 20
1.73
 30
0.0
 11
0.67187
 21
-1.73
 31
0.0
  0
ARC
  5
D4
330
9B
100
AcDbEntity
  8
AM_9
100
AcDbCircle
 10
0.6518699999999998
 20
-1.73
 30
0.0
 40
0.02
100
AcDbArc
 50
270.0
 51
0.0
  0
ARC
  5
D5
330
9B
100
AcDbEntity
  8
AM_9
100
AcDbCircle
 10
0.6518699999999998
 20
1.73
 30
0.0
 40
0.0200000000000001
100
AcDbArc
 50
0.0
 51
90.0
  0
LINE
  5
D6
330
9B
100
AcDbEntity
  8
AM_9
100
AcDbLine
 10
0.6518700000000003
 20
1.75
 30
0.0
 11
0.6518700000000003
 21
-1.75
 31
0.0
  0
LINE
  5
D8
330
9B
100
AcDbEntity
  8
AM_5
100
AcDbLine
 10
-0.835018888888889
 20
1.09375
 30
0.0
 11
-0.835018888888889
 21
1.75
 31
0.0
  0
LINE
  5
D9
330
9B
100
AcDbEntity
  8
AM_5
100
AcDbLine
 10
-1.187241111111111
 20
1.09375
 30
0.0
 11
-1.187241111111111
 21
1.75
 31
0.0
  0
ELLIPSE
  5
DA
330
9B
100
AcDbEntity
  8
AM_9
100
AcDbEllipse
 10
-1.01113
 20
0.7260496359278594
 30
0.0
 11
-0.144090909090909
 21
1.764604706044140E-17
 31
0.0
210
0.0
220
0.0
230
1.0
 40
0.906307787036647
 41
0.0
 42
6.283185307179586
  0
LINE
  5
DD
330
9B
100
AcDbEntity
  8
AM_7
100
AcDbLine
 10
-1.01113
 20
1.785416666666667
 30
0.0
 11
-1.01113
 21
1.00625
 31
0.0
  0
LINE
  5
DF
330
9B
100
AcDbEntity
  8
AM_4
100
AcDbLine
 10
-1.28813
 20
-1.75
 30
0.0
 11
-1.0984375
 21
-1.75
 31
0.0
  0
LINE
  5
E0
330
9B
100
AcDbEntity
  8
AM_4
100
AcDbLine
 10
-0.8286458333333335
 20
1.75
 30
0.0
 11
-0.8350188888888891
 21
1.75
 31
0.0
  0
LINE
  5
E1
330
9B
100
AcDbEntity
  8
AM_4
100
AcDbLine
 10
-1.187241111111111
 20
1.75
 30
0.0
 11
-1.28813
 21
1.75
 31
0.0
  0
LWPOLYLINE
  5
E2
330
9B
100
AcDbEntity
  8
AM_4
100
AcDbPolyline
 90
       20
 70
     0
 43
0.0
 10
-0.8350188888889095
 20
1.749999999999998
 10
-0.837188680321375
 20
1.749802810302993
 10
-0.8436682401192115
 20
1.749228270490174
 10
-0.854586673660061
 20
1.748308760335569
 10
-0.869265364729616
 20
1.747169016473417
 10
-0.8878699809039202
 20
1.74588394071718
 10
-0.9098476621630744
 20
1.744596519749918
 10
-0.9350010468787259
 20
1.743430853187242
 10
-0.96257714859545
 20
1.742531767009881
 10
-0.9922127899694408
 20
1.74200851128797
 10
-1.022408253447294
 20
1.741948130750646
 10
-1.053139620082295
 20
1.742376726423525
 10
-1.082056217812337
 20
1.743230858414969
 10
-1.10974232894155
 20
1.744457179120941
 10
-1.133393704009136
 20
1.745820165284763
 10
-1.154107531540368
 20
1.747251545647342
 10
-1.169381341414731
 20
1.748448570742301
 10
-1.180462342790372
 20
1.749391930032859
 10
-1.186072881127296
 20
1.749893533019009
 10
-1.187241111111044
 20
1.749999999999993
  0
LINE
  5
E3
330
9B
100
AcDbEntity
  8
AM_4
100
AcDbLine
 10
-1.32813
 20
1.71
 30
0.0
 11
-1.32813
 21
-1.71
 31
0.0
  0
ARC
  5
E4
330
9B
100
AcDbEntity
  8
AM_4
100
AcDbCircle
 10
-1.28813
 20
-1.71
 30
0.0
 40
0.0400000000000003
100
AcDbArc
 50
180.0
 51
270.0
  0
ARC
  5
E5
330
9B
100
AcDbEntity
  8
AM_4
100
AcDbCircle
 10
-1.28813
 20
1.71
 30
0.0
 40
0.04
100
AcDbArc
 50
90.0
 51
180.0
  0
LINE
  5
E6
330
9B
100
AcDbEntity
  8
AM_4
100
AcDbLine
 10
-1.28813
 20
1.75
 30
0.0
 11
-1.28813
 21
-1.75
 31
0.0
  0
ENDBLK
  5
9E
330
9B
100
AcDbEntity
  8
0
100
AcDbBlockEnd
  0
BLOCK
  5
E9
330
E7
100
AcDbEntity
  8
0
100
AcDbBlockBegin
  2
3_405020c_Inch_0_in_048023_2
 70
     2
 10
0.0
 20
0.0
 30
0.0
  3
3_405020c_Inch_0_in_048023_2
  1

  0
ATTDEF
  5
EB
330
E7
100
AcDbEntity
  8
AM_6
100
AcDbText
 10
5.162408630723042
 20
2.507493188112255
 30
0.0
 40
0.5
  1
405020C -Inch
100
AcDbAttributeDefinition
  3

  2
NN
 70
     8
280
     0
  0
ATTDEF
  5
EC
330
E7
100
AcDbEntity
  8
AM_6
100
AcDbText
 10
5.162408630723042
 20
2.007493188112255
 30
0.0
 40
0.5
  1
Grease fitting
100
AcDbAttributeDefinition
  3

  2
NT
 70
     8
280
     0
  0
ATTDEF
  5
ED
330
E7
100
AcDbEntity
  8
AM_6
100
AcDbText
 10
5.162408630723042
 20
1.507493188112255
 30
0.0
 40
0.5
  1
405020c-Inch
100
AcDbAttributeDefinition
  3

  2
NB
 70
     8
280
     0
  0
ATTDEF
  5
EE
330
E7
100
AcDbEntity
  8
AM_6
100
AcDbText
 10
5.162408630723042
 20
1.007493188112255
 30
0.0
 40
0.5
  1
$MN.-Inch
100
AcDbAttributeDefinition
  3

  2
NBSYN
 70
     8
280
     0
  0
ATTDEF
  5
EF
330
E7
100
AcDbEntity
  8
AM_6
100
AcDbText
 10
5.162408630723042
 20
0.5074931881122553
 30
0.0
 40
0.5
  1
405020c
100
AcDbAttributeDefinition
  3

  2
LINA
 70
     8
280
     0
  0
ATTDEF
  5
F0
330
E7
100
AcDbEntity
  8
AM_6
100
AcDbText
 10
5.162408630723042
 20
0.0074931881122553
 30
0.0
 40
0.5
  1
405020c
100
AcDbAttributeDefinition
  3

  2
MN
 70
     8
280
     0
  0
ATTDEF
  5
F1
330
E7
100
AcDbEntity
  8
AM_6
100
AcDbText
 10
5.162408630723042
 20
-0.4925068118877447
 30
0.0
 40
0.5
  1
0.230
100
AcDbAttributeDefinition
  3

  2
NDR
 70
     8
280
     0
  0
ATTDEF
  5
F2
330
E7
100
AcDbEntity
  8
AM_6
100
AcDbText
 10
5.162408630723042
 20
-0.9925068118877447
 30
0.0
 40
0.5
  1
0.210
100
AcDbAttributeDefinition
  3

  2
KDR
 70
     8
280
     0
  0
ATTDEF
  5
F3
330
E7
100
AcDbEntity
  8
AM_6
100
AcDbText
 10
5.162408630723042
 20
-1.492506811887745
 30
0.0
 40
0.5
  1
0.157
100
AcDbAttributeDefinition
  3

  2
BZE
 70
     8
280
     0
  0
ATTDEF
  5
F4
330
E7
100
AcDbEntity
  8
AM_6
100
AcDbText
 10
5.162408630723042
 20
-1.992506811887745
 30
0.0
 40
0.5
  1
9/32
100
AcDbAttributeDefinition
  3

  2
WAF
 70
     8
280
     0
  0
ATTDEF
  5
F5
330
E7
100
AcDbEntity
  8
AM_6
100
AcDbText
 10
5.162408630723042
 20
-2.492506811887745
 30
0.0
 40
0.5
  1
0.2813
100
AcDbAttributeDefinition
  3

  2
WAF1
 70
     8
280
     0
  0
ATTDEF
  5
F6
330
E7
100
AcDbEntity
  8
AM_6
100
AcDbText
 10
5.162408630723042
 20
-2.992506811887745
 30
0.0
 40
0.5
  1
0.545
100
AcDbAttributeDefinition
  3

  2
BL
 70
     8
280
     0
  0
ATTDEF
  5
F7
330
E7
100
AcDbEntity
  8
AM_6
100
AcDbText
 10
5.162408630723042
 20
-3.492506811887745
 30
0.0
 40
0.5
  1
0.200
100
AcDbAttributeDefinition
  3

  2
TL
 70
     8
280
     0
  0
ATTDEF
  5
F8
330
E7
100
AcDbEntity
  8
AM_6
100
AcDbText
 10
5.162408630723042
 20
-3.992506811887745
 30
0.0
 40
0.5
  1
baldor
100
AcDbAttributeDefinition
  3

  2
COMPANY
 70
     8
280
     0
  0
LINE
  5
F9
330
E7
100
AcDbEntity
  8
AM_9
100
AcDbLine
 10
-0.0812043153615208
 20
2.288074428549184
 30
0.0
 11
-0.0812043153615208
 21
2.240437617291971
 31
0.0
  0
LINE
  5
FA
330
E7
100
AcDbEntity
  8
AM_9
100
AcDbLine
 10
0.0812043153615209
 20
2.288074428549184
 30
0.0
 11
0.0812043153615209
 21
2.240437617291971
 31
0.0
  0
LWPOLYLINE
  5
FB
330
E7
100
AcDbEntity
  8
AM_9
100
AcDbPolyline
 90
        4
 70
     0
 43
0.0
 10
0.0000000000000001
 20
2.235388509461096
 10
0.0311508759219516
 20
2.236179412877187
 10
0.0623017518439032
 20
2.238447136627937
 10
0.0812043153615209
 20
2.240437617291971
  0
LWPOLYLINE
  5
FC
330
E7
100
AcDbEntity
  8
AM_9
100
AcDbPolyline
 90
        3
 70
     0
 43
0.0
 10
-0.0812043153615208
 20
2.240437617291971
 10
-0.0407847159147454
 20
2.236732988401374
 10
0.0000000000000001
 20
2.235388509461096
  0
LWPOLYLINE
  5
FD
330
E7
100
AcDbEntity
  8
AM_9
100
AcDbPolyline
 90
        3
 70
     0
 43
0.0
 10
-0.1218064730422812
 20
2.200226009461097
 10
-0.101505394201901
 20
2.219139964704855
 10
-0.0812043153615208
 20
2.240437617291971
  0
LWPOLYLINE
  5
FE
330
E7
100
AcDbEntity
  8
AM_9
100
AcDbPolyline
 90
        3
 70
     0
 43
0.0
 10
0.0812043153615209
 20
2.240437617291971
 10
0.1014141150849086
 20
2.219230788435525
 10
0.1218064730422813
 20
2.200226009461097
  0
LINE
  5
FF
330
E7
100
AcDbEntity
  8
AM_9
100
AcDbLine
 10
-0.0917903170818656
 20
2.281107180154669
 30
0.0
 11
-0.0947998558160741
 21
2.279025533614824
 31
0.0
  0
LINE
  5
100
330
E7
100
AcDbEntity
  8
AM_9
100
AcDbLine
 10
-0.0812043153615208
 20
2.288074428549184
 30
0.0
 11
-0.0917903170818656
 21
2.281107180154669
 31
0.0
  0
LWPOLYLINE
  5
101
330
E7
100
AcDbEntity
  8
AM_9
100
AcDbPolyline
 90
        3
 70
     0
 43
0.0
 10
-0.0050599384313877
 20
2.293102422727729
 10
-0.0406021576807604
 20
2.2917908311363
 10
-0.0812043153615208
 20
2.288074428549184
  0
LINE
  5
102
330
E7
100
AcDbEntity
  8
AM_9
100
AcDbLine
 10
0.0000000000000001
 20
2.293123536380059
 30
0.0
 11
-0.0050599384313877
 21
2.293102422727729
 31
0.0
  0
LINE
  5
103
330
E7
100
AcDbEntity
  8
AM_9
100
AcDbLine
 10
0.093774483339015
 20
2.279740121907218
 30
0.0
 11
0.0812043153615209
 21
2.288074428549184
 31
0.0
  0
LINE
  5
104
330
E7
100
AcDbEntity
  8
AM_9
100
AcDbLine
 10
0.094793623220728
 20
2.279029894115725
 30
0.0
 11
0.093774483339015
 21
2.279740121907218
 31
0.0
  0
LINE
  5
105
330
E7
100
AcDbEntity
  8
AM_9
100
AcDbLine
 10
0.0130560525110115
 20
2.292983221224066
 30
0.0
 11
0.0000000000000001
 21
2.293123536380059
 31
0.0
  0
LWPOLYLINE
  5
106
330
E7
100
AcDbEntity
  8
AM_9
100
AcDbPolyline
 90
        4
 70
     0
 43
0.0
 10
0.0812043153615209
 20
2.288074428549184
 10
0.0623017518439032
 20
2.290064909213219
 10
0.0312428256208205
 20
2.292328012604205
 10
0.0130560525110115
 20
2.292983221224066
  0
LINE
  5
107
330
E7
100
AcDbEntity
  8
AM_9
100
AcDbLine
 10
0.0817220182273019
 20
1.962965332073821
 30
0.0
 11
0.0901544984373205
 21
1.968927996012547
 31
0.0
  0
LINE
  5
108
330
E7
100
AcDbEntity
  8
AM_9
100
AcDbLine
 10
-0.0901544984373203
 20
1.968927996012547
 30
0.0
 11
-0.0817220182273017
 21
1.962965332073821
 31
0.0
  0
LWPOLYLINE
  5
109
330
E7
100
AcDbEntity
  8
AM_9
100
AcDbPolyline
 90
        3
 70
     0
 43
0.0
 10
0.1218064730422813
 20
2.200226009461097
 10
0.1421075518826616
 20
2.183977464704856
 10
0.1624086307230418
 20
2.170112617291971
  0
LWPOLYLINE
  5
10A
330
E7
100
AcDbEntity
  8
AM_9
100
AcDbPolyline
 90
        3
 70
     0
 43
0.0
 10
-0.1624086307230417
 20
2.170112617291971
 10
-0.1421988309996539
 20
2.183910188367224
 10
-0.1218064730422812
 20
2.200226009461097
  0
LINE
  5
10B
330
E7
100
AcDbEntity
  8
AM_9
100
AcDbLine
 10
0.1103982849382552
 20
1.999806298940128
 30
0.0
 11
0.1163248500123697
 21
2.164013145033343
 31
0.0
  0
LINE
  5
10C
330
E7
100
AcDbEntity
  8
AM_9
100
AcDbLine
 10
-0.1163248500123696
 20
2.164013145033343
 30
0.0
 11
-0.1103982849382551
 21
1.999806298940128
 31
0.0
  0
ELLIPSE
  5
10D
330
E7
100
AcDbEntity
  8
AM_9
100
AcDbEllipse
 10
-0.0000000000000009
 20
2.222798536380059
 30
0.0
 11
-0.1406500000000015
 21
1.722465723000771E-17
 31
0.0
210
0.0
220
0.0
230
1.0
 40
0.4999999999999976
 41
3.757072362260175
 42
5.667705598509194
  0
LINE
  5
10E
330
E7
100
AcDbEntity
  8
AM_9
100
AcDbLine
 10
-0.0892671225930901
 20
2.281483621699755
 30
0.0
 11
-0.0951400404491451
 21
2.277330841658388
 31
0.0
  0
LINE
  5
10F
330
E7
100
AcDbEntity
  8
AM_9
100
AcDbLine
 10
0.0951342839215202
 20
2.277334912138107
 30
0.0
 11
0.0892671225930902
 21
2.281483621699755
 31
0.0
  0
LWPOLYLINE
  5
110
330
E7
100
AcDbEntity
  8
AM_9
100
AcDbPolyline
 90
        5
 70
     0
 43
0.0
 10
-0.0957089489758413
 20
2.275603022360272
 10
-0.095347460577438
 20
2.276105447580598
 10
-0.0937541244218662
 20
2.277834024682422
 10
-0.0907329511190172
 20
2.28040634508956
 10
-0.0892112739712078
 20
2.281523058015026
  0
LWPOLYLINE
  5
111
330
E7
100
AcDbEntity
  8
AM_9
100
AcDbPolyline
 90
        5
 70
     0
 43
0.0
 10
0.0891002421391221
 20
2.281601138895754
 10
0.0903369871861173
 20
2.280705867829858
 10
0.0935649243921571
 20
2.278014959698973
 10
0.0952596310547933
 20
2.276215609837505
 10
0.0957089489758414
 20
2.275603022360272
  0
ELLIPSE
  5
112
330
E7
100
AcDbEntity
  8
AM_9
100
AcDbEllipse
 10
-0.0000000000001794
 20
2.249922927838679
 30
0.0
 11
-0.1093294505799779
 21
1.338899617053087E-17
 31
0.0
210
0.0
220
0.0
230
1.0
 40
0.4999999999987635
 41
3.632712343698834
 42
5.791720862826505
  0
ELLIPSE
  5
113
330
E7
100
AcDbEntity
  8
AM_9
100
AcDbEllipse
 10
-0.0000000000000002
 20
2.298841457161793
 30
0.0
 11
-0.09936940028726657
 21
1.216924179949931E-17
 31
0.0
210
0.0
220
0.0
230
1.0
 40
0.5000000000000141
 41
2.869006655270886
 42
3.141592653589793
  0
ELLIPSE
  5
114
330
E7
100
AcDbEntity
  8
AM_9
100
AcDbEllipse
 10
-0.0000000000000037
 20
2.358035004120151
 30
0.0
 11
-0.1312419113468943
 21
1.607249866449548E-17
 31
0.0
210
0.0
220
0.0
230
1.0
 40
0.5000000000000095
 41
2.868127673878809
 42
3.141592653589793
  0
ELLIPSE
  5
115
330
E7
100
AcDbEntity
  8
AM_9
100
AcDbEllipse
 10
0.0000000000000001
 20
2.393254065824721
 30
0.0
 11
-0.13195176466768
 21
1.615943062421191E-17
 31
0.0
210
0.0
220
0.0
230
1.0
 40
0.4999999999999975
 41
3.389185217058762
 42
6.035592743710618
  0
ELLIPSE
  5
116
330
E7
100
AcDbEntity
  8
AM_9
100
AcDbEllipse
 10
0.0000000000000001
 20
2.450651215755144
 30
0.0
 11
-0.103819051053039
 21
1.271416685626199E-17
 31
0.0
210
0.0
220
0.0
230
1.0
 40
0.5000000000000032
 41
3.38918521705876
 42
6.035592743710619
  0
ELLIPSE
  5
117
330
E7
100
AcDbEntity
  8
AM_9
100
AcDbEllipse
 10
-0.0000000000000003
 20
1.991858428704207
 30
0.0
 11
-0.1000886227036581
 21
1.225732114251020E-17
 31
0.0
210
0.0
220
0.0
230
1.0
 40
0.499999999999997
 41
0.0
 42
6.283185307179586
  0
ELLIPSE
  5
118
330
E7
100
AcDbEntity
  8
AM_9
100
AcDbEllipse
 10
0.0000000000000013
 20
2.165063509461099
 30
0.0
 11
-0.1406500000000018
 21
1.722465723000775E-17
 31
0.0
210
0.0
220
0.0
230
1.0
 40
0.5000000000000091
 41
0.0
 42
6.283185307179586
  0
ELLIPSE
  5
119
330
E7
100
AcDbEntity
  8
AM_9
100
AcDbEllipse
 10
-0.0000000000002027
 20
2.165063509460007
 30
0.0
 11
-0.1163438171534799
 21
1.424800832775941E-17
 31
0.0
210
0.0
220
0.0
230
1.0
 40
0.4999999999999302
 41
0.0
 42
6.283185307179586
  0
LWPOLYLINE
  5
11A
330
E7
100
AcDbEntity
  8
AM_4
100
AcDbPolyline
 90
        3
 70
     0
 43
0.0
 10
-0.0947998558160741
 20
2.279025533614824
 10
-0.1014141150849085
 20
2.274276857473931
 10
-0.1218064730422812
 20
2.257961036380059
  0
LWPOLYLINE
  5
11B
330
E7
100
AcDbEntity
  8
AM_4
100
AcDbPolyline
 90
        3
 70
     0
 43
0.0
 10
0.1094537431635229
 20
2.26815913945957
 10
0.1015053942019011
 20
2.2742095811363
 10
0.094793623220728
 20
2.279029894115725
  0
LINE
  5
11C
330
E7
100
AcDbEntity
  8
AM_4
100
AcDbLine
 10
0.1218064730422813
 20
2.257961036380059
 30
0.0
 11
0.1094537431635229
 21
2.26815913945957
 31
0.0
  0
LWPOLYLINE
  5
11D
330
E7
100
AcDbEntity
  8
AM_4
100
AcDbPolyline
 90
        3
 70
     0
 43
0.0
 10
-0.1218064730422812
 20
2.257961036380059
 10
-0.1421075518826614
 20
2.2390470811363
 10
-0.1624086307230417
 20
2.217749428549184
  0
LWPOLYLINE
  5
11E
330
E7
100
AcDbEntity
  8
AM_4
100
AcDbPolyline
 90
        3
 70
     0
 43
0.0
 10
0.1624086307230418
 20
2.217749428549184
 10
0.1421988309996541
 20
2.238956257405631
 10
0.1218064730422813
 20
2.257961036380059
  0
LINE
  5
11F
330
E7
100
AcDbEntity
  8
AM_4
100
AcDbLine
 10
-0.1624086307230417
 20
2.217749428549184
 30
0.0
 11
-0.1624086307230417
 21
2.170112617291971
 31
0.0
  0
LWPOLYLINE
  5
120
330
E7
100
AcDbEntity
  8
AM_4
100
AcDbPolyline
 90
        3
 70
     0
 43
0.0
 10
-0.1218064730422812
 20
2.129901009461097
 10
-0.1421075518826614
 20
2.148814964704855
 10
-0.1624086307230417
 20
2.170112617291971
  0
LWPOLYLINE
  5
121
330
E7
100
AcDbEntity
  8
AM_4
100
AcDbPolyline
 90
        3
 70
     0
 43
0.0
 10
-0.0812043153615208
 20
2.099787617291971
 10
-0.1014141150849085
 20
2.113585188367224
 10
-0.1218064730422812
 20
2.129901009461097
  0
LWPOLYLINE
  5
122
330
E7
100
AcDbEntity
  8
AM_4
100
AcDbPolyline
 90
        3
 70
     0
 43
0.0
 10
-0.1624086307230417
 20
2.217749428549184
 10
-0.142198830999654
 20
2.203951857473932
 10
-0.1218064730422812
 20
2.187636036380059
  0
LINE
  5
123
330
E7
100
AcDbEntity
  8
AM_4
100
AcDbLine
 10
-0.0812043153615208
 20
2.147424428549184
 30
0.0
 11
-0.0812043153615208
 21
2.099787617291971
 31
0.0
  0
LWPOLYLINE
  5
124
330
E7
100
AcDbEntity
  8
AM_4
100
AcDbPolyline
 90
        3
 70
     0
 43
0.0
 10
0.0000000000000001
 20
2.094738509461096
 10
-0.0406021576807603
 20
2.096071214704855
 10
-0.0812043153615208
 20
2.099787617291971
  0
LWPOLYLINE
  5
125
330
E7
100
AcDbEntity
  8
AM_4
100
AcDbPolyline
 90
        4
 70
     0
 43
0.0
 10
0.0812043153615209
 20
2.099787617291971
 10
0.0623017518439032
 20
2.097797136627937
 10
0.0312428256208205
 20
2.095534033236951
 10
0.0000000000000001
 20
2.094738509461096
  0
LINE
  5
126
330
E7
100
AcDbEntity
  8
AM_4
100
AcDbLine
 10
0.081204315361521
 20
2.147424428549184
 30
0.0
 11
0.0812043153615209
 21
2.099787617291971
 31
0.0
  0
LWPOLYLINE
  5
127
330
E7
100
AcDbEntity
  8
AM_4
100
AcDbPolyline
 90
        3
 70
     0
 43
0.0
 10
0.1218064730422814
 20
2.129901009461097
 10
0.1015053942019011
 20
2.113652464704856
 10
0.0812043153615209
 20
2.099787617291971
  0
LWPOLYLINE
  5
128
330
E7
100
AcDbEntity
  8
AM_4
100
AcDbPolyline
 90
        3
 70
     0
 43
0.0
 10
0.1624086307230418
 20
2.170112617291971
 10
0.1421988309996541
 20
2.148905788435525
 10
0.1218064730422814
 20
2.129901009461097
  0
LINE
  5
129
330
E7
100
AcDbEntity
  8
AM_4
100
AcDbLine
 10
0.1624086307230418
 20
2.217749428549184
 30
0.0
 11
0.1624086307230418
 21
2.170112617291971
 31
0.0
  0
LWPOLYLINE
  5
12A
330
E7
100
AcDbEntity
  8
AM_4
100
AcDbPolyline
 90
        3
 70
     0
 43
0.0
 10
0.1218064730422814
 20
2.187636036380059
 10
0.1421075518826616
 20
2.2038845811363
 10
0.1624086307230418
 20
2.217749428549184
  0
LWPOLYLINE
  5
12B
330
E7
100
AcDbEntity
  8
AM_4
100
AcDbPolyline
 90
        3
 70
     0
 43
0.0
 10
-0.1218064730422812
 20
2.187636036380059
 10
-0.101505394201901
 20
2.1687220811363
 10
-0.0812043153615208
 20
2.147424428549184
  0
LWPOLYLINE
  5
12C
330
E7
100
AcDbEntity
  8
AM_4
100
AcDbPolyline
 90
        3
 70
     0
 43
0.0
 10
-0.0812043153615208
 20
2.147424428549184
 10
-0.0407847159147454
 20
2.151129057439781
 10
0.0000000000000001
 20
2.152473536380059
  0
LWPOLYLINE
  5
12D
330
E7
100
AcDbEntity
  8
AM_4
100
AcDbPolyline
 90
        4
 70
     0
 43
0.0
 10
0.0000000000000001
 20
2.152473536380059
 10
0.0311508759219517
 20
2.151682632963968
 10
0.0623017518439032
 20
2.149414909213219
 10
0.081204315361521
 20
2.147424428549184
  0
LWPOLYLINE
  5
12E
330
E7
100
AcDbEntity
  8
AM_4
100
AcDbPolyline
 90
        3
 70
     0
 43
0.0
 10
0.081204315361521
 20
2.147424428549184
 10
0.1014141150849086
 20
2.168631257405631
 10
0.1218064730422814
 20
2.187636036380059
  0
ELLIPSE
  5
12F
330
E7
100
AcDbEntity
  8
AM_4
100
AcDbEllipse
 10
-0.0000000000000011
 20
2.222798536380056
 30
0.0
 11
-0.1406499999999982
 21
1.722465723000730E-17
 31
0.0
210
0.0
220
0.0
230
1.0
 40
0.4999999999999871
 41
5.667705598509155
 42
10.0402576694398
  0
LINE
  5
130
330
E7
100
AcDbEntity
  8
AM_4
100
AcDbLine
 10
-0.0951400404491451
 20
2.277330841658388
 30
0.0
 11
-0.1148402441074846
 21
2.263400694060819
 31
0.0
  0
LINE
  5
131
330
E7
100
AcDbEntity
  8
AM_4
100
AcDbLine
 10
0.1148402441074848
 20
2.263400694060819
 30
0.0
 11
0.0951342839215202
 21
2.277334912138107
 31
0.0
  0
ELLIPSE
  5
132
330
E7
100
AcDbEntity
  8
AM_4
100
AcDbEllipse
 10
0.0000000000000002
 20
2.249922927838463
 30
0.0
 11
-0.1093294505797713
 21
1.338899617050557E-17
 31
0.0
210
0.0
220
0.0
230
1.0
 40
0.5000000000000008
 41
5.791720862824831
 42
9.915897650881647
  0
LWPOLYLINE
  5
133
330
E7
100
AcDbEntity
  8
AM_4
100
AcDbPolyline
 90
        4
 70
     0
 43
0.0
 10
0.0946847896390988
 20
2.280541549623253
 10
0.0947768080559718
 20
2.282128880882162
 10
0.0953342064135952
 20
2.284611984146887
 10
0.0957004368454278
 20
2.285465133848587
  0
LWPOLYLINE
  5
134
330
E7
100
AcDbEntity
  8
AM_4
100
AcDbPolyline
 90
        7
 70
     0
 43
0.0
 10
-0.095699346089309
 20
2.285463179089241
 10
-0.0953609276157554
 20
2.284686568020934
 10
-0.094815069371236
 20
2.282426241158707
 10
-0.0947796276093266
 20
2.27893033503912
 10
-0.095332977323029
 20
2.276474597877416
 10
-0.0957049441390286
 20
2.275609970314001
 10
-0.0957089489758413
 20
2.275603022360272
  0
LWPOLYLINE
  5
135
330
E7
100
AcDbEntity
  8
AM_4
100
AcDbPolyline
 90
        5
 70
     0
 43
0.0
 10
0.0957089489758414
 20
2.275603022360272
 10
0.0957081067042493
 20
2.275604463799216
 10
0.0953619670416396
 20
2.276393673133725
 10
0.0948158464221416
 20
2.278651328544891
 10
0.0946847896390988
 20
2.280541549623253
  0
LINE
  5
136
330
E7
100
AcDbEntity
  8
AM_4
100
AcDbLine
 10
0.0957004741016686
 20
2.285465200490291
 30
0.0
 11
0.1263961853608578
 21
2.340368343285324
 31
0.0
  0
LINE
  5
137
330
E7
100
AcDbEntity
  8
AM_4
100
AcDbLine
 10
-0.1263961853608576
 20
2.340368343285324
 30
0.0
 11
-0.0957004741016685
 21
2.285465200490291
 31
0.0
  0
ELLIPSE
  5
138
330
E7
100
AcDbEntity
  8
AM_4
100
AcDbEllipse
 10
0.0000000000000001
 20
2.298841457161786
 30
0.0
 11
-0.09936940028726637
 21
1.216924179949928E-17
 31
0.0
210
0.0
220
0.0
230
1.0
 40
0.5000000000000062
 41
0.2725859983187835
 42
2.86900665527101
  0
LWPOLYLINE
  5
139
330
E7
100
AcDbEntity
  8
AM_4
100
AcDbPolyline
 90
        5
 70
     0
 43
0.0
 10
0.135926521995058
 20
2.376334911658667
 10
0.1351123186583388
 20
2.38710006603042
 10
0.1326048588164325
 20
2.397930982795863
 10
0.128553494421162
 20
2.408156872143544
 10
0.1275298301921114
 20
2.41019938614776
  0
LWPOLYLINE
  5
13A
330
E7
100
AcDbEntity
  8
AM_4
100
AcDbPolyline
 90
        9
 70
     0
 43
0.0
 10
-0.1276409133614526
 20
2.409984844679763
 10
-0.1293307747747128
 20
2.406496689152967
 10
-0.1330956722373565
 20
2.396298323035543
 10
-0.1354442855459547
 20
2.384627205906654
 10
-0.1358526620208498
 20
2.373086059906389
 10
-0.1344599036226971
 20
2.361912303736405
 10
-0.1314250203809983
 20
2.351274873371665
 10
-0.1268882629699402
 20
2.341262034406384
 10
-0.1259696271795818
 20
2.339615110950966
  0
LWPOLYLINE
  5
13B
330
E7
100
AcDbEntity
  8
AM_4
100
AcDbPolyline
 90
        5
 70
     0
 43
0.0
 10
0.1263340111437749
 20
2.340257347129911
 10
0.1308847428469884
 20
2.349852588015432
 10
0.1340848532350869
 20
2.360189507625683
 10
0.135784805095593
 20
2.37183549416631
 10
0.135926521995058
 20
2.376334911658667
  0
ELLIPSE
  5
13C
330
E7
100
AcDbEntity
  8
AM_4
100
AcDbEllipse
 10
0.0000000000000002
 20
2.358035004120134
 30
0.0
 11
-0.1312419113468907
 21
1.607249866449504E-17
 31
0.0
210
0.0
220
0.0
230
1.0
 40
0.4999999999999994
 41
0.2790207952320678
 42
2.868127673879038
  0
ELLIPSE
  5
13D
330
E7
100
AcDbEntity
  8
AM_4
100
AcDbEllipse
 10
0.0000000000000001
 20
2.463842273766728
 30
0.0
 11
0.08080642971672804
 21
0.0
 31
0.0
210
0.0
220
0.0
230
1.0
 40
0.4999999999999992
 41
0.0
 42
6.283185307179586
  0
LWPOLYLINE
  5
13E
330
E7
100
AcDbEntity
  8
AM_4
100
AcDbPolyline
 90
       22
 70
     0
 43
0.0
 10
0.10051795384511
 20
2.463638132293239
 10
0.0993027876828515
 20
2.465870008814173
 10
0.0940887743515064
 20
2.473381965825365
 10
0.0873756608075865
 20
2.480382911987201
 10
0.0790860269228102
 20
2.486849207117463
 10
0.0692309917976165
 20
2.4926601668408
 10
0.0580249143465715
 20
2.497633489999088
 10
0.0458525312628746
 20
2.501621001967574
 10
0.0330089430406837
 20
2.504588768784363
 10
0.0197126431048475
 20
2.506543044166132
 10
0.0061568632642646
 20
2.507493188112255
 10
-0.0074718602237871
 20
2.507445052979213
 10
-0.0209887364042152
 20
2.506400811055991
 10
-0.0341987243420099
 20
2.504360919128472
 10
-0.0469333960549968
 20
2.501316934229806
 10
-0.0590350691870097
 20
2.49724207208675
 10
-0.0703480657331113
 20
2.492079137351228
 10
-0.0806855015888252
 20
2.485736574992863
 10
-0.0888245708088675
 20
2.479040274092156
 10
-0.0953720634462812
 20
2.471760628272502
 10
-0.1003166974960258
 20
2.464026412452004
 10
-0.100615797741162
 20
2.463446376938522
  0
ELLIPSE
  5
13F
330
E7
100
AcDbEntity
  8
AM_4
100
AcDbEllipse
 10
0.0000000000000001
 20
2.393254065824721
 30
0.0
 11
-0.13195176466768
 21
1.615943062421192E-17
 31
0.0
210
0.0
220
0.0
230
1.0
 40
0.4999999999999939
 41
6.035592743710622
 42
9.672370524238342
  0
ELLIPSE
  5
140
330
E7
100
AcDbEntity
  8
AM_4
100
AcDbEllipse
 10
0.0
 20
2.450651215755144
 30
0.0
 11
-0.1038190510530392
 21
1.271416685626201E-17
 31
0.0
210
0.0
220
0.0
230
1.0
 40
0.5000000000000067
 41
6.03559274371063
 42
9.672370524238335
  0
LINE
  5
141
330
E7
100
AcDbEntity
  8
AM_4
100
AcDbLine
 10
-0.1006531122094678
 20
2.463372716886121
 30
0.0
 11
-0.1279279249869864
 21
2.4094228181532
 31
0.0
  0
LINE
  5
142
330
E7
100
AcDbEntity
  8
AM_4
100
AcDbLine
 10
0.1279279249869865
 20
2.4094228181532
 30
0.0
 11
0.100653112209468
 21
2.463372716886121
 31
0.0
  0
ENDBLK
  5
EA
330
E7
100
AcDbEntity
  8
0
100
AcDbBlockEnd
  0
BLOCK
  5
145
330
143
100
AcDbEntity
  8
0
100
AcDbBlockBegin
  2
4_048023B_0_in_048023_2
 70
     2
 10
0.0
 20
0.0
 30
0.0
  3
4_048023B_0_in_048023_2
  1

  0
ATTDEF
  5
147
330
143
100
AcDbEntity
  8
AM_6
100
AcDbText
 10
6.271875
 20
2.499999999999999
 30
0.0
 40
0.5
  1
Unisphere II - Pillow Block Bearing - Inch - Body
100
AcDbAttributeDefinition
  3

  2
NN
 70
     8
280
     0
  0
ATTDEF
  5
148
330
143
100
AcDbEntity
  8
AM_6
100
AcDbText
 10
6.271875
 20
1.999999999999999
 30
0.0
 40
0.5
  1
Unisphere II
100
AcDbAttributeDefinition
  3

  2
NT
 70
     8
280
     0
  0
ATTDEF
  5
149
330
143
100
AcDbEntity
  8
AM_6
100
AcDbText
 10
6.271875
 20
1.499999999999999
 30
0.0
 40
0.5
  1
048023B
100
AcDbAttributeDefinition
  3

  2
NB
 70
     8
280
     0
  0
ATTDEF
  5
14A
330
143
100
AcDbEntity
  8
AM_6
100
AcDbText
 10
6.271875
 20
0.9999999999999991
 30
0.0
 40
0.5
  1
$PN.
100
AcDbAttributeDefinition
  3

  2
NBSYN
 70
     8
280
     0
  0
ATTDEF
  5
14B
330
143
100
AcDbEntity
  8
AM_6
100
AcDbText
 10
6.271875
 20
0.4999999999999991
 30
0.0
 40
0.5
  1
048023B
100
AcDbAttributeDefinition
  3

  2
LINA
 70
     8
280
     0
  0
ATTDEF
  5
14C
330
143
100
AcDbEntity
  8
AM_6
100
AcDbText
 10
6.271875
 20
-0.0000000000000009
 30
0.0
 40
0.5
  1
2-3/16
100
AcDbAttributeDefinition
  3

  2
SS
 70
     8
280
     0
  0
ATTDEF
  5
14D
330
143
100
AcDbEntity
  8
AM_6
100
AcDbText
 10
6.271875
 20
-0.5000000000000009
 30
0.0
 40
0.5
  1
2.18750
100
AcDbAttributeDefinition
  3

  2
SS1
 70
     8
280
     0
  0
ATTDEF
  5
14E
330
143
100
AcDbEntity
  8
AM_6
100
AcDbText
 10
6.271875
 20
-1.000000000000001
 30
0.0
 40
0.5
  1
Expansion Type
100
AcDbAttributeDefinition
  3

  2
TYPE
 70
     8
280
     0
  0
ATTDEF
  5
14F
330
143
100
AcDbEntity
  8
AM_6
100
AcDbText
 10
6.271875
 20
-1.500000000000001
 30
0.0
 40
0.5
  1
048006B
100
AcDbAttributeDefinition
  3

  2
PNNE
 70
     8
280
     0
  0
ATTDEF
  5
150
330
143
100
AcDbEntity
  8
AM_6
100
AcDbText
 10
6.271875
 20
-2.000000000000001
 30
0.0
 40
0.5
  1
048023B
100
AcDbAttributeDefinition
  3

  2
PNE
 70
     8
280
     0
  0
ATTDEF
  5
151
330
143
100
AcDbEntity
  8
AM_6
100
AcDbText
 10
6.271875
 20
-2.500000000000001
 30
0.0
 40
0.5
  1
P2B-UN2-203
100
AcDbAttributeDefinition
  3

  2
DESCRIPTIONNE
 70
     8
280
     0
  0
ATTDEF
  5
152
330
143
100
AcDbEntity
  8
AM_6
100
AcDbText
 10
6.271875
 20
-3.000000000000001
 30
0.0
 40
0.5
  1
P2B-UN2-203E
100
AcDbAttributeDefinition
  3

  2
DESCRIPTIONE
 70
     8
280
     0
  0
ATTDEF
  5
153
330
143
100
AcDbEntity
  8
AM_6
100
AcDbText
 10
6.271875
 20
-3.500000000000001
 30
0.0
 40
0.5
  1
9.8
100
AcDbAttributeDefinition
  3

  2
WEIGHT
 70
     8
280
     0
  0
ATTDEF
  5
154
330
143
100
AcDbEntity
  8
AM_6
100
AcDbText
 10
6.271875
 20
-4.000000000000001
 30
0.0
 40
0.5
  1
2
100
AcDbAttributeDefinition
  3

  2
A
 70
     8
280
     0
  0
ATTDEF
  5
155
330
143
100
AcDbEntity
  8
AM_6
100
AcDbText
 10
6.271875
 20
-4.500000000000001
 30
0.0
 40
0.5
  1
2.00000
100
AcDbAttributeDefinition
  3

  2
A1
 70
     8
280
     0
  0
ATTDEF
  5
156
330
143
100
AcDbEntity
  8
AM_6
100
AcDbText
 10
6.271875
 20
-5.000000000000001
 30
0.0
 40
0.5
  1
8-7/8
100
AcDbAttributeDefinition
  3

  2
B
 70
     8
280
     0
  0
ATTDEF
  5
157
330
143
100
AcDbEntity
  8
AM_6
100
AcDbText
 10
6.271875
 20
-5.500000000000001
 30
0.0
 40
0.5
  1
8.87500
100
AcDbAttributeDefinition
  3

  2
B1
 70
     8
280
     0
  0
ATTDEF
  5
158
330
143
100
AcDbEntity
  8
AM_6
100
AcDbText
 10
6.271875
 20
-6.000000000000001
 30
0.0
 40
0.5
  1
2-5/16
100
AcDbAttributeDefinition
  3

  2
C
 70
     8
280
     0
  0
ATTDEF
  5
159
330
143
100
AcDbEntity
  8
AM_6
100
AcDbText
 10
6.271875
 20
-6.500000000000001
 30
0.0
 40
0.5
  1
2.31250
100
AcDbAttributeDefinition
  3

  2
C1
 70
     8
280
     0
  0
ATTDEF
  5
15A
330
143
100
AcDbEntity
  8
AM_6
100
AcDbText
 10
6.271875
 20
-7.000000000000001
 30
0.0
 40
0.5
  1
6-7/16
100
AcDbAttributeDefinition
  3

  2
DMIN
 70
     8
280
     0
  0
ATTDEF
  5
15B
330
143
100
AcDbEntity
  8
AM_6
100
AcDbText
 10
6.271875
 20
-7.500000000000001
 30
0.0
 40
0.5
  1
6.43750
100
AcDbAttributeDefinition
  3

  2
DMIN1
 70
     8
280
     0
  0
ATTDEF
  5
15C
330
143
100
AcDbEntity
  8
AM_6
100
AcDbText
 10
6.271875
 20
-8.0
 30
0.0
 40
0.5
  1
7-1/8
100
AcDbAttributeDefinition
  3

  2
DMAX
 70
     8
280
     0
  0
ATTDEF
  5
15D
330
143
100
AcDbEntity
  8
AM_6
100
AcDbText
 10
6.271875
 20
-8.5
 30
0.0
 40
0.5
  1
7.12500
100
AcDbAttributeDefinition
  3

  2
DMAX1
 70
     8
280
     0
  0
ATTDEF
  5
15E
330
143
100
AcDbEntity
  8
AM_6
100
AcDbText
 10
6.271875
 20
-9.0
 30
0.0
 40
0.5
  1
5/32
100
AcDbAttributeDefinition
  3

  2
E
 70
     8
280
     0
  0
ATTDEF
  5
15F
330
143
100
AcDbEntity
  8
AM_6
100
AcDbText
 10
6.271875
 20
-9.5
 30
0.0
 40
0.5
  1
0.15625
100
AcDbAttributeDefinition
  3

  2
E1
 70
     8
280
     0
  0
ATTDEF
  5
160
330
143
100
AcDbEntity
  8
AM_6
100
AcDbText
 10
6.271875
 20
-10.0
 30
0.0
 40
0.5
  1
5/8
100
AcDbAttributeDefinition
  3

  2
F
 70
     8
280
     0
  0
ATTDEF
  5
161
330
143
100
AcDbEntity
  8
AM_6
100
AcDbText
 10
6.271875
 20
-10.5
 30
0.0
 40
0.5
  1
0.62500
100
AcDbAttributeDefinition
  3

  2
F1
 70
     8
280
     0
  0
ATTDEF
  5
162
330
143
100
AcDbEntity
  8
AM_6
100
AcDbText
 10
6.271875
 20
-11.0
 30
0.0
 40
0.5
  1
1-1/32
100
AcDbAttributeDefinition
  3

  2
G
 70
     8
280
     0
  0
ATTDEF
  5
163
330
143
100
AcDbEntity
  8
AM_6
100
AcDbText
 10
6.271875
 20
-11.5
 30
0.0
 40
0.5
  1
1.03125
100
AcDbAttributeDefinition
  3

  2
G1
 70
     8
280
     0
  0
ATTDEF
  5
164
330
143
100
AcDbEntity
  8
AM_6
100
AcDbText
 10
6.271875
 20
-12.0
 30
0.0
 40
0.5
  1
1-5/8
100
AcDbAttributeDefinition
  3

  2
H
 70
     8
280
     0
  0
ATTDEF
  5
165
330
143
100
AcDbEntity
  8
AM_6
100
AcDbText
 10
6.271875
 20
-12.5
 30
0.0
 40
0.5
  1
1.62500
100
AcDbAttributeDefinition
  3

  2
H1
 70
     8
280
     0
  0
ATTDEF
  5
166
330
143
100
AcDbEntity
  8
AM_6
100
AcDbText
 10
6.271875
 20
-13.0
 30
0.0
 40
0.5
  1
5
100
AcDbAttributeDefinition
  3

  2
J
 70
     8
280
     0
  0
ATTDEF
  5
167
330
143
100
AcDbEntity
  8
AM_6
100
AcDbText
 10
6.271875
 20
-13.5
 30
0.0
 40
0.5
  1
5.00000
100
AcDbAttributeDefinition
  3

  2
J1
 70
     8
280
     0
  0
ATTDEF
  5
168
330
143
100
AcDbEntity
  8
AM_6
100
AcDbText
 10
6.271875
 20
-14.0
 30
0.0
 40
0.5
  1
3-1/2
100
AcDbAttributeDefinition
  3

  2
L
 70
     8
280
     0
  0
ATTDEF
  5
169
330
143
100
AcDbEntity
  8
AM_6
100
AcDbText
 10
6.271875
 20
-14.5
 30
0.0
 40
0.5
  1
3.50000
100
AcDbAttributeDefinition
  3

  2
L1
 70
     8
280
     0
  0
ATTDEF
  5
16A
330
143
100
AcDbEntity
  8
AM_6
100
AcDbText
 10
6.271875
 20
-15.0
 30
0.0
 40
0.5
  1
2-1/2
100
AcDbAttributeDefinition
  3

  2
M
 70
     8
280
     0
  0
ATTDEF
  5
16B
330
143
100
AcDbEntity
  8
AM_6
100
AcDbText
 10
6.271875
 20
-15.5
 30
0.0
 40
0.5
  1
2.50000
100
AcDbAttributeDefinition
  3

  2
M1
 70
     8
280
     0
  0
ATTDEF
  5
16C
330
143
100
AcDbEntity
  8
AM_6
100
AcDbText
 10
6.271875
 20
-16.0
 30
0.0
 40
0.5
  1
33/64
100
AcDbAttributeDefinition
  3

  2
R
 70
     8
280
     0
  0
ATTDEF
  5
16D
330
143
100
AcDbEntity
  8
AM_6
100
AcDbText
 10
6.271875
 20
-16.5
 30
0.0
 40
0.5
  1
0.51563
100
AcDbAttributeDefinition
  3

  2
R1
 70
     8
280
     0
  0
ATTDEF
  5
16E
330
143
100
AcDbEntity
  8
AM_6
100
AcDbText
 10
6.271875
 20
-17.0
 30
0.0
 40
0.5
  1
1-31/64
100
AcDbAttributeDefinition
  3

  2
S
 70
     8
280
     0
  0
ATTDEF
  5
16F
330
143
100
AcDbEntity
  8
AM_6
100
AcDbText
 10
6.271875
 20
-17.5
 30
0.0
 40
0.5
  1
1.48438
100
AcDbAttributeDefinition
  3

  2
S1
 70
     8
280
     0
  0
ATTDEF
  5
170
330
143
100
AcDbEntity
  8
AM_6
100
AcDbText
 10
6.271875
 20
-18.0
 30
0.0
 40
0.5
  1
2325
100
AcDbAttributeDefinition
  3

  2
MRP
 70
     8
280
     0
  0
ATTDEF
  5
171
330
143
100
AcDbEntity
  8
AM_6
100
AcDbText
 10
6.271875
 20
-18.5
 30
0.0
 40
0.5
  1
32500
100
AcDbAttributeDefinition
  3

  2
CS
 70
     8
280
     0
  0
ATTDEF
  5
172
330
143
100
AcDbEntity
  8
AM_6
100
AcDbText
 10
6.271875
 20
-19.0
 30
0.0
 40
0.5
  1
27000
100
AcDbAttributeDefinition
  3

  2
CD
 70
     8
280
     0
  0
ATTDEF
  5
173
330
143
100
AcDbEntity
  8
AM_6
100
AcDbText
 10
6.271875
 20
-19.5
 30
0.0
 40
0.5
  1
19
100
AcDbAttributeDefinition
  3

  2
RN
 70
     8
280
     0
  0
ATTDEF
  5
174
330
143
100
AcDbEntity
  8
AM_6
100
AcDbText
 10
6.271875
 20
-20.0
 30
0.0
 40
0.5
  1
0.4646
100
AcDbAttributeDefinition
  3

  2
RM
 70
     8
280
     0
  0
ATTDEF
  5
175
330
143
100
AcDbEntity
  8
AM_6
100
AcDbText
 10
6.271875
 20
-20.5
 30
0.0
 40
0.5
  1
3.189
100
AcDbAttributeDefinition
  3

  2
PDI
 70
     8
280
     0
  0
ATTDEF
  5
176
330
143
100
AcDbEntity
  8
AM_6
100
AcDbText
 10
6.271875
 20
-21.0
 30
0.0
 40
0.5
  1
0.0016-0.0026
100
AcDbAttributeDefinition
  3

  2
RC
 70
     8
280
     0
  0
ATTDEF
  5
177
330
143
100
AcDbEntity
  8
AM_6
100
AcDbText
 10
6.271875
 20
-21.5
 30
0.0
 40
0.5
  1
3/8-16x3/4
100
AcDbAttributeDefinition
  3

  2
COS
 70
     8
280
     0
  0
ATTDEF
  5
178
330
143
100
AcDbEntity
  8
AM_6
100
AcDbText
 10
6.271875
 20
-22.0
 30
0.0
 40
0.5
  1
290
100
AcDbAttributeDefinition
  3

  2
CT
 70
     8
280
     0
  0
ATTDEF
  5
179
330
143
100
AcDbEntity
  8
AM_6
100
AcDbText
 10
6.271875
 20
-22.5
 30
0.0
 40
0.5
  1
Ductile Iron Grade 65-45-13 ASTM A536
100
AcDbAttributeDefinition
  3

  2
MH
 70
     8
280
     0
  0
ATTDEF
  5
17A
330
143
100
AcDbEntity
  8
AM_6
100
AcDbText
 10
6.271875
 20
-23.0
 30
0.0
 40
0.5
  1
4118 Case Carb,
100
AcDbAttributeDefinition
  3

  2
MIR
 70
     8
280
     0
  0
ATTDEF
  5
17B
330
143
100
AcDbEntity
  8
AM_6
100
AcDbText
 10
6.271875
 20
-23.5
 30
0.0
 40
0.5
  1
E52100 Steel
100
AcDbAttributeDefinition
  3

  2
MOR
 70
     8
280
     0
  0
ATTDEF
  5
17C
330
143
100
AcDbEntity
  8
AM_6
100
AcDbText
 10
6.271875
 20
-24.0
 30
0.0
 40
0.5
  1
Polyamide
100
AcDbAttributeDefinition
  3

  2
MR
 70
     8
280
     0
  0
ATTDEF
  5
17D
330
143
100
AcDbEntity
  8
AM_6
100
AcDbText
 10
6.271875
 20
-24.5
 30
0.0
 40
0.5
  1
E52100 Steel
100
AcDbAttributeDefinition
  3

  2
MRO
 70
     8
280
     0
  0
ATTDEF
  5
17E
330
143
100
AcDbEntity
  8
AM_6
100
AcDbText
 10
6.271875
 20
-25.0
 30
0.0
 40
0.5
  1
2°
100
AcDbAttributeDefinition
  3

  2
SM
 70
     8
280
     0
  0
ATTDEF
  5
17F
330
143
100
AcDbEntity
  8
AM_6
100
AcDbText
 10
6.271875
 20
-25.5
 30
0.0
 40
0.5
  1
baldor
100
AcDbAttributeDefinition
  3

  2
COMPANY
 70
     8
280
     0
  0
LINE
  5
180
330
143
100
AcDbEntity
  8
AM_9
100
AcDbLine
 10
-1.100460937500001
 20
-1.776250000000001
 30
0.0
 11
1.1004609375
 21
-1.77625
 31
0.0
  0
LINE
  5
181
330
143
100
AcDbEntity
  8
AM_9
100
AcDbLine
 10
-0.558552631578947
 20
-1.75
 30
0.0
 11
0.5585526315789472
 21
-1.75
 31
0.0
  0
LINE
  5
182
330
143
100
AcDbEntity
  8
AM_9
100
AcDbLine
 10
0.5585526315789472
 20
1.75
 30
0.0
 11
-0.558552631578947
 21
1.75
 31
0.0
  0
ARC
  5
183
330
143
100
AcDbEntity
  8
AM_9
100
AcDbCircle
 10
-0.5585526315789472
 20
-1.799999999999999
 30
0.0
 40
0.0499999999999998
100
AcDbArc
 50
90.0
 51
180.0
  0
ARC
  5
184
330
143
100
AcDbEntity
  8
AM_9
100
AcDbCircle
 10
-0.5585526315789473
 20
1.799999999999999
 30
0.0
 40
0.0499999999999999
100
AcDbArc
 50
180.0
 51
270.0
  0
LINE
  5
185
330
143
100
AcDbEntity
  8
AM_9
100
AcDbLine
 10
-0.558552631578947
 20
1.75
 30
0.0
 11
-0.558552631578947
 21
-1.75
 31
0.0
  0
ARC
  5
186
330
143
100
AcDbEntity
  8
AM_9
100
AcDbCircle
 10
0.558552631578947
 20
-1.8
 30
0.0
 40
0.0500000000000003
100
AcDbArc
 50
0.0
 51
90.0
  0
ARC
  5
187
330
143
100
AcDbEntity
  8
AM_9
100
AcDbCircle
 10
0.558552631578947
 20
1.8
 30
0.0
 40
0.0500000000000003
100
AcDbArc
 50
270.0
 51
0.0
  0
LINE
  5
188
330
143
100
AcDbEntity
  8
AM_9
100
AcDbLine
 10
0.5585526315789472
 20
1.75
 30
0.0
 11
0.5585526315789472
 21
-1.75
 31
0.0
  0
LINE
  5
189
330
143
100
AcDbEntity
  8
AM_9
100
AcDbLine
 10
-0.6085526315789472
 20
2.008823530156813
 30
0.0
 11
-0.6085526315789472
 21
-2.008823530156813
 31
0.0
  0
ARC
  5
18A
330
143
100
AcDbEntity
  8
AM_9
100
AcDbCircle
 10
-0.6585526315789478
 20
-2.008823529411754
 30
0.0
 40
0.0500000000000007
100
AcDbArc
 50
270.0
 51
0.0
  0
ARC
  5
18B
330
143
100
AcDbEntity
  8
AM_9
100
AcDbCircle
 10
-0.6585526315789478
 20
2.008823529411754
 30
0.0
 40
0.0500000000000006
100
AcDbArc
 50
0.0
 51
90.0
  0
LINE
  5
18C
330
143
100
AcDbEntity
  8
AM_9
100
AcDbLine
 10
-1.122242647058823
 20
-2.05882352941176
 30
0.0
 11
-0.6585526315789464
 21
-2.05882352941176
 31
0.0
  0
LINE
  5
18D
330
143
100
AcDbEntity
  8
AM_9
100
AcDbLine
 10
-0.6585526315789464
 20
2.05882352941176
 30
0.0
 11
-0.8048406862745103
 21
2.05882352941176
 31
0.0
  0
LINE
  5
18E
330
143
100
AcDbEntity
  8
AM_9
100
AcDbLine
 10
-0.6585526315789464
 20
2.05882352941176
 30
0.0
 11
-0.6585526315789464
 21
-2.05882352941176
 31
0.0
  0
LINE
  5
18F
330
143
100
AcDbEntity
  8
AM_9
100
AcDbLine
 10
0.6085526315789473
 20
2.008823529411765
 30
0.0
 11
0.6085526315789473
 21
-2.008823529411765
 31
0.0
  0
ARC
  5
190
330
143
100
AcDbEntity
  8
AM_9
100
AcDbCircle
 10
0.6585526315789467
 20
-2.008823529411766
 30
0.0
 40
0.0499999999999994
100
AcDbArc
 50
180.0
 51
270.0
  0
ARC
  5
191
330
143
100
AcDbEntity
  8
AM_9
100
AcDbCircle
 10
0.6585526315789467
 20
2.008823529411766
 30
0.0
 40
0.0499999999999994
100
AcDbArc
 50
90.0
 51
180.0
  0
LINE
  5
192
330
143
100
AcDbEntity
  8
AM_9
100
AcDbLine
 10
0.658552631578947
 20
-2.058823529411765
 30
0.0
 11
1.122242647058824
 21
-2.058823529411765
 31
0.0
  0
LINE
  5
193
330
143
100
AcDbEntity
  8
AM_9
100
AcDbLine
 10
0.8048406862745098
 20
2.058823529411765
 30
0.0
 11
0.658552631578947
 21
2.058823529411765
 31
0.0
  0
LINE
  5
194
330
143
100
AcDbEntity
  8
AM_9
100
AcDbLine
 10
0.658552631578947
 20
2.058823529411765
 30
0.0
 11
0.658552631578947
 21
-2.058823529411765
 31
0.0
  0
LINE
  5
195
330
143
100
AcDbEntity
  8
AM_9
100
AcDbLine
 10
0.0508008441669359
 20
2.499999999999998
 30
0.0
 11
-0.0508444750132527
 21
2.499999999999998
 31
0.0
  0
LINE
  5
196
330
143
100
AcDbEntity
  8
AM_9
100
AcDbLine
 10
-0.5641060796661287
 20
-0.8887612682838187
 30
0.0
 11
-0.5627075388986615
 21
-0.8750378102114397
 31
0.0
  0
LINE
  5
197
330
143
100
AcDbEntity
  8
AM_9
100
AcDbLine
 10
0.5627465875750391
 20
-0.8754174927803182
 30
0.0
 11
0.5640465365538485
 21
-0.8881713349622672
 31
0.0
  0
LINE
  5
198
330
143
100
AcDbEntity
  8
AM_9
100
AcDbLine
 10
-0.3124999999999998
 20
-0.875
 30
0.0
 11
-0.3124999999999998
 21
-2.5
 31
0.0
  0
LINE
  5
199
330
143
100
AcDbEntity
  8
AM_9
100
AcDbLine
 10
0.3125000000000003
 20
-0.8750000000000001
 30
0.0
 11
0.3125000000000003
 21
-2.5
 31
0.0
  0
LINE
  5
19A
330
143
100
AcDbEntity
  8
AM_9
100
AcDbLine
 10
-0.313920454545454
 20
-0.8750000000000001
 30
0.0
 11
-0.313920454545454
 21
-2.5
 31
0.0
  0
LINE
  5
19B
330
143
100
AcDbEntity
  8
AM_9
100
AcDbLine
 10
0.3139204545454617
 20
-2.5
 30
0.0
 11
0.3139204545454617
 21
-0.8750000000000001
 31
0.0
  0
LINE
  5
19C
330
143
100
AcDbEntity
  8
AM_7
100
AcDbLine
 10
-1.42813
 20
0.0
 30
0.0
 11
1.271875
 21
0.0
 31
0.0
  0
LINE
  5
19D
330
143
100
AcDbEntity
  8
AM_4
100
AcDbLine
 10
-0.0508444750132527
 20
2.499999999999998
 30
0.0
 11
-0.7708333333333337
 21
2.499999999999998
 31
0.0
  0
LINE
  5
19E
330
143
100
AcDbEntity
  8
AM_4
100
AcDbLine
 10
0.7708333333333337
 20
2.499999999999998
 30
0.0
 11
0.0508008441669359
 21
2.499999999999998
 31
0.0
  0
LWPOLYLINE
  5
19F
330
143
100
AcDbEntity
  8
AM_4
100
AcDbPolyline
 90
       50
 70
     0
 43
0.0
 10
0.5256726767560134
 20
-0.216216216216212
 10
0.529163972470542
 20
-0.0915961745885072
 10
0.5298022347925893
 20
0.0333937372296131
 10
0.52764551976814
 20
0.1581903839320144
 10
0.5240509606614523
 20
0.2542226219651599
 10
0.5184953689483327
 20
0.3498810451311341
 10
0.5106349786030602
 20
0.4448497529228914
 10
0.5001260235999134
 20
0.5388128448333862
 10
0.4884671196441815
 20
0.6198104619875826
 10
0.4739332192380172
 20
0.6997957933272818
 10
0.455951520713223
 20
0.7783296926154155
 10
0.4339492224016014
 20
0.8549730136149155
 10
0.4126665255615425
 20
0.9155617652643865
 10
0.3875917656493364
 20
0.9746306099857531
 10
0.3581942909504525
 20
1.031337075498134
 10
0.3239434497503593
 20
1.084838689520645
 10
0.2843085903345262
 20
1.134292979772406
 10
0.2557923975903365
 20
1.163409321296039
 10
0.2245683445016904
 20
1.190153940740069
 10
0.1906946469690583
 20
1.213949695554034
 10
0.1536400110553638
 20
1.23448959991953
 10
0.1139089859467446
 20
1.25099715855538
 10
0.0722338367033133
 20
1.262744337757354
 10
0.0335100599554507
 20
1.268746657565728
 10
-0.0059611621157974
 20
1.27034358092368
 10
-0.0451542877062149
 20
1.267455891958061
 10
-0.0777617059408195
 20
1.261484812813357
 10
-0.1095459325030283
 20
1.252510470023024
 10
-0.140048438123476
 20
1.240808058422674
 10
-0.1787004390884951
 20
1.221173900918966
 10
-0.2146667020482845
 20
1.197616847776647
 10
-0.2476466471979792
 20
1.1708854648111
 10
-0.2809928060414003
 20
1.137936884073521
 10
-0.3110717271878296
 20
1.102131432509812
 10
-0.3380527666433792
 20
1.064030859378974
 10
-0.3621052804141613
 20
1.024196913940005
 10
-0.391533376453605
 20
0.9659929564532959
 10
-0.416660279651827
 20
0.9052836804672493
 10
-0.4379736117636046
 20
0.8425593378081361
 10
-0.455960994543715
 20
0.7783101803022269
 10
-0.4711100497469352
 20
0.7130264597757923
 10
-0.4899189818174013
 20
0.6116859860050978
 10
-0.5043237714285091
 20
0.508313539082572
 10
-0.51489132367458
 20
0.403392010520444
 10
-0.5221885436499354
 20
0.2974042918309423
 10
-0.5267823364488965
 20
0.1908332745262954
 10
-0.5292396071657843
 20
0.0841618501187322
 10
-0.5298541686775939
 20
-0.0160441889798781
 10
-0.5286878704237848
 20
-0.1162673060389697
 10
-0.5256726767560131
 20
-0.2162162162162121
  0
LINE
  5
1A0
330
143
100
AcDbEntity
  8
AM_4
100
AcDbLine
 10
-0.5781249999999998
 20
-1.6875
 30
0.0
 11
-0.5781249999999999
 21
-1.111182997620549
 31
0.0
  0
LWPOLYLINE
  5
1A1
330
143
100
AcDbEntity
  8
AM_4
100
AcDbPolyline
 90
       12
 70
     0
 43
0.0
 10
-0.5627075388986615
 20
-0.8750378102114397
 10
-0.5623444389193945
 20
-0.8714704352670719
 10
-0.5554532938878467
 20
-0.8065152324331205
 10
-0.548372685777326
 20
-0.7403582450253106
 10
-0.541491868685981
 20
-0.6724282547755058
 10
-0.5352651631999822
 20
-0.6034690551998371
 10
-0.5300654580461779
 20
-0.5337442115939182
 10
-0.5261466083093506
 20
-0.4613851568055897
 10
-0.5238676625597345
 20
-0.3885251957431403
 10
-0.5233752689811014
 20
-0.315536291505743
 10
-0.524108806433497
 20
-0.2658212799100681
 10
-0.525672676756013
 20
-0.216216216216212
  0
LWPOLYLINE
  5
1A2
330
143
100
AcDbEntity
  8
AM_4
100
AcDbPolyline
 90
        5
 70
     0
 43
0.0
 10
-0.5781249999999999
 20
-1.111182997620549
 10
-0.5768862306919188
 20
-1.054195362555583
 10
-0.5735235529744195
 20
-0.9953756023079533
 10
-0.5685674121576179
 20
-0.9349993550479706
 10
-0.5641060796661287
 20
-0.8887612682838187
  0
LINE
  5
1A3
330
143
100
AcDbEntity
  8
AM_4
100
AcDbLine
 10
-0.9802083333333332
 20
-0.2162162162162154
 30
0.0
 11
-0.525672676756013
 21
-0.216216216216212
 31
0.0
  0
LINE
  5
1A4
330
143
100
AcDbEntity
  8
AM_4
100
AcDbLine
 10
0.5781250000000001
 20
-1.111182997620549
 30
0.0
 11
0.5781250000000002
 21
-1.6875
 31
0.0
  0
LINE
  5
1A5
330
143
100
AcDbEntity
  8
AM_4
100
AcDbLine
 10
0.5256726767560134
 20
-0.2162162162162154
 30
0.0
 11
0.9802083333333332
 21
-0.2162162162162154
 31
0.0
  0
LWPOLYLINE
  5
1A6
330
143
100
AcDbEntity
  8
AM_4
100
AcDbPolyline
 90
        6
 70
     0
 43
0.0
 10
0.5640465365538485
 20
-0.8881713349622672
 10
0.5646051395080092
 20
-0.8936822879294164
 10
0.5705551926342796
 20
-0.9574830038052382
 10
0.5751156040686041
 20
-1.01961010404372
 10
0.5773261886692107
 20
-1.065973112140147
 10
0.5781250000000001
 20
-1.111182997620549
  0
LWPOLYLINE
  5
1A7
330
143
100
AcDbEntity
  8
AM_4
100
AcDbPolyline
 90
       11
 70
     0
 43
0.0
 10
0.5256726767560134
 20
-0.2162162162162154
 10
0.523748425598132
 20
-0.2845785508472466
 10
0.5234051976703216
 20
-0.3531443409337783
 10
0.524662594115756
 20
-0.4215955283054753
 10
0.5275987047745698
 20
-0.4917203842635385
 10
0.5319867922542608
 20
-0.5613992261789073
 10
0.5375669133341587
 20
-0.6303304997033966
 10
0.543952648632322
 20
-0.6973975016501917
 10
0.5508347580172479
 20
-0.7635151478382378
 10
0.5578050963725643
 20
-0.8284617997001115
 10
0.5627465875750391
 20
-0.8754174927803182
  0
LINE
  5
1A8
330
143
100
AcDbEntity
  8
AM_4
100
AcDbLine
 10
-0.5640243902439023
 20
-0.875
 30
0.0
 11
0.5640243902439026
 21
-0.875
 31
0.0
  0
LINE
  5
1A9
330
143
100
AcDbEntity
  8
AM_4
100
AcDbLine
 10
0.5640243902439026
 20
-0.875
 30
0.0
 11
0.5640243902439026
 21
-1.6875
 31
0.0
  0
LINE
  5
1AA
330
143
100
AcDbEntity
  8
AM_4
100
AcDbLine
 10
-0.5640243902439023
 20
-0.875
 30
0.0
 11
-0.5640243902439022
 21
-1.6875
 31
0.0
  0
LINE
  5
1AB
330
143
100
AcDbEntity
  8
AM_4
100
AcDbLine
 10
-1.093619791666666
 20
-1.6875
 30
0.0
 11
1.093619791666667
 21
-1.6875
 31
0.0
  0
LINE
  5
1AC
330
143
100
AcDbEntity
  8
AM_4
100
AcDbLine
 10
-0.7708333333333337
 20
2.499999999999999
 30
0.0
 11
-1.15625
 21
-2.5
 31
0.0
  0
LINE
  5
1AD
330
143
100
AcDbEntity
  8
AM_4
100
AcDbLine
 10
-1.15625
 20
-2.5
 30
0.0
 11
1.15625
 21
-2.5
 31
0.0
  0
LINE
  5
1AE
330
143
100
AcDbEntity
  8
AM_4
100
AcDbLine
 10
1.15625
 20
-2.5
 30
0.0
 11
0.7708333333333336
 21
2.499999999999999
 31
0.0
  0
ENDBLK
  5
146
330
143
100
AcDbEntity
  8
0
100
AcDbBlockEnd
  0
ENDSEC
  0
SECTION
  2
ENTITIES
  0
INSERT
  5
6F
330
1F
100
AcDbEntity
  8
0
100
AcDbBlockReference
  2
1_048023_2
 10
0.0
 20
0.0
 30
0.0
  0
POINT
  5
1B0
330
1F
100
AcDbEntity
  8
ConnectionPoints
100
AcDbPoint
 10
0.0000000000000001
 20
2.165063509461096
 30
1.25
  0
POINT
  5
1B1
330
1F
100
AcDbEntity
  8
ConnectionPoints
100
AcDbPoint
 10
0.0000000000000001
 20
2.165063509461096
 30
1.25
  0
POINT
  5
1B2
330
1F
100
AcDbEntity
  8
ConnectionPoints
100
AcDbPoint
 10
-1.32813
 20
0.0
 30
0.0000000000000001
  0
ENDSEC
  0
SECTION
  2
OBJECTS
  0
DICTIONARY
  5
C
330
0
100
AcDbDictionary
281
     1
  3
ACAD_DETAILVIEWSTYLE
350
1BA
  3
ACAD_GROUP
350
D
  3
ACAD_LAYOUT
350
1A
  3
ACAD_MATERIAL
350
43
  3
ACAD_MLEADERSTYLE
350
6B
  3
ACAD_MLINESTYLE
350
17
  3
ACAD_PLOTSETTINGS
350
19
  3
ACAD_PLOTSTYLENAME
350
E
  3
ACAD_SCALELIST
350
47
  3
ACAD_SECTIONVIEWSTYLE
350
1BB
  3
ACAD_TABLESTYLE
350
69
  3
ACAD_VISUALSTYLE
350
2A
  3
ACDB_RECOMPOSE_DATA
350
1B7
  3
AcDbVariableDictionary
350
1B3
  0
SUN
  5
6D
330
29
100
AcDbSun
 90
        1
290
     0
 63
     7
421
 16777215
 40
1.0
291
     1
 91
  2455826
 92
 54000000
292
     0
 70
     2
 71
   256
280
     1
  0
DICTIONARY
  5
1BA
102
{ACAD_REACTORS
330
C
102
}
330
C
100
AcDbDictionary
281
     1
  0
DICTIONARY
  5
D
102
{ACAD_REACTORS
330
C
102
}
330
C
100
AcDbDictionary
281
     1
  0
DICTIONARY
  5
1A
102
{ACAD_REACTORS
330
C
102
}
330
C
100
AcDbDictionary
281
     1
  3
Layout1
350
1E
  3
Layout2
350
26
  3
Model
350
22
  0
DICTIONARY
  5
43
102
{ACAD_REACTORS
330
C
102
}
330
C
100
AcDbDictionary
281
     1
  3
ByBlock
350
45
  3
ByLayer
350
44
  3
Global
350
46
  0
DICTIONARY
  5
6B
102
{ACAD_REACTORS
330
C
102
}
330
C
100
AcDbDictionary
281
     1
  3
Standard
350
6C
  0
DICTIONARY
  5
17
102
{ACAD_REACTORS
330
C
102
}
330
C
100
AcDbDictionary
281
     1
  3
Standard
350
18
  0
DICTIONARY
  5
19
102
{ACAD_REACTORS
330
C
102
}
330
C
100
AcDbDictionary
281
     1
  0
ACDBDICTIONARYWDFLT
  5
E
102
{ACAD_REACTORS
330
C
102
}
330
C
100
AcDbDictionary
281
     1
  3
Normal
350
F
100
AcDbDictionaryWithDefault
340
F
  0
DICTIONARY
  5
47
102
{ACAD_REACTORS
330
C
102
}
330
C
100
AcDbDictionary
281
     1
  3
A0
350
48
  3
A1
350
49
  3
A2
350
4A
  3
A3
350
4B
  3
A4
350
4C
  3
A5
350
4D
  3
A6
350
4E
  3
A7
350
4F
  3
A8
350
50
  3
A9
350
51
  3
B0
350
52
  3
B1
350
53
  3
B2
350
54
  3
B3
350
55
  3
B4
350
56
  3
B5
350
57
  3
B6
350
58
  3
B7
350
59
  3
B8
350
5A
  3
B9
350
5B
  3
C0
350
5C
  3
C1
350
5D
  3
C2
350
5E
  3
C3
350
5F
  3
C4
350
60
  3
C5
350
61
  3
C6
350
62
  3
C7
350
63
  3
C8
350
64
  3
C9
350
65
  3
D0
350
66
  3
D1
350
67
  3
D2
350
68
  0
DICTIONARY
  5
1BB
102
{ACAD_REACTORS
330
C
102
}
330
C
100
AcDbDictionary
281
     1
  0
DICTIONARY
  5
69
102
{ACAD_REACTORS
330
C
102
}
330
C
100
AcDbDictionary
281
     1
  3
Standard
350
6A
  0
DICTIONARY
  5
2A
102
{ACAD_REACTORS
330
C
102
}
330
C
100
AcDbDictionary
281
     1
  3
2dWireframe
350
2F
  3
Basic
350
32
  3
Brighten
350
36
  3
ColorChange
350
3A
  3
Conceptual
350
34
  3
Dim
350
35
  3
EdgeColorOff
350
3D
  3
Facepattern
350
39
  3
Flat
350
2B
  3
FlatWithEdges
350
2C
  3
Gouraud
350
2D
  3
GouraudWithEdges
350
2E
  3
Hidden
350
31
  3
JitterOff
350
3B
  3
Linepattern
350
38
  3
OverhangOff
350
3C
  3
Realistic
350
33
  3
Shaded
350
42
  3
Shaded with edges
350
41
  3
Shades of Gray
350
3E
  3
Sketchy
350
3F
  3
Thicken
350
37
  3
Wireframe
350
30
  3
X-Ray
350
40
  0
XRECORD
  5
1B7
102
{ACAD_REACTORS
330
C
102
}
330
C
100
AcDbXrecord
280
     1
 90
        1
330
6A
  0
DICTIONARY
  5
1B3
102
{ACAD_REACTORS
330
C
102
}
330
C
100
AcDbDictionary
281
     1
  3
CANNOSCALE
350
1B4
  3
CMLEADERSTYLE
350
1B9
  3
CTABLESTYLE
350
1B8
  0
LAYOUT
  5
1E
102
{ACAD_REACTORS
330
1A
102
}
330
1A
100
AcDbPlotSettings
  1

  2
none_device
  4

  6

 40
0.0
 41
0.0
 42
0.0
 43
0.0
 44
0.0
 45
0.0
 46
0.0
 47
0.0
 48
0.0
 49
0.0
140
0.0
141
0.0
142
1.0
143
1.0
 70
   688
 72
     0
 73
     0
 74
     5
  7

 75
    16
 76
     0
 77
     2
 78
   300
147
1.0
148
0.0
149
0.0
100
AcDbLayout
  1
Layout1
 70
     1
 71
     1
 10
0.0
 20
0.0
 11
12.0
 21
9.0
 12
0.0
 22
0.0
 32
0.0
 14
1.000000000000000E+20
 24
1.000000000000000E+20
 34
1.000000000000000E+20
 15
-1.000000000000000E+20
 25
-1.000000000000000E+20
 35
-1.000000000000000E+20
146
0.0
 13
0.0
 23
0.0
 33
0.0
 16
1.0
 26
0.0
 36
0.0
 17
0.0
 27
1.0
 37
0.0
 76
     0
330
1B
  0
LAYOUT
  5
26
102
{ACAD_REACTORS
330
1A
102
}
330
1A
100
AcDbPlotSettings
  1

  2
none_device
  4

  6

 40
0.0
 41
0.0
 42
0.0
 43
0.0
 44
0.0
 45
0.0
 46
0.0
 47
0.0
 48
0.0
 49
0.0
140
0.0
141
0.0
142
1.0
143
1.0
 70
   688
 72
     0
 73
     0
 74
     5
  7

 75
    16
 76
     0
 77
     2
 78
   300
147
1.0
148
0.0
149
0.0
100
AcDbLayout
  1
Layout2
 70
     1
 71
     2
 10
0.0
 20
0.0
 11
0.0
 21
0.0
 12
0.0
 22
0.0
 32
0.0
 14
0.0
 24
0.0
 34
0.0
 15
0.0
 25
0.0
 35
0.0
146
0.0
 13
0.0
 23
0.0
 33
0.0
 16
1.0
 26
0.0
 36
0.0
 17
0.0
 27
1.0
 37
0.0
 76
     0
330
23
  0
LAYOUT
  5
22
102
{ACAD_REACTORS
330
1A
102
}
330
1A
100
AcDbPlotSettings
  1

  2
none_device
  4
Letter_(8.50_x_11.00_Inches)
  6

 40
6.35
 41
6.35
 42
6.35000508
 43
6.35000508
 44
215.9
 45
279.4
 46
0.0
 47
0.0
 48
0.0
 49
0.0
140
0.0
141
0.0
142
1.0
143
1.0
 70
  1712
 72
     0
 73
     0
 74
     0
  7

 75
     0
 76
     0
 77
     2
 78
   300
147
1.0
148
0.0
149
0.0
100
AcDbLayout
  1
Model
 70
     1
 71
     0
 10
0.0
 20
0.0
 11
12.0
 21
9.0
 12
0.0
 22
0.0
 32
0.0
 14
1.000000000000000E+20
 24
1.000000000000000E+20
 34
1.000000000000000E+20
 15
-1.000000000000000E+20
 25
-1.000000000000000E+20
 35
-1.000000000000000E+20
146
0.0
 13
0.0
 23
0.0
 33
0.0
 16
1.0
 26
0.0
 36
0.0
 17
0.0
 27
1.0
 37
0.0
 76
     0
330
1F
331
29
  0
MATERIAL
  5
45
102
{ACAD_REACTORS
330
43
102
}
330
43
100
AcDbMaterial
  1
ByBlock
 72
     1
 94
      127
  0
MATERIAL
  5
44
102
{ACAD_REACTORS
330
43
102
}
330
43
100
AcDbMaterial
  1
ByLayer
 72
     1
 94
      127
  0
MATERIAL
  5
46
102
{ACAD_REACTORS
330
43
102
}
330
43
100
AcDbMaterial
  1
Global
 72
     1
 94
      127
  0
MLEADERSTYLE
  5
6C
102
{ACAD_REACTORS
330
6B
102
}
330
6B
100
AcDbMLeaderStyle
179
     2
170
     2
171
     1
172
     0
 90
        2
 40
0.0
 41
0.0
173
     1
 91
-1056964608
340
14
 92
       -2
290
     1
 42
0.09
291
     1
 43
0.36
  3
Standard
341
0
 44
0.18
300

342
11
174
     1
178
     6
175
     1
176
     0
 93
-1056964608
 45
0.18
292
     0
297
     0
 46
0.18
343
0
 94
-1056964608
 47
1.0
 49
1.0
140
1.0
293
     1
141
0.0
294
     1
177
     0
142
1.0
295
     0
296
     0
143
0.125
271
     0
272
     9
273
     9
298
     0
  0
MLINESTYLE
  5
18
102
{ACAD_REACTORS
330
17
102
}
330
17
100
AcDbMlineStyle
  2
Standard
 70
     0
  3

 62
   256
 51
90.0
 52
90.0
 71
     2
 49
0.5
 62
   256
  6
BYLAYER
 49
-0.5
 62
   256
  6
BYLAYER
  0
ACDBPLACEHOLDER
  5
F
102
{ACAD_REACTORS
330
E
102
}
330
E
  0
SCALE
  5
48
102
{ACAD_REACTORS
330
47
102
}
330
47
100
AcDbScale
 70
     0
300
1:1
140
1.0
141
1.0
290
     1
  0
SCALE
  5
49
102
{ACAD_REACTORS
330
47
102
}
330
47
100
AcDbScale
 70
     0
300
1:2
140
1.0
141
2.0
290
     0
  0
SCALE
  5
4A
102
{ACAD_REACTORS
330
47
102
}
330
47
100
AcDbScale
 70
     0
300
1:4
140
1.0
141
4.0
290
     0
  0
SCALE
  5
4B
102
{ACAD_REACTORS
330
47
102
}
330
47
100
AcDbScale
 70
     0
300
1:5
140
1.0
141
5.0
290
     0
  0
SCALE
  5
4C
102
{ACAD_REACTORS
330
47
102
}
330
47
100
AcDbScale
 70
     0
300
1:8
140
1.0
141
8.0
290
     0
  0
SCALE
  5
4D
102
{ACAD_REACTORS
330
47
102
}
330
47
100
AcDbScale
 70
     0
300
1:10
140
1.0
141
10.0
290
     0
  0
SCALE
  5
4E
102
{ACAD_REACTORS
330
47
102
}
330
47
100
AcDbScale
 70
     0
300
1:16
140
1.0
141
16.0
290
     0
  0
SCALE
  5
4F
102
{ACAD_REACTORS
330
47
102
}
330
47
100
AcDbScale
 70
     0
300
1:20
140
1.0
141
20.0
290
     0
  0
SCALE
  5
50
102
{ACAD_REACTORS
330
47
102
}
330
47
100
AcDbScale
 70
     0
300
1:30
140
1.0
141
30.0
290
     0
  0
SCALE
  5
51
102
{ACAD_REACTORS
330
47
102
}
330
47
100
AcDbScale
 70
     0
300
1:40
140
1.0
141
40.0
290
     0
  0
SCALE
  5
52
102
{ACAD_REACTORS
330
47
102
}
330
47
100
AcDbScale
 70
     0
300
1:50
140
1.0
141
50.0
290
     0
  0
SCALE
  5
53
102
{ACAD_REACTORS
330
47
102
}
330
47
100
AcDbScale
 70
     0
300
1:100
140
1.0
141
100.0
290
     0
  0
SCALE
  5
54
102
{ACAD_REACTORS
330
47
102
}
330
47
100
AcDbScale
 70
     0
300
2:1
140
2.0
141
1.0
290
     0
  0
SCALE
  5
55
102
{ACAD_REACTORS
330
47
102
}
330
47
100
AcDbScale
 70
     0
300
4:1
140
4.0
141
1.0
290
     0
  0
SCALE
  5
56
102
{ACAD_REACTORS
330
47
102
}
330
47
100
AcDbScale
 70
     0
300
8:1
140
8.0
141
1.0
290
     0
  0
SCALE
  5
57
102
{ACAD_REACTORS
330
47
102
}
330
47
100
AcDbScale
 70
     0
300
10:1
140
10.0
141
1.0
290
     0
  0
SCALE
  5
58
102
{ACAD_REACTORS
330
47
102
}
330
47
100
AcDbScale
 70
     0
300
100:1
140
100.0
141
1.0
290
     0
  0
SCALE
  5
59
102
{ACAD_REACTORS
330
47
102
}
330
47
100
AcDbScale
 70
     0
300
1/128" = 1'-0"
140
0.0078125
141
12.0
290
     0
  0
SCALE
  5
5A
102
{ACAD_REACTORS
330
47
102
}
330
47
100
AcDbScale
 70
     0
300
1/64" = 1'-0"
140
0.015625
141
12.0
290
     0
  0
SCALE
  5
5B
102
{ACAD_REACTORS
330
47
102
}
330
47
100
AcDbScale
 70
     0
300
1/32" = 1'-0"
140
0.03125
141
12.0
290
     0
  0
SCALE
  5
5C
102
{ACAD_REACTORS
330
47
102
}
330
47
100
AcDbScale
 70
     0
300
1/16" = 1'-0"
140
0.0625
141
12.0
290
     0
  0
SCALE
  5
5D
102
{ACAD_REACTORS
330
47
102
}
330
47
100
AcDbScale
 70
     0
300
3/32" = 1'-0"
140
0.09375
141
12.0
290
     0
  0
SCALE
  5
5E
102
{ACAD_REACTORS
330
47
102
}
330
47
100
AcDbScale
 70
     0
300
1/8" = 1'-0"
140
0.125
141
12.0
290
     0
  0
SCALE
  5
5F
102
{ACAD_REACTORS
330
47
102
}
330
47
100
AcDbScale
 70
     0
300
3/16" = 1'-0"
140
0.1875
141
12.0
290
     0
  0
SCALE
  5
60
102
{ACAD_REACTORS
330
47
102
}
330
47
100
AcDbScale
 70
     0
300
1/4" = 1'-0"
140
0.25
141
12.0
290
     0
  0
SCALE
  5
61
102
{ACAD_REACTORS
330
47
102
}
330
47
100
AcDbScale
 70
     0
300
3/8" = 1'-0"
140
0.375
141
12.0
290
     0
  0
SCALE
  5
62
102
{ACAD_REACTORS
330
47
102
}
330
47
100
AcDbScale
 70
     0
300
1/2" = 1'-0"
140
0.5
141
12.0
290
     0
  0
SCALE
  5
63
102
{ACAD_REACTORS
330
47
102
}
330
47
100
AcDbScale
 70
     0
300
3/4" = 1'-0"
140
0.75
141
12.0
290
     0
  0
SCALE
  5
64
102
{ACAD_REACTORS
330
47
102
}
330
47
100
AcDbScale
 70
     0
300
1" = 1'-0"
140
1.0
141
12.0
290
     0
  0
SCALE
  5
65
102
{ACAD_REACTORS
330
47
102
}
330
47
100
AcDbScale
 70
     0
300
1-1/2" = 1'-0"
140
1.5
141
12.0
290
     0
  0
SCALE
  5
66
102
{ACAD_REACTORS
330
47
102
}
330
47
100
AcDbScale
 70
     0
300
3" = 1'-0"
140
3.0
141
12.0
290
     0
  0
SCALE
  5
67
102
{ACAD_REACTORS
330
47
102
}
330
47
100
AcDbScale
 70
     0
300
6" = 1'-0"
140
6.0
141
12.0
290
     0
  0
SCALE
  5
68
102
{ACAD_REACTORS
330
47
102
}
330
47
100
AcDbScale
 70
     0
300
1'-0" = 1'-0"
140
12.0
141
12.0
290
     0
  0
TABLESTYLE
  5
6A
102
{ACAD_REACTORS
330
69
102
}
102
{ACAD_XDICTIONARY
360
1B5
102
}
330
69
100
AcDbTableStyle
  3
Standard
 70
     0
 71
     0
 40
0.06
 41
0.06
280
     0
281
     0
  7
Standard
140
0.18
170
     2
 62
     0
 63
   257
283
     0
 90
        4
 91
        0
  1

274
    -2
284
     1
 64
     0
275
    -2
285
     1
 65
     0
276
    -2
286
     1
 66
     0
277
    -2
287
     1
 67
     0
278
    -2
288
     1
 68
     0
279
    -2
289
     1
 69
     0
  7
Standard
140
0.25
170
     5
 62
     0
 63
   257
283
     0
 90
        4
 91
        0
  1

274
    -2
284
     1
 64
     0
275
    -2
285
     1
 65
     0
276
    -2
286
     1
 66
     0
277
    -2
287
     1
 67
     0
278
    -2
288
     1
 68
     0
279
    -2
289
     1
 69
     0
  7
Standard
140
0.18
170
     5
 62
     0
 63
   257
283
     0
 90
        4
 91
        0
  1

274
    -2
284
     1
 64
     0
275
    -2
285
     1
 65
     0
276
    -2
286
     1
 66
     0
277
    -2
287
     1
 67
     0
278
    -2
288
     1
 68
     0
279
    -2
289
     1
 69
     0
  0
VISUALSTYLE
  5
2F
102
{ACAD_REACTORS
330
2A
102
}
330
2A
100
AcDbVisualStyle
  2
2dWireframe
 70
     4
177
     3
291
     0
 70
    58
 90
        0
176
     1
 90
        2
176
     1
 90
        0
176
     1
 90
        0
176
     1
 40
0.6
176
     1
 40
30.0
176
     1
 62
     7
420
 16777215
176
     1
 90
        1
176
     1
 90
        4
176
     1
 62
     7
176
     1
 62
   257
176
     1
 90
        1
176
     1
 90
        1
176
     1
 40
1.0
176
     1
 90
        0
176
     1
 62
   257
176
     1
 40
1.0
176
     1
 90
        1
176
     1
 90
        6
176
     1
 90
        2
176
     1
 62
     7
176
     1
 90
        5
176
     1
 90
        0
176
     1
 90
        0
176
     1
290
     0
176
     1
 90
        1
176
     1
 40
0.0
176
     1
 90
        0
176
     1
290
     1
176
     1
290
     1
176
     1
290
     0
176
     1
290
     0
176
     1
290
     0
176
     1
290
     0
176
     1
290
     0
176
     1
290
     0
176
     1
290
     0
176
     1
 90
       50
176
     1
 40
0.0
176
     1
 40
1.0
176
     1
 90
        0
176
     1
 62
    18
420
        0
176
     1
 90
       50
176
     1
 90
        3
176
     1
 62
     5
420
      255
176
     1
290
     0
176
     1
 90
       50
176
     1
 90
       50
176
     1
 90
       50
176
     1
290
     0
176
     1
 90
       50
176
     1
 62
   256
176
     0
 40
1.0
176
     0
 90
        2
176
     1
  1
strokes_ogs.tif
176
     1
290
     0
176
     1
 40
1.0
176
     1
 40
1.0
176
     1
  0
VISUALSTYLE
  5
32
102
{ACAD_REACTORS
330
2A
102
}
330
2A
100
AcDbVisualStyle
  2
Basic
 70
     7
177
     3
291
     1
 70
    58
 90
        1
176
     1
 90
        0
176
     1
 90
        1
176
     1
 90
        0
176
     1
 40
0.6
176
     1
 40
30.0
176
     1
 62
     7
420
 16777215
176
     1
 90
        0
176
     1
 90
        4
176
     1
 62
     7
176
     1
 62
   257
176
     1
 90
        1
176
     1
 90
        1
176
     1
 40
1.0
176
     1
 90
        8
176
     1
 62
     7
176
     1
 40
1.0
176
     1
 90
        1
176
     1
 90
        6
176
     1
 90
        2
176
     1
 62
     7
176
     1
 90
        5
176
     1
 90
        0
176
     1
 90
        0
176
     1
290
     0
176
     1
 90
        1
176
     1
 40
0.0
176
     1
 90
        0
176
     1
290
     0
176
     1
290
     1
176
     1
290
     1
176
     1
290
     0
176
     1
290
     0
176
     1
290
     0
176
     1
290
     0
176
     1
290
     0
176
     1
290
     0
176
     1
 90
       50
176
     1
 40
0.0
176
     1
 40
1.0
176
     1
 90
        0
176
     1
 62
    18
420
        0
176
     1
 90
       50
176
     1
 90
        3
176
     1
 62
     5
420
      255
176
     1
290
     0
176
     1
 90
       50
176
     1
 90
       50
176
     1
 90
       50
176
     1
290
     0
176
     1
 90
       50
176
     1
 62
   256
176
     0
 40
1.0
176
     0
 90
        2
176
     1
  1
strokes_ogs.tif
176
     1
290
     0
176
     1
 40
1.0
176
     1
 40
1.0
176
     1
  0
VISUALSTYLE
  5
36
102
{ACAD_REACTORS
330
2A
102
}
330
2A
100
AcDbVisualStyle
  2
Brighten
 70
    12
177
     3
291
     1
 70
    58
 90
        2
176
     1
 90
        2
176
     1
 90
        0
176
     1
 90
        0
176
     1
 40
0.6
176
     1
 40
30.0
176
     1
 62
     7
420
 16777215
176
     1
 90
        1
176
     1
 90
        4
176
     1
 62
     7
176
     1
 62
   257
176
     1
 90
        1
176
     1
 90
        1
176
     1
 40
1.0
176
     1
 90
        8
176
     1
 62
     7
176
     1
 40
1.0
176
     1
 90
        1
176
     1
 90
        6
176
     1
 90
        2
176
     1
 62
     7
176
     1
 90
        5
176
     1
 90
        0
176
     1
 90
        0
176
     1
290
     0
176
     1
 90
        1
176
     1
 40
50.0
176
     1
 90
        0
176
     1
290
     0
176
     1
290
     1
176
     1
290
     1
176
     1
290
     0
176
     1
290
     0
176
     1
290
     0
176
     1
290
     0
176
     1
290
     0
176
     1
290
     0
176
     1
 90
       50
176
     1
 40
0.0
176
     1
 40
1.0
176
     1
 90
        0
176
     1
 62
    18
420
        0
176
     1
 90
       50
176
     1
 90
        3
176
     1
 62
     5
420
      255
176
     1
290
     0
176
     1
 90
       50
176
     1
 90
       50
176
     1
 90
       50
176
     1
290
     0
176
     1
 90
       50
176
     1
 62
   256
176
     0
 40
1.0
176
     0
 90
        2
176
     1
  1
strokes_ogs.tif
176
     1
290
     0
176
     1
 40
1.0
176
     1
 40
1.0
176
     1
  0
VISUALSTYLE
  5
3A
102
{ACAD_REACTORS
330
2A
102
}
330
2A
100
AcDbVisualStyle
  2
ColorChange
 70
    16
177
     3
291
     1
 70
    58
 90
        2
176
     1
 90
        2
176
     1
 90
        3
176
     1
 90
        0
176
     1
 40
0.6
176
     1
 40
30.0
176
     1
 62
     8
420
  8421504
176
     1
 90
        1
176
     1
 90
        4
176
     1
 62
     7
176
     1
 62
   257
176
     1
 90
        1
176
     1
 90
        1
176
     1
 40
1.0
176
     1
 90
        8
176
     1
 62
     8
420
  8421504
176
     1
 40
1.0
176
     1
 90
        1
176
     1
 90
        6
176
     1
 90
        2
176
     1
 62
     7
176
     1
 90
        5
176
     1
 90
        0
176
     1
 90
        0
176
     1
290
     0
176
     1
 90
        1
176
     1
 40
0.0
176
     1
 90
        0
176
     1
290
     0
176
     1
290
     1
176
     1
290
     1
176
     1
290
     0
176
     1
290
     0
176
     1
290
     0
176
     1
290
     0
176
     1
290
     0
176
     1
290
     0
176
     1
 90
       50
176
     1
 40
0.0
176
     1
 40
1.0
176
     1
 90
        0
176
     1
 62
    18
420
        0
176
     1
 90
       50
176
     1
 90
        3
176
     1
 62
     5
420
      255
176
     1
290
     0
176
     1
 90
       50
176
     1
 90
       50
176
     1
 90
       50
176
     1
290
     0
176
     1
 90
       50
176
     1
 62
   256
176
     0
 40
1.0
176
     0
 90
        2
176
     1
  1
strokes_ogs.tif
176
     1
290
     0
176
     1
 40
1.0
176
     1
 40
1.0
176
     1
  0
VISUALSTYLE
  5
34
102
{ACAD_REACTORS
330
2A
102
}
330
2A
100
AcDbVisualStyle
  2
Conceptual
 70
     9
177
     3
291
     0
 70
    58
 90
        3
176
     1
 90
        2
176
     1
 90
        0
176
     1
 90
        0
176
     1
 40
0.6
176
     1
 40
30.0
176
     1
 62
     7
420
 16777215
176
     1
 90
        2
176
     1
 90
        2
176
     1
 62
     7
176
     1
 62
   257
176
     1
 90
        1
176
     1
 90
        1
176
     1
 40
179.0
176
     1
 90
        8
176
     1
 62
     7
176
     1
 40
1.0
176
     1
 90
        1
176
     1
 90
        6
176
     1
 90
        2
176
     1
 62
     7
176
     1
 90
        3
176
     1
 90
        0
176
     1
 90
        0
176
     1
290
     0
176
     1
 90
        1
176
     1
 40
0.0
176
     1
 90
        0
176
     1
290
     0
176
     1
290
     1
176
     1
290
     1
176
     1
290
     0
176
     1
290
     0
176
     1
290
     0
176
     1
290
     0
176
     1
290
     0
176
     1
290
     0
176
     1
 90
       50
176
     1
 40
0.0
176
     1
 40
1.0
176
     1
 90
        0
176
     1
 62
    18
420
        0
176
     1
 90
       50
176
     1
 90
        3
176
     1
 62
     5
420
      255
176
     1
290
     0
176
     1
 90
       50
176
     1
 90
       50
176
     1
 90
       50
176
     1
290
     0
176
     1
 90
       50
176
     1
 62
   256
176
     0
 40
1.0
176
     0
 90
        2
176
     1
  1
strokes_ogs.tif
176
     1
290
     0
176
     1
 40
1.0
176
     1
 40
1.0
176
     1
  0
VISUALSTYLE
  5
35
102
{ACAD_REACTORS
330
2A
102
}
330
2A
100
AcDbVisualStyle
  2
Dim
 70
    11
177
     3
291
     1
 70
    58
 90
        2
176
     1
 90
        2
176
     1
 90
        0
176
     1
 90
        0
176
     1
 40
0.6
176
     1
 40
30.0
176
     1
 62
     7
420
 16777215
176
     1
 90
        1
176
     1
 90
        4
176
     1
 62
     7
176
     1
 62
   257
176
     1
 90
        1
176
     1
 90
        1
176
     1
 40
1.0
176
     1
 90
        8
176
     1
 62
     7
176
     1
 40
1.0
176
     1
 90
        1
176
     1
 90
        6
176
     1
 90
        2
176
     1
 62
     7
176
     1
 90
        5
176
     1
 90
        0
176
     1
 90
        0
176
     1
290
     0
176
     1
 90
        1
176
     1
 40
-50.0
176
     1
 90
        0
176
     1
290
     0
176
     1
290
     1
176
     1
290
     1
176
     1
290
     0
176
     1
290
     0
176
     1
290
     0
176
     1
290
     0
176
     1
290
     0
176
     1
290
     0
176
     1
 90
       50
176
     1
 40
0.0
176
     1
 40
1.0
176
     1
 90
        0
176
     1
 62
    18
420
        0
176
     1
 90
       50
176
     1
 90
        3
176
     1
 62
     5
420
      255
176
     1
290
     0
176
     1
 90
       50
176
     1
 90
       50
176
     1
 90
       50
176
     1
290
     0
176
     1
 90
       50
176
     1
 62
   256
176
     0
 40
1.0
176
     0
 90
        2
176
     1
  1
strokes_ogs.tif
176
     1
290
     0
176
     1
 40
1.0
176
     1
 40
1.0
176
     1
  0
VISUALSTYLE
  5
3D
102
{ACAD_REACTORS
330
2A
102
}
330
2A
100
AcDbVisualStyle
  2
EdgeColorOff
 70
    22
177
     3
291
     1
 70
    58
 90
        2
176
     0
 90
        2
176
     0
 90
        0
176
     0
 90
        0
176
     0
 40
0.6
176
     0
 40
30.0
176
     0
 62
     7
420
 16777215
176
     0
 90
        1
176
     0
 90
        4
176
     0
 62
     7
176
     0
 62
   257
176
     0
 90
        1
176
     0
 90
        1
176
     0
 40
1.0
176
     0
 90
        8
176
     2
 62
     7
176
     0
 40
1.0
176
     0
 90
        1
176
     0
 90
        6
176
     0
 90
        2
176
     0
 62
     7
176
     0
 90
        5
176
     0
 90
        0
176
     0
 90
        0
176
     0
290
     0
176
     0
 90
        1
176
     0
 40
0.0
176
     0
 90
        0
176
     0
290
     0
176
     0
290
     1
176
     0
290
     1
176
     0
290
     0
176
     0
290
     0
176
     0
290
     0
176
     0
290
     0
176
     0
290
     0
176
     0
290
     0
176
     0
 90
       50
176
     0
 40
0.0
176
     0
 40
1.0
176
     0
 90
        0
176
     0
 62
    18
420
        0
176
     0
 90
       50
176
     0
 90
        3
176
     0
 62
     5
420
      255
176
     0
290
     0
176
     0
 90
       50
176
     0
 90
       50
176
     0
 90
       50
176
     0
290
     0
176
     0
 90
       50
176
     0
 62
   256
176
     0
 40
1.0
176
     0
 90
        2
176
     0
  1
strokes_ogs.tif
176
     0
290
     0
176
     0
 40
1.0
176
     0
 40
1.0
176
     0
  0
VISUALSTYLE
  5
39
102
{ACAD_REACTORS
330
2A
102
}
330
2A
100
AcDbVisualStyle
  2
Facepattern
 70
    15
177
     3
291
     1
 70
    58
 90
        2
176
     1
 90
        2
176
     1
 90
        0
176
     1
 90
        0
176
     1
 40
0.6
176
     1
 40
30.0
176
     1
 62
     7
420
 16777215
176
     1
 90
        1
176
     1
 90
        4
176
     1
 62
     7
176
     1
 62
   257
176
     1
 90
        1
176
     1
 90
        1
176
     1
 40
1.0
176
     1
 90
        8
176
     1
 62
     7
176
     1
 40
1.0
176
     1
 90
        1
176
     1
 90
        6
176
     1
 90
        2
176
     1
 62
     7
176
     1
 90
        5
176
     1
 90
        0
176
     1
 90
        0
176
     1
290
     0
176
     1
 90
        1
176
     1
 40
0.0
176
     1
 90
        0
176
     1
290
     0
176
     1
290
     1
176
     1
290
     1
176
     1
290
     0
176
     1
290
     0
176
     1
290
     0
176
     1
290
     0
176
     1
290
     0
176
     1
290
     0
176
     1
 90
       50
176
     1
 40
0.0
176
     1
 40
1.0
176
     1
 90
        0
176
     1
 62
    18
420
        0
176
     1
 90
       50
176
     1
 90
        3
176
     1
 62
     5
420
      255
176
     1
290
     0
176
     1
 90
       50
176
     1
 90
       50
176
     1
 90
       50
176
     1
290
     0
176
     1
 90
       50
176
     1
 62
   256
176
     0
 40
1.0
176
     0
 90
        2
176
     1
  1
strokes_ogs.tif
176
     1
290
     0
176
     1
 40
1.0
176
     1
 40
1.0
176
     1
  0
VISUALSTYLE
  5
2B
102
{ACAD_REACTORS
330
2A
102
}
330
2A
100
AcDbVisualStyle
  2
Flat
 70
     0
177
     3
291
     1
 70
    58
 90
        2
176
     1
 90
        1
176
     1
 90
        1
176
     1
 90
        2
176
     1
 40
0.6
176
     1
 40
30.0
176
     1
 62
     7
420
 16777215
176
     1
 90
        0
176
     1
 90
        0
176
     1
 62
     7
176
     1
 62
   257
176
     1
 90
        1
176
     1
 90
        1
176
     1
 40
1.0
176
     1
 90
        8
176
     1
 62
     7
176
     1
 40
1.0
176
     1
 90
        1
176
     1
 90
        6
176
     1
 90
        2
176
     1
 62
     7
176
     1
 90
        5
176
     1
 90
        0
176
     1
 90
        0
176
     1
290
     0
176
     1
 90
       13
176
     1
 40
0.0
176
     1
 90
        0
176
     1
290
     0
176
     1
290
     1
176
     1
290
     1
176
     1
290
     0
176
     1
290
     0
176
     1
290
     0
176
     1
290
     0
176
     1
290
     0
176
     1
290
     0
176
     1
 90
       50
176
     1
 40
0.0
176
     1
 40
1.0
176
     1
 90
        0
176
     1
 62
    18
420
        0
176
     1
 90
       50
176
     1
 90
        3
176
     1
 62
     5
420
      255
176
     1
290
     0
176
     1
 90
       50
176
     1
 90
       50
176
     1
 90
       50
176
     1
290
     0
176
     1
 90
       50
176
     1
 62
   256
176
     0
 40
1.0
176
     0
 90
        2
176
     1
  1
strokes_ogs.tif
176
     1
290
     0
176
     1
 40
1.0
176
     1
 40
1.0
176
     1
  0
VISUALSTYLE
  5
2C
102
{ACAD_REACTORS
330
2A
102
}
330
2A
100
AcDbVisualStyle
  2
FlatWithEdges
 70
     1
177
     3
291
     1
 70
    58
 90
        2
176
     1
 90
        1
176
     1
 90
        1
176
     1
 90
        2
176
     1
 40
0.6
176
     1
 40
30.0
176
     1
 62
     7
420
 16777215
176
     1
 90
        1
176
     1
 90
        0
176
     1
 62
     7
176
     1
 62
   257
176
     1
 90
        1
176
     1
 90
        1
176
     1
 40
1.0
176
     1
 90
        0
176
     1
 62
   257
176
     1
 40
1.0
176
     1
 90
        1
176
     1
 90
        6
176
     1
 90
        2
176
     1
 62
     7
176
     1
 90
        5
176
     1
 90
        0
176
     1
 90
        0
176
     1
290
     0
176
     1
 90
       13
176
     1
 40
0.0
176
     1
 90
        0
176
     1
290
     0
176
     1
290
     1
176
     1
290
     1
176
     1
290
     0
176
     1
290
     0
176
     1
290
     0
176
     1
290
     0
176
     1
290
     0
176
     1
290
     0
176
     1
 90
       50
176
     1
 40
0.0
176
     1
 40
1.0
176
     1
 90
        0
176
     1
 62
    18
420
        0
176
     1
 90
       50
176
     1
 90
        3
176
     1
 62
     5
420
      255
176
     1
290
     0
176
     1
 90
       50
176
     1
 90
       50
176
     1
 90
       50
176
     1
290
     0
176
     1
 90
       50
176
     1
 62
   256
176
     0
 40
1.0
176
     0
 90
        2
176
     1
  1
strokes_ogs.tif
176
     1
290
     0
176
     1
 40
1.0
176
     1
 40
1.0
176
     1
  0
VISUALSTYLE
  5
2D
102
{ACAD_REACTORS
330
2A
102
}
330
2A
100
AcDbVisualStyle
  2
Gouraud
 70
     2
177
     3
291
     1
 70
    58
 90
        2
176
     1
 90
        2
176
     1
 90
        1
176
     1
 90
        2
176
     1
 40
0.6
176
     1
 40
30.0
176
     1
 62
     7
420
 16777215
176
     1
 90
        0
176
     1
 90
        0
176
     1
 62
     7
176
     1
 62
   257
176
     1
 90
        1
176
     1
 90
        1
176
     1
 40
1.0
176
     1
 90
        0
176
     1
 62
     7
176
     1
 40
1.0
176
     1
 90
        1
176
     1
 90
        6
176
     1
 90
        2
176
     1
 62
     7
176
     1
 90
        5
176
     1
 90
        0
176
     1
 90
        0
176
     1
290
     0
176
     1
 90
       13
176
     1
 40
0.0
176
     1
 90
        0
176
     1
290
     0
176
     1
290
     1
176
     1
290
     1
176
     1
290
     0
176
     1
290
     0
176
     1
290
     0
176
     1
290
     0
176
     1
290
     0
176
     1
290
     0
176
     1
 90
       50
176
     1
 40
0.0
176
     1
 40
1.0
176
     1
 90
        0
176
     1
 62
    18
420
        0
176
     1
 90
       50
176
     1
 90
        3
176
     1
 62
     5
420
      255
176
     1
290
     0
176
     1
 90
       50
176
     1
 90
       50
176
     1
 90
       50
176
     1
290
     0
176
     1
 90
       50
176
     1
 62
   256
176
     0
 40
1.0
176
     0
 90
        2
176
     1
  1
strokes_ogs.tif
176
     1
290
     0
176
     1
 40
1.0
176
     1
 40
1.0
176
     1
  0
VISUALSTYLE
  5
2E
102
{ACAD_REACTORS
330
2A
102
}
330
2A
100
AcDbVisualStyle
  2
GouraudWithEdges
 70
     3
177
     3
291
     1
 70
    58
 90
        2
176
     1
 90
        2
176
     1
 90
        1
176
     1
 90
        2
176
     1
 40
0.6
176
     1
 40
30.0
176
     1
 62
     7
420
 16777215
176
     1
 90
        1
176
     1
 90
        0
176
     1
 62
     7
176
     1
 62
   257
176
     1
 90
        1
176
     1
 90
        1
176
     1
 40
1.0
176
     1
 90
        0
176
     1
 62
   257
176
     1
 40
1.0
176
     1
 90
        1
176
     1
 90
        6
176
     1
 90
        2
176
     1
 62
     7
176
     1
 90
        5
176
     1
 90
        0
176
     1
 90
        0
176
     1
290
     0
176
     1
 90
       13
176
     1
 40
0.0
176
     1
 90
        0
176
     1
290
     0
176
     1
290
     1
176
     1
290
     1
176
     1
290
     0
176
     1
290
     0
176
     1
290
     0
176
     1
290
     0
176
     1
290
     0
176
     1
290
     0
176
     1
 90
       50
176
     1
 40
0.0
176
     1
 40
1.0
176
     1
 90
        0
176
     1
 62
    18
420
        0
176
     1
 90
       50
176
     1
 90
        3
176
     1
 62
     5
420
      255
176
     1
290
     0
176
     1
 90
       50
176
     1
 90
       50
176
     1
 90
       50
176
     1
290
     0
176
     1
 90
       50
176
     1
 62
   256
176
     0
 40
1.0
176
     0
 90
        2
176
     1
  1
strokes_ogs.tif
176
     1
290
     0
176
     1
 40
1.0
176
     1
 40
1.0
176
     1
  0
VISUALSTYLE
  5
31
102
{ACAD_REACTORS
330
2A
102
}
330
2A
100
AcDbVisualStyle
  2
Hidden
 70
     6
177
     3
291
     0
 70
    58
 90
        1
176
     1
 90
        2
176
     1
 90
        2
176
     1
 90
        0
176
     1
 40
0.6
176
     1
 40
30.0
176
     1
 62
     7
420
 16777215
176
     1
 90
        2
176
     1
 90
        2
176
     1
 62
     7
176
     1
 62
   257
176
     1
 90
        2
176
     1
 90
        1
176
     1
 40
40.0
176
     1
 90
        0
176
     1
 62
   257
176
     1
 40
1.0
176
     1
 90
        1
176
     1
 90
        6
176
     1
 90
        2
176
     1
 62
     7
176
     1
 90
        3
176
     1
 90
        0
176
     1
 90
        0
176
     1
290
     0
176
     1
 90
        1
176
     1
 40
0.0
176
     1
 90
        0
176
     1
290
     0
176
     1
290
     1
176
     1
290
     1
176
     1
290
     0
176
     1
290
     0
176
     1
290
     0
176
     1
290
     0
176
     1
290
     0
176
     1
290
     0
176
     1
 90
       50
176
     1
 40
0.0
176
     1
 40
1.0
176
     1
 90
        0
176
     1
 62
    18
420
        0
176
     1
 90
       50
176
     1
 90
        3
176
     1
 62
     5
420
      255
176
     1
290
     0
176
     1
 90
       50
176
     1
 90
       50
176
     1
 90
       50
176
     1
290
     0
176
     1
 90
       50
176
     1
 62
   256
176
     0
 40
1.0
176
     0
 90
        2
176
     1
  1
strokes_ogs.tif
176
     1
290
     0
176
     1
 40
1.0
176
     1
 40
1.0
176
     1
  0
VISUALSTYLE
  5
3B
102
{ACAD_REACTORS
330
2A
102
}
330
2A
100
AcDbVisualStyle
  2
JitterOff
 70
    20
177
     3
291
     1
 70
    58
 90
        2
176
     0
 90
        2
176
     0
 90
        0
176
     0
 90
        0
176
     0
 40
0.6
176
     0
 40
30.0
176
     0
 62
     7
420
 16777215
176
     0
 90
        1
176
     0
 90
        4
176
     0
 62
     7
176
     0
 62
   257
176
     0
 90
        1
176
     0
 90
        1
176
     0
 40
1.0
176
     0
 90
       10
176
     2
 62
     7
176
     0
 40
1.0
176
     0
 90
        1
176
     0
 90
        6
176
     0
 90
        2
176
     0
 62
     7
176
     0
 90
        5
176
     0
 90
        0
176
     0
 90
        0
176
     0
290
     0
176
     0
 90
        1
176
     0
 40
0.0
176
     0
 90
        0
176
     0
290
     0
176
     0
290
     1
176
     0
290
     1
176
     0
290
     0
176
     0
290
     0
176
     0
290
     0
176
     0
290
     0
176
     0
290
     0
176
     0
290
     0
176
     0
 90
       50
176
     0
 40
0.0
176
     0
 40
1.0
176
     0
 90
        0
176
     0
 62
    18
420
        0
176
     0
 90
       50
176
     0
 90
        3
176
     0
 62
     5
420
      255
176
     0
290
     0
176
     0
 90
       50
176
     0
 90
       50
176
     0
 90
       50
176
     0
290
     0
176
     0
 90
       50
176
     0
 62
   256
176
     0
 40
1.0
176
     0
 90
        2
176
     0
  1
strokes_ogs.tif
176
     0
290
     0
176
     0
 40
1.0
176
     0
 40
1.0
176
     0
  0
VISUALSTYLE
  5
38
102
{ACAD_REACTORS
330
2A
102
}
330
2A
100
AcDbVisualStyle
  2
Linepattern
 70
    14
177
     3
291
     1
 70
    58
 90
        2
176
     1
 90
        2
176
     1
 90
        0
176
     1
 90
        0
176
     1
 40
0.6
176
     1
 40
30.0
176
     1
 62
     7
420
 16777215
176
     1
 90
        1
176
     1
 90
        4
176
     1
 62
     7
176
     1
 62
   257
176
     1
 90
        7
176
     1
 90
        7
176
     1
 40
1.0
176
     1
 90
        8
176
     1
 62
     7
176
     1
 40
1.0
176
     1
 90
        1
176
     1
 90
        6
176
     1
 90
        2
176
     1
 62
     7
176
     1
 90
        5
176
     1
 90
        0
176
     1
 90
        0
176
     1
290
     0
176
     1
 90
        1
176
     1
 40
0.0
176
     1
 90
        0
176
     1
290
     0
176
     1
290
     1
176
     1
290
     1
176
     1
290
     0
176
     1
290
     0
176
     1
290
     0
176
     1
290
     0
176
     1
290
     0
176
     1
290
     0
176
     1
 90
       50
176
     1
 40
0.0
176
     1
 40
1.0
176
     1
 90
        0
176
     1
 62
    18
420
        0
176
     1
 90
       50
176
     1
 90
        3
176
     1
 62
     5
420
      255
176
     1
290
     0
176
     1
 90
       50
176
     1
 90
       50
176
     1
 90
       50
176
     1
290
     0
176
     1
 90
       50
176
     1
 62
   256
176
     0
 40
1.0
176
     0
 90
        2
176
     1
  1
strokes_ogs.tif
176
     1
290
     0
176
     1
 40
1.0
176
     1
 40
1.0
176
     1
  0
VISUALSTYLE
  5
3C
102
{ACAD_REACTORS
330
2A
102
}
330
2A
100
AcDbVisualStyle
  2
OverhangOff
 70
    21
177
     3
291
     1
 70
    58
 90
        2
176
     0
 90
        2
176
     0
 90
        0
176
     0
 90
        0
176
     0
 40
0.6
176
     0
 40
30.0
176
     0
 62
     7
420
 16777215
176
     0
 90
        1
176
     0
 90
        4
176
     0
 62
     7
176
     0
 62
   257
176
     0
 90
        1
176
     0
 90
        1
176
     0
 40
1.0
176
     0
 90
        9
176
     2
 62
     7
176
     0
 40
1.0
176
     0
 90
        1
176
     0
 90
        6
176
     0
 90
        2
176
     0
 62
     7
176
     0
 90
        5
176
     0
 90
        0
176
     0
 90
        0
176
     0
290
     0
176
     0
 90
        1
176
     0
 40
0.0
176
     0
 90
        0
176
     0
290
     0
176
     0
290
     1
176
     0
290
     1
176
     0
290
     0
176
     0
290
     0
176
     0
290
     0
176
     0
290
     0
176
     0
290
     0
176
     0
290
     0
176
     0
 90
       50
176
     0
 40
0.0
176
     0
 40
1.0
176
     0
 90
        0
176
     0
 62
    18
420
        0
176
     0
 90
       50
176
     0
 90
        3
176
     0
 62
     5
420
      255
176
     0
290
     0
176
     0
 90
       50
176
     0
 90
       50
176
     0
 90
       50
176
     0
290
     0
176
     0
 90
       50
176
     0
 62
   256
176
     0
 40
1.0
176
     0
 90
        2
176
     0
  1
strokes_ogs.tif
176
     0
290
     0
176
     0
 40
1.0
176
     0
 40
1.0
176
     0
  0
VISUALSTYLE
  5
33
102
{ACAD_REACTORS
330
2A
102
}
330
2A
100
AcDbVisualStyle
  2
Realistic
 70
     8
177
     3
291
     0
 70
    58
 90
        2
176
     1
 90
        3
176
     1
 90
        0
176
     1
 90
        2
176
     1
 40
0.6
176
     1
 40
30.0
176
     1
 62
     7
420
 16777215
176
     1
 90
        0
176
     1
 90
        0
176
     1
 62
     7
176
     1
 62
   257
176
     1
 90
        1
176
     1
 90
        1
176
     1
 40
1.0
176
     1
 90
        8
176
     1
 62
   257
176
     1
 40
1.0
176
     1
 90
        1
176
     1
 90
        6
176
     1
 90
        2
176
     1
 62
     7
176
     1
 90
        3
176
     1
 90
        0
176
     1
 90
        0
176
     1
290
     0
176
     1
 90
       13
176
     1
 40
0.0
176
     1
 90
        0
176
     1
290
     0
176
     1
290
     1
176
     1
290
     1
176
     1
290
     0
176
     1
290
     0
176
     1
290
     0
176
     1
290
     0
176
     1
290
     0
176
     1
290
     0
176
     1
 90
       50
176
     1
 40
0.0
176
     1
 40
1.0
176
     1
 90
        0
176
     1
 62
    18
420
        0
176
     1
 90
       50
176
     1
 90
        3
176
     1
 62
     5
420
      255
176
     1
290
     0
176
     1
 90
       50
176
     1
 90
       50
176
     1
 90
       50
176
     1
290
     0
176
     1
 90
       50
176
     1
 62
   256
176
     0
 40
1.0
176
     0
 90
        2
176
     1
  1
strokes_ogs.tif
176
     1
290
     0
176
     1
 40
1.0
176
     1
 40
1.0
176
     1
  0
VISUALSTYLE
  5
42
102
{ACAD_REACTORS
330
2A
102
}
330
2A
100
AcDbVisualStyle
  2
Shaded
 70
    27
177
     3
291
     0
 70
    58
 90
        2
176
     1
 90
        2
176
     1
 90
        1
176
     1
 90
        2
176
     1
 40
0.6
176
     1
 40
30.0
176
     1
 62
     7
420
 16777215
176
     1
 90
        0
176
     1
 90
        4
176
     1
 62
     7
176
     1
 62
   257
176
     1
 90
        1
176
     1
 90
        1
176
     1
 40
1.0
176
     1
 90
        8
176
     1
 62
   257
176
     1
 40
1.0
176
     1
 90
        1
176
     1
 90
        6
176
     1
 90
        2
176
     1
 62
     8
420
  7895160
176
     1
 90
        3
176
     1
 90
        0
176
     1
 90
        0
176
     1
290
     0
176
     1
 90
        5
176
     1
 40
0.0
176
     1
 90
        0
176
     1
290
     0
176
     1
290
     1
176
     1
290
     1
176
     1
290
     0
176
     1
290
     0
176
     1
290
     0
176
     1
290
     0
176
     1
290
     0
176
     1
290
     0
176
     1
 90
       50
176
     1
 40
0.0
176
     1
 40
1.0
176
     1
 90
        0
176
     1
 62
    18
420
        0
176
     1
 90
       50
176
     1
 90
        3
176
     1
 62
     5
420
      255
176
     1
290
     0
176
     1
 90
       50
176
     1
 90
       50
176
     1
 90
       50
176
     1
290
     0
176
     1
 90
       50
176
     1
 62
   256
176
     0
 40
1.0
176
     0
 90
        2
176
     1
  1
strokes_ogs.tif
176
     1
290
     0
176
     1
 40
1.0
176
     1
 40
1.0
176
     1
  0
VISUALSTYLE
  5
41
102
{ACAD_REACTORS
330
2A
102
}
330
2A
100
AcDbVisualStyle
  2
Shaded with edges
 70
    26
177
     3
291
     0
 70
    58
 90
        2
176
     1
 90
        2
176
     1
 90
        1
176
     1
 90
        2
176
     1
 40
0.6
176
     1
 40
30.0
176
     1
 62
     7
420
 16777215
176
     1
 90
        1
176
     1
 90
       10
176
     1
 62
     7
176
     1
 62
   257
176
     1
 90
        2
176
     1
 90
        1
176
     1
 40
1.0
176
     1
 90
        8
176
     1
 62
   257
176
     1
 40
1.0
176
     1
 90
        1
176
     1
 90
        6
176
     1
 90
        2
176
     1
 62
     7
176
     1
 90
        3
176
     1
 90
        0
176
     1
 90
        0
176
     1
290
     0
176
     1
 90
        5
176
     1
 40
0.0
176
     1
 90
        0
176
     1
290
     0
176
     1
290
     1
176
     1
290
     1
176
     1
290
     0
176
     1
290
     0
176
     1
290
     0
176
     1
290
     0
176
     1
290
     0
176
     1
290
     0
176
     1
 90
       50
176
     1
 40
0.0
176
     1
 40
1.0
176
     1
 90
        0
176
     1
 62
    18
420
        0
176
     1
 90
       50
176
     1
 90
        3
176
     1
 62
     5
420
      255
176
     1
290
     0
176
     1
 90
       50
176
     1
 90
       50
176
     1
 90
       50
176
     1
290
     0
176
     1
 90
       50
176
     1
 62
   256
176
     0
 40
1.0
176
     0
 90
        2
176
     1
  1
strokes_ogs.tif
176
     1
290
     0
176
     1
 40
1.0
176
     1
 40
1.0
176
     1
  0
VISUALSTYLE
  5
3E
102
{ACAD_REACTORS
330
2A
102
}
330
2A
100
AcDbVisualStyle
  2
Shades of Gray
 70
    23
177
     3
291
     0
 70
    58
 90
        2
176
     1
 90
        2
176
     1
 90
        3
176
     1
 90
        0
176
     1
 40
0.6
176
     1
 40
30.0
176
     1
 62
     7
420
 16777215
176
     1
 90
        2
176
     1
 90
        2
176
     1
 62
     7
176
     1
 62
     7
176
     1
 90
        1
176
     1
 90
        1
176
     1
 40
40.0
176
     1
 90
        8
176
     1
 62
     7
176
     1
 40
1.0
176
     1
 90
        1
176
     1
 90
        6
176
     1
 90
        2
176
     1
 62
     7
176
     1
 90
        3
176
     1
 90
        0
176
     1
 90
        0
176
     1
290
     0
176
     1
 90
        1
176
     1
 40
0.0
176
     1
 90
        0
176
     1
290
     0
176
     1
290
     1
176
     1
290
     1
176
     1
290
     0
176
     1
290
     0
176
     1
290
     0
176
     1
290
     0
176
     1
290
     0
176
     1
290
     0
176
     1
 90
       50
176
     1
 40
0.0
176
     1
 40
1.0
176
     1
 90
        0
176
     1
 62
    18
420
        0
176
     1
 90
       50
176
     1
 90
        3
176
     1
 62
     5
420
      255
176
     1
290
     0
176
     1
 90
       50
176
     1
 90
       50
176
     1
 90
       50
176
     1
290
     0
176
     1
 90
       50
176
     1
 62
   256
176
     0
 40
1.0
176
     0
 90
        2
176
     1
  1
strokes_ogs.tif
176
     1
290
     0
176
     1
 40
1.0
176
     1
 40
1.0
176
     1
  0
VISUALSTYLE
  5
3F
102
{ACAD_REACTORS
330
2A
102
}
330
2A
100
AcDbVisualStyle
  2
Sketchy
 70
    24
177
     3
291
     0
 70
    58
 90
        1
176
     1
 90
        2
176
     1
 90
        2
176
     1
 90
        0
176
     1
 40
0.6
176
     1
 40
30.0
176
     1
 62
     7
420
 16777215
176
     1
 90
        2
176
     1
 90
        2
176
     1
 62
     7
176
     1
 62
     7
176
     1
 90
        1
176
     1
 90
        1
176
     1
 40
40.0
176
     1
 90
       11
176
     1
 62
     7
176
     1
 40
1.0
176
     1
 90
        1
176
     1
 90
        6
176
     1
 90
        2
176
     1
 62
     7
176
     1
 90
        6
176
     1
 90
        0
176
     1
 90
        0
176
     1
290
     0
176
     1
 90
        1
176
     1
 40
0.0
176
     1
 90
        0
176
     1
290
     0
176
     1
290
     1
176
     1
290
     1
176
     1
290
     0
176
     1
290
     0
176
     1
290
     0
176
     1
290
     0
176
     1
290
     0
176
     1
290
     0
176
     1
 90
       50
176
     1
 40
0.0
176
     1
 40
1.0
176
     1
 90
        0
176
     1
 62
    18
420
        0
176
     1
 90
       50
176
     1
 90
        3
176
     1
 62
     5
420
      255
176
     1
290
     0
176
     1
 90
       50
176
     1
 90
       50
176
     1
 90
       50
176
     1
290
     0
176
     1
 90
       50
176
     1
 62
   256
176
     0
 40
1.0
176
     0
 90
        2
176
     1
  1
strokes_ogs.tif
176
     1
290
     0
176
     1
 40
1.0
176
     1
 40
1.0
176
     1
  0
VISUALSTYLE
  5
37
102
{ACAD_REACTORS
330
2A
102
}
330
2A
100
AcDbVisualStyle
  2
Thicken
 70
    13
177
     3
291
     1
 70
    58
 90
        2
176
     1
 90
        2
176
     1
 90
        0
176
     1
 90
        0
176
     1
 40
0.6
176
     1
 40
30.0
176
     1
 62
     7
420
 16777215
176
     1
 90
        1
176
     1
 90
        4
176
     1
 62
     7
176
     1
 62
   257
176
     1
 90
        1
176
     1
 90
        1
176
     1
 40
1.0
176
     1
 90
       12
176
     1
 62
     7
176
     1
 40
1.0
176
     1
 90
        1
176
     1
 90
        6
176
     1
 90
        2
176
     1
 62
     7
176
     1
 90
        5
176
     1
 90
        0
176
     1
 90
        0
176
     1
290
     0
176
     1
 90
        1
176
     1
 40
0.0
176
     1
 90
        0
176
     1
290
     0
176
     1
290
     1
176
     1
290
     1
176
     1
290
     0
176
     1
290
     0
176
     1
290
     0
176
     1
290
     0
176
     1
290
     0
176
     1
290
     0
176
     1
 90
       50
176
     1
 40
0.0
176
     1
 40
1.0
176
     1
 90
        0
176
     1
 62
    18
420
        0
176
     1
 90
       50
176
     1
 90
        3
176
     1
 62
     5
420
      255
176
     1
290
     0
176
     1
 90
       50
176
     1
 90
       50
176
     1
 90
       50
176
     1
290
     0
176
     1
 90
       50
176
     1
 62
   256
176
     0
 40
1.0
176
     0
 90
        2
176
     1
  1
strokes_ogs.tif
176
     1
290
     0
176
     1
 40
1.0
176
     1
 40
1.0
176
     1
  0
VISUALSTYLE
  5
30
102
{ACAD_REACTORS
330
2A
102
}
330
2A
100
AcDbVisualStyle
  2
Wireframe
 70
     5
177
     3
291
     0
 70
    58
 90
        0
176
     1
 90
        2
176
     1
 90
        0
176
     1
 90
        0
176
     1
 40
0.6
176
     1
 40
30.0
176
     1
 62
     7
420
 16777215
176
     1
 90
        1
176
     1
 90
        4
176
     1
 62
     7
176
     1
 62
   257
176
     1
 90
        1
176
     1
 90
        1
176
     1
 40
1.0
176
     1
 90
        0
176
     1
 62
   257
176
     1
 40
1.0
176
     1
 90
        1
176
     1
 90
        6
176
     1
 90
        2
176
     1
 62
     7
176
     1
 90
        3
176
     1
 90
        0
176
     1
 90
        0
176
     1
290
     0
176
     1
 90
        1
176
     1
 40
0.0
176
     1
 90
        0
176
     1
290
     0
176
     1
290
     1
176
     1
290
     1
176
     1
290
     0
176
     1
290
     0
176
     1
290
     0
176
     1
290
     0
176
     1
290
     0
176
     1
290
     0
176
     1
 90
       50
176
     1
 40
0.0
176
     1
 40
1.0
176
     1
 90
        0
176
     1
 62
    18
420
        0
176
     1
 90
       50
176
     1
 90
        3
176
     1
 62
     5
420
      255
176
     1
290
     0
176
     1
 90
       50
176
     1
 90
       50
176
     1
 90
       50
176
     1
290
     0
176
     1
 90
       50
176
     1
 62
   256
176
     0
 40
1.0
176
     0
 90
        2
176
     1
  1
strokes_ogs.tif
176
     1
290
     0
176
     1
 40
1.0
176
     1
 40
1.0
176
     1
  0
VISUALSTYLE
  5
40
102
{ACAD_REACTORS
330
2A
102
}
330
2A
100
AcDbVisualStyle
  2
X-Ray
 70
    25
177
     3
291
     0
 70
    58
 90
        2
176
     1
 90
        2
176
     1
 90
        1
176
     1
 90
        1
176
     1
 40
0.5
176
     1
 40
30.0
176
     1
 62
     7
420
 16777215
176
     1
 90
        1
176
     1
 90
        0
176
     1
 62
     7
176
     1
 62
   257
176
     1
 90
        1
176
     1
 90
        1
176
     1
 40
1.0
176
     1
 90
        8
176
     1
 62
     7
176
     1
 40
1.0
176
     1
 90
        1
176
     1
 90
        6
176
     1
 90
        2
176
     1
 62
     7
176
     1
 90
        3
176
     1
 90
        0
176
     1
 90
        0
176
     1
290
     0
176
     1
 90
       13
176
     1
 40
0.0
176
     1
 90
        0
176
     1
290
     0
176
     1
290
     1
176
     1
290
     1
176
     1
290
     0
176
     1
290
     0
176
     1
290
     0
176
     1
290
     0
176
     1
290
     0
176
     1
290
     0
176
     1
 90
       50
176
     1
 40
0.0
176
     1
 40
1.0
176
     1
 90
        0
176
     1
 62
    18
420
        0
176
     1
 90
       50
176
     1
 90
        3
176
     1
 62
     5
420
      255
176
     1
290
     0
176
     1
 90
       50
176
     1
 90
       50
176
     1
 90
       50
176
     1
290
     0
176
     1
 90
       50
176
     1
 62
   256
176
     0
 40
1.0
176
     0
 90
        2
176
     1
  1
strokes_ogs.tif
176
     1
290
     0
176
     1
 40
1.0
176
     1
 40
1.0
176
     1
  0
DICTIONARYVAR
  5
1B4
102
{ACAD_REACTORS
330
1B3
102
}
330
1B3
100
DictionaryVariables
280
     0
  1
1:1
  0
DICTIONARYVAR
  5
1B9
102
{ACAD_REACTORS
330
1B3
102
}
330
1B3
100
DictionaryVariables
280
     0
  1
Standard
  0
DICTIONARYVAR
  5
1B8
102
{ACAD_REACTORS
330
1B3
102
}
330
1B3
100
DictionaryVariables
280
     0
  1
Standard
  0
DICTIONARY
  5
1B5
330
6A
100
AcDbDictionary
280
     1
281
     1
  3
ACAD_ROUNDTRIP_2008_TABLESTYLE_CELLSTYLEMAP
360
1B6
  0
CELLSTYLEMAP
  5
1B6
102
{ACAD_REACTORS
330
1B5
102
}
330
1B5
100
AcDbCellStyleMap
 90
        3
300
CELLSTYLE
  1
TABLEFORMAT_BEGIN
 90
        5
170
     1
 91
        0
 92
    32768
 62
   257
 93
        1
300
CONTENTFORMAT
  1
CONTENTFORMAT_BEGIN
 90
        0
 91
        0
 92
        4
 93
        0
300

 40
0.0
140
1.0
 94
        5
 62
     0
340
11
144
0.25
309
CONTENTFORMAT_END
171
     1
301
MARGIN
  1
CELLMARGIN_BEGIN
 40
0.06
 40
0.06
 40
0.06
 40
0.06
 40
0.06
 40
0.06
309
CELLMARGIN_END
 94
        6
 95
        1
302
GRIDFORMAT
  1
GRIDFORMAT_BEGIN
 90
        0
 91
        1
 62
     0
 92
       -2
340
14
 93
        0
 40
0.045
309
GRIDFORMAT_END
 95
        2
302
GRIDFORMAT
  1
GRIDFORMAT_BEGIN
 90
        0
 91
        1
 62
     0
 92
       -2
340
14
 93
        0
 40
0.045
309
GRIDFORMAT_END
 95
        4
302
GRIDFORMAT
  1
GRIDFORMAT_BEGIN
 90
        0
 91
        1
 62
     0
 92
       -2
340
14
 93
        0
 40
0.045
309
GRIDFORMAT_END
 95
        8
302
GRIDFORMAT
  1
GRIDFORMAT_BEGIN
 90
        0
 91
        1
 62
     0
 92
       -2
340
14
 93
        0
 40
0.045
309
GRIDFORMAT_END
 95
       16
302
GRIDFORMAT
  1
GRIDFORMAT_BEGIN
 90
        0
 91
        1
 62
     0
 92
       -2
340
14
 93
        0
 40
0.045
309
GRIDFORMAT_END
 95
       32
302
GRIDFORMAT
  1
GRIDFORMAT_BEGIN
 90
        0
 91
        1
 62
     0
 92
       -2
340
14
 93
        0
 40
0.045
309
GRIDFORMAT_END
309
TABLEFORMAT_END
  1
CELLSTYLE_BEGIN
 90
        1
 91
        1
300
_TITLE
309
CELLSTYLE_END
300
CELLSTYLE
  1
TABLEFORMAT_BEGIN
 90
        5
170
     1
 91
        0
 92
        0
 62
   257
 93
        1
300
CONTENTFORMAT
  1
CONTENTFORMAT_BEGIN
 90
        0
 91
        0
 92
        4
 93
        0
300

 40
0.0
140
1.0
 94
        5
 62
     0
340
11
144
0.18
309
CONTENTFORMAT_END
171
     1
301
MARGIN
  1
CELLMARGIN_BEGIN
 40
0.06
 40
0.06
 40
0.06
 40
0.06
 40
0.06
 40
0.06
309
CELLMARGIN_END
 94
        6
 95
        1
302
GRIDFORMAT
  1
GRIDFORMAT_BEGIN
 90
        0
 91
        1
 62
     0
 92
       -2
340
14
 93
        0
 40
0.045
309
GRIDFORMAT_END
 95
        2
302
GRIDFORMAT
  1
GRIDFORMAT_BEGIN
 90
        0
 91
        1
 62
     0
 92
       -2
340
14
 93
        0
 40
0.045
309
GRIDFORMAT_END
 95
        4
302
GRIDFORMAT
  1
GRIDFORMAT_BEGIN
 90
        0
 91
        1
 62
     0
 92
       -2
340
14
 93
        0
 40
0.045
309
GRIDFORMAT_END
 95
        8
302
GRIDFORMAT
  1
GRIDFORMAT_BEGIN
 90
        0
 91
        1
 62
     0
 92
       -2
340
14
 93
        0
 40
0.045
309
GRIDFORMAT_END
 95
       16
302
GRIDFORMAT
  1
GRIDFORMAT_BEGIN
 90
        0
 91
        1
 62
     0
 92
       -2
340
14
 93
        0
 40
0.045
309
GRIDFORMAT_END
 95
       32
302
GRIDFORMAT
  1
GRIDFORMAT_BEGIN
 90
        0
 91
        1
 62
     0
 92
       -2
340
14
 93
        0
 40
0.045
309
GRIDFORMAT_END
309
TABLEFORMAT_END
  1
CELLSTYLE_BEGIN
 90
        2
 91
        1
300
_HEADER
309
CELLSTYLE_END
300
CELLSTYLE
  1
TABLEFORMAT_BEGIN
 90
        5
170
     1
 91
        0
 92
        0
 62
   257
 93
        1
300
CONTENTFORMAT
  1
CONTENTFORMAT_BEGIN
 90
        0
 91
        0
 92
        4
 93
        0
300

 40
0.0
140
1.0
 94
        2
 62
     0
340
11
144
0.18
309
CONTENTFORMAT_END
171
     1
301
MARGIN
  1
CELLMARGIN_BEGIN
 40
0.06
 40
0.06
 40
0.06
 40
0.06
 40
0.06
 40
0.06
309
CELLMARGIN_END
 94
        6
 95
        1
302
GRIDFORMAT
  1
GRIDFORMAT_BEGIN
 90
        0
 91
        1
 62
     0
 92
       -2
340
14
 93
        0
 40
0.045
309
GRIDFORMAT_END
 95
        2
302
GRIDFORMAT
  1
GRIDFORMAT_BEGIN
 90
        0
 91
        1
 62
     0
 92
       -2
340
14
 93
        0
 40
0.045
309
GRIDFORMAT_END
 95
        4
302
GRIDFORMAT
  1
GRIDFORMAT_BEGIN
 90
        0
 91
        1
 62
     0
 92
       -2
340
14
 93
        0
 40
0.045
309
GRIDFORMAT_END
 95
        8
302
GRIDFORMAT
  1
GRIDFORMAT_BEGIN
 90
        0
 91
        1
 62
     0
 92
       -2
340
14
 93
        0
 40
0.045
309
GRIDFORMAT_END
 95
       16
302
GRIDFORMAT
  1
GRIDFORMAT_BEGIN
 90
        0
 91
        1
 62
     0
 92
       -2
340
14
 93
        0
 40
0.045
309
GRIDFORMAT_END
 95
       32
302
GRIDFORMAT
  1
GRIDFORMAT_BEGIN
 90
        0
 91
        1
 62
     0
 92
       -2
340
14
 93
        0
 40
0.045
309
GRIDFORMAT_END
309
TABLEFORMAT_END
  1
CELLSTYLE_BEGIN
 90
        3
 91
        2
300
_DATA
309
CELLSTYLE_END
  0
ENDSEC
  0
EOF