0
SECTION
  2
HEADER
  9
$ACADVER
  1
AC1027
  9
$ACADMAINTVER
 70
     8
  9
$DWGCODEPAGE
  3
ANSI_1252
  9
$REQUIREDVERSIONS
160
                 0
  9
$COMMENTS
  1
File was created by Cadenas
  9
$CUSTOMPROPERTYTAG
  1
NN
  9
$CUSTOMPROPERTY
  1
Unisphere II Pillow Block Inch Bore
  9
$CUSTOMPROPERTYTAG
  1
NT
  9
$CUSTOMPROPERTY
  1
Unisphere II
  9
$CUSTOMPROPERTYTAG
  1
NB
  9
$CUSTOMPROPERTY
  1
048015
  9
$CUSTOMPROPERTYTAG
  1
NBSYN
  9
$CUSTOMPROPERTY
  1
$PN.
  9
$CUSTOMPROPERTYTAG
  1
LINA
  9
$CUSTOMPROPERTY
  1
048015
  9
$CUSTOMPROPERTYTAG
  1
SS
  9
$CUSTOMPROPERTY
  1
3-15/16
  9
$CUSTOMPROPERTYTAG
  1
TYPE
  9
$CUSTOMPROPERTY
  1
Non Expansion Type
  9
$CUSTOMPROPERTYTAG
  1
PN
  9
$CUSTOMPROPERTY
  1
048015
  9
$CUSTOMPROPERTYTAG
  1
DESCRIPTION
  9
$CUSTOMPROPERTY
  1
P2B-UN2-315
  9
$CUSTOMPROPERTYTAG
  1
WEIGHT
  9
$CUSTOMPROPERTY
  1
37.4
  9
$CUSTOMPROPERTYTAG
  1
A
  9
$CUSTOMPROPERTY
  1
3-21/64
  9
$CUSTOMPROPERTYTAG
  1
B
  9
$CUSTOMPROPERTY
  1
14-1/4
  9
$CUSTOMPROPERTYTAG
  1
C
  9
$CUSTOMPROPERTY
  1
3-5/16
  9
$CUSTOMPROPERTYTAG
  1
DMIN
  9
$CUSTOMPROPERTY
  1
10
  9
$CUSTOMPROPERTYTAG
  1
DMAX
  9
$CUSTOMPROPERTY
  1
11-7/8
  9
$CUSTOMPROPERTYTAG
  1
E
  9
$CUSTOMPROPERTY
  1
7/32
  9
$CUSTOMPROPERTYTAG
  1
F
  9
$CUSTOMPROPERTY
  1
1
  9
$CUSTOMPROPERTYTAG
  1
G
  9
$CUSTOMPROPERTY
  1
2
  9
$CUSTOMPROPERTYTAG
  1
H
  9
$CUSTOMPROPERTY
  1
2-1/2
  9
$CUSTOMPROPERTYTAG
  1
J
  9
$CUSTOMPROPERTY
  1
8-7/16
  9
$CUSTOMPROPERTYTAG
  1
L
  9
$CUSTOMPROPERTY
  1
6-15/32
  9
$CUSTOMPROPERTYTAG
  1
M
  9
$CUSTOMPROPERTY
  1
4-1/8
  9
$CUSTOMPROPERTYTAG
  1
R
  9
$CUSTOMPROPERTY
  1
1-1/8
  9
$CUSTOMPROPERTYTAG
  1
S
  9
$CUSTOMPROPERTY
  1
2-3/16
  9
$CUSTOMPROPERTYTAG
  1
MRPM
  9
$CUSTOMPROPERTY
  1
1250
  9
$CUSTOMPROPERTYTAG
  1
CS
  9
$CUSTOMPROPERTY
  1
104000
  9
$CUSTOMPROPERTYTAG
  1
CD
  9
$CUSTOMPROPERTY
  1
80000
  9
$CUSTOMPROPERTYTAG
  1
RN
  9
$CUSTOMPROPERTY
  1
18
  9
$CUSTOMPROPERTYTAG
  1
RM
  9
$CUSTOMPROPERTY
  1
0.8780
  9
$CUSTOMPROPERTYTAG
  1
PD
  9
$CUSTOMPROPERTY
  1
5.705
  9
$CUSTOMPROPERTYTAG
  1
RC
  9
$CUSTOMPROPERTY
  1
0.0024-0.0039
  9
$CUSTOMPROPERTYTAG
  1
CSS
  9
$CUSTOMPROPERTY
  1
5/8-11x1-1/4
  9
$CUSTOMPROPERTYTAG
  1
CST
  9
$CUSTOMPROPERTY
  1
1325
  9
$CUSTOMPROPERTYTAG
  1
MH
  9
$CUSTOMPROPERTY
  1
Ductile Iron Grade 65-45-12 ASTM A536
  9
$CUSTOMPROPERTYTAG
  1
MIR
  9
$CUSTOMPROPERTY
  1
4118 Case Carb.
  9
$CUSTOMPROPERTYTAG
  1
MOR
  9
$CUSTOMPROPERTY
  1
E52100 Steel
  9
$CUSTOMPROPERTYTAG
  1
MR
  9
$CUSTOMPROPERTY
  1
Polyamide
  9
$CUSTOMPROPERTYTAG
  1
MRO
  9
$CUSTOMPROPERTY
  1
E52100 Steel
  9
$CUSTOMPROPERTYTAG
  1
SM
  9
$CUSTOMPROPERTY
  1
2°
  9
$CUSTOMPROPERTYTAG
  1
COMPANY
  9
$CUSTOMPROPERTY
  1
baldor
  9
$INSBASE
 10
0.0
 20
0.0
 30
0.0
  9
$EXTMIN
 10
1.000000000000000E+20
 20
1.000000000000000E+20
 30
1.000000000000000E+20
  9
$EXTMAX
 10
-1.000000000000000E+20
 20
-1.000000000000000E+20
 30
-1.000000000000000E+20
  9
$LIMMIN
 10
0.0
 20
0.0
  9
$LIMMAX
 10
12.0
 20
9.0
  9
$ORTHOMODE
 70
     0
  9
$REGENMODE
 70
     1
  9
$FILLMODE
 70
     1
  9
$QTEXTMODE
 70
     0
  9
$MIRRTEXT
 70
     1
  9
$LTSCALE
 40
1.0
  9
$ATTMODE
 70
     1
  9
$TEXTSIZE
 40
0.2
  9
$TRACEWID
 40
0.05
  9
$TEXTSTYLE
  7
Standard
  9
$CLAYER
  8
0
  9
$CELTYPE
  6
ByLayer
  9
$CECOLOR
 62
   256
  9
$CELTSCALE
 40
1.0
  9
$DISPSILH
 70
     0
  9
$DIMSCALE
 40
1.0
  9
$DIMASZ
 40
0.18
  9
$DIMEXO
 40
0.0625
  9
$DIMDLI
 40
0.38
  9
$DIMRND
 40
0.0
  9
$DIMDLE
 40
0.0
  9
$DIMEXE
 40
0.18
  9
$DIMTP
 40
0.0
  9
$DIMTM
 40
0.0
  9
$DIMTXT
 40
0.18
  9
$DIMCEN
 40
0.09
  9
$DIMTSZ
 40
0.0
  9
$DIMTOL
 70
     0
  9
$DIMLIM
 70
     0
  9
$DIMTIH
 70
     1
  9
$DIMTOH
 70
     1
  9
$DIMSE1
 70
     0
  9
$DIMSE2
 70
     0
  9
$DIMTAD
 70
     0
  9
$DIMZIN
 70
     0
  9
$DIMBLK
  1

  9
$DIMASO
 70
     1
  9
$DIMSHO
 70
     1
  9
$DIMPOST
  1

  9
$DIMAPOST
  1

  9
$DIMALT
 70
     0
  9
$DIMALTD
 70
     2
  9
$DIMALTF
 40
25.4
  9
$DIMLFAC
 40
1.0
  9
$DIMTOFL
 70
     0
  9
$DIMTVP
 40
0.0
  9
$DIMTIX
 70
     0
  9
$DIMSOXD
 70
     0
  9
$DIMSAH
 70
     0
  9
$DIMBLK1
  1

  9
$DIMBLK2
  1

  9
$DIMSTYLE
  2
Standard
  9
$DIMCLRD
 70
     0
  9
$DIMCLRE
 70
     0
  9
$DIMCLRT
 70
     0
  9
$DIMTFAC
 40
1.0
  9
$DIMGAP
 40
0.09
  9
$DIMJUST
 70
     0
  9
$DIMSD1
 70
     0
  9
$DIMSD2
 70
     0
  9
$DIMTOLJ
 70
     1
  9
$DIMTZIN
 70
     0
  9
$DIMALTZ
 70
     0
  9
$DIMALTTZ
 70
     0
  9
$DIMUPT
 70
     0
  9
$DIMDEC
 70
     4
  9
$DIMTDEC
 70
     4
  9
$DIMALTU
 70
     2
  9
$DIMALTTD
 70
     2
  9
$DIMTXSTY
  7
Standard
  9
$DIMAUNIT
 70
     0
  9
$DIMADEC
 70
     0
  9
$DIMALTRND
 40
0.0
  9
$DIMAZIN
 70
     0
  9
$DIMDSEP
 70
    46
  9
$DIMATFIT
 70
     3
  9
$DIMFRAC
 70
     0
  9
$DIMLDRBLK
  1

  9
$DIMLUNIT
 70
     2
  9
$DIMLWD
 70
    -2
  9
$DIMLWE
 70
    -2
  9
$DIMTMOVE
 70
     0
  9
$DIMFXL
 40
1.0
  9
$DIMFXLON
 70
     0
  9
$DIMJOGANG
 40
0.7853981633974483
  9
$DIMTFILL
 70
     0
  9
$DIMTFILLCLR
 70
     0
  9
$DIMARCSYM
 70
     0
  9
$DIMLTYPE
  6

  9
$DIMLTEX1
  6

  9
$DIMLTEX2
  6

  9
$DIMTXTDIRECTION
 70
     0
  9
$LUNITS
 70
     2
  9
$LUPREC
 70
     4
  9
$SKETCHINC
 40
0.1
  9
$FILLETRAD
 40
0.5
  9
$AUNITS
 70
     0
  9
$AUPREC
 70
     0
  9
$MENU
  1
.
  9
$ELEVATION
 40
0.0
  9
$PELEVATION
 40
0.0
  9
$THICKNESS
 40
0.0
  9
$LIMCHECK
 70
     0
  9
$CHAMFERA
 40
0.0
  9
$CHAMFERB
 40
0.0
  9
$CHAMFERC
 40
0.0
  9
$CHAMFERD
 40
0.0
  9
$SKPOLY
 70
     0
  9
$TDCREATE
 40
2458169.002918947
  9
$TDUCREATE
 40
2458168.96125228
  9
$TDUPDATE
 40
2458169.002919132
  9
$TDUUPDATE
 40
2458168.961252465
  9
$TDINDWG
 40
0.0000000116
  9
$TDUSRTIMER
 40
0.0000000116
  9
$USRTIMER
 70
     1
  9
$ANGBASE
 50
0.0
  9
$ANGDIR
 70
     0
  9
$PDMODE
 70
     0
  9
$PDSIZE
 40
0.0
  9
$PLINEWID
 40
0.0
  9
$SPLFRAME
 70
     0
  9
$SPLINETYPE
 70
     6
  9
$SPLINESEGS
 70
     8
  9
$HANDSEED
  5
202
  9
$SURFTAB1
 70
     6
  9
$SURFTAB2
 70
     6
  9
$SURFTYPE
 70
     6
  9
$SURFU
 70
     6
  9
$SURFV
 70
     6
  9
$UCSBASE
  2

  9
$UCSNAME
  2

  9
$UCSORG
 10
0.0
 20
0.0
 30
0.0
  9
$UCSXDIR
 10
1.0
 20
0.0
 30
0.0
  9
$UCSYDIR
 10
0.0
 20
1.0
 30
0.0
  9
$UCSORTHOREF
  2

  9
$UCSORTHOVIEW
 70
     0
  9
$UCSORGTOP
 10
0.0
 20
0.0
 30
0.0
  9
$UCSORGBOTTOM
 10
0.0
 20
0.0
 30
0.0
  9
$UCSORGLEFT
 10
0.0
 20
0.0
 30
0.0
  9
$UCSORGRIGHT
 10
0.0
 20
0.0
 30
0.0
  9
$UCSORGFRONT
 10
0.0
 20
0.0
 30
0.0
  9
$UCSORGBACK
 10
0.0
 20
0.0
 30
0.0
  9
$PUCSBASE
  2

  9
$PUCSNAME
  2

  9
$PUCSORG
 10
0.0
 20
0.0
 30
0.0
  9
$PUCSXDIR
 10
1.0
 20
0.0
 30
0.0
  9
$PUCSYDIR
 10
0.0
 20
1.0
 30
0.0
  9
$PUCSORTHOREF
  2

  9
$PUCSORTHOVIEW
 70
     0
  9
$PUCSORGTOP
 10
0.0
 20
0.0
 30
0.0
  9
$PUCSORGBOTTOM
 10
0.0
 20
0.0
 30
0.0
  9
$PUCSORGLEFT
 10
0.0
 20
0.0
 30
0.0
  9
$PUCSORGRIGHT
 10
0.0
 20
0.0
 30
0.0
  9
$PUCSORGFRONT
 10
0.0
 20
0.0
 30
0.0
  9
$PUCSORGBACK
 10
0.0
 20
0.0
 30
0.0
  9
$USERI1
 70
     0
  9
$USERI2
 70
     0
  9
$USERI3
 70
     0
  9
$USERI4
 70
     0
  9
$USERI5
 70
     0
  9
$USERR1
 40
0.0
  9
$USERR2
 40
0.0
  9
$USERR3
 40
0.0
  9
$USERR4
 40
0.0
  9
$USERR5
 40
0.0
  9
$WORLDVIEW
 70
     1
  9
$SHADEDGE
 70
     3
  9
$SHADEDIF
 70
    70
  9
$TILEMODE
 70
     1
  9
$MAXACTVP
 70
    64
  9
$PINSBASE
 10
0.0
 20
0.0
 30
0.0
  9
$PLIMCHECK
 70
     0
  9
$PEXTMIN
 10
1.000000000000000E+20
 20
1.000000000000000E+20
 30
1.000000000000000E+20
  9
$PEXTMAX
 10
-1.000000000000000E+20
 20
-1.000000000000000E+20
 30
-1.000000000000000E+20
  9
$PLIMMIN
 10
0.0
 20
0.0
  9
$PLIMMAX
 10
12.0
 20
9.0
  9
$UNITMODE
 70
     0
  9
$VISRETAIN
 70
     1
  9
$PLINEGEN
 70
     0
  9
$PSLTSCALE
 70
     1
  9
$TREEDEPTH
 70
  3020
  9
$CMLSTYLE
  2
Standard
  9
$CMLJUST
 70
     0
  9
$CMLSCALE
 40
1.0
  9
$PROXYGRAPHICS
 70
     1
  9
$MEASUREMENT
 70
     0
  9
$CELWEIGHT
370
    -1
  9
$ENDCAPS
280
     0
  9
$JOINSTYLE
280
     0
  9
$LWDISPLAY
290
     0
  9
$INSUNITS
 70
     1
  9
$HYPERLINKBASE
  1

  9
$STYLESHEET
  1

  9
$XEDIT
290
     1
  9
$CEPSNTYPE
380
     0
  9
$PSTYLEMODE
290
     1
  9
$FINGERPRINTGUID
  2
{B5AE9AA6-959D-46CD-9BE8-019F68265C5A}
  9
$VERSIONGUID
  2
{FAEB1C32-E019-11D5-929B-00C0DF256EC4}
  9
$EXTNAMES
290
     1
  9
$PSVPSCALE
 40
0.0
  9
$OLESTARTUP
290
     0
  9
$SORTENTS
280
   127
  9
$INDEXCTL
280
     0
  9
$HIDETEXT
280
     1
  9
$XCLIPFRAME
280
     2
  9
$HALOGAP
280
     0
  9
$OBSCOLOR
 70
   257
  9
$OBSLTYPE
280
     0
  9
$INTERSECTIONDISPLAY
280
     0
  9
$INTERSECTIONCOLOR
 70
   257
  9
$DIMASSOC
280
     2
  9
$PROJECTNAME
  1

  9
$CAMERADISPLAY
290
     0
  9
$LENSLENGTH
 40
50.0
  9
$CAMERAHEIGHT
 40
0.0
  9
$STEPSPERSEC
 40
2.0
  9
$STEPSIZE
 40
6.0
  9
$3DDWFPREC
 40
2.0
  9
$PSOLWIDTH
 40
0.25
  9
$PSOLHEIGHT
 40
4.0
  9
$LOFTANG1
 40
1.570796326794897
  9
$LOFTANG2
 40
1.570796326794897
  9
$LOFTMAG1
 40
0.0
  9
$LOFTMAG2
 40
0.0
  9
$LOFTPARAM
 70
     7
  9
$LOFTNORMALS
280
     1
  9
$LATITUDE
 40
37.795
  9
$LONGITUDE
 40
-122.394
  9
$NORTHDIRECTION
 40
0.0
  9
$TIMEZONE
 70
 -8000
  9
$LIGHTGLYPHDISPLAY
280
     1
  9
$TILEMODELIGHTSYNCH
280
     1
  9
$CMATERIAL
347
44
  9
$SOLIDHIST
280
     0
  9
$SHOWHIST
280
     1
  9
$DWFFRAME
280
     2
  9
$DGNFRAME
280
     2
  9
$REALWORLDSCALE
290
     1
  9
$INTERFERECOLOR
 62
   256
  9
$CSHADOW
280
     0
  9
$SHADOWPLANELOCATION
 40
0.0
  0
ENDSEC
  0
SECTION
  2
CLASSES
  0
CLASS
  1
ACDBDICTIONARYWDFLT
  2
AcDbDictionaryWithDefault
  3
ObjectDBX Classes
 90
        0
 91
        4
280
     0
281
     0
  0
CLASS
  1
VISUALSTYLE
  2
AcDbVisualStyle
  3
ObjectDBX Classes
 90
     4095
 91
        4
280
     0
281
     0
  0
CLASS
  1
MATERIAL
  2
AcDbMaterial
  3
ObjectDBX Classes
 90
     1153
 91
        4
280
     0
281
     0
  0
CLASS
  1
SCALE
  2
AcDbScale
  3
ObjectDBX Classes
 90
     1153
 91
        4
280
     0
281
     0
  0
CLASS
  1
TABLESTYLE
  2
AcDbTableStyle
  3
ObjectDBX Classes
 90
     4095
 91
        4
280
     0
281
     0
  0
CLASS
  1
MLEADERSTYLE
  2
AcDbMLeaderStyle
  3
ACDB_MLEADERSTYLE_CLASS
 90
     4095
 91
        4
280
     0
281
     0
  0
CLASS
  1
SUN
  2
AcDbSun
  3
SCENEOE
 90
     1153
 91
        4
280
     0
281
     0
  0
CLASS
  1
DICTIONARYVAR
  2
AcDbDictionaryVar
  3
ObjectDBX Classes
 90
        0
 91
        4
280
     0
281
     0
  0
CLASS
  1
CELLSTYLEMAP
  2
AcDbCellStyleMap
  3
ObjectDBX Classes
 90
     1152
 91
        4
280
     0
281
     0
  0
ENDSEC
  0
SECTION
  2
TABLES
  0
TABLE
  2
VPORT
  5
8
330
0
100
AcDbSymbolTable
 70
     1
  0
VPORT
  5
29
330
8
100
AcDbSymbolTableRecord
100
AcDbViewportTableRecord
  2
*Active
 70
     0
 10
0.0
 20
0.0
 11
1.0
 21
1.0
 12
0.0
 22
-0.2660157500000011
 13
0.0
 23
0.0
 14
0.5
 24
0.5
 15
0.5
 25
0.5
 16
0.0
 26
0.0
 36
1.0
 17
0.0
 27
0.0
 37
0.0
 40
4.259297129999999
 41
3.431882794376774
 42
50.0
 43
0.0
 44
0.0
 50
0.0
 51
0.0
 71
     0
 72
   100
 73
     1
 74
     3
 75
     0
 76
     0
 77
     0
 78
     0
281
     0
 65
     1
110
0.0
120
0.0
130
0.0
111
1.0
121
0.0
131
0.0
112
0.0
122
1.0
132
0.0
 79
     0
146
0.0
348
2F
 60
     3
 61
     5
292
     1
282
     1
141
0.0
142
0.0
 63
   250
361
6D
  0
ENDTAB
  0
TABLE
  2
LTYPE
  5
5
330
0
100
AcDbSymbolTable
 70
     3
  0
LTYPE
  5
14
330
5
100
AcDbSymbolTableRecord
100
AcDbLinetypeTableRecord
  2
ByBlock
 70
     0
  3

 72
    65
 73
     0
 40
0.0
  0
LTYPE
  5
15
330
5
100
AcDbSymbolTableRecord
100
AcDbLinetypeTableRecord
  2
ByLayer
 70
     0
  3

 72
    65
 73
     0
 40
0.0
  0
LTYPE
  5
16
330
5
100
AcDbSymbolTableRecord
100
AcDbLinetypeTableRecord
  2
Continuous
 70
     0
  3
Solid line
 72
    65
 73
     0
 40
0.0
  0
LTYPE
  5
B2
330
5
100
AcDbSymbolTableRecord
100
AcDbLinetypeTableRecord
  2
Dashed
 70
     0
  3

 72
    65
 73
     2
 40
2.0
 49
1.0
 74
     0
 49
-1.0
 74
     0
  0
LTYPE
  5
D3
330
5
100
AcDbSymbolTableRecord
100
AcDbLinetypeTableRecord
  2
Center
 70
     0
  3

 72
    65
 73
     4
 40
1.5
 49
0.45
 74
     0
 49
-0.5
 74
     0
 49
0.05
 74
     0
 49
-0.5
 74
     0
  0
ENDTAB
  0
TABLE
  2
LAYER
  5
2
330
0
100
AcDbSymbolTable
 70
     7
  0
LAYER
  5
10
330
2
100
AcDbSymbolTableRecord
100
AcDbLayerTableRecord
  2
0
 70
     0
 62
     7
  6
Continuous
370
    -3
390
F
347
46
348
0
  0
LAYER
  5
72
330
2
100
AcDbSymbolTableRecord
100
AcDbLayerTableRecord
  2
AM_6
 70
     0
 62
    -2
  6
Continuous
370
    35
390
F
347
46
348
0
  0
LAYER
  5
B3
330
2
100
AcDbSymbolTableRecord
100
AcDbLayerTableRecord
  2
AM_9
 70
     0
 62
     6
  6
Dashed
370
    25
390
F
347
46
348
0
  0
LAYER
  5
D4
330
2
100
AcDbSymbolTableRecord
100
AcDbLayerTableRecord
  2
AM_7
 70
     0
 62
     7
  6
Center
370
    25
390
F
347
46
348
0
  0
LAYER
  5
D6
330
2
100
AcDbSymbolTableRecord
100
AcDbLayerTableRecord
  2
AM_4
 70
     0
 62
     7
  6
Continuous
370
    50
390
F
347
46
348
0
  0
LAYER
  5
E5
330
2
100
AcDbSymbolTableRecord
100
AcDbLayerTableRecord
  2
AM_5
 70
     0
 62
     3
  6
Continuous
370
    25
390
F
347
46
348
0
  0
LAYER
  5
1F5
330
2
100
AcDbSymbolTableRecord
100
AcDbLayerTableRecord
  2
ConnectionPoints
 70
     0
 62
     7
  6
Continuous
370
    50
390
F
347
46
348
0
  0
ENDTAB
  0
TABLE
  2
STYLE
  5
3
330
0
100
AcDbSymbolTable
 70
     1
  0
STYLE
  5
11
330
3
100
AcDbSymbolTableRecord
100
AcDbTextStyleTableRecord
  2
Standard
 70
     0
 40
0.0
 41
1.0
 50
0.0
 71
     0
 42
0.2
  3
txt
  4

  0
ENDTAB
  0
TABLE
  2
VIEW
  5
6
330
0
100
AcDbSymbolTable
 70
     0
  0
ENDTAB
  0
TABLE
  2
UCS
  5
7
330
0
100
AcDbSymbolTable
 70
     0
  0
ENDTAB
  0
TABLE
  2
APPID
  5
9
330
0
100
AcDbSymbolTable
 70
     1
  0
APPID
  5
12
330
9
100
AcDbSymbolTableRecord
100
AcDbRegAppTableRecord
  2
ACAD
 70
     0
  0
ENDTAB
  0
TABLE
  2
DIMSTYLE
  5
A
330
0
100
AcDbSymbolTable
 70
     1
100
AcDbDimStyleTable
  0
DIMSTYLE
105
27
330
A
100
AcDbSymbolTableRecord
100
AcDbDimStyleTableRecord
  2
Standard
 70
     0
178
     0
340
11
  0
ENDTAB
  0
TABLE
  2
BLOCK_RECORD
  5
1
330
0
100
AcDbSymbolTable
 70
     5
  0
BLOCK_RECORD
  5
1F
330
1
100
AcDbSymbolTableRecord
100
AcDbBlockTableRecord
  2
*Model_Space
340
22
 70
     0
280
     1
281
     0
  0
BLOCK_RECORD
  5
1B
330
1
100
AcDbSymbolTableRecord
100
AcDbBlockTableRecord
  2
*Paper_Space
340
1E
 70
     0
280
     1
281
     0
  0
BLOCK_RECORD
  5
23
330
1
100
AcDbSymbolTableRecord
100
AcDbBlockTableRecord
  2
*Paper_Space0
340
26
 70
     0
280
     1
281
     0
  0
BLOCK_RECORD
  5
6E
330
1
100
AcDbSymbolTableRecord
100
AcDbBlockTableRecord
  2
1_048015_4
340
0
102
{BLKREFS
331
6F
102
}
 70
     0
280
     1
281
     0
  0
BLOCK_RECORD
  5
9B
330
1
100
AcDbSymbolTableRecord
100
AcDbBlockTableRecord
  2
2_421258_0_in_048015_4
340
0
102
{BLKREFS
331
9C
102
}
 70
     0
280
     1
281
     0
  0
BLOCK_RECORD
  5
E7
330
1
100
AcDbSymbolTableRecord
100
AcDbBlockTableRecord
  2
3_405020c_Inch_0_in_048015_4
340
0
102
{BLKREFS
331
E8
102
}
 70
     0
280
     1
281
     0
  0
BLOCK_RECORD
  5
13E
330
1
100
AcDbSymbolTableRecord
100
AcDbBlockTableRecord
  2
4_048015B_0_in_048015_4
340
0
102
{BLKREFS
331
13F
102
}
 70
     0
280
     1
281
     0
  0
ENDTAB
  0
ENDSEC
  0
SECTION
  2
BLOCKS
  0
BLOCK
  5
20
330
1F
100
AcDbEntity
  8
0
100
AcDbBlockBegin
  2
*Model_Space
 70
     0
 10
0.0
 20
0.0
 30
0.0
  3
*Model_Space
  1

  0
ENDBLK
  5
21
330
1F
100
AcDbEntity
  8
0
100
AcDbBlockEnd
  0
BLOCK
  5
1C
330
1B
100
AcDbEntity
 67
     1
  8
0
100
AcDbBlockBegin
  2
*Paper_Space
 70
     0
 10
0.0
 20
0.0
 30
0.0
  3
*Paper_Space
  1

  0
ENDBLK
  5
1D
330
1B
100
AcDbEntity
 67
     1
  8
0
100
AcDbBlockEnd
  0
BLOCK
  5
24
330
23
100
AcDbEntity
  8
0
100
AcDbBlockBegin
  2
*Paper_Space0
 70
     0
 10
0.0
 20
0.0
 30
0.0
  3
*Paper_Space0
  1

  0
ENDBLK
  5
25
330
23
100
AcDbEntity
  8
0
100
AcDbBlockEnd
  0
BLOCK
  5
70
330
6E
100
AcDbEntity
  8
0
100
AcDbBlockBegin
  2
1_048015_4
 70
     2
 10
0.0
 20
0.0
 30
0.0
  3
1_048015_4
  1

  0
ATTDEF
  5
73
330
6E
100
AcDbEntity
  8
AM_6
100
AcDbText
 10
12.16539634146342
 20
1.821874999999999
 30
0.0
 40
0.5
  1
Unisphere II Pillow Block Inch Bore
100
AcDbAttributeDefinition
  3

  2
NN
 70
     8
280
     0
  0
ATTDEF
  5
74
330
6E
100
AcDbEntity
  8
AM_6
100
AcDbText
 10
12.16539634146342
 20
1.321874999999999
 30
0.0
 40
0.5
  1
Unisphere II
100
AcDbAttributeDefinition
  3

  2
NT
 70
     8
280
     0
  0
ATTDEF
  5
75
330
6E
100
AcDbEntity
  8
AM_6
100
AcDbText
 10
12.16539634146342
 20
0.8218749999999986
 30
0.0
 40
0.5
  1
048015
100
AcDbAttributeDefinition
  3

  2
NB
 70
     8
280
     0
  0
ATTDEF
  5
76
330
6E
100
AcDbEntity
  8
AM_6
100
AcDbText
 10
12.16539634146342
 20
0.3218749999999986
 30
0.0
 40
0.5
  1
$PN.
100
AcDbAttributeDefinition
  3

  2
NBSYN
 70
     8
280
     0
  0
ATTDEF
  5
77
330
6E
100
AcDbEntity
  8
AM_6
100
AcDbText
 10
12.16539634146342
 20
-0.1781250000000014
 30
0.0
 40
0.5
  1
048015
100
AcDbAttributeDefinition
  3

  2
LINA
 70
     8
280
     0
  0
ATTDEF
  5
78
330
6E
100
AcDbEntity
  8
AM_6
100
AcDbText
 10
12.16539634146342
 20
-0.6781250000000014
 30
0.0
 40
0.5
  1
3-15/16
100
AcDbAttributeDefinition
  3

  2
SS
 70
     8
280
     0
  0
ATTDEF
  5
79
330
6E
100
AcDbEntity
  8
AM_6
100
AcDbText
 10
12.16539634146342
 20
-1.178125000000001
 30
0.0
 40
0.5
  1
Non Expansion Type
100
AcDbAttributeDefinition
  3

  2
TYPE
 70
     8
280
     0
  0
ATTDEF
  5
7A
330
6E
100
AcDbEntity
  8
AM_6
100
AcDbText
 10
12.16539634146342
 20
-1.678125000000001
 30
0.0
 40
0.5
  1
048015
100
AcDbAttributeDefinition
  3

  2
PN
 70
     8
280
     0
  0
ATTDEF
  5
7B
330
6E
100
AcDbEntity
  8
AM_6
100
AcDbText
 10
12.16539634146342
 20
-2.178125000000001
 30
0.0
 40
0.5
  1
P2B-UN2-315
100
AcDbAttributeDefinition
  3

  2
DESCRIPTION
 70
     8
280
     0
  0
ATTDEF
  5
7C
330
6E
100
AcDbEntity
  8
AM_6
100
AcDbText
 10
12.16539634146342
 20
-2.678125000000001
 30
0.0
 40
0.5
  1
37.4
100
AcDbAttributeDefinition
  3

  2
WEIGHT
 70
     8
280
     0
  0
ATTDEF
  5
7D
330
6E
100
AcDbEntity
  8
AM_6
100
AcDbText
 10
12.16539634146342
 20
-3.178125000000001
 30
0.0
 40
0.5
  1
3-21/64
100
AcDbAttributeDefinition
  3

  2
A
 70
     8
280
     0
  0
ATTDEF
  5
7E
330
6E
100
AcDbEntity
  8
AM_6
100
AcDbText
 10
12.16539634146342
 20
-3.678125000000001
 30
0.0
 40
0.5
  1
14-1/4
100
AcDbAttributeDefinition
  3

  2
B
 70
     8
280
     0
  0
ATTDEF
  5
7F
330
6E
100
AcDbEntity
  8
AM_6
100
AcDbText
 10
12.16539634146342
 20
-4.178125000000001
 30
0.0
 40
0.5
  1
3-5/16
100
AcDbAttributeDefinition
  3

  2
C
 70
     8
280
     0
  0
ATTDEF
  5
80
330
6E
100
AcDbEntity
  8
AM_6
100
AcDbText
 10
12.16539634146342
 20
-4.678125000000001
 30
0.0
 40
0.5
  1
10
100
AcDbAttributeDefinition
  3

  2
DMIN
 70
     8
280
     0
  0
ATTDEF
  5
81
330
6E
100
AcDbEntity
  8
AM_6
100
AcDbText
 10
12.16539634146342
 20
-5.178125000000001
 30
0.0
 40
0.5
  1
11-7/8
100
AcDbAttributeDefinition
  3

  2
DMAX
 70
     8
280
     0
  0
ATTDEF
  5
82
330
6E
100
AcDbEntity
  8
AM_6
100
AcDbText
 10
12.16539634146342
 20
-5.678125000000001
 30
0.0
 40
0.5
  1
7/32
100
AcDbAttributeDefinition
  3

  2
E
 70
     8
280
     0
  0
ATTDEF
  5
83
330
6E
100
AcDbEntity
  8
AM_6
100
AcDbText
 10
12.16539634146342
 20
-6.178125000000001
 30
0.0
 40
0.5
  1
1
100
AcDbAttributeDefinition
  3

  2
F
 70
     8
280
     0
  0
ATTDEF
  5
84
330
6E
100
AcDbEntity
  8
AM_6
100
AcDbText
 10
12.16539634146342
 20
-6.678125000000001
 30
0.0
 40
0.5
  1
2
100
AcDbAttributeDefinition
  3

  2
G
 70
     8
280
     0
  0
ATTDEF
  5
85
330
6E
100
AcDbEntity
  8
AM_6
100
AcDbText
 10
12.16539634146342
 20
-7.178125000000001
 30
0.0
 40
0.5
  1
2-1/2
100
AcDbAttributeDefinition
  3

  2
H
 70
     8
280
     0
  0
ATTDEF
  5
86
330
6E
100
AcDbEntity
  8
AM_6
100
AcDbText
 10
12.16539634146342
 20
-7.678125000000001
 30
0.0
 40
0.5
  1
8-7/16
100
AcDbAttributeDefinition
  3

  2
J
 70
     8
280
     0
  0
ATTDEF
  5
87
330
6E
100
AcDbEntity
  8
AM_6
100
AcDbText
 10
12.16539634146342
 20
-8.178125000000001
 30
0.0
 40
0.5
  1
6-15/32
100
AcDbAttributeDefinition
  3

  2
L
 70
     8
280
     0
  0
ATTDEF
  5
88
330
6E
100
AcDbEntity
  8
AM_6
100
AcDbText
 10
12.16539634146342
 20
-8.678125000000001
 30
0.0
 40
0.5
  1
4-1/8
100
AcDbAttributeDefinition
  3

  2
M
 70
     8
280
     0
  0
ATTDEF
  5
89
330
6E
100
AcDbEntity
  8
AM_6
100
AcDbText
 10
12.16539634146342
 20
-9.178125000000001
 30
0.0
 40
0.5
  1
1-1/8
100
AcDbAttributeDefinition
  3

  2
R
 70
     8
280
     0
  0
ATTDEF
  5
8A
330
6E
100
AcDbEntity
  8
AM_6
100
AcDbText
 10
12.16539634146342
 20
-9.678125000000001
 30
0.0
 40
0.5
  1
2-3/16
100
AcDbAttributeDefinition
  3

  2
S
 70
     8
280
     0
  0
ATTDEF
  5
8B
330
6E
100
AcDbEntity
  8
AM_6
100
AcDbText
 10
12.16539634146342
 20
-10.178125
 30
0.0
 40
0.5
  1
1250
100
AcDbAttributeDefinition
  3

  2
MRPM
 70
     8
280
     0
  0
ATTDEF
  5
8C
330
6E
100
AcDbEntity
  8
AM_6
100
AcDbText
 10
12.16539634146342
 20
-10.678125
 30
0.0
 40
0.5
  1
104000
100
AcDbAttributeDefinition
  3

  2
CS
 70
     8
280
     0
  0
ATTDEF
  5
8D
330
6E
100
AcDbEntity
  8
AM_6
100
AcDbText
 10
12.16539634146342
 20
-11.178125
 30
0.0
 40
0.5
  1
80000
100
AcDbAttributeDefinition
  3

  2
CD
 70
     8
280
     0
  0
ATTDEF
  5
8E
330
6E
100
AcDbEntity
  8
AM_6
100
AcDbText
 10
12.16539634146342
 20
-11.678125
 30
0.0
 40
0.5
  1
18
100
AcDbAttributeDefinition
  3

  2
RN
 70
     8
280
     0
  0
ATTDEF
  5
8F
330
6E
100
AcDbEntity
  8
AM_6
100
AcDbText
 10
12.16539634146342
 20
-12.178125
 30
0.0
 40
0.5
  1
0.8780
100
AcDbAttributeDefinition
  3

  2
RM
 70
     8
280
     0
  0
ATTDEF
  5
90
330
6E
100
AcDbEntity
  8
AM_6
100
AcDbText
 10
12.16539634146342
 20
-12.678125
 30
0.0
 40
0.5
  1
5.705
100
AcDbAttributeDefinition
  3

  2
PD
 70
     8
280
     0
  0
ATTDEF
  5
91
330
6E
100
AcDbEntity
  8
AM_6
100
AcDbText
 10
12.16539634146342
 20
-13.178125
 30
0.0
 40
0.5
  1
0.0024-0.0039
100
AcDbAttributeDefinition
  3

  2
RC
 70
     8
280
     0
  0
ATTDEF
  5
92
330
6E
100
AcDbEntity
  8
AM_6
100
AcDbText
 10
12.16539634146342
 20
-13.678125
 30
0.0
 40
0.5
  1
5/8-11x1-1/4
100
AcDbAttributeDefinition
  3

  2
CSS
 70
     8
280
     0
  0
ATTDEF
  5
93
330
6E
100
AcDbEntity
  8
AM_6
100
AcDbText
 10
12.16539634146342
 20
-14.178125
 30
0.0
 40
0.5
  1
1325
100
AcDbAttributeDefinition
  3

  2
CST
 70
     8
280
     0
  0
ATTDEF
  5
94
330
6E
100
AcDbEntity
  8
AM_6
100
AcDbText
 10
12.16539634146342
 20
-14.678125
 30
0.0
 40
0.5
  1
Ductile Iron Grade 65-45-12 ASTM A536
100
AcDbAttributeDefinition
  3

  2
MH
 70
     8
280
     0
  0
ATTDEF
  5
95
330
6E
100
AcDbEntity
  8
AM_6
100
AcDbText
 10
12.16539634146342
 20
-15.178125
 30
0.0
 40
0.5
  1
4118 Case Carb.
100
AcDbAttributeDefinition
  3

  2
MIR
 70
     8
280
     0
  0
ATTDEF
  5
96
330
6E
100
AcDbEntity
  8
AM_6
100
AcDbText
 10
12.16539634146342
 20
-15.678125
 30
0.0
 40
0.5
  1
E52100 Steel
100
AcDbAttributeDefinition
  3

  2
MOR
 70
     8
280
     0
  0
ATTDEF
  5
97
330
6E
100
AcDbEntity
  8
AM_6
100
AcDbText
 10
12.16539634146342
 20
-16.178125
 30
0.0
 40
0.5
  1
Polyamide
100
AcDbAttributeDefinition
  3

  2
MR
 70
     8
280
     0
  0
ATTDEF
  5
98
330
6E
100
AcDbEntity
  8
AM_6
100
AcDbText
 10
12.16539634146342
 20
-16.678125
 30
0.0
 40
0.5
  1
E52100 Steel
100
AcDbAttributeDefinition
  3

  2
MRO
 70
     8
280
     0
  0
ATTDEF
  5
99
330
6E
100
AcDbEntity
  8
AM_6
100
AcDbText
 10
12.16539634146342
 20
-17.178125
 30
0.0
 40
0.5
  1
2°
100
AcDbAttributeDefinition
  3

  2
SM
 70
     8
280
     0
  0
ATTDEF
  5
9A
330
6E
100
AcDbEntity
  8
AM_6
100
AcDbText
 10
12.16539634146342
 20
-17.678125
 30
0.0
 40
0.5
  1
baldor
100
AcDbAttributeDefinition
  3

  2
COMPANY
 70
     8
280
     0
  0
INSERT
  5
9C
330
6E
100
AcDbEntity
  8
0
100
AcDbBlockReference
  2
2_421258_0_in_048015_4
 10
0.0
 20
0.0
 30
0.0
  0
INSERT
  5
E8
330
6E
100
AcDbEntity
  8
0
100
AcDbBlockReference
  2
3_405020c_Inch_0_in_048015_4
 10
0.0
 20
0.0
 30
0.0
  0
INSERT
  5
13F
330
6E
100
AcDbEntity
  8
0
100
AcDbBlockReference
  2
4_048015B_0_in_048015_4
 10
0.0
 20
0.0
 30
0.0
  0
ENDBLK
  5
71
330
6E
100
AcDbEntity
  8
0
100
AcDbBlockEnd
  0
BLOCK
  5
9D
330
9B
100
AcDbEntity
  8
0
100
AcDbBlockBegin
  2
2_421258_0_in_048015_4
 70
     2
 10
0.0
 20
0.0
 30
0.0
  3
2_421258_0_in_048015_4
  1

  0
ATTDEF
  5
9F
330
9B
100
AcDbEntity
  8
AM_6
100
AcDbText
 10
8.234375
 20
1.14063
 30
0.0
 40
0.5
  1
Unisphere II Insert With Seal - Inch
100
AcDbAttributeDefinition
  3

  2
NN
 70
     8
280
     0
  0
ATTDEF
  5
A0
330
9B
100
AcDbEntity
  8
AM_6
100
AcDbText
 10
8.234375
 20
0.64063
 30
0.0
 40
0.5
  1
Unisphere II
100
AcDbAttributeDefinition
  3

  2
NT
 70
     8
280
     0
  0
ATTDEF
  5
A1
330
9B
100
AcDbEntity
  8
AM_6
100
AcDbText
 10
8.234375
 20
0.14063
 30
0.0
 40
0.5
  1
421258
100
AcDbAttributeDefinition
  3

  2
NB
 70
     8
280
     0
  0
ATTDEF
  5
A2
330
9B
100
AcDbEntity
  8
AM_6
100
AcDbText
 10
8.234375
 20
-0.35937
 30
0.0
 40
0.5
  1
$PN.
100
AcDbAttributeDefinition
  3

  2
NBSYN
 70
     8
280
     0
  0
ATTDEF
  5
A3
330
9B
100
AcDbEntity
  8
AM_6
100
AcDbText
 10
8.234375
 20
-0.85937
 30
0.0
 40
0.5
  1
421258
100
AcDbAttributeDefinition
  3

  2
LINA
 70
     8
280
     0
  0
ATTDEF
  5
A4
330
9B
100
AcDbEntity
  8
AM_6
100
AcDbText
 10
8.234375
 20
-1.35937
 30
0.0
 40
0.5
  1
3-15/16
100
AcDbAttributeDefinition
  3

  2
SS
 70
     8
280
     0
  0
ATTDEF
  5
A5
330
9B
100
AcDbEntity
  8
AM_6
100
AcDbText
 10
8.234375
 20
-1.85937
 30
0.0
 40
0.5
  1
3.93750
100
AcDbAttributeDefinition
  3

  2
SS1
 70
     8
280
     0
  0
ATTDEF
  5
A6
330
9B
100
AcDbEntity
  8
AM_6
100
AcDbText
 10
8.234375
 20
-2.35937
 30
0.0
 40
0.5
  1
7.0866
100
AcDbAttributeDefinition
  3

  2
A
 70
     8
280
     0
  0
ATTDEF
  5
A7
330
9B
100
AcDbEntity
  8
AM_6
100
AcDbText
 10
8.234375
 20
-2.85937
 30
0.0
 40
0.5
  1
6.46875
100
AcDbAttributeDefinition
  3

  2
A1
 70
     8
280
     0
  0
ATTDEF
  5
A8
330
9B
100
AcDbEntity
  8
AM_6
100
AcDbText
 10
8.234375
 20
-3.35937
 30
0.0
 40
0.5
  1
1.8610
100
AcDbAttributeDefinition
  3

  2
B
 70
     8
280
     0
  0
ATTDEF
  5
A9
330
9B
100
AcDbEntity
  8
AM_6
100
AcDbText
 10
8.234375
 20
-3.85937
 30
0.0
 40
0.5
  1
1.86100
100
AcDbAttributeDefinition
  3

  2
B1
 70
     8
280
     0
  0
ATTDEF
  5
AA
330
9B
100
AcDbEntity
  8
AM_6
100
AcDbText
 10
8.234375
 20
-4.35937
 30
0.0
 40
0.5
  1
3-21/64
100
AcDbAttributeDefinition
  3

  2
C
 70
     8
280
     0
  0
ATTDEF
  5
AB
330
9B
100
AcDbEntity
  8
AM_6
100
AcDbText
 10
8.234375
 20
-4.85937
 30
0.0
 40
0.5
  1
3.32813
100
AcDbAttributeDefinition
  3

  2
C1
 70
     8
280
     0
  0
ATTDEF
  5
AC
330
9B
100
AcDbEntity
  8
AM_6
100
AcDbText
 10
8.234375
 20
-5.35937
 30
0.0
 40
0.5
  1
1.090
100
AcDbAttributeDefinition
  3

  2
D
 70
     8
280
     0
  0
ATTDEF
  5
AD
330
9B
100
AcDbEntity
  8
AM_6
100
AcDbText
 10
8.234375
 20
-5.85937
 30
0.0
 40
0.5
  1
1.09000
100
AcDbAttributeDefinition
  3

  2
D1
 70
     8
280
     0
  0
ATTDEF
  5
AE
330
9B
100
AcDbEntity
  8
AM_6
100
AcDbText
 10
8.234375
 20
-6.35937
 30
0.0
 40
0.5
  1
0.505
100
AcDbAttributeDefinition
  3

  2
E
 70
     8
280
     0
  0
ATTDEF
  5
AF
330
9B
100
AcDbEntity
  8
AM_6
100
AcDbText
 10
8.234375
 20
-6.85937
 30
0.0
 40
0.5
  1
0.50500
100
AcDbAttributeDefinition
  3

  2
E1
 70
     8
280
     0
  0
ATTDEF
  5
B0
330
9B
100
AcDbEntity
  8
AM_6
100
AcDbText
 10
8.234375
 20
-7.35937
 30
0.0
 40
0.5
  1
421258
100
AcDbAttributeDefinition
  3

  2
PN
 70
     8
280
     0
  0
ATTDEF
  5
B1
330
9B
100
AcDbEntity
  8
AM_6
100
AcDbText
 10
8.234375
 20
-7.85937
 30
0.0
 40
0.5
  1
baldor
100
AcDbAttributeDefinition
  3

  2
COMPANY
 70
     8
280
     0
  0
LINE
  5
B4
330
9B
100
AcDbEntity
  8
AM_9
100
AcDbLine
 10
-2.885108396933684
 20
-1.912045454545455
 30
0.0
 11
-1.784293309118423
 21
-1.912045454545455
 31
0.0
  0
LINE
  5
B5
330
9B
100
AcDbEntity
  8
AM_9
100
AcDbLine
 10
-1.784214348507786
 20
-1.452954545454545
 30
0.0
 11
-2.885108396933684
 21
-1.452954545454545
 31
0.0
  0
LWPOLYLINE
  5
B6
330
9B
100
AcDbEntity
  8
AM_9
100
AcDbPolyline
 90
       20
 70
     0
 43
0.0
 10
-1.784284740737706
 20
-1.452954546380797
 10
-1.795056130964441
 20
-1.454412463897826
 10
-1.810199115302068
 20
-1.461937604562415
 10
-1.824024925904892
 20
-1.475590947567293
 10
-1.836258601832243
 20
-1.495116004613168
 10
-1.846701692135601
 20
-1.519860013618207
 10
-1.855249514770531
 20
-1.54938855917094
 10
-1.8617895812633
 20
-1.582683677417198
 10
-1.866264380435567
 20
-1.618869501438572
 10
-1.868679686980139
 20
-1.656872770617003
 10
-1.869014339198969
 20
-1.695392581719142
 10
-1.867308555743365
 20
-1.73354721516629
 10
-1.863558459291839
 20
-1.770133458474716
 10
-1.857792618460492
 20
-1.804266993388173
 10
-1.84997285893213
 20
-1.83509282703856
 10
-1.840201277805114
 20
-1.861643126813366
 10
-1.828490217616442
 20
-1.883206595103699
 10
-1.815081529915511
 20
-1.899099822074053
 10
-1.800234691168887
 20
-1.908762907978604
 10
-1.784293405770114
 20
-1.912045454545428
  0
LWPOLYLINE
  5
B7
330
9B
100
AcDbEntity
  8
AM_9
100
AcDbPolyline
 90
       11
 70
     0
 43
0.0
 10
-1.784293405770114
 20
-1.912045454545428
 10
-1.78428651601888
 20
-1.912045453958128
 10
-1.767745091989571
 20
-1.908796639916762
 10
-1.751030843032196
 20
-1.899241455798591
 10
-1.734695000788576
 20
-1.883576273371999
 10
-1.719309508572559
 20
-1.862326920693704
 10
-1.705393660370061
 20
-1.835849595044949
 10
-1.693575770876564
 20
-1.805057834853104
 10
-1.684366614182686
 20
-1.770650662654433
 10
-1.678168604049328
 20
-1.7337286768269
 10
-1.675113760410556
 20
-1.6825
  0
ELLIPSE
  5
B8
330
9B
100
AcDbEntity
  8
AM_9
100
AcDbEllipse
 10
-2.885108396933685
 20
-1.6825
 30
0.0
 11
-4.216681592518751E-17
 21
-0.2295454545454558
 31
0.0
210
0.0
220
0.0
230
1.0
 40
0.4226182617407007
 41
0.3177462570236589
 42
2.83575926109483
  0
LINE
  5
B9
330
9B
100
AcDbEntity
  8
AM_9
100
AcDbLine
 10
-2.839871843923435
 20
-1.479438900130903
 30
0.0
 11
-2.873875192652879
 21
-1.43702697939188
 31
0.0
  0
LINE
  5
BA
330
9B
100
AcDbEntity
  8
AM_9
100
AcDbLine
 10
-2.874109209761564
 20
-1.928264907008607
 30
0.0
 11
-2.839871843923435
 21
-1.885561099869097
 31
0.0
  0
LWPOLYLINE
  5
BB
330
9B
100
AcDbEntity
  8
AM_9
100
AcDbPolyline
 90
       11
 70
     0
 43
0.0
 10
-1.675113760410556
 20
-1.6825
 10
-1.676835948880889
 20
-1.644113342725443
 10
-1.681866119141152
 20
-1.60681225940966
 10
-1.690024986656781
 20
-1.571683223465234
 10
-1.70090592484532
 20
-1.53966166343592
 10
-1.71414424094159
 20
-1.51157469084621
 10
-1.729128681395231
 20
-1.48829071697783
 10
-1.745342144084154
 20
-1.470494463951699
 10
-1.762136712532389
 20
-1.458694051404856
 10
-1.778853586835131
 20
-1.453333720666218
 10
-1.784284740737706
 20
-1.452954546380797
  0
LINE
  5
BC
330
9B
100
AcDbEntity
  8
AM_9
100
AcDbLine
 10
1.96875
 20
-2.1875
 30
0.0
 11
1.96875
 21
1.140629999999999
 31
0.0
  0
LINE
  5
BD
330
9B
100
AcDbEntity
  8
AM_9
100
AcDbLine
 10
-1.96875
 20
1.140629999999999
 30
0.0
 11
-1.96875
 21
-2.1875
 31
0.0
  0
LINE
  5
BE
330
9B
100
AcDbEntity
  8
AM_9
100
AcDbLine
 10
2.310267857142857
 20
-1.1775
 30
0.0
 11
2.310267857142857
 21
-0.7203700000000003
 31
0.0
  0
LINE
  5
BF
330
9B
100
AcDbEntity
  8
AM_9
100
AcDbLine
 10
-2.310267857142857
 20
-0.7203700000000003
 30
0.0
 11
-2.310267857142857
 21
-1.1775
 31
0.0
  0
LINE
  5
C0
330
9B
100
AcDbEntity
  8
AM_9
100
AcDbLine
 10
2.07169162463917
 20
-1.1775
 30
0.0
 11
3.214374999994211
 21
-1.1775
 31
0.0
  0
LINE
  5
C1
330
9B
100
AcDbEntity
  8
AM_9
100
AcDbLine
 10
-3.214375
 20
-1.1775
 30
0.0
 11
-2.07169162463917
 21
-1.1775
 31
0.0
  0
ARC
  5
C2
330
9B
100
AcDbEntity
  8
AM_9
100
AcDbCircle
 10
3.214375
 20
-1.1975
 30
0.0
 40
0.02
100
AcDbArc
 50
0.0
 51
90.0
  0
ARC
  5
C3
330
9B
100
AcDbEntity
  8
AM_9
100
AcDbCircle
 10
-3.214375
 20
-1.1975
 30
0.0
 40
0.0199999999999996
100
AcDbArc
 50
90.0
 51
180.0
  0
LINE
  5
C4
330
9B
100
AcDbEntity
  8
AM_9
100
AcDbLine
 10
2.479850410124076
 20
-1.197499999999999
 30
0.0
 11
3.234375
 21
-1.197499999999999
 31
0.0
  0
LINE
  5
C5
330
9B
100
AcDbEntity
  8
AM_9
100
AcDbLine
 10
-3.234375
 20
-1.197499999999999
 30
0.0
 11
-2.479850410124076
 21
-1.197499999999999
 31
0.0
  0
LINE
  5
C6
330
9B
100
AcDbEntity
  8
AM_9
100
AcDbLine
 10
3.234375
 20
-1.255184893197909
 30
0.0
 11
3.234375
 21
-1.197499999999999
 31
0.0
  0
LINE
  5
C7
330
9B
100
AcDbEntity
  8
AM_9
100
AcDbLine
 10
-3.234375
 20
-1.197499999999999
 30
0.0
 11
-3.234375
 21
-1.255184893197909
 31
0.0
  0
LINE
  5
C8
330
9B
100
AcDbEntity
  8
AM_9
100
AcDbLine
 10
3.234375
 20
-0.7003700000000002
 30
0.0
 11
3.234375
 21
1.12063
 31
0.0
  0
LINE
  5
C9
330
9B
100
AcDbEntity
  8
AM_9
100
AcDbLine
 10
-3.234375
 20
1.12063
 30
0.0
 11
-3.234375
 21
-0.7003700000000002
 31
0.0
  0
LINE
  5
CA
330
9B
100
AcDbEntity
  8
AM_9
100
AcDbLine
 10
-3.234375
 20
1.12063
 30
0.0
 11
3.234375
 21
1.12063
 31
0.0
  0
LINE
  5
CB
330
9B
100
AcDbEntity
  8
AM_9
100
AcDbLine
 10
0.6143210636999127
 20
1.14063
 30
0.0
 11
3.214374999994211
 21
1.14063
 31
0.0
  0
LINE
  5
CC
330
9B
100
AcDbEntity
  8
AM_9
100
AcDbLine
 10
-3.214375
 20
1.14063
 30
0.0
 11
-0.6143210636999127
 21
1.14063
 31
0.0
  0
ARC
  5
CD
330
9B
100
AcDbEntity
  8
AM_9
100
AcDbCircle
 10
3.214375
 20
1.12063
 30
0.0
 40
0.0199999999999996
100
AcDbArc
 50
0.0
 51
90.0
  0
ARC
  5
CE
330
9B
100
AcDbEntity
  8
AM_9
100
AcDbCircle
 10
-3.214375
 20
1.12063
 30
0.0
 40
0.0199999999999996
100
AcDbArc
 50
90.0
 51
180.0
  0
LINE
  5
CF
330
9B
100
AcDbEntity
  8
AM_9
100
AcDbLine
 10
-3.214375
 20
-0.72037
 30
0.0
 11
3.214374999994212
 21
-0.72037
 31
0.0
  0
LINE
  5
D0
330
9B
100
AcDbEntity
  8
AM_9
100
AcDbLine
 10
-3.234375
 20
-0.7003700000000002
 30
0.0
 11
3.234375
 21
-0.7003700000000002
 31
0.0
  0
ARC
  5
D1
330
9B
100
AcDbEntity
  8
AM_9
100
AcDbCircle
 10
3.214375
 20
-0.7003699999999999
 30
0.0
 40
0.02
100
AcDbArc
 50
270.0
 51
0.0
  0
ARC
  5
D2
330
9B
100
AcDbEntity
  8
AM_9
100
AcDbCircle
 10
-3.214375
 20
-0.7003699999999999
 30
0.0
 40
0.02
100
AcDbArc
 50
180.0
 51
270.0
  0
LINE
  5
D5
330
9B
100
AcDbEntity
  8
AM_7
100
AcDbLine
 10
-0.2410227272727272
 20
-1.6825
 30
0.0
 11
0.2410227272727272
 21
-1.6825
 31
0.0
  0
ELLIPSE
  5
D7
330
9B
100
AcDbEntity
  8
AM_4
100
AcDbEllipse
 10
-2.885108396933684
 20
-1.6825
 30
0.0
 11
-4.216681592518730E-17
 21
-0.2295454545454547
 31
0.0
210
0.0
220
0.0
230
1.0
 40
0.4226182617407009
 41
2.835759261094838
 42
6.600931564203236
  0
LWPOLYLINE
  5
D8
330
9B
100
AcDbEntity
  8
AM_4
100
AcDbPolyline
 90
       15
 70
     0
 43
0.0
 10
-2.874193732421492
 20
-1.436629671423263
 10
-2.866097656532586
 20
-1.447600245762887
 10
-2.849917737984994
 20
-1.47551695982314
 10
-2.83577984416738
 20
-1.508614042728663
 10
-2.8237616618532
 20
-1.547552973950074
 10
-2.814824008502099
 20
-1.589981592314406
 10
-2.809173833440765
 20
-1.636451006513304
 10
-2.807340620141589
 20
-1.684167306034213
 10
-2.80952951841134
 20
-1.732803087557199
 10
-2.815678567285891
 20
-1.780019988986235
 10
-2.825627703506951
 20
-1.824440868171194
 10
-2.838952059442283
 20
-1.864742928458448
 10
-2.854843635309991
 20
-1.898912784423388
 10
-2.872918834830967
 20
-1.926758798746282
 10
-2.874200037448118
 20
-1.928378194458731
  0
LWPOLYLINE
  5
D9
330
9B
100
AcDbEntity
  8
AM_4
100
AcDbPolyline
 90
       19
 70
     0
 43
0.0
 10
-2.874200037448118
 20
-1.928378194458731
 10
-2.891766837558211
 20
-1.946539926900243
 10
-2.911361057091904
 20
-1.958826371778098
 10
-2.930256527586322
 20
-1.963012630321577
 10
-2.948647899710592
 20
-1.959695531622531
 10
-2.965694204517362
 20
-1.949144970294656
 10
-2.981355754966246
 20
-1.931835709506675
 10
-2.995468121565156
 20
-1.9078872344416
 10
-3.007607697989832
 20
-1.878319143865897
 10
-3.017915330676894
 20
-1.842610554444222
 10
-3.025845433170668
 20
-1.802815146204385
 10
-3.031484171298541
 20
-1.758247290718486
 10
-3.034472844769334
 20
-1.711658450002246
 10
-3.034747582535958
 20
-1.663043589939459
 10
-3.032220396166665
 20
-1.614971046113174
 10
-3.026823427150096
 20
-1.568503803448791
 10
-3.018620498480085
 20
-1.525320212074514
 10
-3.01046521745564
 20
-1.495366975163416
 10
-3.000746841609328
 20
-1.468698728037233
  0
LINE
  5
DA
330
9B
100
AcDbEntity
  8
AM_4
100
AcDbLine
 10
-2.07169162463917
 20
-1.1775
 30
0.0
 11
2.07169162463917
 21
-1.1775
 31
0.0
  0
LINE
  5
DB
330
9B
100
AcDbEntity
  8
AM_4
100
AcDbLine
 10
-2.479850410124076
 20
-1.197499999999999
 30
0.0
 11
2.479850410124076
 21
-1.197499999999999
 31
0.0
  0
LWPOLYLINE
  5
DC
330
9B
100
AcDbEntity
  8
AM_4
100
AcDbPolyline
 90
        9
 70
     0
 43
0.0
 10
-3.000746841609328
 20
-1.468698728037233
 10
-2.98839500047704
 20
-1.443963242211526
 10
-2.974422653631252
 20
-1.42445901271051
 10
-2.957354506204884
 20
-1.409741373105733
 10
-2.938989699632161
 20
-1.402587591835402
 10
-2.920432877194962
 20
-1.403243870370067
 10
-2.901668955698621
 20
-1.411222956014105
 10
-2.883421296140205
 20
-1.426195794255896
 10
-2.874193732421492
 20
-1.436629671423263
  0
LINE
  5
DD
330
9B
100
AcDbEntity
  8
AM_4
100
AcDbLine
 10
3.234375
 20
-2.1209374
 30
0.0
 11
3.234375
 21
-1.255184893197909
 31
0.0
  0
LINE
  5
DE
330
9B
100
AcDbEntity
  8
AM_4
100
AcDbLine
 10
-3.234375
 20
-1.255184893197909
 30
0.0
 11
-3.234375
 21
-2.1209374
 31
0.0
  0
LINE
  5
DF
330
9B
100
AcDbEntity
  8
AM_4
100
AcDbLine
 10
-0.6143210636999127
 20
1.14063
 30
0.0
 11
0.6143210636999127
 21
1.14063
 31
0.0
  0
LWPOLYLINE
  5
E0
330
9B
100
AcDbEntity
  8
AM_4
100
AcDbPolyline
 90
       39
 70
     0
 43
0.0
 10
-0.1941589978659788
 20
-1.488142579948333
 10
-0.1647272611589479
 20
-1.460602062275486
 10
-0.1307390912817701
 20
-1.437260446317536
 10
-0.0899257874636449
 20
-1.41806711661277
 10
-0.045026886236705
 20
-1.40589879454993
 10
-0.001683476036332
 20
-1.401949933474517
 10
0.0430034588990013
 20
-1.405549127997063
 10
0.0844670686716369
 20
-1.416118750976022
 10
0.1247116961536524
 20
-1.433874579278156
 10
0.1610132333562377
 20
-1.457662188693507
 10
0.1938457292589518
 20
-1.487803570394242
 10
0.2216296832168209
 20
-1.523177208291574
 10
0.2439263358976489
 20
-1.563639973685777
 10
0.2595590638534784
 20
-1.607693466347461
 10
0.2680228815586255
 20
-1.654987065714561
 10
0.268606555090226
 20
-1.70293442148266
 10
0.260999228891012
 20
-1.751663038496144
 10
0.2456773330581025
 20
-1.797383855221097
 10
0.222119703544329
 20
-1.841080935063088
 10
0.1927438111442034
 20
-1.878379923047932
 10
0.1562268427976425
 20
-1.910974324790613
 10
0.1171955069737591
 20
-1.935065580439417
 10
0.0731918576985739
 20
-1.9524820700446
 10
0.0300754828732942
 20
-1.961298210113019
 10
-0.0152663637567852
 20
-1.962603807306235
 10
-0.0577124388993824
 20
-1.956529237721325
 10
-0.0997197233573425
 20
-1.943089702529794
 10
-0.1380123813603074
 20
-1.923372829915992
 10
-0.1735264939940963
 20
-1.896994455676053
 10
-0.2044209069370558
 20
-1.865084066427113
 10
-0.2304460170558836
 20
-1.827625132443452
 10
-0.2503349553643236
 20
-1.785911307756455
 10
-0.2635377954118926
 20
-1.7402967877589
 10
-0.2691351063428232
 20
-1.692968476200924
 10
-0.2667738006803463
 20
-1.644018652110602
 10
-0.2564603332903183
 20
-1.596890103263093
 10
-0.2378061229256673
 20
-1.550878369200659
 10
-0.2183294565858424
 20
-1.518309302607656
 10
-0.1941589979536689
 20
-1.488142579893689
  0
LINE
  5
E1
330
9B
100
AcDbEntity
  8
AM_4
100
AcDbLine
 10
-3.1678124
 20
-2.1875
 30
0.0
 11
3.167812399998902
 21
-2.1875
 31
0.0
  0
LINE
  5
E2
330
9B
100
AcDbEntity
  8
AM_4
100
AcDbLine
 10
-3.234375
 20
-2.1209374
 30
0.0
 11
3.234375
 21
-2.1209374
 31
0.0
  0
ARC
  5
E3
330
9B
100
AcDbEntity
  8
AM_4
100
AcDbCircle
 10
3.167812399999999
 20
-2.120937399999999
 30
0.0
 40
0.0665626000000006
100
AcDbArc
 50
270.0
 51
0.0
  0
ARC
  5
E4
330
9B
100
AcDbEntity
  8
AM_4
100
AcDbCircle
 10
-3.167812399999999
 20
-2.120937399999999
 30
0.0
 40
0.0665626000000006
100
AcDbArc
 50
180.0
 51
270.0
  0
ARC
  5
E6
330
9B
100
AcDbEntity
  8
AM_5
100
AcDbCircle
 10
0.0
 20
-1.6825
 30
0.0
 40
0.2295454545454545
100
AcDbArc
 50
75.00000000000001
 51
15.0
  0
ENDBLK
  5
9E
330
9B
100
AcDbEntity
  8
0
100
AcDbBlockEnd
  0
BLOCK
  5
E9
330
E7
100
AcDbEntity
  8
0
100
AcDbBlockBegin
  2
3_405020c_Inch_0_in_048015_4
 70
     2
 10
0.0
 20
0.0
 30
0.0
  3
3_405020c_Inch_0_in_048015_4
  1

  0
ATTDEF
  5
EB
330
E7
100
AcDbEntity
  8
AM_6
100
AcDbText
 10
7.410992906005573
 20
0.162408630723042
 30
0.0
 40
0.5
  1
405020C -Inch
100
AcDbAttributeDefinition
  3

  2
NN
 70
     8
280
     0
  0
ATTDEF
  5
EC
330
E7
100
AcDbEntity
  8
AM_6
100
AcDbText
 10
7.410992906005573
 20
-0.337591369276958
 30
0.0
 40
0.5
  1
Grease fitting
100
AcDbAttributeDefinition
  3

  2
NT
 70
     8
280
     0
  0
ATTDEF
  5
ED
330
E7
100
AcDbEntity
  8
AM_6
100
AcDbText
 10
7.410992906005573
 20
-0.8375913692769581
 30
0.0
 40
0.5
  1
405020c-Inch
100
AcDbAttributeDefinition
  3

  2
NB
 70
     8
280
     0
  0
ATTDEF
  5
EE
330
E7
100
AcDbEntity
  8
AM_6
100
AcDbText
 10
7.410992906005573
 20
-1.337591369276958
 30
0.0
 40
0.5
  1
$MN.-Inch
100
AcDbAttributeDefinition
  3

  2
NBSYN
 70
     8
280
     0
  0
ATTDEF
  5
EF
330
E7
100
AcDbEntity
  8
AM_6
100
AcDbText
 10
7.410992906005573
 20
-1.837591369276958
 30
0.0
 40
0.5
  1
405020c
100
AcDbAttributeDefinition
  3

  2
LINA
 70
     8
280
     0
  0
ATTDEF
  5
F0
330
E7
100
AcDbEntity
  8
AM_6
100
AcDbText
 10
7.410992906005573
 20
-2.337591369276958
 30
0.0
 40
0.5
  1
405020c
100
AcDbAttributeDefinition
  3

  2
MN
 70
     8
280
     0
  0
ATTDEF
  5
F1
330
E7
100
AcDbEntity
  8
AM_6
100
AcDbText
 10
7.410992906005573
 20
-2.837591369276958
 30
0.0
 40
0.5
  1
0.230
100
AcDbAttributeDefinition
  3

  2
NDR
 70
     8
280
     0
  0
ATTDEF
  5
F2
330
E7
100
AcDbEntity
  8
AM_6
100
AcDbText
 10
7.410992906005573
 20
-3.337591369276958
 30
0.0
 40
0.5
  1
0.210
100
AcDbAttributeDefinition
  3

  2
KDR
 70
     8
280
     0
  0
ATTDEF
  5
F3
330
E7
100
AcDbEntity
  8
AM_6
100
AcDbText
 10
7.410992906005573
 20
-3.837591369276958
 30
0.0
 40
0.5
  1
0.157
100
AcDbAttributeDefinition
  3

  2
BZE
 70
     8
280
     0
  0
ATTDEF
  5
F4
330
E7
100
AcDbEntity
  8
AM_6
100
AcDbText
 10
7.410992906005573
 20
-4.337591369276958
 30
0.0
 40
0.5
  1
9/32
100
AcDbAttributeDefinition
  3

  2
WAF
 70
     8
280
     0
  0
ATTDEF
  5
F5
330
E7
100
AcDbEntity
  8
AM_6
100
AcDbText
 10
7.410992906005573
 20
-4.837591369276958
 30
0.0
 40
0.5
  1
0.2813
100
AcDbAttributeDefinition
  3

  2
WAF1
 70
     8
280
     0
  0
ATTDEF
  5
F6
330
E7
100
AcDbEntity
  8
AM_6
100
AcDbText
 10
7.410992906005573
 20
-5.337591369276958
 30
0.0
 40
0.5
  1
0.545
100
AcDbAttributeDefinition
  3

  2
BL
 70
     8
280
     0
  0
ATTDEF
  5
F7
330
E7
100
AcDbEntity
  8
AM_6
100
AcDbText
 10
7.410992906005573
 20
-5.837591369276958
 30
0.0
 40
0.5
  1
0.200
100
AcDbAttributeDefinition
  3

  2
TL
 70
     8
280
     0
  0
ATTDEF
  5
F8
330
E7
100
AcDbEntity
  8
AM_6
100
AcDbText
 10
7.410992906005573
 20
-6.337591369276958
 30
0.0
 40
0.5
  1
baldor
100
AcDbAttributeDefinition
  3

  2
COMPANY
 70
     8
280
     0
  0
ELLIPSE
  5
F9
330
E7
100
AcDbEntity
  8
AM_9
100
AcDbEllipse
 10
2.05625
 20
0.0000000000000002
 30
0.0
 11
-1.838598171376523E-17
 21
-0.1000886227036577
 31
0.0
210
0.0
220
0.0
230
1.0
 40
0.8660254037844405
 41
0.0
 42
6.283185307179586
  0
LINE
  5
FA
330
E7
100
AcDbEntity
  8
AM_9
100
AcDbLine
 10
2.260703923062474
 20
0.0937364235247575
 30
0.0
 11
2.280971576807605
 21
0.0812043153615211
 31
0.0
  0
LWPOLYLINE
  5
FB
330
E7
100
AcDbEntity
  8
AM_9
100
AcDbPolyline
 90
        3
 70
     0
 43
0.0
 10
2.217153236521141
 20
0.1218064730422815
 10
2.248374292512946
 20
0.1015053942019013
 10
2.260703923062474
 20
0.0937364235247575
  0
LWPOLYLINE
  5
FC
330
E7
100
AcDbEntity
  8
AM_9
100
AcDbPolyline
 90
        4
 70
     0
 43
0.0
 10
2.280971576807605
 20
0.0812043153615211
 10
2.279822372260408
 20
0.0623017518439034
 10
2.278515768908418
 20
0.0312428256208206
 10
2.278056473042282
 20
0.0000000000000002
  0
LINE
  5
FD
330
E7
100
AcDbEntity
  8
AM_9
100
AcDbLine
 10
2.259666154333315
 20
-0.0943857038863365
 30
0.0
 11
2.217153236521141
 21
-0.1218064730422811
 31
0.0
  0
LINE
  5
FE
330
E7
100
AcDbEntity
  8
AM_9
100
AcDbLine
 10
2.280971576807605
 20
-0.0812043153615206
 30
0.0
 11
2.259666154333315
 21
-0.0943857038863365
 31
0.0
  0
LWPOLYLINE
  5
FF
330
E7
100
AcDbEntity
  8
AM_9
100
AcDbPolyline
 90
        3
 70
     0
 43
0.0
 10
2.278056473042282
 20
0.0000000000000002
 10
2.278825910773516
 20
-0.0406021576807602
 10
2.280971576807605
 20
-0.0812043153615206
  0
LINE
  5
100
330
E7
100
AcDbEntity
  8
AM_9
100
AcDbLine
 10
2.308474702610292
 20
0.0812043153615211
 30
0.0
 11
2.280971576807605
 21
0.0812043153615211
 31
0.0
  0
LINE
  5
101
330
E7
100
AcDbEntity
  8
AM_9
100
AcDbLine
 10
2.308474702610292
 20
-0.0812043153615206
 30
0.0
 11
2.280971576807605
 21
-0.0812043153615206
 31
0.0
  0
LWPOLYLINE
  5
102
330
E7
100
AcDbEntity
  8
AM_9
100
AcDbPolyline
 90
        3
 70
     0
 43
0.0
 10
2.250486569854475
 20
-0.1218064730422811
 10
2.28016875038381
 20
-0.1015053942019008
 10
2.308474702610292
 20
-0.0812043153615206
  0
LWPOLYLINE
  5
103
330
E7
100
AcDbEntity
  8
AM_9
100
AcDbPolyline
 90
        3
 70
     0
 43
0.0
 10
2.308474702610292
 20
-0.0812043153615206
 10
2.310613571097526
 20
-0.0407847159147452
 10
2.311389806375615
 20
0.0000000000000002
  0
LWPOLYLINE
  5
104
330
E7
100
AcDbEntity
  8
AM_9
100
AcDbPolyline
 90
        3
 70
     0
 43
0.0
 10
2.308474702610292
 20
0.0812043153615211
 10
2.280298871512444
 20
0.1014141150849088
 10
2.250486569854475
 20
0.1218064730422815
  0
LWPOLYLINE
  5
105
330
E7
100
AcDbEntity
  8
AM_9
100
AcDbPolyline
 90
        4
 70
     0
 43
0.0
 10
2.311389806375615
 20
0.0000000000000002
 10
2.310933178075433
 20
0.0311508759219518
 10
2.309623907157489
 20
0.0623017518439034
 10
2.308474702610292
 20
0.0812043153615211
  0
LWPOLYLINE
  5
106
330
E7
100
AcDbEntity
  8
AM_9
100
AcDbPolyline
 90
        3
 70
     0
 43
0.0
 10
2.159165103765324
 20
0.162408630723042
 10
2.187340934863171
 20
0.1421988309996543
 10
2.217153236521141
 20
0.1218064730422815
  0
LWPOLYLINE
  5
107
330
E7
100
AcDbEntity
  8
AM_9
100
AcDbPolyline
 90
        3
 70
     0
 43
0.0
 10
2.217153236521141
 20
-0.1218064730422811
 10
2.187471055991805
 20
-0.1421075518826613
 10
2.159165103765324
 20
-0.1624086307230415
  0
LINE
  5
108
330
E7
100
AcDbEntity
  8
AM_9
100
AcDbLine
 10
2.056237797620407
 20
-0.1102543821984234
 30
0.0
 11
2.150793818646753
 21
-0.1161731060825886
 31
0.0
  0
LINE
  5
109
330
E7
100
AcDbEntity
  8
AM_9
100
AcDbLine
 10
2.150793818646753
 20
0.116173106082589
 30
0.0
 11
2.056237797620407
 21
0.1102543821984238
 31
0.0
  0
LINE
  5
10A
330
E7
100
AcDbEntity
  8
AM_9
100
AcDbLine
 10
2.250486569854475
 20
0.1218064730422815
 30
0.0
 11
2.239770583232321
 21
0.1288869529117679
 31
0.0
  0
LINE
  5
10B
330
E7
100
AcDbEntity
  8
AM_9
100
AcDbLine
 10
2.239537750854931
 20
-0.1290394171246648
 30
0.0
 11
2.250486569854475
 21
-0.1218064730422811
 31
0.0
  0
ELLIPSE
  5
10C
330
E7
100
AcDbEntity
  8
AM_9
100
AcDbEllipse
 10
2.189583333333425
 20
0.0000000000000627
 30
0.0
 11
8.612328614999455E-18
 21
0.1406499999999297
 31
0.0
210
0.0
220
0.0
230
1.0
 40
0.8660254037842459
 41
3.545102132864782
 42
5.869705094823304
  0
ELLIPSE
  5
10D
330
E7
100
AcDbEntity
  8
AM_9
100
AcDbEllipse
 10
2.205243608043448
 20
0.0
 30
0.0
 11
6.694498085252795E-18
 21
0.1093294505797715
 31
0.0
210
0.0
220
0.0
230
1.0
 40
0.8660254037844398
 41
3.115495966669175
 42
6.283185307179586
  0
LWPOLYLINE
  5
10E
330
E7
100
AcDbEntity
  8
AM_9
100
AcDbPolyline
 90
        3
 70
     0
 43
0.0
 10
2.173463344503226
 20
-0.0710933656903888
 10
2.170731067956166
 20
-0.0679344932672607
 10
2.165800874811427
 20
-0.0613611986714755
  0
LINE
  5
10F
330
E7
100
AcDbEntity
  8
AM_9
100
AcDbLine
 10
2.174430853883405
 20
-0.0721409175503865
 30
0.0
 11
2.173463344503226
 21
-0.0710933656903888
 31
0.0
  0
LWPOLYLINE
  5
110
330
E7
100
AcDbEntity
  8
AM_9
100
AcDbPolyline
 90
       23
 70
     0
 43
0.0
 10
2.222921277573112
 20
0.094684789639099
 10
2.227832545263392
 20
0.0944784837754175
 10
2.240521137549571
 20
0.0920047382243462
 10
2.252780952396714
 20
0.0867727837938989
 10
2.264072952399984
 20
0.079049413569431
 10
2.274098839665377
 20
0.0691412952388066
 10
2.282642466505318
 20
0.0573342977467521
 10
2.289495784334245
 20
0.0439356834296425
 10
2.294465565044389
 20
0.029302816232137
 10
2.297398956335743
 20
0.0138455451213154
 10
2.298205125011788
 20
-0.0019864912303931
 10
2.29686874762479
 20
-0.0177238754644648
 10
2.29345611977666
 20
-0.0328979330813448
 10
2.288113314604219
 20
-0.047067837393704
 10
2.281055439765445
 20
-0.0598440831093247
 10
2.272547089089367
 20
-0.0709079677013469
 10
2.262871324023506
 20
-0.0800249527344569
 10
2.25228785204374
 20
-0.0870421446282367
 10
2.240988151667695
 20
-0.0918586734321976
 10
2.229074841073452
 20
-0.094360739075704
 10
2.216631712736879
 20
-0.094346234367642
 10
2.203944354530375
 20
-0.0915624227285393
 10
2.194692541861659
 20
-0.0876438433286197
  0
LWPOLYLINE
  5
111
330
E7
100
AcDbEntity
  8
AM_9
100
AcDbPolyline
 90
        4
 70
     0
 43
0.0
 10
2.198313484866693
 20
0.0893794128983648
 10
2.206131587803395
 20
0.09224859839537
 10
2.218108320148104
 20
0.0944866679267396
 10
2.222921277573112
 20
0.094684789639099
  0
LWPOLYLINE
  5
112
330
E7
100
AcDbEntity
  8
AM_9
100
AcDbPolyline
 90
        3
 70
     0
 43
0.0
 10
2.172246129155683
 20
0.0697239658478843
 10
2.174304241847591
 20
0.0720058286919796
 10
2.179628645588205
 20
0.0772090782380068
  0
LWPOLYLINE
  5
113
330
E7
100
AcDbEntity
  8
AM_9
100
AcDbPolyline
 90
        3
 70
     0
 43
0.0
 10
2.162595935798555
 20
0.0563318000325097
 10
2.165654132036122
 20
0.0611454961167203
 10
2.172246129155683
 20
0.0697239658478843
  0
ELLIPSE
  5
114
330
E7
100
AcDbEntity
  8
AM_9
100
AcDbEllipse
 10
2.23348673411663
 20
0.0000000000000012
 30
0.0
 11
6.084620899749577E-18
 21
0.09936940028726531
 31
0.0
210
0.0
220
0.0
230
1.0
 40
0.8660254037844467
 41
2.201405349610317
 42
7.22337261115908
  0
ELLIPSE
  5
115
330
E7
100
AcDbEntity
  8
AM_9
100
AcDbEllipse
 10
2.26766214438732
 20
0.0
 30
0.0
 11
8.036249332247504E-18
 21
0.1312419113468904
 31
0.0
210
0.0
220
0.0
230
1.0
 40
0.8660254037844392
 41
2.368182548326606
 42
7.037013440179197
  0
ELLIPSE
  5
116
330
E7
100
AcDbEntity
  8
AM_9
100
AcDbEllipse
 10
2.28799587914307
 20
0.0000000000000003
 30
0.0
 11
8.079715312105900E-18
 21
0.1319517646676791
 31
0.0
210
0.0
220
0.0
230
1.0
 40
0.8660254037844428
 41
3.967571964592125
 42
5.457205996177252
  0
ELLIPSE
  5
117
330
E7
100
AcDbEntity
  8
AM_9
100
AcDbEllipse
 10
2.156250000000002
 20
0.0000000000000011
 30
0.0
 11
8.612328615003875E-18
 21
0.1406500000000019
 31
0.0
210
0.0
220
0.0
230
1.0
 40
0.8660254037844392
 41
0.0
 42
6.283185307179586
  0
ELLIPSE
  5
118
330
E7
100
AcDbEntity
  8
AM_9
100
AcDbEllipse
 10
2.15625
 20
0.0000000000000001
 30
0.0
 11
7.124004163867290E-18
 21
0.1163438171532772
 31
0.0
210
0.0
220
0.0
230
1.0
 40
0.866025403784429
 41
0.0
 42
6.283185307179586
  0
ELLIPSE
  5
119
330
E7
100
AcDbEntity
  8
AM_9
100
AcDbEllipse
 10
2.061413818445166
 20
0.0000000000000002
 30
0.0
 11
6.761045944280092E-18
 21
0.110416259593989
 31
0.0
210
0.0
220
0.0
230
1.0
 40
0.8660254037844658
 41
0.0
 42
6.283185307179586
  0
LWPOLYLINE
  5
11A
330
E7
100
AcDbEntity
  8
AM_4
100
AcDbPolyline
 90
        3
 70
     0
 43
0.0
 10
2.239770583232321
 20
0.1288869529117679
 10
2.21926551386267
 20
0.1421075518826617
 10
2.186668229568011
 20
0.162408630723042
  0
LWPOLYLINE
  5
11B
330
E7
100
AcDbEntity
  8
AM_4
100
AcDbPolyline
 90
        3
 70
     0
 43
0.0
 10
2.186668229568011
 20
-0.1624086307230415
 10
2.219121797640326
 20
-0.1421988309996538
 10
2.239537750854931
 20
-0.1290394171246648
  0
LWPOLYLINE
  5
11C
330
E7
100
AcDbEntity
  8
AM_4
100
AcDbPolyline
 90
        4
 70
     0
 43
0.0
 10
2.034443526957719
 20
0.0000000000000002
 10
2.034900155257902
 20
0.0311508759219518
 10
2.036209426175845
 20
0.0623017518439034
 10
2.037358630723042
 20
0.0812043153615211
  0
LWPOLYLINE
  5
11D
330
E7
100
AcDbEntity
  8
AM_4
100
AcDbPolyline
 90
        3
 70
     0
 43
0.0
 10
2.037358630723042
 20
-0.0812043153615206
 10
2.035219762235808
 20
-0.0407847159147452
 10
2.034443526957719
 20
0.0000000000000002
  0
LINE
  5
11E
330
E7
100
AcDbEntity
  8
AM_4
100
AcDbLine
 10
2.06486175652573
 20
-0.0812043153615206
 30
0.0
 11
2.037358630723042
 21
-0.0812043153615206
 31
0.0
  0
LWPOLYLINE
  5
11F
330
E7
100
AcDbEntity
  8
AM_4
100
AcDbPolyline
 90
        3
 70
     0
 43
0.0
 10
2.09534676347886
 20
-0.121806473042281
 10
2.065664582949524
 20
-0.1015053942019008
 10
2.037358630723042
 20
-0.0812043153615206
  0
LWPOLYLINE
  5
120
330
E7
100
AcDbEntity
  8
AM_4
100
AcDbPolyline
 90
        3
 70
     0
 43
0.0
 10
2.159165103765324
 20
-0.1624086307230415
 10
2.126711535693008
 20
-0.1421988309996538
 10
2.09534676347886
 20
-0.121806473042281
  0
LINE
  5
121
330
E7
100
AcDbEntity
  8
AM_4
100
AcDbLine
 10
2.186668229568011
 20
-0.1624086307230415
 30
0.0
 11
2.159165103765324
 21
-0.1624086307230415
 31
0.0
  0
LWPOLYLINE
  5
122
330
E7
100
AcDbEntity
  8
AM_4
100
AcDbPolyline
 90
        3
 70
     0
 43
0.0
 10
2.128680096812194
 20
-0.1218064730422811
 10
2.158362277341529
 20
-0.1421075518826613
 10
2.186668229568011
 20
-0.1624086307230415
  0
LWPOLYLINE
  5
123
330
E7
100
AcDbEntity
  8
AM_4
100
AcDbPolyline
 90
        3
 70
     0
 43
0.0
 10
2.067776860291052
 20
0.0000000000000002
 10
2.067007422559818
 20
-0.0406021576807602
 10
2.06486175652573
 20
-0.0812043153615206
  0
LWPOLYLINE
  5
124
330
E7
100
AcDbEntity
  8
AM_4
100
AcDbPolyline
 90
        3
 70
     0
 43
0.0
 10
2.06486175652573
 20
-0.0812043153615206
 10
2.097315324598045
 20
-0.1014141150849083
 10
2.128680096812194
 20
-0.1218064730422811
  0
LINE
  5
125
330
E7
100
AcDbEntity
  8
AM_4
100
AcDbLine
 10
2.186668229568011
 20
0.162408630723042
 30
0.0
 11
2.159165103765324
 21
0.162408630723042
 31
0.0
  0
LWPOLYLINE
  5
126
330
E7
100
AcDbEntity
  8
AM_4
100
AcDbPolyline
 90
        3
 70
     0
 43
0.0
 10
2.09534676347886
 20
0.1218064730422815
 10
2.126567819470665
 20
0.1421075518826617
 10
2.159165103765324
 20
0.162408630723042
  0
LWPOLYLINE
  5
127
330
E7
100
AcDbEntity
  8
AM_4
100
AcDbPolyline
 90
        3
 70
     0
 43
0.0
 10
2.037358630723042
 20
0.0812043153615211
 10
2.06553446182089
 20
0.1014141150849088
 10
2.09534676347886
 20
0.1218064730422815
  0
LINE
  5
128
330
E7
100
AcDbEntity
  8
AM_4
100
AcDbLine
 10
2.06486175652573
 20
0.0812043153615211
 30
0.0
 11
2.037358630723042
 21
0.0812043153615211
 31
0.0
  0
LWPOLYLINE
  5
129
330
E7
100
AcDbEntity
  8
AM_4
100
AcDbPolyline
 90
        3
 70
     0
 43
0.0
 10
2.186668229568011
 20
0.162408630723042
 10
2.158492398470163
 20
0.1421988309996542
 10
2.128680096812194
 20
0.1218064730422815
  0
LWPOLYLINE
  5
12A
330
E7
100
AcDbEntity
  8
AM_4
100
AcDbPolyline
 90
        3
 70
     0
 43
0.0
 10
2.128680096812194
 20
0.1218064730422815
 10
2.097459040820389
 20
0.1015053942019013
 10
2.06486175652573
 20
0.0812043153615211
  0
LWPOLYLINE
  5
12B
330
E7
100
AcDbEntity
  8
AM_4
100
AcDbPolyline
 90
        4
 70
     0
 43
0.0
 10
2.06486175652573
 20
0.0812043153615211
 10
2.066010961072926
 20
0.0623017518439034
 10
2.067317564424916
 20
0.0312428256208206
 10
2.067776860291052
 20
0.0000000000000002
  0
ELLIPSE
  5
12C
330
E7
100
AcDbEntity
  8
AM_4
100
AcDbEllipse
 10
2.189583333333335
 20
0.0000000000000008
 30
0.0
 11
8.612328615003727E-18
 21
0.1406499999999994
 31
0.0
210
0.0
220
0.0
230
1.0
 40
0.8660254037844382
 41
5.869705094822889
 42
9.828287440045138
  0
ELLIPSE
  5
12D
330
E7
100
AcDbEntity
  8
AM_4
100
AcDbEllipse
 10
2.205243608043448
 20
0.0000000000000003
 30
0.0
 11
6.694498085252783E-18
 21
0.1093294505797713
 31
0.0
210
0.0
220
0.0
230
1.0
 40
0.8660254037844415
 41
0.0
 42
3.115495966669179
  0
ELLIPSE
  5
12E
330
E7
100
AcDbEntity
  8
AM_4
100
AcDbEllipse
 10
2.233486734114149
 20
0.0000000000002304
 30
0.0
 11
6.084620899726032E-18
 21
0.09936940028688079
 31
0.0
210
0.0
220
0.0
230
1.0
 40
0.8660254037662657
 41
0.940187303974354
 42
0.9695529348744562
  0
LINE
  5
12F
330
E7
100
AcDbEntity
  8
AM_4
100
AcDbLine
 10
2.163981665606296
 20
-0.0585918508151905
 30
0.0
 11
2.175863481889388
 21
-0.0773850548368749
 31
0.0
  0
LINE
  5
130
330
E7
100
AcDbEntity
  8
AM_4
100
AcDbLine
 10
2.175863481889388
 20
0.0773850548368753
 30
0.0
 11
2.163981665606296
 21
0.0585918508151909
 31
0.0
  0
ELLIPSE
  5
131
330
E7
100
AcDbEntity
  8
AM_4
100
AcDbEllipse
 10
2.233486734116628
 20
0.0
 30
0.0
 11
6.084620899749554E-18
 21
0.09936940028726494
 31
0.0
210
0.0
220
0.0
230
1.0
 40
0.8660254037844407
 41
0.9695529348790517
 42
2.201405349610315
  0
ELLIPSE
  5
132
330
E7
100
AcDbEntity
  8
AM_4
100
AcDbEllipse
 10
2.26766214438732
 20
0.0000000000000002
 30
0.0
 11
8.036249332247488E-18
 21
0.1312419113468902
 31
0.0
210
0.0
220
0.0
230
1.0
 40
0.866025403784434
 41
0.7538281329996117
 42
2.36818254832661
  0
LWPOLYLINE
  5
133
330
E7
100
AcDbEntity
  8
AM_4
100
AcDbPolyline
 90
        7
 70
     0
 43
0.0
 10
2.278227600930838
 20
0.1359265219950582
 10
2.265810440490512
 20
0.1352511851394085
 10
2.248323043522718
 20
0.1319604669806137
 10
2.231518545053406
 20
0.1260274092173851
 10
2.215701763965761
 20
0.1175872766472202
 10
2.201151892687761
 20
0.1068015601283901
 10
2.191321820650444
 20
0.0973841061213565
  0
LWPOLYLINE
  5
134
330
E7
100
AcDbEntity
  8
AM_4
100
AcDbPolyline
 90
        3
 70
     0
 43
0.0
 10
2.362631960586082
 20
-0.0999751984101332
 10
2.37067057178453
 20
-0.0910934756667202
 10
2.375776185875333
 20
-0.0844937823225258
  0
LWPOLYLINE
  5
135
330
E7
100
AcDbEntity
  8
AM_4
100
AcDbPolyline
 90
       13
 70
     0
 43
0.0
 10
2.188873601605262
 20
-0.0947024972900995
 10
2.193952595501429
 20
-0.1001053191135463
 10
2.208242548393459
 20
-0.1124696981830249
 10
2.224008535753592
 20
-0.122397515674777
 10
2.240870792151911
 20
-0.1296833924555911
 10
2.258432710544817
 20
-0.1342034746150917
 10
2.276302053311598
 20
-0.1359103222369356
 10
2.294105607145204
 20
-0.1348204786786076
 10
2.31148908589411
 20
-0.1310021148444197
 10
2.328122827694024
 20
-0.1245663496767571
 10
2.34371286007929
 20
-0.1156529902233444
 10
2.357982999860782
 20
-0.1044290814919666
 10
2.360670782022099
 20
-0.1019089522791499
  0
LWPOLYLINE
  5
136
330
E7
100
AcDbEntity
  8
AM_4
100
AcDbPolyline
 90
        6
 70
     0
 43
0.0
 10
2.352786545058406
 20
0.1089106603166572
 10
2.345228204954061
 20
0.1146145071531247
 10
2.329216634833073
 20
0.1240382853387139
 10
2.312185910367242
 20
0.1307894502307148
 10
2.294533296290719
 20
0.1347598248900504
 10
2.278227600930838
 20
0.1359265219950582
  0
LWPOLYLINE
  5
137
330
E7
100
AcDbEntity
  8
AM_4
100
AcDbPolyline
 90
        4
 70
     0
 43
0.0
 10
2.375344505505573
 20
0.0850859333511725
 10
2.372689673327909
 20
0.0885848424387887
 10
2.359835712815516
 20
0.1027076154797756
 10
2.35464807437939
 20
0.1073614725175078
  0
ELLIPSE
  5
138
330
E7
100
AcDbEntity
  8
AM_4
100
AcDbEllipse
 10
2.32875
 20
0.0000000000000002
 30
0.0
 11
-1.484390032546748E-17
 21
-0.08080642971672804
 31
0.0
210
0.0
220
0.0
230
1.0
 40
0.8660254037844405
 41
0.0
 42
6.283185307179586
  0
ELLIPSE
  5
139
330
E7
100
AcDbEntity
  8
AM_4
100
AcDbEllipse
 10
2.321134139106117
 20
0.0000000000000003
 30
0.0
 11
6.357083428131036E-18
 21
0.1038190510530397
 31
0.0
210
0.0
220
0.0
230
1.0
 40
0.8660254037844396
 41
5.714706331074583
 42
10.00190406082327
  0
ELLIPSE
  5
13A
330
E7
100
AcDbEntity
  8
AM_4
100
AcDbEllipse
 10
2.287995879143069
 20
0.0
 30
0.0
 11
8.079715312105966E-18
 21
0.1319517646676802
 31
0.0
210
0.0
220
0.0
230
1.0
 40
0.8660254037844392
 41
5.457205996177247
 42
10.25075727177172
  0
LINE
  5
13B
330
E7
100
AcDbEntity
  8
AM_4
100
AcDbLine
 10
2.387236998028308
 20
0.0703724241776376
 30
0.0
 11
2.372011180726839
 21
0.0894418265240922
 31
0.0
  0
LINE
  5
13C
330
E7
100
AcDbEntity
  8
AM_4
100
AcDbLine
 10
2.372011180726839
 20
-0.0894418265240917
 30
0.0
 11
2.387236998028308
 21
-0.0703724241776371
 31
0.0
  0
ELLIPSE
  5
13D
330
E7
100
AcDbEntity
  8
AM_4
100
AcDbEllipse
 10
2.321134139106077
 20
0.0000000000000198
 30
0.0
 11
6.357083428132521E-18
 21
0.103819051053064
 31
0.0
210
0.0
220
0.0
230
1.0
 40
0.8660254037845966
 41
3.718718753643866
 42
5.714706331074189
  0
ENDBLK
  5
EA
330
E7
100
AcDbEntity
  8
0
100
AcDbBlockEnd
  0
BLOCK
  5
140
330
13E
100
AcDbEntity
  8
0
100
AcDbBlockBegin
  2
4_048015B_0_in_048015_4
 70
     2
 10
0.0
 20
0.0
 30
0.0
  3
4_048015B_0_in_048015_4
  1

  0
ATTDEF
  5
142
330
13E
100
AcDbEntity
  8
AM_6
100
AcDbText
 10
12.16539634146342
 20
1.821874999999999
 30
0.0
 40
0.5
  1
Unisphere II - Pillow Block Bearing - Inch - Body
100
AcDbAttributeDefinition
  3

  2
NN
 70
     8
280
     0
  0
ATTDEF
  5
143
330
13E
100
AcDbEntity
  8
AM_6
100
AcDbText
 10
12.16539634146342
 20
1.321874999999999
 30
0.0
 40
0.5
  1
Unisphere II
100
AcDbAttributeDefinition
  3

  2
NT
 70
     8
280
     0
  0
ATTDEF
  5
144
330
13E
100
AcDbEntity
  8
AM_6
100
AcDbText
 10
12.16539634146342
 20
0.8218749999999986
 30
0.0
 40
0.5
  1
048015B
100
AcDbAttributeDefinition
  3

  2
NB
 70
     8
280
     0
  0
ATTDEF
  5
145
330
13E
100
AcDbEntity
  8
AM_6
100
AcDbText
 10
12.16539634146342
 20
0.3218749999999986
 30
0.0
 40
0.5
  1
$PN.
100
AcDbAttributeDefinition
  3

  2
NBSYN
 70
     8
280
     0
  0
ATTDEF
  5
146
330
13E
100
AcDbEntity
  8
AM_6
100
AcDbText
 10
12.16539634146342
 20
-0.1781250000000014
 30
0.0
 40
0.5
  1
048015B
100
AcDbAttributeDefinition
  3

  2
LINA
 70
     8
280
     0
  0
ATTDEF
  5
147
330
13E
100
AcDbEntity
  8
AM_6
100
AcDbText
 10
12.16539634146342
 20
-0.6781250000000014
 30
0.0
 40
0.5
  1
3-15/16
100
AcDbAttributeDefinition
  3

  2
SS
 70
     8
280
     0
  0
ATTDEF
  5
148
330
13E
100
AcDbEntity
  8
AM_6
100
AcDbText
 10
12.16539634146342
 20
-1.178125000000001
 30
0.0
 40
0.5
  1
3.93750
100
AcDbAttributeDefinition
  3

  2
SS1
 70
     8
280
     0
  0
ATTDEF
  5
149
330
13E
100
AcDbEntity
  8
AM_6
100
AcDbText
 10
12.16539634146342
 20
-1.678125000000001
 30
0.0
 40
0.5
  1
Non Expansion Type
100
AcDbAttributeDefinition
  3

  2
TYPE
 70
     8
280
     0
  0
ATTDEF
  5
14A
330
13E
100
AcDbEntity
  8
AM_6
100
AcDbText
 10
12.16539634146342
 20
-2.178125000000001
 30
0.0
 40
0.5
  1
048015B
100
AcDbAttributeDefinition
  3

  2
PNNE
 70
     8
280
     0
  0
ATTDEF
  5
14B
330
13E
100
AcDbEntity
  8
AM_6
100
AcDbText
 10
12.16539634146342
 20
-2.678125000000001
 30
0.0
 40
0.5
  1
048032B
100
AcDbAttributeDefinition
  3

  2
PNE
 70
     8
280
     0
  0
ATTDEF
  5
14C
330
13E
100
AcDbEntity
  8
AM_6
100
AcDbText
 10
12.16539634146342
 20
-3.178125000000001
 30
0.0
 40
0.5
  1
P2B-UN2-315
100
AcDbAttributeDefinition
  3

  2
DESCRIPTIONNE
 70
     8
280
     0
  0
ATTDEF
  5
14D
330
13E
100
AcDbEntity
  8
AM_6
100
AcDbText
 10
12.16539634146342
 20
-3.678125000000001
 30
0.0
 40
0.5
  1
P2B-UN2-315E
100
AcDbAttributeDefinition
  3

  2
DESCRIPTIONE
 70
     8
280
     0
  0
ATTDEF
  5
14E
330
13E
100
AcDbEntity
  8
AM_6
100
AcDbText
 10
12.16539634146342
 20
-4.178125000000001
 30
0.0
 40
0.5
  1
37.4
100
AcDbAttributeDefinition
  3

  2
WEIGHT
 70
     8
280
     0
  0
ATTDEF
  5
14F
330
13E
100
AcDbEntity
  8
AM_6
100
AcDbText
 10
12.16539634146342
 20
-4.678125000000001
 30
0.0
 40
0.5
  1
3-21/64
100
AcDbAttributeDefinition
  3

  2
A
 70
     8
280
     0
  0
ATTDEF
  5
150
330
13E
100
AcDbEntity
  8
AM_6
100
AcDbText
 10
12.16539634146342
 20
-5.178125000000001
 30
0.0
 40
0.5
  1
3.32813
100
AcDbAttributeDefinition
  3

  2
A1
 70
     8
280
     0
  0
ATTDEF
  5
151
330
13E
100
AcDbEntity
  8
AM_6
100
AcDbText
 10
12.16539634146342
 20
-5.678125000000001
 30
0.0
 40
0.5
  1
14-1/4
100
AcDbAttributeDefinition
  3

  2
B
 70
     8
280
     0
  0
ATTDEF
  5
152
330
13E
100
AcDbEntity
  8
AM_6
100
AcDbText
 10
12.16539634146342
 20
-6.178125000000001
 30
0.0
 40
0.5
  1
14.25000
100
AcDbAttributeDefinition
  3

  2
B1
 70
     8
280
     0
  0
ATTDEF
  5
153
330
13E
100
AcDbEntity
  8
AM_6
100
AcDbText
 10
12.16539634146342
 20
-6.678125000000001
 30
0.0
 40
0.5
  1
3-5/16
100
AcDbAttributeDefinition
  3

  2
C
 70
     8
280
     0
  0
ATTDEF
  5
154
330
13E
100
AcDbEntity
  8
AM_6
100
AcDbText
 10
12.16539634146342
 20
-7.178125000000001
 30
0.0
 40
0.5
  1
3.31250
100
AcDbAttributeDefinition
  3

  2
C1
 70
     8
280
     0
  0
ATTDEF
  5
155
330
13E
100
AcDbEntity
  8
AM_6
100
AcDbText
 10
12.16539634146342
 20
-7.678125000000001
 30
0.0
 40
0.5
  1
10
100
AcDbAttributeDefinition
  3

  2
DMIN
 70
     8
280
     0
  0
ATTDEF
  5
156
330
13E
100
AcDbEntity
  8
AM_6
100
AcDbText
 10
12.16539634146342
 20
-8.178125000000001
 30
0.0
 40
0.5
  1
10.00000
100
AcDbAttributeDefinition
  3

  2
DMIN1
 70
     8
280
     0
  0
ATTDEF
  5
157
330
13E
100
AcDbEntity
  8
AM_6
100
AcDbText
 10
12.16539634146342
 20
-8.678125000000001
 30
0.0
 40
0.5
  1
11-7/8
100
AcDbAttributeDefinition
  3

  2
DMAX
 70
     8
280
     0
  0
ATTDEF
  5
158
330
13E
100
AcDbEntity
  8
AM_6
100
AcDbText
 10
12.16539634146342
 20
-9.178125000000001
 30
0.0
 40
0.5
  1
11.87500
100
AcDbAttributeDefinition
  3

  2
DMAX1
 70
     8
280
     0
  0
ATTDEF
  5
159
330
13E
100
AcDbEntity
  8
AM_6
100
AcDbText
 10
12.16539634146342
 20
-9.678125000000001
 30
0.0
 40
0.5
  1
7/32
100
AcDbAttributeDefinition
  3

  2
E
 70
     8
280
     0
  0
ATTDEF
  5
15A
330
13E
100
AcDbEntity
  8
AM_6
100
AcDbText
 10
12.16539634146342
 20
-10.178125
 30
0.0
 40
0.5
  1
0.21875
100
AcDbAttributeDefinition
  3

  2
E1
 70
     8
280
     0
  0
ATTDEF
  5
15B
330
13E
100
AcDbEntity
  8
AM_6
100
AcDbText
 10
12.16539634146342
 20
-10.678125
 30
0.0
 40
0.5
  1
1
100
AcDbAttributeDefinition
  3

  2
F
 70
     8
280
     0
  0
ATTDEF
  5
15C
330
13E
100
AcDbEntity
  8
AM_6
100
AcDbText
 10
12.16539634146342
 20
-11.178125
 30
0.0
 40
0.5
  1
1.00000
100
AcDbAttributeDefinition
  3

  2
F1
 70
     8
280
     0
  0
ATTDEF
  5
15D
330
13E
100
AcDbEntity
  8
AM_6
100
AcDbText
 10
12.16539634146342
 20
-11.678125
 30
0.0
 40
0.5
  1
2
100
AcDbAttributeDefinition
  3

  2
G
 70
     8
280
     0
  0
ATTDEF
  5
15E
330
13E
100
AcDbEntity
  8
AM_6
100
AcDbText
 10
12.16539634146342
 20
-12.178125
 30
0.0
 40
0.5
  1
2.00000
100
AcDbAttributeDefinition
  3

  2
G1
 70
     8
280
     0
  0
ATTDEF
  5
15F
330
13E
100
AcDbEntity
  8
AM_6
100
AcDbText
 10
12.16539634146342
 20
-12.678125
 30
0.0
 40
0.5
  1
2-1/2
100
AcDbAttributeDefinition
  3

  2
H
 70
     8
280
     0
  0
ATTDEF
  5
160
330
13E
100
AcDbEntity
  8
AM_6
100
AcDbText
 10
12.16539634146342
 20
-13.178125
 30
0.0
 40
0.5
  1
2.50000
100
AcDbAttributeDefinition
  3

  2
H1
 70
     8
280
     0
  0
ATTDEF
  5
161
330
13E
100
AcDbEntity
  8
AM_6
100
AcDbText
 10
12.16539634146342
 20
-13.678125
 30
0.0
 40
0.5
  1
8-7/16
100
AcDbAttributeDefinition
  3

  2
J
 70
     8
280
     0
  0
ATTDEF
  5
162
330
13E
100
AcDbEntity
  8
AM_6
100
AcDbText
 10
12.16539634146342
 20
-14.178125
 30
0.0
 40
0.5
  1
8.43750
100
AcDbAttributeDefinition
  3

  2
J1
 70
     8
280
     0
  0
ATTDEF
  5
163
330
13E
100
AcDbEntity
  8
AM_6
100
AcDbText
 10
12.16539634146342
 20
-14.678125
 30
0.0
 40
0.5
  1
6-15/32
100
AcDbAttributeDefinition
  3

  2
L
 70
     8
280
     0
  0
ATTDEF
  5
164
330
13E
100
AcDbEntity
  8
AM_6
100
AcDbText
 10
12.16539634146342
 20
-15.178125
 30
0.0
 40
0.5
  1
6.46875
100
AcDbAttributeDefinition
  3

  2
L1
 70
     8
280
     0
  0
ATTDEF
  5
165
330
13E
100
AcDbEntity
  8
AM_6
100
AcDbText
 10
12.16539634146342
 20
-15.678125
 30
0.0
 40
0.5
  1
4-1/8
100
AcDbAttributeDefinition
  3

  2
M
 70
     8
280
     0
  0
ATTDEF
  5
166
330
13E
100
AcDbEntity
  8
AM_6
100
AcDbText
 10
12.16539634146342
 20
-16.178125
 30
0.0
 40
0.5
  1
4.12500
100
AcDbAttributeDefinition
  3

  2
M1
 70
     8
280
     0
  0
ATTDEF
  5
167
330
13E
100
AcDbEntity
  8
AM_6
100
AcDbText
 10
12.16539634146342
 20
-16.678125
 30
0.0
 40
0.5
  1
1-1/8
100
AcDbAttributeDefinition
  3

  2
R
 70
     8
280
     0
  0
ATTDEF
  5
168
330
13E
100
AcDbEntity
  8
AM_6
100
AcDbText
 10
12.16539634146342
 20
-17.178125
 30
0.0
 40
0.5
  1
1.12500
100
AcDbAttributeDefinition
  3

  2
R1
 70
     8
280
     0
  0
ATTDEF
  5
169
330
13E
100
AcDbEntity
  8
AM_6
100
AcDbText
 10
12.16539634146342
 20
-17.678125
 30
0.0
 40
0.5
  1
2-3/16
100
AcDbAttributeDefinition
  3

  2
S
 70
     8
280
     0
  0
ATTDEF
  5
16A
330
13E
100
AcDbEntity
  8
AM_6
100
AcDbText
 10
12.16539634146342
 20
-18.178125
 30
0.0
 40
0.5
  1
2.18750
100
AcDbAttributeDefinition
  3

  2
S1
 70
     8
280
     0
  0
ATTDEF
  5
16B
330
13E
100
AcDbEntity
  8
AM_6
100
AcDbText
 10
12.16539634146342
 20
-18.678125
 30
0.0
 40
0.5
  1
1250
100
AcDbAttributeDefinition
  3

  2
MRP
 70
     8
280
     0
  0
ATTDEF
  5
16C
330
13E
100
AcDbEntity
  8
AM_6
100
AcDbText
 10
12.16539634146342
 20
-19.178125
 30
0.0
 40
0.5
  1
104000
100
AcDbAttributeDefinition
  3

  2
CS
 70
     8
280
     0
  0
ATTDEF
  5
16D
330
13E
100
AcDbEntity
  8
AM_6
100
AcDbText
 10
12.16539634146342
 20
-19.678125
 30
0.0
 40
0.5
  1
80000
100
AcDbAttributeDefinition
  3

  2
CD
 70
     8
280
     0
  0
ATTDEF
  5
16E
330
13E
100
AcDbEntity
  8
AM_6
100
AcDbText
 10
12.16539634146342
 20
-20.178125
 30
0.0
 40
0.5
  1
18
100
AcDbAttributeDefinition
  3

  2
RN
 70
     8
280
     0
  0
ATTDEF
  5
16F
330
13E
100
AcDbEntity
  8
AM_6
100
AcDbText
 10
12.16539634146342
 20
-20.678125
 30
0.0
 40
0.5
  1
0.8780
100
AcDbAttributeDefinition
  3

  2
RM
 70
     8
280
     0
  0
ATTDEF
  5
170
330
13E
100
AcDbEntity
  8
AM_6
100
AcDbText
 10
12.16539634146342
 20
-21.178125
 30
0.0
 40
0.5
  1
5.705
100
AcDbAttributeDefinition
  3

  2
PDI
 70
     8
280
     0
  0
ATTDEF
  5
171
330
13E
100
AcDbEntity
  8
AM_6
100
AcDbText
 10
12.16539634146342
 20
-21.678125
 30
0.0
 40
0.5
  1
0.0024-0.0039
100
AcDbAttributeDefinition
  3

  2
RC
 70
     8
280
     0
  0
ATTDEF
  5
172
330
13E
100
AcDbEntity
  8
AM_6
100
AcDbText
 10
12.16539634146342
 20
-22.178125
 30
0.0
 40
0.5
  1
5/8-11x1-1/4
100
AcDbAttributeDefinition
  3

  2
COS
 70
     8
280
     0
  0
ATTDEF
  5
173
330
13E
100
AcDbEntity
  8
AM_6
100
AcDbText
 10
12.16539634146342
 20
-22.678125
 30
0.0
 40
0.5
  1
1325
100
AcDbAttributeDefinition
  3

  2
CT
 70
     8
280
     0
  0
ATTDEF
  5
174
330
13E
100
AcDbEntity
  8
AM_6
100
AcDbText
 10
12.16539634146342
 20
-23.178125
 30
0.0
 40
0.5
  1
Ductile Iron Grade 65-45-13 ASTM A536
100
AcDbAttributeDefinition
  3

  2
MH
 70
     8
280
     0
  0
ATTDEF
  5
175
330
13E
100
AcDbEntity
  8
AM_6
100
AcDbText
 10
12.16539634146342
 20
-23.678125
 30
0.0
 40
0.5
  1
4118 Case Carb,
100
AcDbAttributeDefinition
  3

  2
MIR
 70
     8
280
     0
  0
ATTDEF
  5
176
330
13E
100
AcDbEntity
  8
AM_6
100
AcDbText
 10
12.16539634146342
 20
-24.178125
 30
0.0
 40
0.5
  1
E52100 Steel
100
AcDbAttributeDefinition
  3

  2
MOR
 70
     8
280
     0
  0
ATTDEF
  5
177
330
13E
100
AcDbEntity
  8
AM_6
100
AcDbText
 10
12.16539634146342
 20
-24.678125
 30
0.0
 40
0.5
  1
Polyamide
100
AcDbAttributeDefinition
  3

  2
MR
 70
     8
280
     0
  0
ATTDEF
  5
178
330
13E
100
AcDbEntity
  8
AM_6
100
AcDbText
 10
12.16539634146342
 20
-25.178125
 30
0.0
 40
0.5
  1
E52100 Steel
100
AcDbAttributeDefinition
  3

  2
MRO
 70
     8
280
     0
  0
ATTDEF
  5
179
330
13E
100
AcDbEntity
  8
AM_6
100
AcDbText
 10
12.16539634146342
 20
-25.678125
 30
0.0
 40
0.5
  1
2°
100
AcDbAttributeDefinition
  3

  2
SM
 70
     8
280
     0
  0
ATTDEF
  5
17A
330
13E
100
AcDbEntity
  8
AM_6
100
AcDbText
 10
12.16539634146342
 20
-26.178125
 30
0.0
 40
0.5
  1
baldor
100
AcDbAttributeDefinition
  3

  2
COMPANY
 70
     8
280
     0
  0
LINE
  5
17B
330
13E
100
AcDbEntity
  8
AM_9
100
AcDbLine
 10
-6.9825
 20
-0.4582061723083433
 30
0.0
 11
-6.9825
 21
0.458206172308343
 31
0.0
  0
LINE
  5
17C
330
13E
100
AcDbEntity
  8
AM_9
100
AcDbLine
 10
4.263315224501476
 20
1.438143004115227
 30
0.0
 11
4.263315224501476
 21
0.7359136992825159
 31
0.0
  0
LINE
  5
17D
330
13E
100
AcDbEntity
  8
AM_9
100
AcDbLine
 10
4.298176371519973
 20
0.7525754998165618
 30
0.0
 11
4.312051169470913
 21
0.7587930557475048
 31
0.0
  0
LWPOLYLINE
  5
17E
330
13E
100
AcDbEntity
  8
AM_9
100
AcDbPolyline
 90
        5
 70
     0
 43
0.0
 10
4.263315224501476
 20
0.7355680778938057
 10
4.263964093955389
 20
0.7359033096778912
 10
4.269349626910569
 20
0.7386795485286897
 10
4.280150020598484
 20
0.7440547107713361
 10
4.286141377877961
 20
0.7469317833704606
  0
LINE
  5
17F
330
13E
100
AcDbEntity
  8
AM_9
100
AcDbLine
 10
4.263315224501476
 20
-0.7355857661779596
 30
0.0
 11
4.263315224501476
 21
-1.438143004115226
 31
0.0
  0
LINE
  5
180
330
13E
100
AcDbEntity
  8
AM_9
100
AcDbLine
 10
-4.269552080451745
 20
0.7387604027225317
 30
0.0
 11
-4.263315224501743
 21
0.7355680778939434
 31
0.0
  0
LWPOLYLINE
  5
181
330
13E
100
AcDbEntity
  8
AM_9
100
AcDbPolyline
 90
        4
 70
     0
 43
0.0
 10
-4.312121156246327
 20
0.758823645925456
 10
-4.304382217792643
 20
0.7553954470410019
 10
-4.289941330343147
 20
0.7487392342469092
 10
-4.287338504005909
 20
0.7475037532670016
  0
LINE
  5
182
330
13E
100
AcDbEntity
  8
AM_9
100
AcDbLine
 10
-4.263315224501476
 20
0.7355857661808034
 30
0.0
 11
-4.263315224501476
 21
1.438143004115226
 31
0.0
  0
LINE
  5
183
330
13E
100
AcDbEntity
  8
AM_9
100
AcDbLine
 10
-4.263315224501476
 20
-1.438143004115226
 30
0.0
 11
-4.263315224501476
 21
-0.7357368636551174
 31
0.0
  0
LINE
  5
184
330
13E
100
AcDbEntity
  8
AM_9
100
AcDbLine
 10
-4.298901618066676
 20
-0.7529081013662747
 30
0.0
 11
-4.31242790617527
 21
-0.7589576310760684
 31
0.0
  0
LINE
  5
185
330
13E
100
AcDbEntity
  8
AM_9
100
AcDbLine
 10
-4.263315224502461
 20
-0.735568077894315
 30
0.0
 11
-4.269942806787765
 21
-0.7389581841537387
 31
0.0
  0
LINE
  5
186
330
13E
100
AcDbEntity
  8
AM_9
100
AcDbLine
 10
3.234375
 20
-0.7873355263157891
 30
0.0
 11
3.234375
 21
0.7873355263157893
 31
0.0
  0
LINE
  5
187
330
13E
100
AcDbEntity
  8
AM_9
100
AcDbLine
 10
-3.234375
 20
0.7873355263157893
 30
0.0
 11
-3.234375
 21
-0.7873355263157891
 31
0.0
  0
LINE
  5
188
330
13E
100
AcDbEntity
  8
AM_9
100
AcDbLine
 10
-3.234375
 20
0.7873355263157893
 30
0.0
 11
3.234375
 21
0.7873355263157893
 31
0.0
  0
ARC
  5
189
330
13E
100
AcDbEntity
  8
AM_9
100
AcDbCircle
 10
3.31875
 20
0.7873355263157893
 30
0.0
 40
0.0843749999999999
100
AcDbArc
 50
90.0
 51
179.9999991462263
  0
ARC
  5
18A
330
13E
100
AcDbEntity
  8
AM_9
100
AcDbCircle
 10
-3.31875
 20
0.7873355263157893
 30
0.0
 40
0.0843749999999996
100
AcDbArc
 50
0.0000008537736463
 51
90.0
  0
LINE
  5
18B
330
13E
100
AcDbEntity
  8
AM_9
100
AcDbLine
 10
-3.234375
 20
-0.7873355263157891
 30
0.0
 11
3.234375
 21
-0.7873355263157891
 31
0.0
  0
ARC
  5
18C
330
13E
100
AcDbEntity
  8
AM_9
100
AcDbCircle
 10
3.318749999999999
 20
-0.7873355263157902
 30
0.0
 40
0.0843749999999992
100
AcDbArc
 50
180.0
 51
270.0
  0
ARC
  5
18D
330
13E
100
AcDbEntity
  8
AM_9
100
AcDbCircle
 10
-3.31875
 20
-0.78733552631579
 30
0.0
 40
0.0843749999999994
100
AcDbArc
 50
270.0
 51
0.0000008537736463
  0
LINE
  5
18E
330
13E
100
AcDbEntity
  8
AM_9
100
AcDbLine
 10
-3.720772058823524
 20
-0.8717105263157892
 30
0.0
 11
3.720772058821615
 21
-0.8717105263157892
 31
0.0
  0
ARC
  5
18F
330
13E
100
AcDbEntity
  8
AM_9
100
AcDbCircle
 10
3.720772058823523
 20
-0.9560855263157881
 30
0.0
 40
0.0843749999999992
100
AcDbArc
 50
0.0
 51
90.0
  0
ARC
  5
190
330
13E
100
AcDbEntity
  8
AM_9
100
AcDbCircle
 10
-3.720772058823523
 20
-0.9560855263157881
 30
0.0
 40
0.084374999999999
100
AcDbArc
 50
90.0
 51
180.0
  0
LINE
  5
191
330
13E
100
AcDbEntity
  8
AM_9
100
AcDbLine
 10
-3.805147058823522
 20
-0.9560855263157885
 30
0.0
 11
3.805147058823526
 21
-0.9560855263157885
 31
0.0
  0
LINE
  5
192
330
13E
100
AcDbEntity
  8
AM_9
100
AcDbLine
 10
3.805147058823526
 20
-1.386342592592593
 30
0.0
 11
3.805147058823526
 21
-0.9560855263157885
 31
0.0
  0
LINE
  5
193
330
13E
100
AcDbEntity
  8
AM_9
100
AcDbLine
 10
-3.805147058823526
 20
-0.9560855263157885
 30
0.0
 11
-3.805147058823526
 21
-1.386342592592593
 31
0.0
  0
LWPOLYLINE
  5
194
330
13E
100
AcDbEntity
  8
AM_9
100
AcDbPolyline
 90
        4
 70
     0
 43
0.0
 10
-2.822679300716419
 20
-1.55331148457202
 10
-3.034341195578306
 20
-1.536578989525546
 10
-3.222909921756535
 20
-1.518703104783196
 10
-3.234374999999997
 20
-1.517500291987277
  0
LWPOLYLINE
  5
195
330
13E
100
AcDbEntity
  8
AM_9
100
AcDbPolyline
 90
        5
 70
     0
 43
0.0
 10
-1.865012622247118
 20
-1.603364915480709
 10
-2.146990041114309
 20
-1.591903317432076
 10
-2.41262756938059
 20
-1.578877278146455
 10
-2.659903545059527
 20
-1.564385933648148
 10
-2.822679300716419
 20
-1.55331148457202
  0
LWPOLYLINE
  5
196
330
13E
100
AcDbEntity
  8
AM_9
100
AcDbPolyline
 90
        7
 70
     0
 43
0.0
 10
-0.2245532436582192
 20
-1.634887433746455
 10
-0.5547611902406692
 20
-1.632661067129998
 10
-0.8807470691914224
 20
-1.628560068191149
 10
-1.200029931136009
 20
-1.622615648008085
 10
-1.510179840706766
 20
-1.614873047207738
 10
-1.808836369818226
 20
-1.605391191657307
 10
-1.865012622247118
 20
-1.603364915480709
  0
LINE
  5
197
330
13E
100
AcDbEntity
  8
AM_9
100
AcDbLine
 10
0.2245532436582268
 20
-1.634887433746455
 30
0.0
 11
-0.2245532436582192
 21
-1.634887433746455
 31
0.0
  0
LWPOLYLINE
  5
198
330
13E
100
AcDbEntity
  8
AM_9
100
AcDbPolyline
 90
       12
 70
     0
 43
0.0
 10
3.234375
 20
-1.517500291987277
 10
3.047364795822897
 20
-1.535446136650675
 10
2.83716230550041
 20
-1.552257213312609
 10
2.605367296907627
 20
-1.567805579528877
 10
2.35374387002159
 20
-1.581972902844212
 10
2.084207031055283
 20
-1.594651361373722
 10
1.798808118104032
 20
-1.605744464392534
 10
1.499719189223971
 20
-1.615167786688476
 10
1.18921649175871
 20
-1.622849611088919
 10
0.8696631387226151
 20
-1.628731474271762
 10
0.543491124083881
 20
-1.632768611706618
 10
0.2245532436582268
 20
-1.634887433746455
  0
LINE
  5
199
330
13E
100
AcDbEntity
  8
AM_9
100
AcDbLine
 10
-3.720772058823529
 20
0.8717105263157896
 30
0.0
 11
3.72077205882162
 21
0.8717105263157896
 31
0.0
  0
ARC
  5
19A
330
13E
100
AcDbEntity
  8
AM_9
100
AcDbCircle
 10
3.720772058823529
 20
0.9560855263157908
 30
0.0
 40
0.0843750000000012
100
AcDbArc
 50
270.0
 51
0.0
  0
ARC
  5
19B
330
13E
100
AcDbEntity
  8
AM_9
100
AcDbCircle
 10
-3.720772058823529
 20
0.9560855263157908
 30
0.0
 40
0.0843750000000014
100
AcDbArc
 50
180.0
 51
270.0
  0
LINE
  5
19C
330
13E
100
AcDbEntity
  8
AM_9
100
AcDbLine
 10
-3.80514705882353
 20
0.9560855263157897
 30
0.0
 11
3.80514705882353
 21
0.9560855263157897
 31
0.0
  0
LINE
  5
19D
330
13E
100
AcDbEntity
  8
AM_9
100
AcDbLine
 10
3.80514705882353
 20
0.9560855263157897
 30
0.0
 11
3.80514705882353
 21
1.386342592592593
 31
0.0
  0
LINE
  5
19E
330
13E
100
AcDbEntity
  8
AM_9
100
AcDbLine
 10
-3.80514705882353
 20
1.386342592592593
 30
0.0
 11
-3.80514705882353
 21
0.9560855263157897
 31
0.0
  0
LINE
  5
19F
330
13E
100
AcDbEntity
  8
AM_9
100
AcDbLine
 10
-3.234375
 20
-1.65625
 30
0.0
 11
3.234375
 21
-1.65625
 31
0.0
  0
LINE
  5
1A0
330
13E
100
AcDbEntity
  8
AM_9
100
AcDbLine
 10
-4.279336324012398
 20
-1.421269905899384
 30
0.0
 11
-4.279336324012398
 21
-0.7436354539545593
 31
0.0
  0
LINE
  5
1A1
330
13E
100
AcDbEntity
  8
AM_9
100
AcDbLine
 10
4.279336318795522
 20
-1.421269908635934
 30
0.0
 11
4.279336318795523
 21
-0.7436354513980639
 31
0.0
  0
LINE
  5
1A2
330
13E
100
AcDbEntity
  8
AM_9
100
AcDbLine
 10
4.279336318795522
 20
0.743635451398063
 30
0.0
 11
4.279336318795522
 21
1.421269908635934
 31
0.0
  0
LINE
  5
1A3
330
13E
100
AcDbEntity
  8
AM_9
100
AcDbLine
 10
-4.279336324012397
 20
0.7436354539545587
 30
0.0
 11
-4.279336324012398
 21
1.421269905899384
 31
0.0
  0
LINE
  5
1A4
330
13E
100
AcDbEntity
  8
AM_7
100
AcDbLine
 10
0.0
 20
-2.3539065
 30
0.0
 11
0.0
 21
1.821874999999999
 31
0.0
  0
LINE
  5
1A5
330
13E
100
AcDbEntity
  8
AM_7
100
AcDbLine
 10
4.969669117647058
 20
-0.5259650735294118
 30
0.0
 11
4.969669117647058
 21
0.5259650735294118
 31
0.0
  0
LINE
  5
1A6
330
13E
100
AcDbEntity
  8
AM_7
100
AcDbLine
 10
4.643750000000001
 20
-0.8483231707317083
 30
0.0
 11
4.643750000000001
 21
0.8483231707317078
 31
0.0
  0
LINE
  5
1A7
330
13E
100
AcDbEntity
  8
AM_7
100
AcDbLine
 10
-7.165396341463415
 20
-0.0000000000000001
 30
0.0
 11
-3.795426829268293
 21
-0.0000000000000001
 31
0.0
  0
LINE
  5
1A8
330
13E
100
AcDbEntity
  8
AM_7
100
AcDbLine
 10
-6.317073170731707
 20
-0.848323170731708
 30
0.0
 11
-6.317073170731707
 21
0.848323170731708
 31
0.0
  0
LINE
  5
1A9
330
13E
100
AcDbEntity
  8
AM_7
100
AcDbLine
 10
3.795426829268293
 20
-0.0000000000000002
 30
0.0
 11
7.165396341463415
 21
-0.0000000000000001
 31
0.0
  0
LINE
  5
1AA
330
13E
100
AcDbEntity
  8
AM_7
100
AcDbLine
 10
6.317073170731707
 20
-0.8483231707317082
 30
0.0
 11
6.317073170731707
 21
0.8483231707317079
 31
0.0
  0
LINE
  5
1AB
330
13E
100
AcDbEntity
  8
AM_7
100
AcDbLine
 10
5.967830882352942
 20
-0.525965073529412
 30
0.0
 11
5.967830882352942
 21
0.5259650735294116
 31
0.0
  0
LINE
  5
1AC
330
13E
100
AcDbEntity
  8
AM_7
100
AcDbLine
 10
-4.643750000000001
 20
-0.8483231707317082
 30
0.0
 11
-4.643750000000001
 21
0.8483231707317079
 31
0.0
  0
LINE
  5
1AD
330
13E
100
AcDbEntity
  8
AM_7
100
AcDbLine
 10
-5.967830882352943
 20
-0.5259650735294109
 30
0.0
 11
-5.967830882352943
 21
0.5259650735294109
 31
0.0
  0
LINE
  5
1AE
330
13E
100
AcDbEntity
  8
AM_7
100
AcDbLine
 10
-4.969669117647058
 20
-0.525965073529412
 30
0.0
 11
-4.969669117647058
 21
0.5259650735294116
 31
0.0
  0
LINE
  5
1AF
330
13E
100
AcDbEntity
  8
AM_4
100
AcDbLine
 10
-6.9825
 20
-1.57445987654321
 30
0.0
 11
-6.9825
 21
-0.4582061723083433
 31
0.0
  0
LINE
  5
1B0
330
13E
100
AcDbEntity
  8
AM_4
100
AcDbLine
 10
-6.9825
 20
0.458206172308343
 30
0.0
 11
-6.9825
 21
1.57445987654321
 31
0.0
  0
LINE
  5
1B1
330
13E
100
AcDbEntity
  8
AM_4
100
AcDbLine
 10
6.317073170731708
 20
0.8079268292682925
 30
0.0
 11
4.64375
 21
0.8079268292682925
 31
0.0
  0
ARC
  5
1B2
330
13E
100
AcDbEntity
  8
AM_4
100
AcDbCircle
 10
4.643750000000001
 20
-0.0000000000000001
 30
0.0
 40
0.8079268292682926
100
AcDbArc
 50
90.0
 51
270.0
  0
ARC
  5
1B3
330
13E
100
AcDbEntity
  8
AM_4
100
AcDbCircle
 10
4.969669117647058
 20
0.0
 30
0.0
 40
0.5009191176470588
100
AcDbArc
 50
86.52859082214303
 51
273.471409177857
  0
LINE
  5
1B4
330
13E
100
AcDbEntity
  8
AM_4
100
AcDbLine
 10
5.937499999999998
 20
0.4999999999999996
 30
0.0
 11
5.000000000000001
 21
0.4999999999999998
 31
0.0
  0
ARC
  5
1B5
330
13E
100
AcDbEntity
  8
AM_4
100
AcDbCircle
 10
5.967830882352942
 20
-0.0000000000000003
 30
0.0
 40
0.5009191176470588
100
AcDbArc
 50
266.5285908221429
 51
93.47140917785705
  0
LINE
  5
1B6
330
13E
100
AcDbEntity
  8
AM_4
100
AcDbLine
 10
5.000000000000001
 20
-0.4999999999999998
 30
0.0
 11
5.937499999999998
 21
-0.5000000000000001
 31
0.0
  0
LINE
  5
1B7
330
13E
100
AcDbEntity
  8
AM_4
100
AcDbLine
 10
4.64375
 20
-0.8079268292682927
 30
0.0
 11
6.317073170731708
 21
-0.8079268292682928
 31
0.0
  0
ARC
  5
1B8
330
13E
100
AcDbEntity
  8
AM_4
100
AcDbCircle
 10
6.317073170731707
 20
-0.0000000000000001
 30
0.0
 40
0.8079268292682928
100
AcDbArc
 50
270.0
 51
90.0
  0
ARC
  5
1B9
330
13E
100
AcDbEntity
  8
AM_4
100
AcDbCircle
 10
-6.317073170731707
 20
-0.0000000000000001
 30
0.0
 40
0.8079268292682926
100
AcDbArc
 50
90.0
 51
270.0
  0
ARC
  5
1BA
330
13E
100
AcDbEntity
  8
AM_4
100
AcDbCircle
 10
-5.967830882352942
 20
0.0
 30
0.0
 40
0.5009191176470588
100
AcDbArc
 50
86.52859082214292
 51
273.4714091778571
  0
LINE
  5
1BB
330
13E
100
AcDbEntity
  8
AM_4
100
AcDbLine
 10
-5.000000000000001
 20
0.4999999999999997
 30
0.0
 11
-5.937499999999998
 21
0.4999999999999998
 31
0.0
  0
ARC
  5
1BC
330
13E
100
AcDbEntity
  8
AM_4
100
AcDbCircle
 10
-4.969669117647058
 20
-0.0000000000000003
 30
0.0
 40
0.5009191176470588
100
AcDbArc
 50
266.528590822143
 51
93.47140917785697
  0
LINE
  5
1BD
330
13E
100
AcDbEntity
  8
AM_4
100
AcDbLine
 10
-5.937499999999998
 20
-0.4999999999999998
 30
0.0
 11
-5.000000000000001
 21
-0.5000000000000001
 31
0.0
  0
LINE
  5
1BE
330
13E
100
AcDbEntity
  8
AM_4
100
AcDbLine
 10
-4.64375
 20
0.8079268292682925
 30
0.0
 11
-6.317073170731708
 21
0.8079268292682925
 31
0.0
  0
LINE
  5
1BF
330
13E
100
AcDbEntity
  8
AM_4
100
AcDbLine
 10
-6.317073170731708
 20
-0.8079268292682927
 30
0.0
 11
-4.64375
 21
-0.8079268292682928
 31
0.0
  0
ARC
  5
1C0
330
13E
100
AcDbEntity
  8
AM_4
100
AcDbCircle
 10
-4.643750000000001
 20
-0.0000000000000002
 30
0.0
 40
0.8079268292682926
100
AcDbArc
 50
270.0
 51
90.0
  0
LINE
  5
1C1
330
13E
100
AcDbEntity
  8
AM_4
100
AcDbLine
 10
4.643749999999999
 20
0.8281249999999997
 30
0.0
 11
6.34664855783481
 21
0.8281249999999998
 31
0.0
  0
LINE
  5
1C2
330
13E
100
AcDbEntity
  8
AM_4
100
AcDbLine
 10
6.34664855783481
 20
0.8281249999999998
 30
0.0
 11
6.34664855783481
 21
1.57445987654321
 31
0.0
  0
LWPOLYLINE
  5
1C3
330
13E
100
AcDbEntity
  8
AM_4
100
AcDbPolyline
 90
       19
 70
     0
 43
0.0
 10
4.263315224501476
 20
1.438143004115227
 10
4.27124293681034
 20
1.450023802380725
 10
4.294965739059376
 20
1.461814180597601
 10
4.33430308639925
 20
1.473424406868399
 10
4.388955597864166
 20
1.484766120360752
 10
4.458507334841788
 20
1.49575300378667
 10
4.542428966617228
 20
1.506301440329218
 10
4.640081798899409
 20
1.516331150016989
 10
4.75072263467027
 20
1.525765800703155
 10
4.873509430362834
 20
1.534533588999195
 10
5.007507704321183
 20
1.542567786742042
 10
5.151697648770128
 20
1.549807248835691
 10
5.304981891168141
 20
1.556196878602303
 10
5.466193845875016
 20
1.561688047101189
 10
5.634106592572997
 20
1.566238963224417
 10
5.80744221387122
 20
1.569814991752368
 10
5.984881521028701
 20
1.572388916948681
 10
6.165074093777185
 20
1.573941149688433
 10
6.346648557834805
 20
1.57445987654321
  0
LWPOLYLINE
  5
1C4
330
13E
100
AcDbEntity
  8
AM_4
100
AcDbPolyline
 90
        9
 70
     0
 43
0.0
 10
4.312051169470913
 20
0.7587930557475048
 10
4.317303744129912
 20
0.761077187036593
 10
4.343354778859281
 20
0.7717302836309444
 10
4.374351514096771
 20
0.7830807566388334
 10
4.411148055869712
 20
0.7947926696744302
 10
4.453034741979191
 20
0.8058702472726819
 10
4.49988622318753
 20
0.8155330951875914
 10
4.567624340271366
 20
0.82461863886034
 10
4.64375
 20
0.8281249999999998
  0
LWPOLYLINE
  5
1C5
330
13E
100
AcDbEntity
  8
AM_4
100
AcDbPolyline
 90
        5
 70
     0
 43
0.0
 10
4.286850558427977
 20
-0.7472709041777141
 10
4.275229849447956
 20
-0.7416352997276373
 10
4.266334061324409
 20
-0.7371485608980399
 10
4.263315524115669
 20
-0.7355682328537677
 10
4.263315224501742
 20
-0.7355680778939432
  0
LWPOLYLINE
  5
1C6
330
13E
100
AcDbEntity
  8
AM_4
100
AcDbPolyline
 90
        4
 70
     0
 43
0.0
 10
4.312238125775315
 20
-0.7588747544048603
 10
4.309806479724121
 20
-0.7578198683515477
 10
4.289941330343146
 20
-0.7487392342469092
 10
4.286850558427977
 20
-0.7472709041777141
  0
LWPOLYLINE
  5
1C7
330
13E
100
AcDbEntity
  8
AM_4
100
AcDbPolyline
 90
        9
 70
     0
 43
0.0
 10
4.643749999999999
 20
-0.8281249999999999
 10
4.586619263673199
 20
-0.826156547322148
 10
4.533778023721539
 20
-0.8207945898978461
 10
4.485449593792429
 20
-0.8128542286409772
 10
4.440603729095247
 20
-0.8028265729913293
 10
4.400622996013312
 20
-0.7916363839028918
 10
4.365623676724048
 20
-0.7800235662632264
 10
4.335070266117324
 20
-0.7684563377338753
 10
4.312238125775315
 20
-0.7588747544048603
  0
LINE
  5
1C8
330
13E
100
AcDbEntity
  8
AM_4
100
AcDbLine
 10
6.34664855783481
 20
-1.57445987654321
 30
0.0
 11
6.34664855783481
 21
-0.8281250000000001
 31
0.0
  0
LINE
  5
1C9
330
13E
100
AcDbEntity
  8
AM_4
100
AcDbLine
 10
6.34664855783481
 20
-0.8281250000000001
 30
0.0
 11
4.643749999999999
 21
-0.8281250000000001
 31
0.0
  0
LWPOLYLINE
  5
1CA
330
13E
100
AcDbEntity
  8
AM_4
100
AcDbPolyline
 90
        3
 70
     0
 43
0.0
 10
4.263315224501476
 20
-1.438143004115226
 10
4.27124293681034
 20
-1.426262205849728
 10
4.279336318795522
 20
-1.421269908635934
  0
LWPOLYLINE
  5
1CB
330
13E
100
AcDbEntity
  8
AM_4
100
AcDbPolyline
 90
       11
 70
     0
 43
0.0
 10
-4.643749999999999
 20
0.8281249999999997
 10
-4.600639431122315
 20
0.8270024417255705
 10
-4.559930775976659
 20
0.823872170490741
 10
-4.521412961509082
 20
0.8190392117862191
 10
-4.485449593792429
 20
0.8128542286409769
 10
-4.451444221635864
 20
0.8054874843975601
 10
-4.420166874319797
 20
0.797371683430049
 10
-4.365623676724048
 20
0.7800235662632262
 10
-4.342273279125232
 20
0.7713001319793774
 10
-4.321881534784903
 20
0.763014879753388
 10
-4.312121156246327
 20
0.758823645925456
  0
LINE
  5
1CC
330
13E
100
AcDbEntity
  8
AM_4
100
AcDbLine
 10
-6.34664855783481
 20
0.8281249999999988
 30
0.0
 11
-6.34664855783481
 21
1.57445987654321
 31
0.0
  0
LINE
  5
1CD
330
13E
100
AcDbEntity
  8
AM_4
100
AcDbLine
 10
-6.34664855783481
 20
0.8281249999999988
 30
0.0
 11
-4.643749999999999
 21
0.8281249999999999
 31
0.0
  0
LWPOLYLINE
  5
1CE
330
13E
100
AcDbEntity
  8
AM_4
100
AcDbPolyline
 90
        3
 70
     0
 43
0.0
 10
-4.263315224501476
 20
1.438143004115226
 10
-4.27124293681034
 20
1.426262205849728
 10
-4.279336324012397
 20
1.421269905899384
  0
LINE
  5
1CF
330
13E
100
AcDbEntity
  8
AM_4
100
AcDbLine
 10
-4.64375
 20
-0.8281250000000001
 30
0.0
 11
-6.34664855783481
 21
-0.8281250000000001
 31
0.0
  0
LINE
  5
1D0
330
13E
100
AcDbEntity
  8
AM_4
100
AcDbLine
 10
-6.34664855783481
 20
-1.57445987654321
 30
0.0
 11
-6.34664855783481
 21
-0.8281250000000001
 31
0.0
  0
LWPOLYLINE
  5
1D1
330
13E
100
AcDbEntity
  8
AM_4
100
AcDbPolyline
 90
       19
 70
     0
 43
0.0
 10
-4.263315224501476
 20
-1.438143004115226
 10
-4.27124293681034
 20
-1.450023802380725
 10
-4.294965739059377
 20
-1.461814180597601
 10
-4.334303086399251
 20
-1.473424406868399
 10
-4.388955597864167
 20
-1.484766120360752
 10
-4.458507334841788
 20
-1.495753003786669
 10
-4.542428966617228
 20
-1.506301440329218
 10
-4.640081798899409
 20
-1.516331150016989
 10
-4.750722634670272
 20
-1.525765800703155
 10
-4.873509430362835
 20
-1.534533588999195
 10
-5.007507704321184
 20
-1.542567786742042
 10
-5.151697648770128
 20
-1.549807248835691
 10
-5.304981891168141
 20
-1.556196878602303
 10
-5.466193845875017
 20
-1.561688047101189
 10
-5.634106592572997
 20
-1.566238963224416
 10
-5.807442213871222
 20
-1.569814991752368
 10
-5.984881521028702
 20
-1.57238891694868
 10
-6.165074093777185
 20
-1.573941149688432
 10
-6.346648557834805
 20
-1.57445987654321
  0
LWPOLYLINE
  5
1D2
330
13E
100
AcDbEntity
  8
AM_4
100
AcDbPolyline
 90
        9
 70
     0
 43
0.0
 10
-4.31242790617527
 20
-0.7589576310760684
 10
-4.32958632109944
 20
-0.7662194192818834
 10
-4.374351500858666
 20
-0.7830807520846091
 10
-4.401388751469516
 20
-0.7918666060565094
 10
-4.431268219577261
 20
-0.8004014671484451
 10
-4.464168302438885
 20
-0.808419481607895
 10
-4.499886203832308
 20
-0.8155330917732414
 10
-4.567624329276855
 20
-0.8246186378453689
 10
-4.64375
 20
-0.8281250000000002
  0
LWPOLYLINE
  5
1D3
330
13E
100
AcDbEntity
  8
AM_4
100
AcDbPolyline
 90
        8
 70
     0
 43
0.0
 10
-3.234374999999997
 20
-1.517500291987277
 10
-3.396769657458079
 20
-1.498556258036301
 10
-3.533312846797308
 20
-1.478758210334836
 10
-3.642965391899783
 20
-1.458256823980276
 10
-3.724892770687255
 20
-1.437208126901855
 10
-3.778471466338047
 20
-1.415772312393892
 10
-3.803293712626557
 20
-1.39411251994809
 10
-3.805147058823526
 20
-1.386342592592593
  0
LWPOLYLINE
  5
1D4
330
13E
100
AcDbEntity
  8
AM_4
100
AcDbPolyline
 90
        8
 70
     0
 43
0.0
 10
3.805147058823526
 20
-1.386342592592593
 10
3.790667325459396
 20
-1.408042521189283
 10
3.747338324881009
 20
-1.429577300226577
 10
3.675489816945533
 20
-1.450783037032946
 10
3.575668612181671
 20
-1.471498343146921
 10
3.448634410231368
 20
-1.491565562580728
 10
3.295354018076815
 20
-1.51083197167756
 10
3.234375
 20
-1.517500291987277
  0
LWPOLYLINE
  5
1D5
330
13E
100
AcDbEntity
  8
AM_4
100
AcDbPolyline
 90
       19
 70
     0
 43
0.0
 10
-3.805147058823526
 20
-1.386342592592593
 10
-3.790667325459396
 20
-1.364642663995903
 10
-3.747338324881009
 20
-1.343107884958608
 10
-3.675489816945533
 20
-1.321902148152239
 10
-3.575668612181671
 20
-1.301186842038265
 10
-3.448634410231368
 20
-1.281119622604457
 10
-3.295354018076815
 20
-1.261853213507626
 10
-3.116993992055538
 20
-1.243534243754373
 10
-2.914911759662287
 20
-1.226302131765818
 10
-2.690645288706165
 20
-1.210288024319227
 10
-2.445901382446943
 20
-1.195613798441851
 10
-2.182542689791666
 20
-1.182391133853157
 10
-1.902573529411768
 20
-1.170720663014728
 10
-1.608124635667739
 20
-1.160691205256467
 10
-1.301436942434075
 20
-1.152379090807866
 10
-0.9848445282393765
 20
-1.145847579878873
 10
-0.6607568525193919
 20
-1.14114638121149
 10
-0.3316404181758386
 20
-1.138311273766237
 10
-0.0000000000000077
 20
-1.137363834422658
  0
LWPOLYLINE
  5
1D6
330
13E
100
AcDbEntity
  8
AM_4
100
AcDbPolyline
 90
       37
 70
     0
 43
0.0
 10
3.80514705882353
 20
1.386342592592593
 10
3.7906673254594
 20
1.364642663995902
 10
3.747338324881013
 20
1.343107884958608
 10
3.675489816945536
 20
1.321902148152239
 10
3.575668612181675
 20
1.301186842038265
 10
3.448634410231372
 20
1.281119622604457
 10
3.295354018076818
 20
1.261853213507625
 10
3.116993992055541
 20
1.243534243754373
 10
2.91491175966229
 20
1.226302131765818
 10
2.690645288706167
 20
1.210288024319227
 10
2.445901382446945
 20
1.195613798441851
 10
2.182542689791668
 20
1.182391133853156
 10
1.902573529411769
 20
1.170720663014727
 10
1.60812463566774
 20
1.160691205256466
 10
1.301436942434076
 20
1.152379090807866
 10
0.9848445282393774
 20
1.145847579878873
 10
0.6607568525193921
 20
1.14114638121149
 10
0.3316404181758385
 20
1.138311273766237
 10
0.0000000000000072
 20
1.137363834422658
 10
-0.3316404181758241
 20
1.138311273766237
 10
-0.6607568525193779
 20
1.141146381211489
 10
-0.9848445282393633
 20
1.145847579878872
 10
-1.301436942434062
 20
1.152379090807866
 10
-1.608124635667727
 20
1.160691205256466
 10
-1.902573529411757
 20
1.170720663014727
 10
-2.182542689791656
 20
1.182391133853156
 10
-2.445901382446934
 20
1.19561379844185
 10
-2.690645288706158
 20
1.210288024319226
 10
-2.914911759662281
 20
1.226302131765817
 10
-3.116993992055532
 20
1.243534243754372
 10
-3.295354018076811
 20
1.261853213507625
 10
-3.448634410231366
 20
1.281119622604456
 10
-3.57566861218167
 20
1.301186842038264
 10
-3.675489816945533
 20
1.321902148152238
 10
-3.747338324881011
 20
1.343107884958607
 10
-3.790667325459399
 20
1.364642663995902
 10
-3.80514705882353
 20
1.386342592592592
  0
LWPOLYLINE
  5
1D7
330
13E
100
AcDbEntity
  8
AM_4
100
AcDbPolyline
 90
       19
 70
     0
 43
0.0
 10
-3.80514705882353
 20
1.386342592592593
 10
-3.7906673254594
 20
1.408042521189283
 10
-3.747338324881013
 20
1.429577300226577
 10
-3.675489816945536
 20
1.450783037032946
 10
-3.575668612181675
 20
1.47149834314692
 10
-3.448634410231372
 20
1.491565562580728
 10
-3.295354018076818
 20
1.51083197167756
 10
-3.116993992055542
 20
1.529150941430812
 10
-2.914911759662291
 20
1.546383053419367
 10
-2.690645288706168
 20
1.562397160865959
 10
-2.445901382446946
 20
1.577071386743334
 10
-2.182542689791669
 20
1.590294051332029
 10
-1.90257352941177
 20
1.601964522170458
 10
-1.608124635667741
 20
1.611993979928719
 10
-1.301436942434077
 20
1.620306094377319
 10
-0.9848445282393777
 20
1.626837605306312
 10
-0.6607568525193926
 20
1.631538803973696
 10
-0.331640418175839
 20
1.634373911418948
 10
-0.0000000000000077
 20
1.635321350762527
  0
LWPOLYLINE
  5
1D8
330
13E
100
AcDbEntity
  8
AM_4
100
AcDbPolyline
 90
       19
 70
     0
 43
0.0
 10
0.0
 20
1.635321350762527
 10
0.3316404181758317
 20
1.634373911418948
 10
0.6607568525193858
 20
1.631538803973696
 10
0.9848445282393713
 20
1.626837605306312
 10
1.30143694243407
 20
1.620306094377319
 10
1.608124635667735
 20
1.611993979928719
 10
1.902573529411765
 20
1.601964522170458
 10
2.182542689791664
 20
1.590294051332029
 10
2.445901382446942
 20
1.577071386743335
 10
2.690645288706165
 20
1.562397160865959
 10
2.914911759662288
 20
1.546383053419367
 10
3.116993992055539
 20
1.529150941430812
 10
3.295354018076817
 20
1.51083197167756
 10
3.44863441023137
 20
1.491565562580728
 10
3.575668612181674
 20
1.47149834314692
 10
3.675489816945536
 20
1.450783037032946
 10
3.747338324881013
 20
1.429577300226577
 10
3.790667325459399
 20
1.408042521189283
 10
3.80514705882353
 20
1.386342592592593
  0
LINE
  5
1D9
330
13E
100
AcDbEntity
  8
AM_4
100
AcDbLine
 10
7.125
 20
1.65625
 30
0.0
 11
7.125
 21
-1.65625
 31
0.0
  0
LINE
  5
1DA
330
13E
100
AcDbEntity
  8
AM_4
100
AcDbLine
 10
-7.125
 20
1.656249999999999
 30
0.0
 11
7.125
 21
1.65625
 31
0.0
  0
LWPOLYLINE
  5
1DB
330
13E
100
AcDbEntity
  8
AM_4
100
AcDbPolyline
 90
       19
 70
     0
 43
0.0
 10
-6.9825
 20
1.57445987654321
 10
-6.994919693341541
 20
1.574495357460077
 10
-7.007244865317538
 20
1.574601530179476
 10
-7.019381713927109
 20
1.574777586662903
 10
-7.031237870423908
 20
1.575022187014215
 10
-7.04272310229805
 20
1.575333469677044
 10
-7.05375
 20
1.575709065602368
 10
-7.064234642180024
 20
1.576146116278404
 10
-7.074097234380332
 20
1.57664129548561
 10
-7.083262716319083
 20
1.57719083461122
 10
-7.091661333144454
 20
1.57779055133067
 10
-7.099229166311182
 20
1.578435881437603
 10
-7.105908620039283
 20
1.579121913580247
 10
-7.111648859652723
 20
1.579843426639757
 10
-7.116406198461992
 20
1.58059492946609
 10
-7.120144430246193
 20
1.581370702668967
 10
-7.12283510480424
 20
1.582164842145889
 10
-7.124457744478074
 20
1.582971304015924
 10
-7.125
 20
1.583783950617284
  0
LINE
  5
1DC
330
13E
100
AcDbEntity
  8
AM_4
100
AcDbLine
 10
-6.34664855783481
 20
1.57445987654321
 30
0.0
 11
-6.9825
 21
1.57445987654321
 31
0.0
  0
LWPOLYLINE
  5
1DD
330
13E
100
AcDbEntity
  8
AM_4
100
AcDbPolyline
 90
       19
 70
     0
 43
0.0
 10
-6.34664855783481
 20
1.574459876543209
 10
-6.165074093777188
 20
1.573941149688432
 10
-5.984881521028705
 20
1.57238891694868
 10
-5.807442213871225
 20
1.569814991752367
 10
-5.634106592573
 20
1.566238963224416
 10
-5.466193845875019
 20
1.561688047101189
 10
-5.304981891168143
 20
1.556196878602302
 10
-5.15169764877013
 20
1.54980724883569
 10
-5.007507704321187
 20
1.542567786742041
 10
-4.873509430362836
 20
1.534533588999195
 10
-4.750722634670272
 20
1.525765800703154
 10
-4.64008179889941
 20
1.516331150016989
 10
-4.542428966617229
 20
1.506301440329218
 10
-4.45850733484179
 20
1.495753003786669
 10
-4.388955597864168
 20
1.484766120360752
 10
-4.334303086399252
 20
1.473424406868399
 10
-4.294965739059377
 20
1.461814180597601
 10
-4.27124293681034
 20
1.450023802380725
 10
-4.263315224501476
 20
1.438143004115226
  0
LWPOLYLINE
  5
1DE
330
13E
100
AcDbEntity
  8
AM_4
100
AcDbPolyline
 90
        3
 70
     0
 43
0.0
 10
4.279336318795522
 20
1.421269908635934
 10
4.264728054553707
 20
1.433123549296994
 10
4.263315224501476
 20
1.438143004115227
  0
LINE
  5
1DF
330
13E
100
AcDbEntity
  8
AM_4
100
AcDbLine
 10
7.125
 20
1.57445987654321
 30
0.0
 11
6.34664855783481
 21
1.57445987654321
 31
0.0
  0
LWPOLYLINE
  5
1E0
330
13E
100
AcDbEntity
  8
AM_4
100
AcDbPolyline
 90
       19
 70
     0
 43
0.0
 10
0.0
 20
-1.137363834422658
 10
0.3316404181758313
 20
-1.138311273766237
 10
0.660756852519385
 20
-1.14114638121149
 10
0.9848445282393703
 20
-1.145847579878873
 10
1.301436942434069
 20
-1.152379090807866
 10
1.608124635667733
 20
-1.160691205256466
 10
1.902573529411762
 20
-1.170720663014727
 10
2.182542689791662
 20
-1.182391133853157
 10
2.44590138244694
 20
-1.195613798441851
 10
2.690645288706161
 20
-1.210288024319227
 10
2.914911759662285
 20
-1.226302131765818
 10
3.116993992055535
 20
-1.243534243754373
 10
3.295354018076813
 20
-1.261853213507625
 10
3.448634410231366
 20
-1.281119622604457
 10
3.57566861218167
 20
-1.301186842038265
 10
3.675489816945531
 20
-1.321902148152239
 10
3.747338324881008
 20
-1.343107884958608
 10
3.790667325459395
 20
-1.364642663995902
 10
3.805147058823526
 20
-1.386342592592593
  0
LWPOLYLINE
  5
1E1
330
13E
100
AcDbEntity
  8
AM_4
100
AcDbPolyline
 90
       19
 70
     0
 43
0.0
 10
6.34664855783481
 20
-1.57445987654321
 10
6.165074093777189
 20
-1.573941149688432
 10
5.984881521028705
 20
-1.572388916948681
 10
5.807442213871225
 20
-1.569814991752368
 10
5.634106592573001
 20
-1.566238963224417
 10
5.46619384587502
 20
-1.561688047101189
 10
5.304981891168144
 20
-1.556196878602303
 10
5.151697648770131
 20
-1.549807248835691
 10
5.007507704321188
 20
-1.542567786742042
 10
4.873509430362837
 20
-1.534533588999195
 10
4.750722634670273
 20
-1.525765800703155
 10
4.640081798899411
 20
-1.516331150016989
 10
4.542428966617231
 20
-1.506301440329218
 10
4.45850733484179
 20
-1.49575300378667
 10
4.388955597864168
 20
-1.484766120360752
 10
4.334303086399252
 20
-1.473424406868399
 10
4.294965739059377
 20
-1.461814180597601
 10
4.27124293681034
 20
-1.450023802380725
 10
4.263315224501476
 20
-1.438143004115227
  0
LWPOLYLINE
  5
1E2
330
13E
100
AcDbEntity
  8
AM_4
100
AcDbPolyline
 90
        3
 70
     0
 43
0.0
 10
-4.279336324012397
 20
-1.421269905899384
 10
-4.264728056105638
 20
-1.433123546541107
 10
-4.263315224501476
 20
-1.438143004115226
  0
LINE
  5
1E3
330
13E
100
AcDbEntity
  8
AM_4
100
AcDbLine
 10
-6.9825
 20
-1.57445987654321
 30
0.0
 11
-6.34664855783481
 21
-1.57445987654321
 31
0.0
  0
LWPOLYLINE
  5
1E4
330
13E
100
AcDbEntity
  8
AM_4
100
AcDbPolyline
 90
       19
 70
     0
 43
0.0
 10
-7.125
 20
-1.583783950617284
 10
-7.124457744478074
 20
-1.582971304015924
 10
-7.12283510480424
 20
-1.58216484214589
 10
-7.120144430246192
 20
-1.581370702668967
 10
-7.116406198461991
 20
-1.58059492946609
 10
-7.111648859652722
 20
-1.579843426639757
 10
-7.105908620039282
 20
-1.579121913580247
 10
-7.099229166311181
 20
-1.578435881437604
 10
-7.091661333144454
 20
-1.57779055133067
 10
-7.083262716319082
 20
-1.57719083461122
 10
-7.074097234380331
 20
-1.57664129548561
 10
-7.064234642180023
 20
-1.576146116278404
 10
-7.053749999999999
 20
-1.575709065602368
 10
-7.042723102298048
 20
-1.575333469677044
 10
-7.031237870423906
 20
-1.575022187014215
 10
-7.019381713927108
 20
-1.574777586662904
 10
-7.007244865317536
 20
-1.574601530179476
 10
-6.99491969334154
 20
-1.574495357460077
 10
-6.982499999999998
 20
-1.57445987654321
  0
LINE
  5
1E5
330
13E
100
AcDbEntity
  8
AM_4
100
AcDbLine
 10
-7.125
 20
1.656249999999999
 30
0.0
 11
-7.125
 21
-1.65625
 31
0.0
  0
LINE
  5
1E6
330
13E
100
AcDbEntity
  8
AM_4
100
AcDbLine
 10
3.234375
 20
-1.65625
 30
0.0
 11
7.125
 21
-1.65625
 31
0.0
  0
LINE
  5
1E7
330
13E
100
AcDbEntity
  8
AM_4
100
AcDbLine
 10
-7.125
 20
-1.65625
 30
0.0
 11
-3.234375
 21
-1.65625
 31
0.0
  0
LINE
  5
1E8
330
13E
100
AcDbEntity
  8
AM_4
100
AcDbLine
 10
6.34664855783481
 20
-1.57445987654321
 30
0.0
 11
7.125
 21
-1.57445987654321
 31
0.0
  0
LWPOLYLINE
  5
1E9
330
13E
100
AcDbEntity
  8
AM_4
100
AcDbPolyline
 90
        3
 70
     0
 43
0.0
 10
-4.279336324012398
 20
-1.421269905899385
 10
-4.309575438579386
 20
-1.396732869771019
 10
-4.312500000000001
 20
-1.386342592592593
  0
LWPOLYLINE
  5
1EA
330
13E
100
AcDbEntity
  8
AM_4
100
AcDbPolyline
 90
        3
 70
     0
 43
0.0
 10
4.279336318795522
 20
1.421269908635934
 10
4.309575437027454
 20
1.396732872526905
 10
4.3125
 20
1.386342592592593
  0
LINE
  5
1EB
330
13E
100
AcDbEntity
  8
AM_4
100
AcDbLine
 10
4.3125
 20
-1.386342592592593
 30
0.0
 11
4.3125
 21
-0.7587448677244844
 31
0.0
  0
LINE
  5
1EC
330
13E
100
AcDbEntity
  8
AM_4
100
AcDbLine
 10
4.3125
 20
0.7587083933581968
 30
0.0
 11
4.3125
 21
1.386342592592593
 31
0.0
  0
LINE
  5
1ED
330
13E
100
AcDbEntity
  8
AM_4
100
AcDbLine
 10
-4.312500000000001
 20
1.386342592592593
 30
0.0
 11
-4.312500000000001
 21
0.7587448673282348
 31
0.0
  0
LINE
  5
1EE
330
13E
100
AcDbEntity
  8
AM_4
100
AcDbLine
 10
-4.312500000000001
 20
-0.7587083934958856
 30
0.0
 11
-4.312500000000001
 21
-1.386342592592593
 31
0.0
  0
LWPOLYLINE
  5
1EF
330
13E
100
AcDbEntity
  8
AM_4
100
AcDbPolyline
 90
       37
 70
     0
 43
0.0
 10
-4.312500000000001
 20
-1.386342592592593
 10
-4.296089635520654
 20
-1.361749340183011
 10
-4.246983434865149
 20
-1.337343257274078
 10
-4.165555125871609
 20
-1.313310088893525
 10
-4.052424427139232
 20
-1.289832741964355
 10
-3.908452331595555
 20
-1.267089893272706
 10
-3.734734553820394
 20
-1.24525462962963
 10
-3.53259319099628
 20
-1.224493130575944
 10
-3.303566660950596
 20
-1.204963403655581
 10
-3.049397993866991
 20
-1.186814081882778
 10
-2.772021566773206
 20
-1.170183292555085
 10
-2.473548381763892
 20
-1.155197606021232
 10
-2.156250000000006
 20
-1.141971072404345
 10
-1.822541253756773
 20
-1.130604353611649
 10
-1.474961868091954
 20
-1.121183957236569
 10
-1.116157132004628
 20
-1.11378157818371
 10
-0.7488577661886455
 20
-1.108453553027343
 10
-0.3758591405992847
 20
-1.105240431256056
 10
-0.0000000000000093
 20
-1.104166666666667
 10
0.3758591405992662
 20
-1.105240431256056
 10
0.7488577661886272
 20
-1.108453553027342
 10
1.116157132004611
 20
-1.11378157818371
 10
1.474961868091936
 20
-1.121183957236569
 10
1.822541253756756
 20
-1.130604353611649
 10
2.15624999999999
 20
-1.141971072404345
 10
2.473548381763876
 20
-1.155197606021231
 10
2.772021566773191
 20
-1.170183292555085
 10
3.049397993866977
 20
-1.186814081882777
 10
3.303566660950584
 20
-1.20496340365558
 10
3.532593190996269
 20
-1.224493130575943
 10
3.734734553820385
 20
-1.245254629629629
 10
3.908452331595547
 20
-1.267089893272705
 10
4.052424427139225
 20
-1.289832741964354
 10
4.165555125871602
 20
-1.313310088893524
 10
4.246983434865145
 20
-1.337343257274076
 10
4.296089635520651
 20
-1.36174934018301
 10
4.3125
 20
-1.386342592592592
  0
LWPOLYLINE
  5
1F0
330
13E
100
AcDbEntity
  8
AM_4
100
AcDbPolyline
 90
        3
 70
     0
 43
0.0
 10
4.3125
 20
-1.386342592592593
 10
4.296089635520652
 20
-1.410935845002175
 10
4.279336318795522
 20
-1.421269908635934
  0
LWPOLYLINE
  5
1F1
330
13E
100
AcDbEntity
  8
AM_4
100
AcDbPolyline
 90
       51
 70
     0
 43
0.0
 10
4.312499999997399
 20
0.7589890994759267
 10
4.31103084563104
 20
0.7583462137711275
 10
4.303497317826894
 20
0.7550046512445571
 10
4.28959325819125
 20
0.748574657503452
 10
4.269171533633638
 20
0.7385787857515101
 10
4.242400127245852
 20
0.7243682042064171
 10
4.218291798993949
 20
0.710481391027603
 10
4.190774267333054
 20
0.6932560863345113
 10
4.159716409514599
 20
0.67194824935504
 10
4.125476344124555
 20
0.6458973860068657
 10
4.088492489552329
 20
0.6144104247759983
 10
4.048958822064788
 20
0.5762069682635256
 10
4.020826626466432
 20
0.5456991507451043
 10
3.991979446777171
 20
0.5108989187857247
 10
3.96280427457306
 20
0.4712790411717658
 10
3.929023466952595
 20
0.4182786135855346
 10
3.912295725280667
 20
0.388286964907773
 10
3.896029742187681
 20
0.3559570643800763
 10
3.880570066336429
 20
0.3214770938658869
 10
3.866016217334452
 20
0.2844664811989964
 10
3.852307793192814
 20
0.2437355364422115
 10
3.840215817751999
 20
0.2003093447246944
 10
3.827021539208861
 20
0.1369147068752583
 10
3.822035051819064
 20
0.1028198461577032
 10
3.81841522169944
 20
0.0679228926987502
 10
3.816298455964253
 20
0.0333268841056856
 10
3.815626424407975
 20
-0.0015359601816711
 10
3.816480798059048
 20
-0.0375743663668365
 10
3.81887468111521
 20
-0.0732920454054628
 10
3.826819101028889
 20
-0.1357015914838617
 10
3.839208322069792
 20
-0.1962236073928077
 10
3.849992008460074
 20
-0.2360862560227561
 10
3.862171624298078
 20
-0.2737266122614792
 10
3.875852737834831
 20
-0.3100397737681685
 10
3.89045027517239
 20
-0.3439920641521369
 10
3.914093528607575
 20
-0.3916599294095686
 10
3.938691948897364
 20
-0.4343779002209393
 10
3.964352216475811
 20
-0.4735139732899785
 10
3.99005990439592
 20
-0.5084095539367178
 10
4.021080632806416
 20
-0.5459931980507208
 10
4.051326354901897
 20
-0.5786694665722943
 10
4.080447066631195
 20
-0.607026211034664
 10
4.122473660568335
 20
-0.6434958113026994
 10
4.160860946888458
 20
-0.6727623488350388
 10
4.204228999688135
 20
-0.7019568641742767
 10
4.240630867267086
 20
-0.7234718569884667
 10
4.269741513115994
 20
-0.7388563238977807
 10
4.291821129092414
 20
-0.74968028678261
 10
4.305997433415244
 20
-0.7561723458569469
 10
4.312199472099477
 20
-0.7588578675047681
 10
4.312499999999026
 20
-0.7589890994766366
  0
LWPOLYLINE
  5
1F2
330
13E
100
AcDbEntity
  8
AM_4
100
AcDbPolyline
 90
       37
 70
     0
 43
0.0
 10
4.3125
 20
1.386342592592593
 10
4.296089635520652
 20
1.361749340183011
 10
4.246983434865148
 20
1.337343257274077
 10
4.165555125871608
 20
1.313310088893525
 10
4.052424427139231
 20
1.289832741964355
 10
3.908452331595554
 20
1.267089893272706
 10
3.734734553820393
 20
1.24525462962963
 10
3.532593190996279
 20
1.224493130575944
 10
3.303566660950595
 20
1.204963403655581
 10
3.04939799386699
 20
1.186814081882778
 10
2.772021566773204
 20
1.170183292555085
 10
2.47354838176389
 20
1.155197606021232
 10
2.156250000000004
 20
1.141971072404345
 10
1.822541253756771
 20
1.130604353611649
 10
1.474961868091952
 20
1.121183957236569
 10
1.116157132004627
 20
1.11378157818371
 10
0.7488577661886439
 20
1.108453553027343
 10
0.3758591405992831
 20
1.105240431256056
 10
0.0000000000000076
 20
1.104166666666667
 10
-0.3758591405992678
 20
1.105240431256056
 10
-0.7488577661886289
 20
1.108453553027342
 10
-1.116157132004612
 20
1.11378157818371
 10
-1.474961868091938
 20
1.121183957236569
 10
-1.822541253756758
 20
1.130604353611649
 10
-2.156249999999992
 20
1.141971072404345
 10
-2.473548381763877
 20
1.155197606021231
 10
-2.772021566773193
 20
1.170183292555085
 10
-3.049397993866979
 20
1.186814081882777
 10
-3.303566660950585
 20
1.20496340365558
 10
-3.532593190996271
 20
1.224493130575943
 10
-3.734734553820386
 20
1.245254629629629
 10
-3.908452331595548
 20
1.267089893272705
 10
-4.052424427139226
 20
1.289832741964354
 10
-4.165555125871604
 20
1.313310088893524
 10
-4.246983434865146
 20
1.337343257274076
 10
-4.296089635520652
 20
1.361749340183009
 10
-4.312500000000001
 20
1.386342592592592
  0
LWPOLYLINE
  5
1F3
330
13E
100
AcDbEntity
  8
AM_4
100
AcDbPolyline
 90
        3
 70
     0
 43
0.0
 10
-4.312500000000001
 20
1.386342592592593
 10
-4.296089635520654
 20
1.410935845002175
 10
-4.279336324012398
 20
1.421269905899384
  0
LWPOLYLINE
  5
1F4
330
13E
100
AcDbEntity
  8
AM_4
100
AcDbPolyline
 90
       51
 70
     0
 43
0.0
 10
-4.312499999997399
 20
-0.758989099475927
 10
-4.31103084449355
 20
-0.7583462132720615
 10
-4.303497314989995
 20
-0.7550046499662948
 10
-4.289593253635283
 20
-0.7485746553479873
 10
-4.269171527328115
 20
-0.7385787825541875
 10
-4.242400119186532
 20
-0.7243681997409982
 10
-4.218291791997621
 20
-0.7104813868363753
 10
-4.19077426203236
 20
-0.6932560828710219
 10
-4.159716406577004
 20
-0.6719482472359382
 10
-4.125476344140449
 20
-0.6458973860196191
 10
-4.088492493009741
 20
-0.6144104278942506
 10
-4.048958829375901
 20
-0.5762069758104414
 10
-4.020826636712509
 20
-0.5456991624287477
 10
-3.991979459992312
 20
-0.5108989356306286
 10
-3.962804290629909
 20
-0.4712790643721226
 10
-3.92902348077025
 20
-0.4182786371962199
 10
-3.912295737832247
 20
-0.3882869885529437
 10
-3.896029753382029
 20
-0.3559570878948219
 10
-3.880570076094935
 20
-0.3214771170332704
 10
-3.866016225592015
 20
-0.284466503775244
 10
-3.852307799868075
 20
-0.2437355581188289
 10
-3.840215822841739
 20
-0.2003093651420166
 10
-3.827021542651155
 20
-0.136914727409352
 10
-3.822035054372695
 20
-0.1028198665664537
 10
-3.818415223355172
 20
-0.0679229128176465
 10
-3.816298456755092
 20
-0.0333269037378968
 10
-3.815626424372772
 20
0.0015359412015045
 10
-3.816480797237532
 20
0.0375743482715537
 10
-3.818874679598198
 20
0.073292028332043
 10
-3.826819098314052
 20
0.135701575140392
 10
-3.839208318353993
 20
0.1962235921575564
 10
-3.84999200370887
 20
0.2360862400478436
 10
-3.862171618518345
 20
0.2737265957584633
 10
-3.875852731031821
 20
0.3100397569180765
 10
-3.890450267391995
 20
0.3439920471140411
 10
-3.914093518958205
 20
0.3916599114307746
 10
-3.938691937496646
 20
0.4343778817159278
 10
-3.96435220344346
 20
0.4735139545900301
 10
-3.990059889906358
 20
0.5084095353066908
 10
-4.021080616247708
 20
0.545993179160653
 10
-4.051326336583942
 20
0.5786694478136235
 10
-4.08044704687977
 20
0.6070261927059066
 10
-4.122473639272477
 20
0.64349579404874
 10
-4.160860924828983
 20
0.6727623330013952
 10
-4.20422897857449
 20
0.701956850947025
 10
-4.240630848079562
 20
0.7234718462900998
 10
-4.26974149680106
 20
0.7388563156391739
 10
-4.291821116669682
 20
0.7496802809416608
 10
-4.305997425852797
 20
0.7561723424697737
 10
-4.312199470343927
 20
0.7588578667377559
 10
-4.312499999999027
 20
0.758989099476637
  0
ENDBLK
  5
141
330
13E
100
AcDbEntity
  8
0
100
AcDbBlockEnd
  0
ENDSEC
  0
SECTION
  2
ENTITIES
  0
INSERT
  5
6F
330
1F
100
AcDbEntity
  8
0
100
AcDbBlockReference
  2
1_048015_4
 10
0.0
 20
0.0
 30
0.0
  0
POINT
  5
1F6
330
1F
100
AcDbEntity
  8
ConnectionPoints
100
AcDbPoint
 10
2.15625
 20
0.0000000000000002
 30
3.734734553820391
  0
POINT
  5
1F7
330
1F
100
AcDbEntity
  8
ConnectionPoints
100
AcDbPoint
 10
2.15625
 20
0.0000000000000002
 30
3.734734553820391
  0
POINT
  5
1F8
330
1F
100
AcDbEntity
  8
ConnectionPoints
100
AcDbPoint
 10
0.0
 20
-2.1875
 30
0.0000000000000001
  0
ENDSEC
  0
SECTION
  2
OBJECTS
  0
DICTIONARY
  5
C
330
0
100
AcDbDictionary
281
     1
  3
ACAD_DETAILVIEWSTYLE
350
200
  3
ACAD_GROUP
350
D
  3
ACAD_LAYOUT
350
1A
  3
ACAD_MATERIAL
350
43
  3
ACAD_MLEADERSTYLE
350
6B
  3
ACAD_MLINESTYLE
350
17
  3
ACAD_PLOTSETTINGS
350
19
  3
ACAD_PLOTSTYLENAME
350
E
  3
ACAD_SCALELIST
350
47
  3
ACAD_SECTIONVIEWSTYLE
350
201
  3
ACAD_TABLESTYLE
350
69
  3
ACAD_VISUALSTYLE
350
2A
  3
ACDB_RECOMPOSE_DATA
350
1FD
  3
AcDbVariableDictionary
350
1F9
  0
SUN
  5
6D
330
29
100
AcDbSun
 90
        1
290
     0
 63
     7
421
 16777215
 40
1.0
291
     1
 91
  2455826
 92
 54000000
292
     0
 70
     2
 71
   256
280
     1
  0
DICTIONARY
  5
200
102
{ACAD_REACTORS
330
C
102
}
330
C
100
AcDbDictionary
281
     1
  0
DICTIONARY
  5
D
102
{ACAD_REACTORS
330
C
102
}
330
C
100
AcDbDictionary
281
     1
  0
DICTIONARY
  5
1A
102
{ACAD_REACTORS
330
C
102
}
330
C
100
AcDbDictionary
281
     1
  3
Layout1
350
1E
  3
Layout2
350
26
  3
Model
350
22
  0
DICTIONARY
  5
43
102
{ACAD_REACTORS
330
C
102
}
330
C
100
AcDbDictionary
281
     1
  3
ByBlock
350
45
  3
ByLayer
350
44
  3
Global
350
46
  0
DICTIONARY
  5
6B
102
{ACAD_REACTORS
330
C
102
}
330
C
100
AcDbDictionary
281
     1
  3
Standard
350
6C
  0
DICTIONARY
  5
17
102
{ACAD_REACTORS
330
C
102
}
330
C
100
AcDbDictionary
281
     1
  3
Standard
350
18
  0
DICTIONARY
  5
19
102
{ACAD_REACTORS
330
C
102
}
330
C
100
AcDbDictionary
281
     1
  0
ACDBDICTIONARYWDFLT
  5
E
102
{ACAD_REACTORS
330
C
102
}
330
C
100
AcDbDictionary
281
     1
  3
Normal
350
F
100
AcDbDictionaryWithDefault
340
F
  0
DICTIONARY
  5
47
102
{ACAD_REACTORS
330
C
102
}
330
C
100
AcDbDictionary
281
     1
  3
A0
350
48
  3
A1
350
49
  3
A2
350
4A
  3
A3
350
4B
  3
A4
350
4C
  3
A5
350
4D
  3
A6
350
4E
  3
A7
350
4F
  3
A8
350
50
  3
A9
350
51
  3
B0
350
52
  3
B1
350
53
  3
B2
350
54
  3
B3
350
55
  3
B4
350
56
  3
B5
350
57
  3
B6
350
58
  3
B7
350
59
  3
B8
350
5A
  3
B9
350
5B
  3
C0
350
5C
  3
C1
350
5D
  3
C2
350
5E
  3
C3
350
5F
  3
C4
350
60
  3
C5
350
61
  3
C6
350
62
  3
C7
350
63
  3
C8
350
64
  3
C9
350
65
  3
D0
350
66
  3
D1
350
67
  3
D2
350
68
  0
DICTIONARY
  5
201
102
{ACAD_REACTORS
330
C
102
}
330
C
100
AcDbDictionary
281
     1
  0
DICTIONARY
  5
69
102
{ACAD_REACTORS
330
C
102
}
330
C
100
AcDbDictionary
281
     1
  3
Standard
350
6A
  0
DICTIONARY
  5
2A
102
{ACAD_REACTORS
330
C
102
}
330
C
100
AcDbDictionary
281
     1
  3
2dWireframe
350
2F
  3
Basic
350
32
  3
Brighten
350
36
  3
ColorChange
350
3A
  3
Conceptual
350
34
  3
Dim
350
35
  3
EdgeColorOff
350
3D
  3
Facepattern
350
39
  3
Flat
350
2B
  3
FlatWithEdges
350
2C
  3
Gouraud
350
2D
  3
GouraudWithEdges
350
2E
  3
Hidden
350
31
  3
JitterOff
350
3B
  3
Linepattern
350
38
  3
OverhangOff
350
3C
  3
Realistic
350
33
  3
Shaded
350
42
  3
Shaded with edges
350
41
  3
Shades of Gray
350
3E
  3
Sketchy
350
3F
  3
Thicken
350
37
  3
Wireframe
350
30
  3
X-Ray
350
40
  0
XRECORD
  5
1FD
102
{ACAD_REACTORS
330
C
102
}
330
C
100
AcDbXrecord
280
     1
 90
        1
330
6A
  0
DICTIONARY
  5
1F9
102
{ACAD_REACTORS
330
C
102
}
330
C
100
AcDbDictionary
281
     1
  3
CANNOSCALE
350
1FA
  3
CMLEADERSTYLE
350
1FF
  3
CTABLESTYLE
350
1FE
  0
LAYOUT
  5
1E
102
{ACAD_REACTORS
330
1A
102
}
330
1A
100
AcDbPlotSettings
  1

  2
none_device
  4

  6

 40
0.0
 41
0.0
 42
0.0
 43
0.0
 44
0.0
 45
0.0
 46
0.0
 47
0.0
 48
0.0
 49
0.0
140
0.0
141
0.0
142
1.0
143
1.0
 70
   688
 72
     0
 73
     0
 74
     5
  7

 75
    16
 76
     0
 77
     2
 78
   300
147
1.0
148
0.0
149
0.0
100
AcDbLayout
  1
Layout1
 70
     1
 71
     1
 10
0.0
 20
0.0
 11
12.0
 21
9.0
 12
0.0
 22
0.0
 32
0.0
 14
1.000000000000000E+20
 24
1.000000000000000E+20
 34
1.000000000000000E+20
 15
-1.000000000000000E+20
 25
-1.000000000000000E+20
 35
-1.000000000000000E+20
146
0.0
 13
0.0
 23
0.0
 33
0.0
 16
1.0
 26
0.0
 36
0.0
 17
0.0
 27
1.0
 37
0.0
 76
     0
330
1B
  0
LAYOUT
  5
26
102
{ACAD_REACTORS
330
1A
102
}
330
1A
100
AcDbPlotSettings
  1

  2
none_device
  4

  6

 40
0.0
 41
0.0
 42
0.0
 43
0.0
 44
0.0
 45
0.0
 46
0.0
 47
0.0
 48
0.0
 49
0.0
140
0.0
141
0.0
142
1.0
143
1.0
 70
   688
 72
     0
 73
     0
 74
     5
  7

 75
    16
 76
     0
 77
     2
 78
   300
147
1.0
148
0.0
149
0.0
100
AcDbLayout
  1
Layout2
 70
     1
 71
     2
 10
0.0
 20
0.0
 11
0.0
 21
0.0
 12
0.0
 22
0.0
 32
0.0
 14
0.0
 24
0.0
 34
0.0
 15
0.0
 25
0.0
 35
0.0
146
0.0
 13
0.0
 23
0.0
 33
0.0
 16
1.0
 26
0.0
 36
0.0
 17
0.0
 27
1.0
 37
0.0
 76
     0
330
23
  0
LAYOUT
  5
22
102
{ACAD_REACTORS
330
1A
102
}
330
1A
100
AcDbPlotSettings
  1

  2
none_device
  4
Letter_(8.50_x_11.00_Inches)
  6

 40
6.35
 41
6.35
 42
6.35000508
 43
6.35000508
 44
215.9
 45
279.4
 46
0.0
 47
0.0
 48
0.0
 49
0.0
140
0.0
141
0.0
142
1.0
143
1.0
 70
  1712
 72
     0
 73
     0
 74
     0
  7

 75
     0
 76
     0
 77
     2
 78
   300
147
1.0
148
0.0
149
0.0
100
AcDbLayout
  1
Model
 70
     1
 71
     0
 10
0.0
 20
0.0
 11
12.0
 21
9.0
 12
0.0
 22
0.0
 32
0.0
 14
1.000000000000000E+20
 24
1.000000000000000E+20
 34
1.000000000000000E+20
 15
-1.000000000000000E+20
 25
-1.000000000000000E+20
 35
-1.000000000000000E+20
146
0.0
 13
0.0
 23
0.0
 33
0.0
 16
1.0
 26
0.0
 36
0.0
 17
0.0
 27
1.0
 37
0.0
 76
     0
330
1F
331
29
  0
MATERIAL
  5
45
102
{ACAD_REACTORS
330
43
102
}
330
43
100
AcDbMaterial
  1
ByBlock
 72
     1
 94
      127
  0
MATERIAL
  5
44
102
{ACAD_REACTORS
330
43
102
}
330
43
100
AcDbMaterial
  1
ByLayer
 72
     1
 94
      127
  0
MATERIAL
  5
46
102
{ACAD_REACTORS
330
43
102
}
330
43
100
AcDbMaterial
  1
Global
 72
     1
 94
      127
  0
MLEADERSTYLE
  5
6C
102
{ACAD_REACTORS
330
6B
102
}
330
6B
100
AcDbMLeaderStyle
179
     2
170
     2
171
     1
172
     0
 90
        2
 40
0.0
 41
0.0
173
     1
 91
-1056964608
340
14
 92
       -2
290
     1
 42
0.09
291
     1
 43
0.36
  3
Standard
341
0
 44
0.18
300

342
11
174
     1
178
     6
175
     1
176
     0
 93
-1056964608
 45
0.18
292
     0
297
     0
 46
0.18
343
0
 94
-1056964608
 47
1.0
 49
1.0
140
1.0
293
     1
141
0.0
294
     1
177
     0
142
1.0
295
     0
296
     0
143
0.125
271
     0
272
     9
273
     9
298
     0
  0
MLINESTYLE
  5
18
102
{ACAD_REACTORS
330
17
102
}
330
17
100
AcDbMlineStyle
  2
Standard
 70
     0
  3

 62
   256
 51
90.0
 52
90.0
 71
     2
 49
0.5
 62
   256
  6
BYLAYER
 49
-0.5
 62
   256
  6
BYLAYER
  0
ACDBPLACEHOLDER
  5
F
102
{ACAD_REACTORS
330
E
102
}
330
E
  0
SCALE
  5
48
102
{ACAD_REACTORS
330
47
102
}
330
47
100
AcDbScale
 70
     0
300
1:1
140
1.0
141
1.0
290
     1
  0
SCALE
  5
49
102
{ACAD_REACTORS
330
47
102
}
330
47
100
AcDbScale
 70
     0
300
1:2
140
1.0
141
2.0
290
     0
  0
SCALE
  5
4A
102
{ACAD_REACTORS
330
47
102
}
330
47
100
AcDbScale
 70
     0
300
1:4
140
1.0
141
4.0
290
     0
  0
SCALE
  5
4B
102
{ACAD_REACTORS
330
47
102
}
330
47
100
AcDbScale
 70
     0
300
1:5
140
1.0
141
5.0
290
     0
  0
SCALE
  5
4C
102
{ACAD_REACTORS
330
47
102
}
330
47
100
AcDbScale
 70
     0
300
1:8
140
1.0
141
8.0
290
     0
  0
SCALE
  5
4D
102
{ACAD_REACTORS
330
47
102
}
330
47
100
AcDbScale
 70
     0
300
1:10
140
1.0
141
10.0
290
     0
  0
SCALE
  5
4E
102
{ACAD_REACTORS
330
47
102
}
330
47
100
AcDbScale
 70
     0
300
1:16
140
1.0
141
16.0
290
     0
  0
SCALE
  5
4F
102
{ACAD_REACTORS
330
47
102
}
330
47
100
AcDbScale
 70
     0
300
1:20
140
1.0
141
20.0
290
     0
  0
SCALE
  5
50
102
{ACAD_REACTORS
330
47
102
}
330
47
100
AcDbScale
 70
     0
300
1:30
140
1.0
141
30.0
290
     0
  0
SCALE
  5
51
102
{ACAD_REACTORS
330
47
102
}
330
47
100
AcDbScale
 70
     0
300
1:40
140
1.0
141
40.0
290
     0
  0
SCALE
  5
52
102
{ACAD_REACTORS
330
47
102
}
330
47
100
AcDbScale
 70
     0
300
1:50
140
1.0
141
50.0
290
     0
  0
SCALE
  5
53
102
{ACAD_REACTORS
330
47
102
}
330
47
100
AcDbScale
 70
     0
300
1:100
140
1.0
141
100.0
290
     0
  0
SCALE
  5
54
102
{ACAD_REACTORS
330
47
102
}
330
47
100
AcDbScale
 70
     0
300
2:1
140
2.0
141
1.0
290
     0
  0
SCALE
  5
55
102
{ACAD_REACTORS
330
47
102
}
330
47
100
AcDbScale
 70
     0
300
4:1
140
4.0
141
1.0
290
     0
  0
SCALE
  5
56
102
{ACAD_REACTORS
330
47
102
}
330
47
100
AcDbScale
 70
     0
300
8:1
140
8.0
141
1.0
290
     0
  0
SCALE
  5
57
102
{ACAD_REACTORS
330
47
102
}
330
47
100
AcDbScale
 70
     0
300
10:1
140
10.0
141
1.0
290
     0
  0
SCALE
  5
58
102
{ACAD_REACTORS
330
47
102
}
330
47
100
AcDbScale
 70
     0
300
100:1
140
100.0
141
1.0
290
     0
  0
SCALE
  5
59
102
{ACAD_REACTORS
330
47
102
}
330
47
100
AcDbScale
 70
     0
300
1/128" = 1'-0"
140
0.0078125
141
12.0
290
     0
  0
SCALE
  5
5A
102
{ACAD_REACTORS
330
47
102
}
330
47
100
AcDbScale
 70
     0
300
1/64" = 1'-0"
140
0.015625
141
12.0
290
     0
  0
SCALE
  5
5B
102
{ACAD_REACTORS
330
47
102
}
330
47
100
AcDbScale
 70
     0
300
1/32" = 1'-0"
140
0.03125
141
12.0
290
     0
  0
SCALE
  5
5C
102
{ACAD_REACTORS
330
47
102
}
330
47
100
AcDbScale
 70
     0
300
1/16" = 1'-0"
140
0.0625
141
12.0
290
     0
  0
SCALE
  5
5D
102
{ACAD_REACTORS
330
47
102
}
330
47
100
AcDbScale
 70
     0
300
3/32" = 1'-0"
140
0.09375
141
12.0
290
     0
  0
SCALE
  5
5E
102
{ACAD_REACTORS
330
47
102
}
330
47
100
AcDbScale
 70
     0
300
1/8" = 1'-0"
140
0.125
141
12.0
290
     0
  0
SCALE
  5
5F
102
{ACAD_REACTORS
330
47
102
}
330
47
100
AcDbScale
 70
     0
300
3/16" = 1'-0"
140
0.1875
141
12.0
290
     0
  0
SCALE
  5
60
102
{ACAD_REACTORS
330
47
102
}
330
47
100
AcDbScale
 70
     0
300
1/4" = 1'-0"
140
0.25
141
12.0
290
     0
  0
SCALE
  5
61
102
{ACAD_REACTORS
330
47
102
}
330
47
100
AcDbScale
 70
     0
300
3/8" = 1'-0"
140
0.375
141
12.0
290
     0
  0
SCALE
  5
62
102
{ACAD_REACTORS
330
47
102
}
330
47
100
AcDbScale
 70
     0
300
1/2" = 1'-0"
140
0.5
141
12.0
290
     0
  0
SCALE
  5
63
102
{ACAD_REACTORS
330
47
102
}
330
47
100
AcDbScale
 70
     0
300
3/4" = 1'-0"
140
0.75
141
12.0
290
     0
  0
SCALE
  5
64
102
{ACAD_REACTORS
330
47
102
}
330
47
100
AcDbScale
 70
     0
300
1" = 1'-0"
140
1.0
141
12.0
290
     0
  0
SCALE
  5
65
102
{ACAD_REACTORS
330
47
102
}
330
47
100
AcDbScale
 70
     0
300
1-1/2" = 1'-0"
140
1.5
141
12.0
290
     0
  0
SCALE
  5
66
102
{ACAD_REACTORS
330
47
102
}
330
47
100
AcDbScale
 70
     0
300
3" = 1'-0"
140
3.0
141
12.0
290
     0
  0
SCALE
  5
67
102
{ACAD_REACTORS
330
47
102
}
330
47
100
AcDbScale
 70
     0
300
6" = 1'-0"
140
6.0
141
12.0
290
     0
  0
SCALE
  5
68
102
{ACAD_REACTORS
330
47
102
}
330
47
100
AcDbScale
 70
     0
300
1'-0" = 1'-0"
140
12.0
141
12.0
290
     0
  0
TABLESTYLE
  5
6A
102
{ACAD_REACTORS
330
69
102
}
102
{ACAD_XDICTIONARY
360
1FB
102
}
330
69
100
AcDbTableStyle
  3
Standard
 70
     0
 71
     0
 40
0.06
 41
0.06
280
     0
281
     0
  7
Standard
140
0.18
170
     2
 62
     0
 63
   257
283
     0
 90
        4
 91
        0
  1

274
    -2
284
     1
 64
     0
275
    -2
285
     1
 65
     0
276
    -2
286
     1
 66
     0
277
    -2
287
     1
 67
     0
278
    -2
288
     1
 68
     0
279
    -2
289
     1
 69
     0
  7
Standard
140
0.25
170
     5
 62
     0
 63
   257
283
     0
 90
        4
 91
        0
  1

274
    -2
284
     1
 64
     0
275
    -2
285
     1
 65
     0
276
    -2
286
     1
 66
     0
277
    -2
287
     1
 67
     0
278
    -2
288
     1
 68
     0
279
    -2
289
     1
 69
     0
  7
Standard
140
0.18
170
     5
 62
     0
 63
   257
283
     0
 90
        4
 91
        0
  1

274
    -2
284
     1
 64
     0
275
    -2
285
     1
 65
     0
276
    -2
286
     1
 66
     0
277
    -2
287
     1
 67
     0
278
    -2
288
     1
 68
     0
279
    -2
289
     1
 69
     0
  0
VISUALSTYLE
  5
2F
102
{ACAD_REACTORS
330
2A
102
}
330
2A
100
AcDbVisualStyle
  2
2dWireframe
 70
     4
177
     3
291
     0
 70
    58
 90
        0
176
     1
 90
        2
176
     1
 90
        0
176
     1
 90
        0
176
     1
 40
0.6
176
     1
 40
30.0
176
     1
 62
     7
420
 16777215
176
     1
 90
        1
176
     1
 90
        4
176
     1
 62
     7
176
     1
 62
   257
176
     1
 90
        1
176
     1
 90
        1
176
     1
 40
1.0
176
     1
 90
        0
176
     1
 62
   257
176
     1
 40
1.0
176
     1
 90
        1
176
     1
 90
        6
176
     1
 90
        2
176
     1
 62
     7
176
     1
 90
        5
176
     1
 90
        0
176
     1
 90
        0
176
     1
290
     0
176
     1
 90
        1
176
     1
 40
0.0
176
     1
 90
        0
176
     1
290
     1
176
     1
290
     1
176
     1
290
     0
176
     1
290
     0
176
     1
290
     0
176
     1
290
     0
176
     1
290
     0
176
     1
290
     0
176
     1
290
     0
176
     1
 90
       50
176
     1
 40
0.0
176
     1
 40
1.0
176
     1
 90
        0
176
     1
 62
    18
420
        0
176
     1
 90
       50
176
     1
 90
        3
176
     1
 62
     5
420
      255
176
     1
290
     0
176
     1
 90
       50
176
     1
 90
       50
176
     1
 90
       50
176
     1
290
     0
176
     1
 90
       50
176
     1
 62
   256
176
     0
 40
1.0
176
     0
 90
        2
176
     1
  1
strokes_ogs.tif
176
     1
290
     0
176
     1
 40
1.0
176
     1
 40
1.0
176
     1
  0
VISUALSTYLE
  5
32
102
{ACAD_REACTORS
330
2A
102
}
330
2A
100
AcDbVisualStyle
  2
Basic
 70
     7
177
     3
291
     1
 70
    58
 90
        1
176
     1
 90
        0
176
     1
 90
        1
176
     1
 90
        0
176
     1
 40
0.6
176
     1
 40
30.0
176
     1
 62
     7
420
 16777215
176
     1
 90
        0
176
     1
 90
        4
176
     1
 62
     7
176
     1
 62
   257
176
     1
 90
        1
176
     1
 90
        1
176
     1
 40
1.0
176
     1
 90
        8
176
     1
 62
     7
176
     1
 40
1.0
176
     1
 90
        1
176
     1
 90
        6
176
     1
 90
        2
176
     1
 62
     7
176
     1
 90
        5
176
     1
 90
        0
176
     1
 90
        0
176
     1
290
     0
176
     1
 90
        1
176
     1
 40
0.0
176
     1
 90
        0
176
     1
290
     0
176
     1
290
     1
176
     1
290
     1
176
     1
290
     0
176
     1
290
     0
176
     1
290
     0
176
     1
290
     0
176
     1
290
     0
176
     1
290
     0
176
     1
 90
       50
176
     1
 40
0.0
176
     1
 40
1.0
176
     1
 90
        0
176
     1
 62
    18
420
        0
176
     1
 90
       50
176
     1
 90
        3
176
     1
 62
     5
420
      255
176
     1
290
     0
176
     1
 90
       50
176
     1
 90
       50
176
     1
 90
       50
176
     1
290
     0
176
     1
 90
       50
176
     1
 62
   256
176
     0
 40
1.0
176
     0
 90
        2
176
     1
  1
strokes_ogs.tif
176
     1
290
     0
176
     1
 40
1.0
176
     1
 40
1.0
176
     1
  0
VISUALSTYLE
  5
36
102
{ACAD_REACTORS
330
2A
102
}
330
2A
100
AcDbVisualStyle
  2
Brighten
 70
    12
177
     3
291
     1
 70
    58
 90
        2
176
     1
 90
        2
176
     1
 90
        0
176
     1
 90
        0
176
     1
 40
0.6
176
     1
 40
30.0
176
     1
 62
     7
420
 16777215
176
     1
 90
        1
176
     1
 90
        4
176
     1
 62
     7
176
     1
 62
   257
176
     1
 90
        1
176
     1
 90
        1
176
     1
 40
1.0
176
     1
 90
        8
176
     1
 62
     7
176
     1
 40
1.0
176
     1
 90
        1
176
     1
 90
        6
176
     1
 90
        2
176
     1
 62
     7
176
     1
 90
        5
176
     1
 90
        0
176
     1
 90
        0
176
     1
290
     0
176
     1
 90
        1
176
     1
 40
50.0
176
     1
 90
        0
176
     1
290
     0
176
     1
290
     1
176
     1
290
     1
176
     1
290
     0
176
     1
290
     0
176
     1
290
     0
176
     1
290
     0
176
     1
290
     0
176
     1
290
     0
176
     1
 90
       50
176
     1
 40
0.0
176
     1
 40
1.0
176
     1
 90
        0
176
     1
 62
    18
420
        0
176
     1
 90
       50
176
     1
 90
        3
176
     1
 62
     5
420
      255
176
     1
290
     0
176
     1
 90
       50
176
     1
 90
       50
176
     1
 90
       50
176
     1
290
     0
176
     1
 90
       50
176
     1
 62
   256
176
     0
 40
1.0
176
     0
 90
        2
176
     1
  1
strokes_ogs.tif
176
     1
290
     0
176
     1
 40
1.0
176
     1
 40
1.0
176
     1
  0
VISUALSTYLE
  5
3A
102
{ACAD_REACTORS
330
2A
102
}
330
2A
100
AcDbVisualStyle
  2
ColorChange
 70
    16
177
     3
291
     1
 70
    58
 90
        2
176
     1
 90
        2
176
     1
 90
        3
176
     1
 90
        0
176
     1
 40
0.6
176
     1
 40
30.0
176
     1
 62
     8
420
  8421504
176
     1
 90
        1
176
     1
 90
        4
176
     1
 62
     7
176
     1
 62
   257
176
     1
 90
        1
176
     1
 90
        1
176
     1
 40
1.0
176
     1
 90
        8
176
     1
 62
     8
420
  8421504
176
     1
 40
1.0
176
     1
 90
        1
176
     1
 90
        6
176
     1
 90
        2
176
     1
 62
     7
176
     1
 90
        5
176
     1
 90
        0
176
     1
 90
        0
176
     1
290
     0
176
     1
 90
        1
176
     1
 40
0.0
176
     1
 90
        0
176
     1
290
     0
176
     1
290
     1
176
     1
290
     1
176
     1
290
     0
176
     1
290
     0
176
     1
290
     0
176
     1
290
     0
176
     1
290
     0
176
     1
290
     0
176
     1
 90
       50
176
     1
 40
0.0
176
     1
 40
1.0
176
     1
 90
        0
176
     1
 62
    18
420
        0
176
     1
 90
       50
176
     1
 90
        3
176
     1
 62
     5
420
      255
176
     1
290
     0
176
     1
 90
       50
176
     1
 90
       50
176
     1
 90
       50
176
     1
290
     0
176
     1
 90
       50
176
     1
 62
   256
176
     0
 40
1.0
176
     0
 90
        2
176
     1
  1
strokes_ogs.tif
176
     1
290
     0
176
     1
 40
1.0
176
     1
 40
1.0
176
     1
  0
VISUALSTYLE
  5
34
102
{ACAD_REACTORS
330
2A
102
}
330
2A
100
AcDbVisualStyle
  2
Conceptual
 70
     9
177
     3
291
     0
 70
    58
 90
        3
176
     1
 90
        2
176
     1
 90
        0
176
     1
 90
        0
176
     1
 40
0.6
176
     1
 40
30.0
176
     1
 62
     7
420
 16777215
176
     1
 90
        2
176
     1
 90
        2
176
     1
 62
     7
176
     1
 62
   257
176
     1
 90
        1
176
     1
 90
        1
176
     1
 40
179.0
176
     1
 90
        8
176
     1
 62
     7
176
     1
 40
1.0
176
     1
 90
        1
176
     1
 90
        6
176
     1
 90
        2
176
     1
 62
     7
176
     1
 90
        3
176
     1
 90
        0
176
     1
 90
        0
176
     1
290
     0
176
     1
 90
        1
176
     1
 40
0.0
176
     1
 90
        0
176
     1
290
     0
176
     1
290
     1
176
     1
290
     1
176
     1
290
     0
176
     1
290
     0
176
     1
290
     0
176
     1
290
     0
176
     1
290
     0
176
     1
290
     0
176
     1
 90
       50
176
     1
 40
0.0
176
     1
 40
1.0
176
     1
 90
        0
176
     1
 62
    18
420
        0
176
     1
 90
       50
176
     1
 90
        3
176
     1
 62
     5
420
      255
176
     1
290
     0
176
     1
 90
       50
176
     1
 90
       50
176
     1
 90
       50
176
     1
290
     0
176
     1
 90
       50
176
     1
 62
   256
176
     0
 40
1.0
176
     0
 90
        2
176
     1
  1
strokes_ogs.tif
176
     1
290
     0
176
     1
 40
1.0
176
     1
 40
1.0
176
     1
  0
VISUALSTYLE
  5
35
102
{ACAD_REACTORS
330
2A
102
}
330
2A
100
AcDbVisualStyle
  2
Dim
 70
    11
177
     3
291
     1
 70
    58
 90
        2
176
     1
 90
        2
176
     1
 90
        0
176
     1
 90
        0
176
     1
 40
0.6
176
     1
 40
30.0
176
     1
 62
     7
420
 16777215
176
     1
 90
        1
176
     1
 90
        4
176
     1
 62
     7
176
     1
 62
   257
176
     1
 90
        1
176
     1
 90
        1
176
     1
 40
1.0
176
     1
 90
        8
176
     1
 62
     7
176
     1
 40
1.0
176
     1
 90
        1
176
     1
 90
        6
176
     1
 90
        2
176
     1
 62
     7
176
     1
 90
        5
176
     1
 90
        0
176
     1
 90
        0
176
     1
290
     0
176
     1
 90
        1
176
     1
 40
-50.0
176
     1
 90
        0
176
     1
290
     0
176
     1
290
     1
176
     1
290
     1
176
     1
290
     0
176
     1
290
     0
176
     1
290
     0
176
     1
290
     0
176
     1
290
     0
176
     1
290
     0
176
     1
 90
       50
176
     1
 40
0.0
176
     1
 40
1.0
176
     1
 90
        0
176
     1
 62
    18
420
        0
176
     1
 90
       50
176
     1
 90
        3
176
     1
 62
     5
420
      255
176
     1
290
     0
176
     1
 90
       50
176
     1
 90
       50
176
     1
 90
       50
176
     1
290
     0
176
     1
 90
       50
176
     1
 62
   256
176
     0
 40
1.0
176
     0
 90
        2
176
     1
  1
strokes_ogs.tif
176
     1
290
     0
176
     1
 40
1.0
176
     1
 40
1.0
176
     1
  0
VISUALSTYLE
  5
3D
102
{ACAD_REACTORS
330
2A
102
}
330
2A
100
AcDbVisualStyle
  2
EdgeColorOff
 70
    22
177
     3
291
     1
 70
    58
 90
        2
176
     0
 90
        2
176
     0
 90
        0
176
     0
 90
        0
176
     0
 40
0.6
176
     0
 40
30.0
176
     0
 62
     7
420
 16777215
176
     0
 90
        1
176
     0
 90
        4
176
     0
 62
     7
176
     0
 62
   257
176
     0
 90
        1
176
     0
 90
        1
176
     0
 40
1.0
176
     0
 90
        8
176
     2
 62
     7
176
     0
 40
1.0
176
     0
 90
        1
176
     0
 90
        6
176
     0
 90
        2
176
     0
 62
     7
176
     0
 90
        5
176
     0
 90
        0
176
     0
 90
        0
176
     0
290
     0
176
     0
 90
        1
176
     0
 40
0.0
176
     0
 90
        0
176
     0
290
     0
176
     0
290
     1
176
     0
290
     1
176
     0
290
     0
176
     0
290
     0
176
     0
290
     0
176
     0
290
     0
176
     0
290
     0
176
     0
290
     0
176
     0
 90
       50
176
     0
 40
0.0
176
     0
 40
1.0
176
     0
 90
        0
176
     0
 62
    18
420
        0
176
     0
 90
       50
176
     0
 90
        3
176
     0
 62
     5
420
      255
176
     0
290
     0
176
     0
 90
       50
176
     0
 90
       50
176
     0
 90
       50
176
     0
290
     0
176
     0
 90
       50
176
     0
 62
   256
176
     0
 40
1.0
176
     0
 90
        2
176
     0
  1
strokes_ogs.tif
176
     0
290
     0
176
     0
 40
1.0
176
     0
 40
1.0
176
     0
  0
VISUALSTYLE
  5
39
102
{ACAD_REACTORS
330
2A
102
}
330
2A
100
AcDbVisualStyle
  2
Facepattern
 70
    15
177
     3
291
     1
 70
    58
 90
        2
176
     1
 90
        2
176
     1
 90
        0
176
     1
 90
        0
176
     1
 40
0.6
176
     1
 40
30.0
176
     1
 62
     7
420
 16777215
176
     1
 90
        1
176
     1
 90
        4
176
     1
 62
     7
176
     1
 62
   257
176
     1
 90
        1
176
     1
 90
        1
176
     1
 40
1.0
176
     1
 90
        8
176
     1
 62
     7
176
     1
 40
1.0
176
     1
 90
        1
176
     1
 90
        6
176
     1
 90
        2
176
     1
 62
     7
176
     1
 90
        5
176
     1
 90
        0
176
     1
 90
        0
176
     1
290
     0
176
     1
 90
        1
176
     1
 40
0.0
176
     1
 90
        0
176
     1
290
     0
176
     1
290
     1
176
     1
290
     1
176
     1
290
     0
176
     1
290
     0
176
     1
290
     0
176
     1
290
     0
176
     1
290
     0
176
     1
290
     0
176
     1
 90
       50
176
     1
 40
0.0
176
     1
 40
1.0
176
     1
 90
        0
176
     1
 62
    18
420
        0
176
     1
 90
       50
176
     1
 90
        3
176
     1
 62
     5
420
      255
176
     1
290
     0
176
     1
 90
       50
176
     1
 90
       50
176
     1
 90
       50
176
     1
290
     0
176
     1
 90
       50
176
     1
 62
   256
176
     0
 40
1.0
176
     0
 90
        2
176
     1
  1
strokes_ogs.tif
176
     1
290
     0
176
     1
 40
1.0
176
     1
 40
1.0
176
     1
  0
VISUALSTYLE
  5
2B
102
{ACAD_REACTORS
330
2A
102
}
330
2A
100
AcDbVisualStyle
  2
Flat
 70
     0
177
     3
291
     1
 70
    58
 90
        2
176
     1
 90
        1
176
     1
 90
        1
176
     1
 90
        2
176
     1
 40
0.6
176
     1
 40
30.0
176
     1
 62
     7
420
 16777215
176
     1
 90
        0
176
     1
 90
        0
176
     1
 62
     7
176
     1
 62
   257
176
     1
 90
        1
176
     1
 90
        1
176
     1
 40
1.0
176
     1
 90
        8
176
     1
 62
     7
176
     1
 40
1.0
176
     1
 90
        1
176
     1
 90
        6
176
     1
 90
        2
176
     1
 62
     7
176
     1
 90
        5
176
     1
 90
        0
176
     1
 90
        0
176
     1
290
     0
176
     1
 90
       13
176
     1
 40
0.0
176
     1
 90
        0
176
     1
290
     0
176
     1
290
     1
176
     1
290
     1
176
     1
290
     0
176
     1
290
     0
176
     1
290
     0
176
     1
290
     0
176
     1
290
     0
176
     1
290
     0
176
     1
 90
       50
176
     1
 40
0.0
176
     1
 40
1.0
176
     1
 90
        0
176
     1
 62
    18
420
        0
176
     1
 90
       50
176
     1
 90
        3
176
     1
 62
     5
420
      255
176
     1
290
     0
176
     1
 90
       50
176
     1
 90
       50
176
     1
 90
       50
176
     1
290
     0
176
     1
 90
       50
176
     1
 62
   256
176
     0
 40
1.0
176
     0
 90
        2
176
     1
  1
strokes_ogs.tif
176
     1
290
     0
176
     1
 40
1.0
176
     1
 40
1.0
176
     1
  0
VISUALSTYLE
  5
2C
102
{ACAD_REACTORS
330
2A
102
}
330
2A
100
AcDbVisualStyle
  2
FlatWithEdges
 70
     1
177
     3
291
     1
 70
    58
 90
        2
176
     1
 90
        1
176
     1
 90
        1
176
     1
 90
        2
176
     1
 40
0.6
176
     1
 40
30.0
176
     1
 62
     7
420
 16777215
176
     1
 90
        1
176
     1
 90
        0
176
     1
 62
     7
176
     1
 62
   257
176
     1
 90
        1
176
     1
 90
        1
176
     1
 40
1.0
176
     1
 90
        0
176
     1
 62
   257
176
     1
 40
1.0
176
     1
 90
        1
176
     1
 90
        6
176
     1
 90
        2
176
     1
 62
     7
176
     1
 90
        5
176
     1
 90
        0
176
     1
 90
        0
176
     1
290
     0
176
     1
 90
       13
176
     1
 40
0.0
176
     1
 90
        0
176
     1
290
     0
176
     1
290
     1
176
     1
290
     1
176
     1
290
     0
176
     1
290
     0
176
     1
290
     0
176
     1
290
     0
176
     1
290
     0
176
     1
290
     0
176
     1
 90
       50
176
     1
 40
0.0
176
     1
 40
1.0
176
     1
 90
        0
176
     1
 62
    18
420
        0
176
     1
 90
       50
176
     1
 90
        3
176
     1
 62
     5
420
      255
176
     1
290
     0
176
     1
 90
       50
176
     1
 90
       50
176
     1
 90
       50
176
     1
290
     0
176
     1
 90
       50
176
     1
 62
   256
176
     0
 40
1.0
176
     0
 90
        2
176
     1
  1
strokes_ogs.tif
176
     1
290
     0
176
     1
 40
1.0
176
     1
 40
1.0
176
     1
  0
VISUALSTYLE
  5
2D
102
{ACAD_REACTORS
330
2A
102
}
330
2A
100
AcDbVisualStyle
  2
Gouraud
 70
     2
177
     3
291
     1
 70
    58
 90
        2
176
     1
 90
        2
176
     1
 90
        1
176
     1
 90
        2
176
     1
 40
0.6
176
     1
 40
30.0
176
     1
 62
     7
420
 16777215
176
     1
 90
        0
176
     1
 90
        0
176
     1
 62
     7
176
     1
 62
   257
176
     1
 90
        1
176
     1
 90
        1
176
     1
 40
1.0
176
     1
 90
        0
176
     1
 62
     7
176
     1
 40
1.0
176
     1
 90
        1
176
     1
 90
        6
176
     1
 90
        2
176
     1
 62
     7
176
     1
 90
        5
176
     1
 90
        0
176
     1
 90
        0
176
     1
290
     0
176
     1
 90
       13
176
     1
 40
0.0
176
     1
 90
        0
176
     1
290
     0
176
     1
290
     1
176
     1
290
     1
176
     1
290
     0
176
     1
290
     0
176
     1
290
     0
176
     1
290
     0
176
     1
290
     0
176
     1
290
     0
176
     1
 90
       50
176
     1
 40
0.0
176
     1
 40
1.0
176
     1
 90
        0
176
     1
 62
    18
420
        0
176
     1
 90
       50
176
     1
 90
        3
176
     1
 62
     5
420
      255
176
     1
290
     0
176
     1
 90
       50
176
     1
 90
       50
176
     1
 90
       50
176
     1
290
     0
176
     1
 90
       50
176
     1
 62
   256
176
     0
 40
1.0
176
     0
 90
        2
176
     1
  1
strokes_ogs.tif
176
     1
290
     0
176
     1
 40
1.0
176
     1
 40
1.0
176
     1
  0
VISUALSTYLE
  5
2E
102
{ACAD_REACTORS
330
2A
102
}
330
2A
100
AcDbVisualStyle
  2
GouraudWithEdges
 70
     3
177
     3
291
     1
 70
    58
 90
        2
176
     1
 90
        2
176
     1
 90
        1
176
     1
 90
        2
176
     1
 40
0.6
176
     1
 40
30.0
176
     1
 62
     7
420
 16777215
176
     1
 90
        1
176
     1
 90
        0
176
     1
 62
     7
176
     1
 62
   257
176
     1
 90
        1
176
     1
 90
        1
176
     1
 40
1.0
176
     1
 90
        0
176
     1
 62
   257
176
     1
 40
1.0
176
     1
 90
        1
176
     1
 90
        6
176
     1
 90
        2
176
     1
 62
     7
176
     1
 90
        5
176
     1
 90
        0
176
     1
 90
        0
176
     1
290
     0
176
     1
 90
       13
176
     1
 40
0.0
176
     1
 90
        0
176
     1
290
     0
176
     1
290
     1
176
     1
290
     1
176
     1
290
     0
176
     1
290
     0
176
     1
290
     0
176
     1
290
     0
176
     1
290
     0
176
     1
290
     0
176
     1
 90
       50
176
     1
 40
0.0
176
     1
 40
1.0
176
     1
 90
        0
176
     1
 62
    18
420
        0
176
     1
 90
       50
176
     1
 90
        3
176
     1
 62
     5
420
      255
176
     1
290
     0
176
     1
 90
       50
176
     1
 90
       50
176
     1
 90
       50
176
     1
290
     0
176
     1
 90
       50
176
     1
 62
   256
176
     0
 40
1.0
176
     0
 90
        2
176
     1
  1
strokes_ogs.tif
176
     1
290
     0
176
     1
 40
1.0
176
     1
 40
1.0
176
     1
  0
VISUALSTYLE
  5
31
102
{ACAD_REACTORS
330
2A
102
}
330
2A
100
AcDbVisualStyle
  2
Hidden
 70
     6
177
     3
291
     0
 70
    58
 90
        1
176
     1
 90
        2
176
     1
 90
        2
176
     1
 90
        0
176
     1
 40
0.6
176
     1
 40
30.0
176
     1
 62
     7
420
 16777215
176
     1
 90
        2
176
     1
 90
        2
176
     1
 62
     7
176
     1
 62
   257
176
     1
 90
        2
176
     1
 90
        1
176
     1
 40
40.0
176
     1
 90
        0
176
     1
 62
   257
176
     1
 40
1.0
176
     1
 90
        1
176
     1
 90
        6
176
     1
 90
        2
176
     1
 62
     7
176
     1
 90
        3
176
     1
 90
        0
176
     1
 90
        0
176
     1
290
     0
176
     1
 90
        1
176
     1
 40
0.0
176
     1
 90
        0
176
     1
290
     0
176
     1
290
     1
176
     1
290
     1
176
     1
290
     0
176
     1
290
     0
176
     1
290
     0
176
     1
290
     0
176
     1
290
     0
176
     1
290
     0
176
     1
 90
       50
176
     1
 40
0.0
176
     1
 40
1.0
176
     1
 90
        0
176
     1
 62
    18
420
        0
176
     1
 90
       50
176
     1
 90
        3
176
     1
 62
     5
420
      255
176
     1
290
     0
176
     1
 90
       50
176
     1
 90
       50
176
     1
 90
       50
176
     1
290
     0
176
     1
 90
       50
176
     1
 62
   256
176
     0
 40
1.0
176
     0
 90
        2
176
     1
  1
strokes_ogs.tif
176
     1
290
     0
176
     1
 40
1.0
176
     1
 40
1.0
176
     1
  0
VISUALSTYLE
  5
3B
102
{ACAD_REACTORS
330
2A
102
}
330
2A
100
AcDbVisualStyle
  2
JitterOff
 70
    20
177
     3
291
     1
 70
    58
 90
        2
176
     0
 90
        2
176
     0
 90
        0
176
     0
 90
        0
176
     0
 40
0.6
176
     0
 40
30.0
176
     0
 62
     7
420
 16777215
176
     0
 90
        1
176
     0
 90
        4
176
     0
 62
     7
176
     0
 62
   257
176
     0
 90
        1
176
     0
 90
        1
176
     0
 40
1.0
176
     0
 90
       10
176
     2
 62
     7
176
     0
 40
1.0
176
     0
 90
        1
176
     0
 90
        6
176
     0
 90
        2
176
     0
 62
     7
176
     0
 90
        5
176
     0
 90
        0
176
     0
 90
        0
176
     0
290
     0
176
     0
 90
        1
176
     0
 40
0.0
176
     0
 90
        0
176
     0
290
     0
176
     0
290
     1
176
     0
290
     1
176
     0
290
     0
176
     0
290
     0
176
     0
290
     0
176
     0
290
     0
176
     0
290
     0
176
     0
290
     0
176
     0
 90
       50
176
     0
 40
0.0
176
     0
 40
1.0
176
     0
 90
        0
176
     0
 62
    18
420
        0
176
     0
 90
       50
176
     0
 90
        3
176
     0
 62
     5
420
      255
176
     0
290
     0
176
     0
 90
       50
176
     0
 90
       50
176
     0
 90
       50
176
     0
290
     0
176
     0
 90
       50
176
     0
 62
   256
176
     0
 40
1.0
176
     0
 90
        2
176
     0
  1
strokes_ogs.tif
176
     0
290
     0
176
     0
 40
1.0
176
     0
 40
1.0
176
     0
  0
VISUALSTYLE
  5
38
102
{ACAD_REACTORS
330
2A
102
}
330
2A
100
AcDbVisualStyle
  2
Linepattern
 70
    14
177
     3
291
     1
 70
    58
 90
        2
176
     1
 90
        2
176
     1
 90
        0
176
     1
 90
        0
176
     1
 40
0.6
176
     1
 40
30.0
176
     1
 62
     7
420
 16777215
176
     1
 90
        1
176
     1
 90
        4
176
     1
 62
     7
176
     1
 62
   257
176
     1
 90
        7
176
     1
 90
        7
176
     1
 40
1.0
176
     1
 90
        8
176
     1
 62
     7
176
     1
 40
1.0
176
     1
 90
        1
176
     1
 90
        6
176
     1
 90
        2
176
     1
 62
     7
176
     1
 90
        5
176
     1
 90
        0
176
     1
 90
        0
176
     1
290
     0
176
     1
 90
        1
176
     1
 40
0.0
176
     1
 90
        0
176
     1
290
     0
176
     1
290
     1
176
     1
290
     1
176
     1
290
     0
176
     1
290
     0
176
     1
290
     0
176
     1
290
     0
176
     1
290
     0
176
     1
290
     0
176
     1
 90
       50
176
     1
 40
0.0
176
     1
 40
1.0
176
     1
 90
        0
176
     1
 62
    18
420
        0
176
     1
 90
       50
176
     1
 90
        3
176
     1
 62
     5
420
      255
176
     1
290
     0
176
     1
 90
       50
176
     1
 90
       50
176
     1
 90
       50
176
     1
290
     0
176
     1
 90
       50
176
     1
 62
   256
176
     0
 40
1.0
176
     0
 90
        2
176
     1
  1
strokes_ogs.tif
176
     1
290
     0
176
     1
 40
1.0
176
     1
 40
1.0
176
     1
  0
VISUALSTYLE
  5
3C
102
{ACAD_REACTORS
330
2A
102
}
330
2A
100
AcDbVisualStyle
  2
OverhangOff
 70
    21
177
     3
291
     1
 70
    58
 90
        2
176
     0
 90
        2
176
     0
 90
        0
176
     0
 90
        0
176
     0
 40
0.6
176
     0
 40
30.0
176
     0
 62
     7
420
 16777215
176
     0
 90
        1
176
     0
 90
        4
176
     0
 62
     7
176
     0
 62
   257
176
     0
 90
        1
176
     0
 90
        1
176
     0
 40
1.0
176
     0
 90
        9
176
     2
 62
     7
176
     0
 40
1.0
176
     0
 90
        1
176
     0
 90
        6
176
     0
 90
        2
176
     0
 62
     7
176
     0
 90
        5
176
     0
 90
        0
176
     0
 90
        0
176
     0
290
     0
176
     0
 90
        1
176
     0
 40
0.0
176
     0
 90
        0
176
     0
290
     0
176
     0
290
     1
176
     0
290
     1
176
     0
290
     0
176
     0
290
     0
176
     0
290
     0
176
     0
290
     0
176
     0
290
     0
176
     0
290
     0
176
     0
 90
       50
176
     0
 40
0.0
176
     0
 40
1.0
176
     0
 90
        0
176
     0
 62
    18
420
        0
176
     0
 90
       50
176
     0
 90
        3
176
     0
 62
     5
420
      255
176
     0
290
     0
176
     0
 90
       50
176
     0
 90
       50
176
     0
 90
       50
176
     0
290
     0
176
     0
 90
       50
176
     0
 62
   256
176
     0
 40
1.0
176
     0
 90
        2
176
     0
  1
strokes_ogs.tif
176
     0
290
     0
176
     0
 40
1.0
176
     0
 40
1.0
176
     0
  0
VISUALSTYLE
  5
33
102
{ACAD_REACTORS
330
2A
102
}
330
2A
100
AcDbVisualStyle
  2
Realistic
 70
     8
177
     3
291
     0
 70
    58
 90
        2
176
     1
 90
        3
176
     1
 90
        0
176
     1
 90
        2
176
     1
 40
0.6
176
     1
 40
30.0
176
     1
 62
     7
420
 16777215
176
     1
 90
        0
176
     1
 90
        0
176
     1
 62
     7
176
     1
 62
   257
176
     1
 90
        1
176
     1
 90
        1
176
     1
 40
1.0
176
     1
 90
        8
176
     1
 62
   257
176
     1
 40
1.0
176
     1
 90
        1
176
     1
 90
        6
176
     1
 90
        2
176
     1
 62
     7
176
     1
 90
        3
176
     1
 90
        0
176
     1
 90
        0
176
     1
290
     0
176
     1
 90
       13
176
     1
 40
0.0
176
     1
 90
        0
176
     1
290
     0
176
     1
290
     1
176
     1
290
     1
176
     1
290
     0
176
     1
290
     0
176
     1
290
     0
176
     1
290
     0
176
     1
290
     0
176
     1
290
     0
176
     1
 90
       50
176
     1
 40
0.0
176
     1
 40
1.0
176
     1
 90
        0
176
     1
 62
    18
420
        0
176
     1
 90
       50
176
     1
 90
        3
176
     1
 62
     5
420
      255
176
     1
290
     0
176
     1
 90
       50
176
     1
 90
       50
176
     1
 90
       50
176
     1
290
     0
176
     1
 90
       50
176
     1
 62
   256
176
     0
 40
1.0
176
     0
 90
        2
176
     1
  1
strokes_ogs.tif
176
     1
290
     0
176
     1
 40
1.0
176
     1
 40
1.0
176
     1
  0
VISUALSTYLE
  5
42
102
{ACAD_REACTORS
330
2A
102
}
330
2A
100
AcDbVisualStyle
  2
Shaded
 70
    27
177
     3
291
     0
 70
    58
 90
        2
176
     1
 90
        2
176
     1
 90
        1
176
     1
 90
        2
176
     1
 40
0.6
176
     1
 40
30.0
176
     1
 62
     7
420
 16777215
176
     1
 90
        0
176
     1
 90
        4
176
     1
 62
     7
176
     1
 62
   257
176
     1
 90
        1
176
     1
 90
        1
176
     1
 40
1.0
176
     1
 90
        8
176
     1
 62
   257
176
     1
 40
1.0
176
     1
 90
        1
176
     1
 90
        6
176
     1
 90
        2
176
     1
 62
     8
420
  7895160
176
     1
 90
        3
176
     1
 90
        0
176
     1
 90
        0
176
     1
290
     0
176
     1
 90
        5
176
     1
 40
0.0
176
     1
 90
        0
176
     1
290
     0
176
     1
290
     1
176
     1
290
     1
176
     1
290
     0
176
     1
290
     0
176
     1
290
     0
176
     1
290
     0
176
     1
290
     0
176
     1
290
     0
176
     1
 90
       50
176
     1
 40
0.0
176
     1
 40
1.0
176
     1
 90
        0
176
     1
 62
    18
420
        0
176
     1
 90
       50
176
     1
 90
        3
176
     1
 62
     5
420
      255
176
     1
290
     0
176
     1
 90
       50
176
     1
 90
       50
176
     1
 90
       50
176
     1
290
     0
176
     1
 90
       50
176
     1
 62
   256
176
     0
 40
1.0
176
     0
 90
        2
176
     1
  1
strokes_ogs.tif
176
     1
290
     0
176
     1
 40
1.0
176
     1
 40
1.0
176
     1
  0
VISUALSTYLE
  5
41
102
{ACAD_REACTORS
330
2A
102
}
330
2A
100
AcDbVisualStyle
  2
Shaded with edges
 70
    26
177
     3
291
     0
 70
    58
 90
        2
176
     1
 90
        2
176
     1
 90
        1
176
     1
 90
        2
176
     1
 40
0.6
176
     1
 40
30.0
176
     1
 62
     7
420
 16777215
176
     1
 90
        1
176
     1
 90
       10
176
     1
 62
     7
176
     1
 62
   257
176
     1
 90
        2
176
     1
 90
        1
176
     1
 40
1.0
176
     1
 90
        8
176
     1
 62
   257
176
     1
 40
1.0
176
     1
 90
        1
176
     1
 90
        6
176
     1
 90
        2
176
     1
 62
     7
176
     1
 90
        3
176
     1
 90
        0
176
     1
 90
        0
176
     1
290
     0
176
     1
 90
        5
176
     1
 40
0.0
176
     1
 90
        0
176
     1
290
     0
176
     1
290
     1
176
     1
290
     1
176
     1
290
     0
176
     1
290
     0
176
     1
290
     0
176
     1
290
     0
176
     1
290
     0
176
     1
290
     0
176
     1
 90
       50
176
     1
 40
0.0
176
     1
 40
1.0
176
     1
 90
        0
176
     1
 62
    18
420
        0
176
     1
 90
       50
176
     1
 90
        3
176
     1
 62
     5
420
      255
176
     1
290
     0
176
     1
 90
       50
176
     1
 90
       50
176
     1
 90
       50
176
     1
290
     0
176
     1
 90
       50
176
     1
 62
   256
176
     0
 40
1.0
176
     0
 90
        2
176
     1
  1
strokes_ogs.tif
176
     1
290
     0
176
     1
 40
1.0
176
     1
 40
1.0
176
     1
  0
VISUALSTYLE
  5
3E
102
{ACAD_REACTORS
330
2A
102
}
330
2A
100
AcDbVisualStyle
  2
Shades of Gray
 70
    23
177
     3
291
     0
 70
    58
 90
        2
176
     1
 90
        2
176
     1
 90
        3
176
     1
 90
        0
176
     1
 40
0.6
176
     1
 40
30.0
176
     1
 62
     7
420
 16777215
176
     1
 90
        2
176
     1
 90
        2
176
     1
 62
     7
176
     1
 62
     7
176
     1
 90
        1
176
     1
 90
        1
176
     1
 40
40.0
176
     1
 90
        8
176
     1
 62
     7
176
     1
 40
1.0
176
     1
 90
        1
176
     1
 90
        6
176
     1
 90
        2
176
     1
 62
     7
176
     1
 90
        3
176
     1
 90
        0
176
     1
 90
        0
176
     1
290
     0
176
     1
 90
        1
176
     1
 40
0.0
176
     1
 90
        0
176
     1
290
     0
176
     1
290
     1
176
     1
290
     1
176
     1
290
     0
176
     1
290
     0
176
     1
290
     0
176
     1
290
     0
176
     1
290
     0
176
     1
290
     0
176
     1
 90
       50
176
     1
 40
0.0
176
     1
 40
1.0
176
     1
 90
        0
176
     1
 62
    18
420
        0
176
     1
 90
       50
176
     1
 90
        3
176
     1
 62
     5
420
      255
176
     1
290
     0
176
     1
 90
       50
176
     1
 90
       50
176
     1
 90
       50
176
     1
290
     0
176
     1
 90
       50
176
     1
 62
   256
176
     0
 40
1.0
176
     0
 90
        2
176
     1
  1
strokes_ogs.tif
176
     1
290
     0
176
     1
 40
1.0
176
     1
 40
1.0
176
     1
  0
VISUALSTYLE
  5
3F
102
{ACAD_REACTORS
330
2A
102
}
330
2A
100
AcDbVisualStyle
  2
Sketchy
 70
    24
177
     3
291
     0
 70
    58
 90
        1
176
     1
 90
        2
176
     1
 90
        2
176
     1
 90
        0
176
     1
 40
0.6
176
     1
 40
30.0
176
     1
 62
     7
420
 16777215
176
     1
 90
        2
176
     1
 90
        2
176
     1
 62
     7
176
     1
 62
     7
176
     1
 90
        1
176
     1
 90
        1
176
     1
 40
40.0
176
     1
 90
       11
176
     1
 62
     7
176
     1
 40
1.0
176
     1
 90
        1
176
     1
 90
        6
176
     1
 90
        2
176
     1
 62
     7
176
     1
 90
        6
176
     1
 90
        0
176
     1
 90
        0
176
     1
290
     0
176
     1
 90
        1
176
     1
 40
0.0
176
     1
 90
        0
176
     1
290
     0
176
     1
290
     1
176
     1
290
     1
176
     1
290
     0
176
     1
290
     0
176
     1
290
     0
176
     1
290
     0
176
     1
290
     0
176
     1
290
     0
176
     1
 90
       50
176
     1
 40
0.0
176
     1
 40
1.0
176
     1
 90
        0
176
     1
 62
    18
420
        0
176
     1
 90
       50
176
     1
 90
        3
176
     1
 62
     5
420
      255
176
     1
290
     0
176
     1
 90
       50
176
     1
 90
       50
176
     1
 90
       50
176
     1
290
     0
176
     1
 90
       50
176
     1
 62
   256
176
     0
 40
1.0
176
     0
 90
        2
176
     1
  1
strokes_ogs.tif
176
     1
290
     0
176
     1
 40
1.0
176
     1
 40
1.0
176
     1
  0
VISUALSTYLE
  5
37
102
{ACAD_REACTORS
330
2A
102
}
330
2A
100
AcDbVisualStyle
  2
Thicken
 70
    13
177
     3
291
     1
 70
    58
 90
        2
176
     1
 90
        2
176
     1
 90
        0
176
     1
 90
        0
176
     1
 40
0.6
176
     1
 40
30.0
176
     1
 62
     7
420
 16777215
176
     1
 90
        1
176
     1
 90
        4
176
     1
 62
     7
176
     1
 62
   257
176
     1
 90
        1
176
     1
 90
        1
176
     1
 40
1.0
176
     1
 90
       12
176
     1
 62
     7
176
     1
 40
1.0
176
     1
 90
        1
176
     1
 90
        6
176
     1
 90
        2
176
     1
 62
     7
176
     1
 90
        5
176
     1
 90
        0
176
     1
 90
        0
176
     1
290
     0
176
     1
 90
        1
176
     1
 40
0.0
176
     1
 90
        0
176
     1
290
     0
176
     1
290
     1
176
     1
290
     1
176
     1
290
     0
176
     1
290
     0
176
     1
290
     0
176
     1
290
     0
176
     1
290
     0
176
     1
290
     0
176
     1
 90
       50
176
     1
 40
0.0
176
     1
 40
1.0
176
     1
 90
        0
176
     1
 62
    18
420
        0
176
     1
 90
       50
176
     1
 90
        3
176
     1
 62
     5
420
      255
176
     1
290
     0
176
     1
 90
       50
176
     1
 90
       50
176
     1
 90
       50
176
     1
290
     0
176
     1
 90
       50
176
     1
 62
   256
176
     0
 40
1.0
176
     0
 90
        2
176
     1
  1
strokes_ogs.tif
176
     1
290
     0
176
     1
 40
1.0
176
     1
 40
1.0
176
     1
  0
VISUALSTYLE
  5
30
102
{ACAD_REACTORS
330
2A
102
}
330
2A
100
AcDbVisualStyle
  2
Wireframe
 70
     5
177
     3
291
     0
 70
    58
 90
        0
176
     1
 90
        2
176
     1
 90
        0
176
     1
 90
        0
176
     1
 40
0.6
176
     1
 40
30.0
176
     1
 62
     7
420
 16777215
176
     1
 90
        1
176
     1
 90
        4
176
     1
 62
     7
176
     1
 62
   257
176
     1
 90
        1
176
     1
 90
        1
176
     1
 40
1.0
176
     1
 90
        0
176
     1
 62
   257
176
     1
 40
1.0
176
     1
 90
        1
176
     1
 90
        6
176
     1
 90
        2
176
     1
 62
     7
176
     1
 90
        3
176
     1
 90
        0
176
     1
 90
        0
176
     1
290
     0
176
     1
 90
        1
176
     1
 40
0.0
176
     1
 90
        0
176
     1
290
     0
176
     1
290
     1
176
     1
290
     1
176
     1
290
     0
176
     1
290
     0
176
     1
290
     0
176
     1
290
     0
176
     1
290
     0
176
     1
290
     0
176
     1
 90
       50
176
     1
 40
0.0
176
     1
 40
1.0
176
     1
 90
        0
176
     1
 62
    18
420
        0
176
     1
 90
       50
176
     1
 90
        3
176
     1
 62
     5
420
      255
176
     1
290
     0
176
     1
 90
       50
176
     1
 90
       50
176
     1
 90
       50
176
     1
290
     0
176
     1
 90
       50
176
     1
 62
   256
176
     0
 40
1.0
176
     0
 90
        2
176
     1
  1
strokes_ogs.tif
176
     1
290
     0
176
     1
 40
1.0
176
     1
 40
1.0
176
     1
  0
VISUALSTYLE
  5
40
102
{ACAD_REACTORS
330
2A
102
}
330
2A
100
AcDbVisualStyle
  2
X-Ray
 70
    25
177
     3
291
     0
 70
    58
 90
        2
176
     1
 90
        2
176
     1
 90
        1
176
     1
 90
        1
176
     1
 40
0.5
176
     1
 40
30.0
176
     1
 62
     7
420
 16777215
176
     1
 90
        1
176
     1
 90
        0
176
     1
 62
     7
176
     1
 62
   257
176
     1
 90
        1
176
     1
 90
        1
176
     1
 40
1.0
176
     1
 90
        8
176
     1
 62
     7
176
     1
 40
1.0
176
     1
 90
        1
176
     1
 90
        6
176
     1
 90
        2
176
     1
 62
     7
176
     1
 90
        3
176
     1
 90
        0
176
     1
 90
        0
176
     1
290
     0
176
     1
 90
       13
176
     1
 40
0.0
176
     1
 90
        0
176
     1
290
     0
176
     1
290
     1
176
     1
290
     1
176
     1
290
     0
176
     1
290
     0
176
     1
290
     0
176
     1
290
     0
176
     1
290
     0
176
     1
290
     0
176
     1
 90
       50
176
     1
 40
0.0
176
     1
 40
1.0
176
     1
 90
        0
176
     1
 62
    18
420
        0
176
     1
 90
       50
176
     1
 90
        3
176
     1
 62
     5
420
      255
176
     1
290
     0
176
     1
 90
       50
176
     1
 90
       50
176
     1
 90
       50
176
     1
290
     0
176
     1
 90
       50
176
     1
 62
   256
176
     0
 40
1.0
176
     0
 90
        2
176
     1
  1
strokes_ogs.tif
176
     1
290
     0
176
     1
 40
1.0
176
     1
 40
1.0
176
     1
  0
DICTIONARYVAR
  5
1FA
102
{ACAD_REACTORS
330
1F9
102
}
330
1F9
100
DictionaryVariables
280
     0
  1
1:1
  0
DICTIONARYVAR
  5
1FF
102
{ACAD_REACTORS
330
1F9
102
}
330
1F9
100
DictionaryVariables
280
     0
  1
Standard
  0
DICTIONARYVAR
  5
1FE
102
{ACAD_REACTORS
330
1F9
102
}
330
1F9
100
DictionaryVariables
280
     0
  1
Standard
  0
DICTIONARY
  5
1FB
330
6A
100
AcDbDictionary
280
     1
281
     1
  3
ACAD_ROUNDTRIP_2008_TABLESTYLE_CELLSTYLEMAP
360
1FC
  0
CELLSTYLEMAP
  5
1FC
102
{ACAD_REACTORS
330
1FB
102
}
330
1FB
100
AcDbCellStyleMap
 90
        3
300
CELLSTYLE
  1
TABLEFORMAT_BEGIN
 90
        5
170
     1
 91
        0
 92
    32768
 62
   257
 93
        1
300
CONTENTFORMAT
  1
CONTENTFORMAT_BEGIN
 90
        0
 91
        0
 92
        4
 93
        0
300

 40
0.0
140
1.0
 94
        5
 62
     0
340
11
144
0.25
309
CONTENTFORMAT_END
171
     1
301
MARGIN
  1
CELLMARGIN_BEGIN
 40
0.06
 40
0.06
 40
0.06
 40
0.06
 40
0.06
 40
0.06
309
CELLMARGIN_END
 94
        6
 95
        1
302
GRIDFORMAT
  1
GRIDFORMAT_BEGIN
 90
        0
 91
        1
 62
     0
 92
       -2
340
14
 93
        0
 40
0.045
309
GRIDFORMAT_END
 95
        2
302
GRIDFORMAT
  1
GRIDFORMAT_BEGIN
 90
        0
 91
        1
 62
     0
 92
       -2
340
14
 93
        0
 40
0.045
309
GRIDFORMAT_END
 95
        4
302
GRIDFORMAT
  1
GRIDFORMAT_BEGIN
 90
        0
 91
        1
 62
     0
 92
       -2
340
14
 93
        0
 40
0.045
309
GRIDFORMAT_END
 95
        8
302
GRIDFORMAT
  1
GRIDFORMAT_BEGIN
 90
        0
 91
        1
 62
     0
 92
       -2
340
14
 93
        0
 40
0.045
309
GRIDFORMAT_END
 95
       16
302
GRIDFORMAT
  1
GRIDFORMAT_BEGIN
 90
        0
 91
        1
 62
     0
 92
       -2
340
14
 93
        0
 40
0.045
309
GRIDFORMAT_END
 95
       32
302
GRIDFORMAT
  1
GRIDFORMAT_BEGIN
 90
        0
 91
        1
 62
     0
 92
       -2
340
14
 93
        0
 40
0.045
309
GRIDFORMAT_END
309
TABLEFORMAT_END
  1
CELLSTYLE_BEGIN
 90
        1
 91
        1
300
_TITLE
309
CELLSTYLE_END
300
CELLSTYLE
  1
TABLEFORMAT_BEGIN
 90
        5
170
     1
 91
        0
 92
        0
 62
   257
 93
        1
300
CONTENTFORMAT
  1
CONTENTFORMAT_BEGIN
 90
        0
 91
        0
 92
        4
 93
        0
300

 40
0.0
140
1.0
 94
        5
 62
     0
340
11
144
0.18
309
CONTENTFORMAT_END
171
     1
301
MARGIN
  1
CELLMARGIN_BEGIN
 40
0.06
 40
0.06
 40
0.06
 40
0.06
 40
0.06
 40
0.06
309
CELLMARGIN_END
 94
        6
 95
        1
302
GRIDFORMAT
  1
GRIDFORMAT_BEGIN
 90
        0
 91
        1
 62
     0
 92
       -2
340
14
 93
        0
 40
0.045
309
GRIDFORMAT_END
 95
        2
302
GRIDFORMAT
  1
GRIDFORMAT_BEGIN
 90
        0
 91
        1
 62
     0
 92
       -2
340
14
 93
        0
 40
0.045
309
GRIDFORMAT_END
 95
        4
302
GRIDFORMAT
  1
GRIDFORMAT_BEGIN
 90
        0
 91
        1
 62
     0
 92
       -2
340
14
 93
        0
 40
0.045
309
GRIDFORMAT_END
 95
        8
302
GRIDFORMAT
  1
GRIDFORMAT_BEGIN
 90
        0
 91
        1
 62
     0
 92
       -2
340
14
 93
        0
 40
0.045
309
GRIDFORMAT_END
 95
       16
302
GRIDFORMAT
  1
GRIDFORMAT_BEGIN
 90
        0
 91
        1
 62
     0
 92
       -2
340
14
 93
        0
 40
0.045
309
GRIDFORMAT_END
 95
       32
302
GRIDFORMAT
  1
GRIDFORMAT_BEGIN
 90
        0
 91
        1
 62
     0
 92
       -2
340
14
 93
        0
 40
0.045
309
GRIDFORMAT_END
309
TABLEFORMAT_END
  1
CELLSTYLE_BEGIN
 90
        2
 91
        1
300
_HEADER
309
CELLSTYLE_END
300
CELLSTYLE
  1
TABLEFORMAT_BEGIN
 90
        5
170
     1
 91
        0
 92
        0
 62
   257
 93
        1
300
CONTENTFORMAT
  1
CONTENTFORMAT_BEGIN
 90
        0
 91
        0
 92
        4
 93
        0
300

 40
0.0
140
1.0
 94
        2
 62
     0
340
11
144
0.18
309
CONTENTFORMAT_END
171
     1
301
MARGIN
  1
CELLMARGIN_BEGIN
 40
0.06
 40
0.06
 40
0.06
 40
0.06
 40
0.06
 40
0.06
309
CELLMARGIN_END
 94
        6
 95
        1
302
GRIDFORMAT
  1
GRIDFORMAT_BEGIN
 90
        0
 91
        1
 62
     0
 92
       -2
340
14
 93
        0
 40
0.045
309
GRIDFORMAT_END
 95
        2
302
GRIDFORMAT
  1
GRIDFORMAT_BEGIN
 90
        0
 91
        1
 62
     0
 92
       -2
340
14
 93
        0
 40
0.045
309
GRIDFORMAT_END
 95
        4
302
GRIDFORMAT
  1
GRIDFORMAT_BEGIN
 90
        0
 91
        1
 62
     0
 92
       -2
340
14
 93
        0
 40
0.045
309
GRIDFORMAT_END
 95
        8
302
GRIDFORMAT
  1
GRIDFORMAT_BEGIN
 90
        0
 91
        1
 62
     0
 92
       -2
340
14
 93
        0
 40
0.045
309
GRIDFORMAT_END
 95
       16
302
GRIDFORMAT
  1
GRIDFORMAT_BEGIN
 90
        0
 91
        1
 62
     0
 92
       -2
340
14
 93
        0
 40
0.045
309
GRIDFORMAT_END
 95
       32
302
GRIDFORMAT
  1
GRIDFORMAT_BEGIN
 90
        0
 91
        1
 62
     0
 92
       -2
340
14
 93
        0
 40
0.045
309
GRIDFORMAT_END
309
TABLEFORMAT_END
  1
CELLSTYLE_BEGIN
 90
        3
 91
        2
300
_DATA
309
CELLSTYLE_END
  0
ENDSEC
  0
EOF