0
SECTION
  2
HEADER
  9
$ACADVER
  1
AC1027
  9
$ACADMAINTVER
 70
     8
  9
$DWGCODEPAGE
  3
ANSI_1252
  9
$REQUIREDVERSIONS
160
                 0
  9
$COMMENTS
  1
File was created by Cadenas
  9
$CUSTOMPROPERTYTAG
  1
NN
  9
$CUSTOMPROPERTY
  1
Unisphere II Pillow Block Inch Bore
  9
$CUSTOMPROPERTYTAG
  1
NT
  9
$CUSTOMPROPERTY
  1
Unisphere II
  9
$CUSTOMPROPERTYTAG
  1
NB
  9
$CUSTOMPROPERTY
  1
048000
  9
$CUSTOMPROPERTYTAG
  1
NBSYN
  9
$CUSTOMPROPERTY
  1
$PN.
  9
$CUSTOMPROPERTYTAG
  1
LINA
  9
$CUSTOMPROPERTY
  1
048000
  9
$CUSTOMPROPERTYTAG
  1
SS
  9
$CUSTOMPROPERTY
  1
1-7/16
  9
$CUSTOMPROPERTYTAG
  1
TYPE
  9
$CUSTOMPROPERTY
  1
Non Expansion Type
  9
$CUSTOMPROPERTYTAG
  1
PN
  9
$CUSTOMPROPERTY
  1
048000
  9
$CUSTOMPROPERTYTAG
  1
DESCRIPTION
  9
$CUSTOMPROPERTY
  1
P2B-UN2-107
  9
$CUSTOMPROPERTYTAG
  1
WEIGHT
  9
$CUSTOMPROPERTY
  1
5.5
  9
$CUSTOMPROPERTYTAG
  1
A
  9
$CUSTOMPROPERTY
  1
1-11/16
  9
$CUSTOMPROPERTYTAG
  1
B
  9
$CUSTOMPROPERTY
  1
6-7/8
  9
$CUSTOMPROPERTYTAG
  1
C
  9
$CUSTOMPROPERTY
  1
1-61/64
  9
$CUSTOMPROPERTYTAG
  1
DMIN
  9
$CUSTOMPROPERTY
  1
4-11/16
  9
$CUSTOMPROPERTYTAG
  1
DMAX
  9
$CUSTOMPROPERTY
  1
5-1/2
  9
$CUSTOMPROPERTYTAG
  1
E
  9
$CUSTOMPROPERTY
  1
5/32
  9
$CUSTOMPROPERTYTAG
  1
F
  9
$CUSTOMPROPERTY
  1
1/2
  9
$CUSTOMPROPERTYTAG
  1
G
  9
$CUSTOMPROPERTY
  1
31/32
  9
$CUSTOMPROPERTYTAG
  1
H
  9
$CUSTOMPROPERTY
  1
1-3/16
  9
$CUSTOMPROPERTYTAG
  1
J
  9
$CUSTOMPROPERTY
  1
3-7/8
  9
$CUSTOMPROPERTYTAG
  1
L
  9
$CUSTOMPROPERTY
  1
2-3/4
  9
$CUSTOMPROPERTYTAG
  1
M
  9
$CUSTOMPROPERTY
  1
1-7/8
  9
$CUSTOMPROPERTYTAG
  1
R
  9
$CUSTOMPROPERTY
  1
1/2
  9
$CUSTOMPROPERTYTAG
  1
S
  9
$CUSTOMPROPERTY
  1
1-3/16
  9
$CUSTOMPROPERTYTAG
  1
MRPM
  9
$CUSTOMPROPERTY
  1
3000
  9
$CUSTOMPROPERTYTAG
  1
CS
  9
$CUSTOMPROPERTY
  1
22400
  9
$CUSTOMPROPERTYTAG
  1
CD
  9
$CUSTOMPROPERTY
  1
20800
  9
$CUSTOMPROPERTYTAG
  1
RN
  9
$CUSTOMPROPERTY
  1
15
  9
$CUSTOMPROPERTYTAG
  1
RM
  9
$CUSTOMPROPERTY
  1
.04488
  9
$CUSTOMPROPERTYTAG
  1
PD
  9
$CUSTOMPROPERTY
  1
2.449
  9
$CUSTOMPROPERTYTAG
  1
RC
  9
$CUSTOMPROPERTY
  1
0.0012-0.0018
  9
$CUSTOMPROPERTYTAG
  1
CSS
  9
$CUSTOMPROPERTY
  1
5/16-18x5/8
  9
$CUSTOMPROPERTYTAG
  1
CST
  9
$CUSTOMPROPERTY
  1
165
  9
$CUSTOMPROPERTYTAG
  1
MH
  9
$CUSTOMPROPERTY
  1
Ductile Iron Grade 65-45-12 ASTM A536
  9
$CUSTOMPROPERTYTAG
  1
MIR
  9
$CUSTOMPROPERTY
  1
4118 Case Carb.
  9
$CUSTOMPROPERTYTAG
  1
MOR
  9
$CUSTOMPROPERTY
  1
E52100 Steel
  9
$CUSTOMPROPERTYTAG
  1
MR
  9
$CUSTOMPROPERTY
  1
Polyamide
  9
$CUSTOMPROPERTYTAG
  1
MRO
  9
$CUSTOMPROPERTY
  1
E52100 Steel
  9
$CUSTOMPROPERTYTAG
  1
SM
  9
$CUSTOMPROPERTY
  1
2°
  9
$CUSTOMPROPERTYTAG
  1
COMPANY
  9
$CUSTOMPROPERTY
  1
baldor
  9
$INSBASE
 10
0.0
 20
0.0
 30
0.0
  9
$EXTMIN
 10
1.000000000000000E+20
 20
1.000000000000000E+20
 30
1.000000000000000E+20
  9
$EXTMAX
 10
-1.000000000000000E+20
 20
-1.000000000000000E+20
 30
-1.000000000000000E+20
  9
$LIMMIN
 10
0.0
 20
0.0
  9
$LIMMAX
 10
12.0
 20
9.0
  9
$ORTHOMODE
 70
     0
  9
$REGENMODE
 70
     1
  9
$FILLMODE
 70
     1
  9
$QTEXTMODE
 70
     0
  9
$MIRRTEXT
 70
     1
  9
$LTSCALE
 40
1.0
  9
$ATTMODE
 70
     1
  9
$TEXTSIZE
 40
0.2
  9
$TRACEWID
 40
0.05
  9
$TEXTSTYLE
  7
Standard
  9
$CLAYER
  8
0
  9
$CELTYPE
  6
ByLayer
  9
$CECOLOR
 62
   256
  9
$CELTSCALE
 40
1.0
  9
$DISPSILH
 70
     0
  9
$DIMSCALE
 40
1.0
  9
$DIMASZ
 40
0.18
  9
$DIMEXO
 40
0.0625
  9
$DIMDLI
 40
0.38
  9
$DIMRND
 40
0.0
  9
$DIMDLE
 40
0.0
  9
$DIMEXE
 40
0.18
  9
$DIMTP
 40
0.0
  9
$DIMTM
 40
0.0
  9
$DIMTXT
 40
0.18
  9
$DIMCEN
 40
0.09
  9
$DIMTSZ
 40
0.0
  9
$DIMTOL
 70
     0
  9
$DIMLIM
 70
     0
  9
$DIMTIH
 70
     1
  9
$DIMTOH
 70
     1
  9
$DIMSE1
 70
     0
  9
$DIMSE2
 70
     0
  9
$DIMTAD
 70
     0
  9
$DIMZIN
 70
     0
  9
$DIMBLK
  1

  9
$DIMASO
 70
     1
  9
$DIMSHO
 70
     1
  9
$DIMPOST
  1

  9
$DIMAPOST
  1

  9
$DIMALT
 70
     0
  9
$DIMALTD
 70
     2
  9
$DIMALTF
 40
25.4
  9
$DIMLFAC
 40
1.0
  9
$DIMTOFL
 70
     0
  9
$DIMTVP
 40
0.0
  9
$DIMTIX
 70
     0
  9
$DIMSOXD
 70
     0
  9
$DIMSAH
 70
     0
  9
$DIMBLK1
  1

  9
$DIMBLK2
  1

  9
$DIMSTYLE
  2
Standard
  9
$DIMCLRD
 70
     0
  9
$DIMCLRE
 70
     0
  9
$DIMCLRT
 70
     0
  9
$DIMTFAC
 40
1.0
  9
$DIMGAP
 40
0.09
  9
$DIMJUST
 70
     0
  9
$DIMSD1
 70
     0
  9
$DIMSD2
 70
     0
  9
$DIMTOLJ
 70
     1
  9
$DIMTZIN
 70
     0
  9
$DIMALTZ
 70
     0
  9
$DIMALTTZ
 70
     0
  9
$DIMUPT
 70
     0
  9
$DIMDEC
 70
     4
  9
$DIMTDEC
 70
     4
  9
$DIMALTU
 70
     2
  9
$DIMALTTD
 70
     2
  9
$DIMTXSTY
  7
Standard
  9
$DIMAUNIT
 70
     0
  9
$DIMADEC
 70
     0
  9
$DIMALTRND
 40
0.0
  9
$DIMAZIN
 70
     0
  9
$DIMDSEP
 70
    46
  9
$DIMATFIT
 70
     3
  9
$DIMFRAC
 70
     0
  9
$DIMLDRBLK
  1

  9
$DIMLUNIT
 70
     2
  9
$DIMLWD
 70
    -2
  9
$DIMLWE
 70
    -2
  9
$DIMTMOVE
 70
     0
  9
$DIMFXL
 40
1.0
  9
$DIMFXLON
 70
     0
  9
$DIMJOGANG
 40
0.7853981633974483
  9
$DIMTFILL
 70
     0
  9
$DIMTFILLCLR
 70
     0
  9
$DIMARCSYM
 70
     0
  9
$DIMLTYPE
  6

  9
$DIMLTEX1
  6

  9
$DIMLTEX2
  6

  9
$DIMTXTDIRECTION
 70
     0
  9
$LUNITS
 70
     2
  9
$LUPREC
 70
     4
  9
$SKETCHINC
 40
0.1
  9
$FILLETRAD
 40
0.5
  9
$AUNITS
 70
     0
  9
$AUPREC
 70
     0
  9
$MENU
  1
.
  9
$ELEVATION
 40
0.0
  9
$PELEVATION
 40
0.0
  9
$THICKNESS
 40
0.0
  9
$LIMCHECK
 70
     0
  9
$CHAMFERA
 40
0.0
  9
$CHAMFERB
 40
0.0
  9
$CHAMFERC
 40
0.0
  9
$CHAMFERD
 40
0.0
  9
$SKPOLY
 70
     0
  9
$TDCREATE
 40
2458169.003100486
  9
$TDUCREATE
 40
2458168.961433819
  9
$TDUPDATE
 40
2458169.00310066
  9
$TDUUPDATE
 40
2458168.961433993
  9
$TDINDWG
 40
0.0000000116
  9
$TDUSRTIMER
 40
0.0000000116
  9
$USRTIMER
 70
     1
  9
$ANGBASE
 50
0.0
  9
$ANGDIR
 70
     0
  9
$PDMODE
 70
     0
  9
$PDSIZE
 40
0.0
  9
$PLINEWID
 40
0.0
  9
$SPLFRAME
 70
     0
  9
$SPLINETYPE
 70
     6
  9
$SPLINESEGS
 70
     8
  9
$HANDSEED
  5
207
  9
$SURFTAB1
 70
     6
  9
$SURFTAB2
 70
     6
  9
$SURFTYPE
 70
     6
  9
$SURFU
 70
     6
  9
$SURFV
 70
     6
  9
$UCSBASE
  2

  9
$UCSNAME
  2

  9
$UCSORG
 10
0.0
 20
0.0
 30
0.0
  9
$UCSXDIR
 10
1.0
 20
0.0
 30
0.0
  9
$UCSYDIR
 10
0.0
 20
1.0
 30
0.0
  9
$UCSORTHOREF
  2

  9
$UCSORTHOVIEW
 70
     0
  9
$UCSORGTOP
 10
0.0
 20
0.0
 30
0.0
  9
$UCSORGBOTTOM
 10
0.0
 20
0.0
 30
0.0
  9
$UCSORGLEFT
 10
0.0
 20
0.0
 30
0.0
  9
$UCSORGRIGHT
 10
0.0
 20
0.0
 30
0.0
  9
$UCSORGFRONT
 10
0.0
 20
0.0
 30
0.0
  9
$UCSORGBACK
 10
0.0
 20
0.0
 30
0.0
  9
$PUCSBASE
  2

  9
$PUCSNAME
  2

  9
$PUCSORG
 10
0.0
 20
0.0
 30
0.0
  9
$PUCSXDIR
 10
1.0
 20
0.0
 30
0.0
  9
$PUCSYDIR
 10
0.0
 20
1.0
 30
0.0
  9
$PUCSORTHOREF
  2

  9
$PUCSORTHOVIEW
 70
     0
  9
$PUCSORGTOP
 10
0.0
 20
0.0
 30
0.0
  9
$PUCSORGBOTTOM
 10
0.0
 20
0.0
 30
0.0
  9
$PUCSORGLEFT
 10
0.0
 20
0.0
 30
0.0
  9
$PUCSORGRIGHT
 10
0.0
 20
0.0
 30
0.0
  9
$PUCSORGFRONT
 10
0.0
 20
0.0
 30
0.0
  9
$PUCSORGBACK
 10
0.0
 20
0.0
 30
0.0
  9
$USERI1
 70
     0
  9
$USERI2
 70
     0
  9
$USERI3
 70
     0
  9
$USERI4
 70
     0
  9
$USERI5
 70
     0
  9
$USERR1
 40
0.0
  9
$USERR2
 40
0.0
  9
$USERR3
 40
0.0
  9
$USERR4
 40
0.0
  9
$USERR5
 40
0.0
  9
$WORLDVIEW
 70
     1
  9
$SHADEDGE
 70
     3
  9
$SHADEDIF
 70
    70
  9
$TILEMODE
 70
     1
  9
$MAXACTVP
 70
    64
  9
$PINSBASE
 10
0.0
 20
0.0
 30
0.0
  9
$PLIMCHECK
 70
     0
  9
$PEXTMIN
 10
1.000000000000000E+20
 20
1.000000000000000E+20
 30
1.000000000000000E+20
  9
$PEXTMAX
 10
-1.000000000000000E+20
 20
-1.000000000000000E+20
 30
-1.000000000000000E+20
  9
$PLIMMIN
 10
0.0
 20
0.0
  9
$PLIMMAX
 10
12.0
 20
9.0
  9
$UNITMODE
 70
     0
  9
$VISRETAIN
 70
     1
  9
$PLINEGEN
 70
     0
  9
$PSLTSCALE
 70
     1
  9
$TREEDEPTH
 70
  3020
  9
$CMLSTYLE
  2
Standard
  9
$CMLJUST
 70
     0
  9
$CMLSCALE
 40
1.0
  9
$PROXYGRAPHICS
 70
     1
  9
$MEASUREMENT
 70
     0
  9
$CELWEIGHT
370
    -1
  9
$ENDCAPS
280
     0
  9
$JOINSTYLE
280
     0
  9
$LWDISPLAY
290
     0
  9
$INSUNITS
 70
     1
  9
$HYPERLINKBASE
  1

  9
$STYLESHEET
  1

  9
$XEDIT
290
     1
  9
$CEPSNTYPE
380
     0
  9
$PSTYLEMODE
290
     1
  9
$FINGERPRINTGUID
  2
{D66A0634-7FB4-4440-9F26-240C6CD33C69}
  9
$VERSIONGUID
  2
{FAEB1C32-E019-11D5-929B-00C0DF256EC4}
  9
$EXTNAMES
290
     1
  9
$PSVPSCALE
 40
0.0
  9
$OLESTARTUP
290
     0
  9
$SORTENTS
280
   127
  9
$INDEXCTL
280
     0
  9
$HIDETEXT
280
     1
  9
$XCLIPFRAME
280
     2
  9
$HALOGAP
280
     0
  9
$OBSCOLOR
 70
   257
  9
$OBSLTYPE
280
     0
  9
$INTERSECTIONDISPLAY
280
     0
  9
$INTERSECTIONCOLOR
 70
   257
  9
$DIMASSOC
280
     2
  9
$PROJECTNAME
  1

  9
$CAMERADISPLAY
290
     0
  9
$LENSLENGTH
 40
50.0
  9
$CAMERAHEIGHT
 40
0.0
  9
$STEPSPERSEC
 40
2.0
  9
$STEPSIZE
 40
6.0
  9
$3DDWFPREC
 40
2.0
  9
$PSOLWIDTH
 40
0.25
  9
$PSOLHEIGHT
 40
4.0
  9
$LOFTANG1
 40
1.570796326794897
  9
$LOFTANG2
 40
1.570796326794897
  9
$LOFTMAG1
 40
0.0
  9
$LOFTMAG2
 40
0.0
  9
$LOFTPARAM
 70
     7
  9
$LOFTNORMALS
280
     1
  9
$LATITUDE
 40
37.795
  9
$LONGITUDE
 40
-122.394
  9
$NORTHDIRECTION
 40
0.0
  9
$TIMEZONE
 70
 -8000
  9
$LIGHTGLYPHDISPLAY
280
     1
  9
$TILEMODELIGHTSYNCH
280
     1
  9
$CMATERIAL
347
44
  9
$SOLIDHIST
280
     0
  9
$SHOWHIST
280
     1
  9
$DWFFRAME
280
     2
  9
$DGNFRAME
280
     2
  9
$REALWORLDSCALE
290
     1
  9
$INTERFERECOLOR
 62
   256
  9
$CSHADOW
280
     0
  9
$SHADOWPLANELOCATION
 40
0.0
  0
ENDSEC
  0
SECTION
  2
CLASSES
  0
CLASS
  1
ACDBDICTIONARYWDFLT
  2
AcDbDictionaryWithDefault
  3
ObjectDBX Classes
 90
        0
 91
        4
280
     0
281
     0
  0
CLASS
  1
VISUALSTYLE
  2
AcDbVisualStyle
  3
ObjectDBX Classes
 90
     4095
 91
        4
280
     0
281
     0
  0
CLASS
  1
MATERIAL
  2
AcDbMaterial
  3
ObjectDBX Classes
 90
     1153
 91
        4
280
     0
281
     0
  0
CLASS
  1
SCALE
  2
AcDbScale
  3
ObjectDBX Classes
 90
     1153
 91
        4
280
     0
281
     0
  0
CLASS
  1
TABLESTYLE
  2
AcDbTableStyle
  3
ObjectDBX Classes
 90
     4095
 91
        4
280
     0
281
     0
  0
CLASS
  1
MLEADERSTYLE
  2
AcDbMLeaderStyle
  3
ACDB_MLEADERSTYLE_CLASS
 90
     4095
 91
        4
280
     0
281
     0
  0
CLASS
  1
SUN
  2
AcDbSun
  3
SCENEOE
 90
     1153
 91
        4
280
     0
281
     0
  0
CLASS
  1
DICTIONARYVAR
  2
AcDbDictionaryVar
  3
ObjectDBX Classes
 90
        0
 91
        4
280
     0
281
     0
  0
CLASS
  1
CELLSTYLEMAP
  2
AcDbCellStyleMap
  3
ObjectDBX Classes
 90
     1152
 91
        4
280
     0
281
     0
  0
ENDSEC
  0
SECTION
  2
TABLES
  0
TABLE
  2
VPORT
  5
8
330
0
100
AcDbSymbolTable
 70
     1
  0
VPORT
  5
29
330
8
100
AcDbSymbolTableRecord
100
AcDbViewportTableRecord
  2
*Active
 70
     0
 10
0.0
 20
0.0
 11
1.0
 21
1.0
 12
0.0
 22
-0.0988267500000006
 13
0.0
 23
0.0
 14
0.5
 24
0.5
 15
0.5
 25
0.5
 16
0.0
 26
0.0
 36
1.0
 17
0.0
 27
0.0
 37
0.0
 40
2.393018429999998
 41
2.950704422035999
 42
50.0
 43
0.0
 44
0.0
 50
0.0
 51
0.0
 71
     0
 72
   100
 73
     1
 74
     3
 75
     0
 76
     0
 77
     0
 78
     0
281
     0
 65
     1
110
0.0
120
0.0
130
0.0
111
1.0
121
0.0
131
0.0
112
0.0
122
1.0
132
0.0
 79
     0
146
0.0
348
2F
 60
     3
 61
     5
292
     1
282
     1
141
0.0
142
0.0
 63
   250
361
6D
  0
ENDTAB
  0
TABLE
  2
LTYPE
  5
5
330
0
100
AcDbSymbolTable
 70
     3
  0
LTYPE
  5
14
330
5
100
AcDbSymbolTableRecord
100
AcDbLinetypeTableRecord
  2
ByBlock
 70
     0
  3

 72
    65
 73
     0
 40
0.0
  0
LTYPE
  5
15
330
5
100
AcDbSymbolTableRecord
100
AcDbLinetypeTableRecord
  2
ByLayer
 70
     0
  3

 72
    65
 73
     0
 40
0.0
  0
LTYPE
  5
16
330
5
100
AcDbSymbolTableRecord
100
AcDbLinetypeTableRecord
  2
Continuous
 70
     0
  3
Solid line
 72
    65
 73
     0
 40
0.0
  0
LTYPE
  5
B2
330
5
100
AcDbSymbolTableRecord
100
AcDbLinetypeTableRecord
  2
Dashed
 70
     0
  3

 72
    65
 73
     2
 40
2.0
 49
1.0
 74
     0
 49
-1.0
 74
     0
  0
LTYPE
  5
D7
330
5
100
AcDbSymbolTableRecord
100
AcDbLinetypeTableRecord
  2
Center
 70
     0
  3

 72
    65
 73
     4
 40
1.5
 49
0.45
 74
     0
 49
-0.5
 74
     0
 49
0.05
 74
     0
 49
-0.5
 74
     0
  0
ENDTAB
  0
TABLE
  2
LAYER
  5
2
330
0
100
AcDbSymbolTable
 70
     7
  0
LAYER
  5
10
330
2
100
AcDbSymbolTableRecord
100
AcDbLayerTableRecord
  2
0
 70
     0
 62
     7
  6
Continuous
370
    -3
390
F
347
46
348
0
  0
LAYER
  5
72
330
2
100
AcDbSymbolTableRecord
100
AcDbLayerTableRecord
  2
AM_6
 70
     0
 62
    -2
  6
Continuous
370
    35
390
F
347
46
348
0
  0
LAYER
  5
B3
330
2
100
AcDbSymbolTableRecord
100
AcDbLayerTableRecord
  2
AM_9
 70
     0
 62
     6
  6
Dashed
370
    25
390
F
347
46
348
0
  0
LAYER
  5
D8
330
2
100
AcDbSymbolTableRecord
100
AcDbLayerTableRecord
  2
AM_7
 70
     0
 62
     7
  6
Center
370
    25
390
F
347
46
348
0
  0
LAYER
  5
DA
330
2
100
AcDbSymbolTableRecord
100
AcDbLayerTableRecord
  2
AM_4
 70
     0
 62
     7
  6
Continuous
370
    50
390
F
347
46
348
0
  0
LAYER
  5
E6
330
2
100
AcDbSymbolTableRecord
100
AcDbLayerTableRecord
  2
AM_5
 70
     0
 62
     3
  6
Continuous
370
    25
390
F
347
46
348
0
  0
LAYER
  5
1FA
330
2
100
AcDbSymbolTableRecord
100
AcDbLayerTableRecord
  2
ConnectionPoints
 70
     0
 62
     7
  6
Continuous
370
    50
390
F
347
46
348
0
  0
ENDTAB
  0
TABLE
  2
STYLE
  5
3
330
0
100
AcDbSymbolTable
 70
     1
  0
STYLE
  5
11
330
3
100
AcDbSymbolTableRecord
100
AcDbTextStyleTableRecord
  2
Standard
 70
     0
 40
0.0
 41
1.0
 50
0.0
 71
     0
 42
0.2
  3
txt
  4

  0
ENDTAB
  0
TABLE
  2
VIEW
  5
6
330
0
100
AcDbSymbolTable
 70
     0
  0
ENDTAB
  0
TABLE
  2
UCS
  5
7
330
0
100
AcDbSymbolTable
 70
     0
  0
ENDTAB
  0
TABLE
  2
APPID
  5
9
330
0
100
AcDbSymbolTable
 70
     1
  0
APPID
  5
12
330
9
100
AcDbSymbolTableRecord
100
AcDbRegAppTableRecord
  2
ACAD
 70
     0
  0
ENDTAB
  0
TABLE
  2
DIMSTYLE
  5
A
330
0
100
AcDbSymbolTable
 70
     1
100
AcDbDimStyleTable
  0
DIMSTYLE
105
27
330
A
100
AcDbSymbolTableRecord
100
AcDbDimStyleTableRecord
  2
Standard
 70
     0
178
     0
340
11
  0
ENDTAB
  0
TABLE
  2
BLOCK_RECORD
  5
1
330
0
100
AcDbSymbolTable
 70
     5
  0
BLOCK_RECORD
  5
1F
330
1
100
AcDbSymbolTableRecord
100
AcDbBlockTableRecord
  2
*Model_Space
340
22
 70
     0
280
     1
281
     0
  0
BLOCK_RECORD
  5
1B
330
1
100
AcDbSymbolTableRecord
100
AcDbBlockTableRecord
  2
*Paper_Space
340
1E
 70
     0
280
     1
281
     0
  0
BLOCK_RECORD
  5
23
330
1
100
AcDbSymbolTableRecord
100
AcDbBlockTableRecord
  2
*Paper_Space0
340
26
 70
     0
280
     1
281
     0
  0
BLOCK_RECORD
  5
6E
330
1
100
AcDbSymbolTableRecord
100
AcDbBlockTableRecord
  2
1_048000_4
340
0
102
{BLKREFS
331
6F
102
}
 70
     0
280
     1
281
     0
  0
BLOCK_RECORD
  5
9B
330
1
100
AcDbSymbolTableRecord
100
AcDbBlockTableRecord
  2
2_421243_0_in_048000_4
340
0
102
{BLKREFS
331
9C
102
}
 70
     0
280
     1
281
     0
  0
BLOCK_RECORD
  5
E8
330
1
100
AcDbSymbolTableRecord
100
AcDbBlockTableRecord
  2
3_405020c_Inch_0_in_048000_4
340
0
102
{BLKREFS
331
E9
102
}
 70
     0
280
     1
281
     0
  0
BLOCK_RECORD
  5
143
330
1
100
AcDbSymbolTableRecord
100
AcDbBlockTableRecord
  2
4_048000B_0_in_048000_4
340
0
102
{BLKREFS
331
144
102
}
 70
     0
280
     1
281
     0
  0
ENDTAB
  0
ENDSEC
  0
SECTION
  2
BLOCKS
  0
BLOCK
  5
20
330
1F
100
AcDbEntity
  8
0
100
AcDbBlockBegin
  2
*Model_Space
 70
     0
 10
0.0
 20
0.0
 30
0.0
  3
*Model_Space
  1

  0
ENDBLK
  5
21
330
1F
100
AcDbEntity
  8
0
100
AcDbBlockEnd
  0
BLOCK
  5
1C
330
1B
100
AcDbEntity
 67
     1
  8
0
100
AcDbBlockBegin
  2
*Paper_Space
 70
     0
 10
0.0
 20
0.0
 30
0.0
  3
*Paper_Space
  1

  0
ENDBLK
  5
1D
330
1B
100
AcDbEntity
 67
     1
  8
0
100
AcDbBlockEnd
  0
BLOCK
  5
24
330
23
100
AcDbEntity
  8
0
100
AcDbBlockBegin
  2
*Paper_Space0
 70
     0
 10
0.0
 20
0.0
 30
0.0
  3
*Paper_Space0
  1

  0
ENDBLK
  5
25
330
23
100
AcDbEntity
  8
0
100
AcDbBlockEnd
  0
BLOCK
  5
70
330
6E
100
AcDbEntity
  8
0
100
AcDbBlockBegin
  2
1_048000_4
 70
     2
 10
0.0
 20
0.0
 30
0.0
  3
1_048000_4
  1

  0
ATTDEF
  5
73
330
6E
100
AcDbEntity
  8
AM_6
100
AcDbText
 10
8.461318658536587
 20
1.074221499999999
 30
0.0
 40
0.5
  1
Unisphere II Pillow Block Inch Bore
100
AcDbAttributeDefinition
  3

  2
NN
 70
     8
280
     0
  0
ATTDEF
  5
74
330
6E
100
AcDbEntity
  8
AM_6
100
AcDbText
 10
8.461318658536587
 20
0.5742214999999995
 30
0.0
 40
0.5
  1
Unisphere II
100
AcDbAttributeDefinition
  3

  2
NT
 70
     8
280
     0
  0
ATTDEF
  5
75
330
6E
100
AcDbEntity
  8
AM_6
100
AcDbText
 10
8.461318658536587
 20
0.0742214999999995
 30
0.0
 40
0.5
  1
048000
100
AcDbAttributeDefinition
  3

  2
NB
 70
     8
280
     0
  0
ATTDEF
  5
76
330
6E
100
AcDbEntity
  8
AM_6
100
AcDbText
 10
8.461318658536587
 20
-0.4257785000000005
 30
0.0
 40
0.5
  1
$PN.
100
AcDbAttributeDefinition
  3

  2
NBSYN
 70
     8
280
     0
  0
ATTDEF
  5
77
330
6E
100
AcDbEntity
  8
AM_6
100
AcDbText
 10
8.461318658536587
 20
-0.9257785000000005
 30
0.0
 40
0.5
  1
048000
100
AcDbAttributeDefinition
  3

  2
LINA
 70
     8
280
     0
  0
ATTDEF
  5
78
330
6E
100
AcDbEntity
  8
AM_6
100
AcDbText
 10
8.461318658536587
 20
-1.425778500000001
 30
0.0
 40
0.5
  1
1-7/16
100
AcDbAttributeDefinition
  3

  2
SS
 70
     8
280
     0
  0
ATTDEF
  5
79
330
6E
100
AcDbEntity
  8
AM_6
100
AcDbText
 10
8.461318658536587
 20
-1.925778500000001
 30
0.0
 40
0.5
  1
Non Expansion Type
100
AcDbAttributeDefinition
  3

  2
TYPE
 70
     8
280
     0
  0
ATTDEF
  5
7A
330
6E
100
AcDbEntity
  8
AM_6
100
AcDbText
 10
8.461318658536587
 20
-2.425778500000001
 30
0.0
 40
0.5
  1
048000
100
AcDbAttributeDefinition
  3

  2
PN
 70
     8
280
     0
  0
ATTDEF
  5
7B
330
6E
100
AcDbEntity
  8
AM_6
100
AcDbText
 10
8.461318658536587
 20
-2.925778500000001
 30
0.0
 40
0.5
  1
P2B-UN2-107
100
AcDbAttributeDefinition
  3

  2
DESCRIPTION
 70
     8
280
     0
  0
ATTDEF
  5
7C
330
6E
100
AcDbEntity
  8
AM_6
100
AcDbText
 10
8.461318658536587
 20
-3.425778500000001
 30
0.0
 40
0.5
  1
5.5
100
AcDbAttributeDefinition
  3

  2
WEIGHT
 70
     8
280
     0
  0
ATTDEF
  5
7D
330
6E
100
AcDbEntity
  8
AM_6
100
AcDbText
 10
8.461318658536587
 20
-3.925778500000001
 30
0.0
 40
0.5
  1
1-11/16
100
AcDbAttributeDefinition
  3

  2
A
 70
     8
280
     0
  0
ATTDEF
  5
7E
330
6E
100
AcDbEntity
  8
AM_6
100
AcDbText
 10
8.461318658536587
 20
-4.425778500000001
 30
0.0
 40
0.5
  1
6-7/8
100
AcDbAttributeDefinition
  3

  2
B
 70
     8
280
     0
  0
ATTDEF
  5
7F
330
6E
100
AcDbEntity
  8
AM_6
100
AcDbText
 10
8.461318658536587
 20
-4.925778500000001
 30
0.0
 40
0.5
  1
1-61/64
100
AcDbAttributeDefinition
  3

  2
C
 70
     8
280
     0
  0
ATTDEF
  5
80
330
6E
100
AcDbEntity
  8
AM_6
100
AcDbText
 10
8.461318658536587
 20
-5.425778500000001
 30
0.0
 40
0.5
  1
4-11/16
100
AcDbAttributeDefinition
  3

  2
DMIN
 70
     8
280
     0
  0
ATTDEF
  5
81
330
6E
100
AcDbEntity
  8
AM_6
100
AcDbText
 10
8.461318658536587
 20
-5.925778500000001
 30
0.0
 40
0.5
  1
5-1/2
100
AcDbAttributeDefinition
  3

  2
DMAX
 70
     8
280
     0
  0
ATTDEF
  5
82
330
6E
100
AcDbEntity
  8
AM_6
100
AcDbText
 10
8.461318658536587
 20
-6.425778500000001
 30
0.0
 40
0.5
  1
5/32
100
AcDbAttributeDefinition
  3

  2
E
 70
     8
280
     0
  0
ATTDEF
  5
83
330
6E
100
AcDbEntity
  8
AM_6
100
AcDbText
 10
8.461318658536587
 20
-6.925778500000001
 30
0.0
 40
0.5
  1
1/2
100
AcDbAttributeDefinition
  3

  2
F
 70
     8
280
     0
  0
ATTDEF
  5
84
330
6E
100
AcDbEntity
  8
AM_6
100
AcDbText
 10
8.461318658536587
 20
-7.425778500000001
 30
0.0
 40
0.5
  1
31/32
100
AcDbAttributeDefinition
  3

  2
G
 70
     8
280
     0
  0
ATTDEF
  5
85
330
6E
100
AcDbEntity
  8
AM_6
100
AcDbText
 10
8.461318658536587
 20
-7.925778500000001
 30
0.0
 40
0.5
  1
1-3/16
100
AcDbAttributeDefinition
  3

  2
H
 70
     8
280
     0
  0
ATTDEF
  5
86
330
6E
100
AcDbEntity
  8
AM_6
100
AcDbText
 10
8.461318658536587
 20
-8.4257785
 30
0.0
 40
0.5
  1
3-7/8
100
AcDbAttributeDefinition
  3

  2
J
 70
     8
280
     0
  0
ATTDEF
  5
87
330
6E
100
AcDbEntity
  8
AM_6
100
AcDbText
 10
8.461318658536587
 20
-8.9257785
 30
0.0
 40
0.5
  1
2-3/4
100
AcDbAttributeDefinition
  3

  2
L
 70
     8
280
     0
  0
ATTDEF
  5
88
330
6E
100
AcDbEntity
  8
AM_6
100
AcDbText
 10
8.461318658536587
 20
-9.4257785
 30
0.0
 40
0.5
  1
1-7/8
100
AcDbAttributeDefinition
  3

  2
M
 70
     8
280
     0
  0
ATTDEF
  5
89
330
6E
100
AcDbEntity
  8
AM_6
100
AcDbText
 10
8.461318658536587
 20
-9.9257785
 30
0.0
 40
0.5
  1
1/2
100
AcDbAttributeDefinition
  3

  2
R
 70
     8
280
     0
  0
ATTDEF
  5
8A
330
6E
100
AcDbEntity
  8
AM_6
100
AcDbText
 10
8.461318658536587
 20
-10.4257785
 30
0.0
 40
0.5
  1
1-3/16
100
AcDbAttributeDefinition
  3

  2
S
 70
     8
280
     0
  0
ATTDEF
  5
8B
330
6E
100
AcDbEntity
  8
AM_6
100
AcDbText
 10
8.461318658536587
 20
-10.9257785
 30
0.0
 40
0.5
  1
3000
100
AcDbAttributeDefinition
  3

  2
MRPM
 70
     8
280
     0
  0
ATTDEF
  5
8C
330
6E
100
AcDbEntity
  8
AM_6
100
AcDbText
 10
8.461318658536587
 20
-11.4257785
 30
0.0
 40
0.5
  1
22400
100
AcDbAttributeDefinition
  3

  2
CS
 70
     8
280
     0
  0
ATTDEF
  5
8D
330
6E
100
AcDbEntity
  8
AM_6
100
AcDbText
 10
8.461318658536587
 20
-11.9257785
 30
0.0
 40
0.5
  1
20800
100
AcDbAttributeDefinition
  3

  2
CD
 70
     8
280
     0
  0
ATTDEF
  5
8E
330
6E
100
AcDbEntity
  8
AM_6
100
AcDbText
 10
8.461318658536587
 20
-12.4257785
 30
0.0
 40
0.5
  1
15
100
AcDbAttributeDefinition
  3

  2
RN
 70
     8
280
     0
  0
ATTDEF
  5
8F
330
6E
100
AcDbEntity
  8
AM_6
100
AcDbText
 10
8.461318658536587
 20
-12.9257785
 30
0.0
 40
0.5
  1
.04488
100
AcDbAttributeDefinition
  3

  2
RM
 70
     8
280
     0
  0
ATTDEF
  5
90
330
6E
100
AcDbEntity
  8
AM_6
100
AcDbText
 10
8.461318658536587
 20
-13.4257785
 30
0.0
 40
0.5
  1
2.449
100
AcDbAttributeDefinition
  3

  2
PD
 70
     8
280
     0
  0
ATTDEF
  5
91
330
6E
100
AcDbEntity
  8
AM_6
100
AcDbText
 10
8.461318658536587
 20
-13.9257785
 30
0.0
 40
0.5
  1
0.0012-0.0018
100
AcDbAttributeDefinition
  3

  2
RC
 70
     8
280
     0
  0
ATTDEF
  5
92
330
6E
100
AcDbEntity
  8
AM_6
100
AcDbText
 10
8.461318658536587
 20
-14.4257785
 30
0.0
 40
0.5
  1
5/16-18x5/8
100
AcDbAttributeDefinition
  3

  2
CSS
 70
     8
280
     0
  0
ATTDEF
  5
93
330
6E
100
AcDbEntity
  8
AM_6
100
AcDbText
 10
8.461318658536587
 20
-14.9257785
 30
0.0
 40
0.5
  1
165
100
AcDbAttributeDefinition
  3

  2
CST
 70
     8
280
     0
  0
ATTDEF
  5
94
330
6E
100
AcDbEntity
  8
AM_6
100
AcDbText
 10
8.461318658536587
 20
-15.4257785
 30
0.0
 40
0.5
  1
Ductile Iron Grade 65-45-12 ASTM A536
100
AcDbAttributeDefinition
  3

  2
MH
 70
     8
280
     0
  0
ATTDEF
  5
95
330
6E
100
AcDbEntity
  8
AM_6
100
AcDbText
 10
8.461318658536587
 20
-15.9257785
 30
0.0
 40
0.5
  1
4118 Case Carb.
100
AcDbAttributeDefinition
  3

  2
MIR
 70
     8
280
     0
  0
ATTDEF
  5
96
330
6E
100
AcDbEntity
  8
AM_6
100
AcDbText
 10
8.461318658536587
 20
-16.4257785
 30
0.0
 40
0.5
  1
E52100 Steel
100
AcDbAttributeDefinition
  3

  2
MOR
 70
     8
280
     0
  0
ATTDEF
  5
97
330
6E
100
AcDbEntity
  8
AM_6
100
AcDbText
 10
8.461318658536587
 20
-16.9257785
 30
0.0
 40
0.5
  1
Polyamide
100
AcDbAttributeDefinition
  3

  2
MR
 70
     8
280
     0
  0
ATTDEF
  5
98
330
6E
100
AcDbEntity
  8
AM_6
100
AcDbText
 10
8.461318658536587
 20
-17.4257785
 30
0.0
 40
0.5
  1
E52100 Steel
100
AcDbAttributeDefinition
  3

  2
MRO
 70
     8
280
     0
  0
ATTDEF
  5
99
330
6E
100
AcDbEntity
  8
AM_6
100
AcDbText
 10
8.461318658536587
 20
-17.9257785
 30
0.0
 40
0.5
  1
2°
100
AcDbAttributeDefinition
  3

  2
SM
 70
     8
280
     0
  0
ATTDEF
  5
9A
330
6E
100
AcDbEntity
  8
AM_6
100
AcDbText
 10
8.461318658536587
 20
-18.4257785
 30
0.0
 40
0.5
  1
baldor
100
AcDbAttributeDefinition
  3

  2
COMPANY
 70
     8
280
     0
  0
INSERT
  5
9C
330
6E
100
AcDbEntity
  8
0
100
AcDbBlockReference
  2
2_421243_0_in_048000_4
 10
0.0
 20
0.0
 30
0.0
  0
INSERT
  5
E9
330
6E
100
AcDbEntity
  8
0
100
AcDbBlockReference
  2
3_405020c_Inch_0_in_048000_4
 10
0.0
 20
0.0
 30
0.0
  0
INSERT
  5
144
330
6E
100
AcDbEntity
  8
0
100
AcDbBlockReference
  2
4_048000B_0_in_048000_4
 10
0.0
 20
0.0
 30
0.0
  0
ENDBLK
  5
71
330
6E
100
AcDbEntity
  8
0
100
AcDbBlockEnd
  0
BLOCK
  5
9D
330
9B
100
AcDbEntity
  8
0
100
AcDbBlockBegin
  2
2_421243_0_in_048000_4
 70
     2
 10
0.0
 20
0.0
 30
0.0
  3
2_421243_0_in_048000_4
  1

  0
ATTDEF
  5
9F
330
9B
100
AcDbEntity
  8
AM_6
100
AcDbText
 10
6.375
 20
0.5
 30
0.0
 40
0.5
  1
Unisphere II Insert With Seal - Inch
100
AcDbAttributeDefinition
  3

  2
NN
 70
     8
280
     0
  0
ATTDEF
  5
A0
330
9B
100
AcDbEntity
  8
AM_6
100
AcDbText
 10
6.375
 20
0.0
 30
0.0
 40
0.5
  1
Unisphere II
100
AcDbAttributeDefinition
  3

  2
NT
 70
     8
280
     0
  0
ATTDEF
  5
A1
330
9B
100
AcDbEntity
  8
AM_6
100
AcDbText
 10
6.375
 20
-0.5
 30
0.0
 40
0.5
  1
421243
100
AcDbAttributeDefinition
  3

  2
NB
 70
     8
280
     0
  0
ATTDEF
  5
A2
330
9B
100
AcDbEntity
  8
AM_6
100
AcDbText
 10
6.375
 20
-1.0
 30
0.0
 40
0.5
  1
$PN.
100
AcDbAttributeDefinition
  3

  2
NBSYN
 70
     8
280
     0
  0
ATTDEF
  5
A3
330
9B
100
AcDbEntity
  8
AM_6
100
AcDbText
 10
6.375
 20
-1.5
 30
0.0
 40
0.5
  1
421243
100
AcDbAttributeDefinition
  3

  2
LINA
 70
     8
280
     0
  0
ATTDEF
  5
A4
330
9B
100
AcDbEntity
  8
AM_6
100
AcDbText
 10
6.375
 20
-2.0
 30
0.0
 40
0.5
  1
1-7/16
100
AcDbAttributeDefinition
  3

  2
SS
 70
     8
280
     0
  0
ATTDEF
  5
A5
330
9B
100
AcDbEntity
  8
AM_6
100
AcDbText
 10
6.375
 20
-2.5
 30
0.0
 40
0.5
  1
1.43750
100
AcDbAttributeDefinition
  3

  2
SS1
 70
     8
280
     0
  0
ATTDEF
  5
A6
330
9B
100
AcDbEntity
  8
AM_6
100
AcDbText
 10
6.375
 20
-3.0
 30
0.0
 40
0.5
  1
3.1496
100
AcDbAttributeDefinition
  3

  2
A
 70
     8
280
     0
  0
ATTDEF
  5
A7
330
9B
100
AcDbEntity
  8
AM_6
100
AcDbText
 10
6.375
 20
-3.5
 30
0.0
 40
0.5
  1
2.75000
100
AcDbAttributeDefinition
  3

  2
A1
 70
     8
280
     0
  0
ATTDEF
  5
A8
330
9B
100
AcDbEntity
  8
AM_6
100
AcDbText
 10
6.375
 20
-4.0
 30
0.0
 40
0.5
  1
0.9455
100
AcDbAttributeDefinition
  3

  2
B
 70
     8
280
     0
  0
ATTDEF
  5
A9
330
9B
100
AcDbEntity
  8
AM_6
100
AcDbText
 10
6.375
 20
-4.5
 30
0.0
 40
0.5
  1
0.94550
100
AcDbAttributeDefinition
  3

  2
B1
 70
     8
280
     0
  0
ATTDEF
  5
AA
330
9B
100
AcDbEntity
  8
AM_6
100
AcDbText
 10
6.375
 20
-5.0
 30
0.0
 40
0.5
  1
1-11/16
100
AcDbAttributeDefinition
  3

  2
C
 70
     8
280
     0
  0
ATTDEF
  5
AB
330
9B
100
AcDbEntity
  8
AM_6
100
AcDbText
 10
6.375
 20
-5.5
 30
0.0
 40
0.5
  1
1.68750
100
AcDbAttributeDefinition
  3

  2
C1
 70
     8
280
     0
  0
ATTDEF
  5
AC
330
9B
100
AcDbEntity
  8
AM_6
100
AcDbText
 10
6.375
 20
-6.0
 30
0.0
 40
0.5
  1
0.557
100
AcDbAttributeDefinition
  3

  2
D
 70
     8
280
     0
  0
ATTDEF
  5
AD
330
9B
100
AcDbEntity
  8
AM_6
100
AcDbText
 10
6.375
 20
-6.5
 30
0.0
 40
0.5
  1
0.55700
100
AcDbAttributeDefinition
  3

  2
D1
 70
     8
280
     0
  0
ATTDEF
  5
AE
330
9B
100
AcDbEntity
  8
AM_6
100
AcDbText
 10
6.375
 20
-7.0
 30
0.0
 40
0.5
  1
0.286
100
AcDbAttributeDefinition
  3

  2
E
 70
     8
280
     0
  0
ATTDEF
  5
AF
330
9B
100
AcDbEntity
  8
AM_6
100
AcDbText
 10
6.375
 20
-7.5
 30
0.0
 40
0.5
  1
0.28600
100
AcDbAttributeDefinition
  3

  2
E1
 70
     8
280
     0
  0
ATTDEF
  5
B0
330
9B
100
AcDbEntity
  8
AM_6
100
AcDbText
 10
6.375
 20
-8.0
 30
0.0
 40
0.5
  1
421243
100
AcDbAttributeDefinition
  3

  2
PN
 70
     8
280
     0
  0
ATTDEF
  5
B1
330
9B
100
AcDbEntity
  8
AM_6
100
AcDbText
 10
6.375
 20
-8.5
 30
0.0
 40
0.5
  1
baldor
100
AcDbAttributeDefinition
  3

  2
COMPANY
 70
     8
280
     0
  0
ELLIPSE
  5
B4
330
9B
100
AcDbEntity
  8
AM_9
100
AcDbEllipse
 10
-0.6465714839422578
 20
-0.9014999999999999
 30
0.0
 11
-2.388061258337339E-17
 21
-0.13
 31
0.0
210
0.0
220
0.0
230
1.0
 40
0.4226182617407011
 41
0.7376263579047722
 42
2.403966295685022
  0
ELLIPSE
  5
B5
330
9B
100
AcDbEntity
  8
AM_9
100
AcDbEllipse
 10
-0.6465714839422575
 20
-0.9014999999999999
 30
0.0
 11
-2.388061258337335E-17
 21
-0.1299999999999998
 31
0.0
210
0.0
220
0.0
230
1.0
 40
0.4226182617407019
 41
3.879219011494563
 42
5.545558949274814
  0
LINE
  5
B6
330
9B
100
AcDbEntity
  8
AM_9
100
AcDbLine
 10
-1.219990982216557
 20
-1.0315
 30
0.0
 11
-0.6513370216563994
 21
-1.0315
 31
0.0
  0
LINE
  5
B7
330
9B
100
AcDbEntity
  8
AM_9
100
AcDbLine
 10
-0.6513370216563991
 20
-0.7715
 30
0.0
 11
-1.219990982216557
 21
-0.7715
 31
0.0
  0
LWPOLYLINE
  5
B8
330
9B
100
AcDbEntity
  8
AM_9
100
AcDbPolyline
 90
        6
 70
     0
 43
0.0
 10
-0.651405095704218
 20
-0.7715000002831212
 10
-0.6569170821151437
 20
-0.7721962778133246
 10
-0.6652757157694131
 20
-0.7761887493489374
 10
-0.6726746267378642
 20
-0.7836352804812103
 10
-0.6790610147420961
 20
-0.7942823962146445
 10
-0.6835207069510325
 20
-0.8052912906411902
  0
LWPOLYLINE
  5
B9
330
9B
100
AcDbEntity
  8
AM_9
100
AcDbPolyline
 90
        6
 70
     0
 43
0.0
 10
-0.6514123480681459
 20
-1.031499999716879
 10
-0.6456688812654173
 20
-1.030803722186675
 10
-0.6360313814554548
 20
-1.026811250651062
 10
-0.6263426262808804
 20
-1.019364719518789
 10
-0.6169238529036063
 20
-1.008717603785355
 10
-0.6096222609334828
 20
-0.9977087093588095
  0
LWPOLYLINE
  5
BA
330
9B
100
AcDbEntity
  8
AM_9
100
AcDbPolyline
 90
       13
 70
     0
 43
0.0
 10
0.0874293099796188
 20
-0.9977087093588087
 10
0.0988664938362047
 20
-0.9881967133091628
 10
0.1146357888585939
 20
-0.970593074832523
 10
0.1268643714993778
 20
-0.9503585360084963
 10
0.1342363317823969
 20
-0.930302895162267
 10
0.1377758064548814
 20
-0.909208316595477
 10
0.1374507616751562
 20
-0.890186220440517
 10
0.1339323752041476
 20
-0.8714985879930798
 10
0.127576200705599
 20
-0.8541849933916825
 10
0.1186320369612452
 20
-0.8380789265474555
 10
0.1065243643395032
 20
-0.8225462148194135
 10
0.0922150760140786
 20
-0.8090150132393623
 10
0.0874293099796188
 20
-0.8052912906411912
  0
LWPOLYLINE
  5
BB
330
9B
100
AcDbEntity
  8
AM_9
100
AcDbPolyline
 90
       13
 70
     0
 43
0.0
 10
-0.0874293099796188
 20
-0.8052912906411912
 10
-0.0988664938362047
 20
-0.8148032866908369
 10
-0.1146357888585938
 20
-0.8324069251674767
 10
-0.1268643714993778
 20
-0.8526414639915033
 10
-0.1342363317823968
 20
-0.8726971048377324
 10
-0.1377758064548814
 20
-0.8937916834045226
 10
-0.1374507616751562
 20
-0.9128137795594826
 10
-0.1339323752041476
 20
-0.9315014120069199
 10
-0.127576200705599
 20
-0.9488150066083172
 10
-0.1186320369612452
 20
-0.9649210734525443
 10
-0.1065243643395033
 20
-0.9804537851805861
 10
-0.0922150760140788
 20
-0.9939849867606372
 10
-0.0874293099796199
 20
-0.99770870935881
  0
LWPOLYLINE
  5
BC
330
9B
100
AcDbEntity
  8
AM_9
100
AcDbPolyline
 90
        6
 70
     0
 43
0.0
 10
-0.6835207069510325
 20
-0.9977087093588096
 10
-0.6779282945449359
 20
-1.010961844156828
 10
-0.6712496301997172
 20
-1.0211623833756
 10
-0.6635213447609336
 20
-1.027973627084488
 10
-0.6548981933428801
 20
-1.031230845315087
 10
-0.6514123480681459
 20
-1.031499999716879
  0
LWPOLYLINE
  5
BD
330
9B
100
AcDbEntity
  8
AM_9
100
AcDbPolyline
 90
       12
 70
     0
 43
0.0
 10
-0.6096222609334828
 20
-0.9977087093588095
 10
-0.6017144847377256
 20
-0.9851893988618359
 10
-0.5946547939342194
 20
-0.9706988509280341
 10
-0.5878533315936249
 20
-0.9513261788870508
 10
-0.58316456929555
 20
-0.9300583489233089
 10
-0.5811626089979621
 20
-0.9102565838223865
 10
-0.5812892583868956
 20
-0.8901662437679343
 10
-0.5833223169111182
 20
-0.8720064783442356
 10
-0.587020047937152
 20
-0.8546444617578894
 10
-0.5923239073136899
 20
-0.838131219250009
 10
-0.5988572215929282
 20
-0.8232043616781669
 10
-0.6096222609334828
 20
-0.8052912906411903
  0
LWPOLYLINE
  5
BE
330
9B
100
AcDbEntity
  8
AM_9
100
AcDbPolyline
 90
        6
 70
     0
 43
0.0
 10
-0.6096222609334828
 20
-0.8052912906411903
 10
-0.618672207519658
 20
-0.7920381558431718
 10
-0.6283093353503941
 20
-0.7818376166243997
 10
-0.6381517356275543
 20
-0.7750263729155119
 10
-0.6478310973349893
 20
-0.7717691546849131
 10
-0.651405095704218
 20
-0.7715000002831212
  0
LWPOLYLINE
  5
BF
330
9B
100
AcDbEntity
  8
AM_9
100
AcDbPolyline
 90
       13
 70
     0
 43
0.0
 10
-0.6835207069510325
 20
-0.8052912906411902
 10
-0.687375461699756
 20
-0.8160002631840338
 10
-0.6911111958075746
 20
-0.8304600732572096
 10
-0.6940067183813682
 20
-0.8467482006232007
 10
-0.6962145759323505
 20
-0.8664742588263026
 10
-0.6974022836256342
 20
-0.8874584536999249
 10
-0.697588751165296
 20
-0.9067333711555302
 10
-0.6969555254715348
 20
-0.9258486283873233
 10
-0.695578605141999
 20
-0.9434176881993497
 10
-0.6934549709786331
 20
-0.9599021450661974
 10
-0.6903894434142218
 20
-0.9757661178607236
 10
-0.6864896549350716
 20
-0.9897604490596158
 10
-0.6835207069510325
 20
-0.9977087093588095
  0
LINE
  5
C0
330
9B
100
AcDbEntity
  8
AM_9
100
AcDbLine
 10
0.71875
 20
-1.1875
 30
0.0
 11
0.71875
 21
0.5
 31
0.0
  0
LINE
  5
C1
330
9B
100
AcDbEntity
  8
AM_9
100
AcDbLine
 10
-0.71875
 20
0.5
 30
0.0
 11
-0.71875
 21
-1.1875
 31
0.0
  0
ELLIPSE
  5
C2
330
9B
100
AcDbEntity
  8
AM_9
100
AcDbEllipse
 10
-1.219990982216558
 20
-0.9015000000000001
 30
0.0
 11
-2.388061258337339E-17
 21
-0.13
 31
0.0
210
0.0
220
0.0
230
1.0
 40
0.4226182617407037
 41
0.3233076204917325
 42
2.831992866312984
  0
LINE
  5
C3
330
9B
100
AcDbEntity
  8
AM_9
100
AcDbLine
 10
-1.194371865066197
 20
-0.786499060272155
 30
0.0
 11
-1.213301452388507
 21
-0.7628884399322532
 31
0.0
  0
LINE
  5
C4
330
9B
100
AcDbEntity
  8
AM_9
100
AcDbLine
 10
-1.213447356285968
 20
-1.040293544041852
 30
0.0
 11
-1.194371865066197
 21
-1.016500939727845
 31
0.0
  0
LINE
  5
C5
330
9B
100
AcDbEntity
  8
AM_9
100
AcDbLine
 10
0.9821428571428571
 20
-0.6155
 30
0.0
 11
0.9821428571428571
 21
-0.4455000000000001
 31
0.0
  0
LINE
  5
C6
330
9B
100
AcDbEntity
  8
AM_9
100
AcDbLine
 10
-0.9821428571428571
 20
-0.4455000000000001
 30
0.0
 11
-0.9821428571428571
 21
-0.6155
 31
0.0
  0
LINE
  5
C7
330
9B
100
AcDbEntity
  8
AM_9
100
AcDbLine
 10
-1.355
 20
-0.6155
 30
0.0
 11
1.35499999999856
 21
-0.6155
 31
0.0
  0
ARC
  5
C8
330
9B
100
AcDbEntity
  8
AM_9
100
AcDbCircle
 10
1.355
 20
-0.6354999999999998
 30
0.0
 40
0.0199999999999998
100
AcDbArc
 50
0.0
 51
90.0
  0
ARC
  5
C9
330
9B
100
AcDbEntity
  8
AM_9
100
AcDbCircle
 10
-1.355
 20
-0.6354999999999998
 30
0.0
 40
0.0199999999999998
100
AcDbArc
 50
90.0
 51
180.0
  0
LINE
  5
CA
330
9B
100
AcDbEntity
  8
AM_9
100
AcDbLine
 10
1.375
 20
-0.4254999999999996
 30
0.0
 11
1.375
 21
0.4800000000000001
 31
0.0
  0
LINE
  5
CB
330
9B
100
AcDbEntity
  8
AM_9
100
AcDbLine
 10
-1.375
 20
0.4800000000000001
 30
0.0
 11
-1.375
 21
-0.4254999999999996
 31
0.0
  0
LINE
  5
CC
330
9B
100
AcDbEntity
  8
AM_9
100
AcDbLine
 10
-1.375
 20
0.4800000000000001
 30
0.0
 11
1.375
 21
0.4800000000000001
 31
0.0
  0
LINE
  5
CD
330
9B
100
AcDbEntity
  8
AM_9
100
AcDbLine
 10
-1.355
 20
0.5
 30
0.0
 11
1.35499999999856
 21
0.5
 31
0.0
  0
ARC
  5
CE
330
9B
100
AcDbEntity
  8
AM_9
100
AcDbCircle
 10
1.355
 20
0.4799999999999995
 30
0.0
 40
0.0200000000000005
100
AcDbArc
 50
0.0
 51
90.0
  0
ARC
  5
CF
330
9B
100
AcDbEntity
  8
AM_9
100
AcDbCircle
 10
-1.355
 20
0.4799999999999995
 30
0.0
 40
0.0200000000000005
100
AcDbArc
 50
90.0
 51
180.0
  0
LINE
  5
D0
330
9B
100
AcDbEntity
  8
AM_9
100
AcDbLine
 10
-1.355
 20
-0.4454999999999998
 30
0.0
 11
1.35499999999856
 21
-0.4454999999999998
 31
0.0
  0
LINE
  5
D1
330
9B
100
AcDbEntity
  8
AM_9
100
AcDbLine
 10
-1.375
 20
-0.4254999999999996
 30
0.0
 11
1.375
 21
-0.4254999999999996
 31
0.0
  0
ARC
  5
D2
330
9B
100
AcDbEntity
  8
AM_9
100
AcDbCircle
 10
1.355
 20
-0.4255000000000002
 30
0.0
 40
0.0199999999999996
100
AcDbArc
 50
270.0
 51
0.0
  0
ARC
  5
D3
330
9B
100
AcDbEntity
  8
AM_9
100
AcDbCircle
 10
-1.355
 20
-0.4255000000000003
 30
0.0
 40
0.0199999999999996
100
AcDbArc
 50
180.0
 51
270.0
  0
LINE
  5
D4
330
9B
100
AcDbEntity
  8
AM_9
100
AcDbLine
 10
-1.375
 20
-0.6354999999999998
 30
0.0
 11
1.375
 21
-0.6354999999999998
 31
0.0
  0
LINE
  5
D5
330
9B
100
AcDbEntity
  8
AM_9
100
AcDbLine
 10
1.375
 20
-0.7474692803423777
 30
0.0
 11
1.375
 21
-0.6354999999999998
 31
0.0
  0
LINE
  5
D6
330
9B
100
AcDbEntity
  8
AM_9
100
AcDbLine
 10
-1.375
 20
-0.6354999999999998
 30
0.0
 11
-1.375
 21
-0.7474692803423777
 31
0.0
  0
LINE
  5
D9
330
9B
100
AcDbEntity
  8
AM_7
100
AcDbLine
 10
-0.1365
 20
-0.9015
 30
0.0
 11
0.1365
 21
-0.9015
 31
0.0
  0
ELLIPSE
  5
DB
330
9B
100
AcDbEntity
  8
AM_4
100
AcDbEllipse
 10
-1.219990982216557
 20
-0.9015
 30
0.0
 11
-2.388061258337337E-17
 21
-0.1299999999999999
 31
0.0
210
0.0
220
0.0
230
1.0
 40
0.4226182617406989
 41
2.831992866312993
 42
6.606492927671311
  0
LWPOLYLINE
  5
DC
330
9B
100
AcDbEntity
  8
AM_4
100
AcDbPolyline
 90
       15
 70
     0
 43
0.0
 10
-1.213468096095871
 20
-0.7626805899344887
 10
-1.209554344403415
 20
-0.7679074814734389
 10
-1.200294204104487
 20
-0.7833760177957828
 10
-1.192139648994198
 20
-0.8016920214345826
 10
-1.185057077330506
 20
-0.8235035124123898
 10
-1.179727898670751
 20
-0.8472831374962928
 10
-1.176252406535581
 20
-0.8736219402277333
 10
-1.175022825596276
 20
-0.9007078789642462
 10
-1.176177331345202
 20
-0.9285023764596086
 10
-1.179695770165449
 20
-0.9555360914978673
 10
-1.185486059131041
 20
-0.9810414891658132
 10
-1.193282917397949
 20
-1.004225145159956
 10
-1.202555354917089
 20
-1.023838496239765
 10
-1.213082714272196
 20
-1.039835303566077
 10
-1.213475868569374
 20
-1.040329106852512
  0
LWPOLYLINE
  5
DD
330
9B
100
AcDbEntity
  8
AM_4
100
AcDbPolyline
 90
       19
 70
     0
 43
0.0
 10
-1.213475868569374
 20
-1.040329106852512
 10
-1.22389046036454
 20
-1.051070098312846
 10
-1.235056466692352
 20
-1.058037485136987
 10
-1.245584742193972
 20
-1.060364556504739
 10
-1.255742969843021
 20
-1.058511368313102
 10
-1.265004606113164
 20
-1.052686295963198
 10
-1.273438720412348
 20
-1.043164521738767
 10
-1.281009888450724
 20
-1.029955216885512
 10
-1.287477284015239
 20
-1.013668070197221
 10
-1.293005197003309
 20
-0.9937748653380853
 10
-1.297250630527778
 20
-0.9715949318387027
 10
-1.300321567061594
 20
-0.9464420700558126
 10
-1.30199145116038
 20
-0.9201076108400054
 10
-1.302243921830418
 20
-0.8923900494609551
 10
-1.301013187087755
 20
-0.8649254551720219
 10
-1.298245735398175
 20
-0.8382607625880174
 10
-1.293945806951367
 20
-0.8134239010513851
 10
-1.289511494933175
 20
-0.7958419511309776
 10
-1.284143912683438
 20
-0.7802125976641058
  0
LINE
  5
DE
330
9B
100
AcDbEntity
  8
AM_4
100
AcDbLine
 10
-1.34125
 20
-1.1875
 30
0.0
 11
1.341249999994975
 21
-1.1875
 31
0.0
  0
ARC
  5
DF
330
9B
100
AcDbEntity
  8
AM_4
100
AcDbCircle
 10
1.34125
 20
-1.15375
 30
0.0
 40
0.0337499999999999
100
AcDbArc
 50
270.0
 51
0.0
  0
ARC
  5
E0
330
9B
100
AcDbEntity
  8
AM_4
100
AcDbCircle
 10
-1.34125
 20
-1.15375
 30
0.0
 40
0.0337499999999997
100
AcDbArc
 50
180.0
 51
270.0
  0
LINE
  5
E1
330
9B
100
AcDbEntity
  8
AM_4
100
AcDbLine
 10
-1.375
 20
-1.15375
 30
0.0
 11
1.375
 21
-1.15375
 31
0.0
  0
LWPOLYLINE
  5
E2
330
9B
100
AcDbEntity
  8
AM_4
100
AcDbPolyline
 90
       39
 70
     0
 43
0.0
 10
-0.1091253432516921
 20
-0.7920564041534794
 10
-0.09276124504034
 20
-0.7763784817925266
 10
-0.073803548051124
 20
-0.7630342523391933
 10
-0.050987532755449
 20
-0.7520131162444068
 10
-0.0257945066807148
 20
-0.7449640981366183
 10
-0.0017658702272833
 20
-0.7426220582358742
 10
0.0230439859939587
 20
-0.7444862305946159
 10
0.0459098203785046
 20
-0.7501892949607357
 10
0.0681254508236633
 20
-0.7598284717854427
 10
0.0882994336629997
 20
-0.7728335677423579
 10
0.10659983459328
 20
-0.7893207536630491
 10
0.1223643093525133
 20
-0.8089323895262893
 10
0.1351277622628316
 20
-0.8313903646698867
 10
0.1443474501751735
 20
-0.8561920392666164
 10
0.1495741791797996
 20
-0.8828755305115165
 10
0.1503882776130313
 20
-0.9102034356074755
 10
0.146564725308603
 20
-0.9380576430784076
 10
0.1383066178926388
 20
-0.9643453643034593
 10
0.1253196451188298
 20
-0.989561513647269
 10
0.1089582169987803
 20
-1.011128728244135
 10
0.0884360827152194
 20
-1.030061866607586
 10
0.0665713480114681
 20
-1.043992531786536
 10
0.0417890341563576
 20
-1.054136545734171
 10
0.0178089944477859
 20
-1.059271609808517
 10
-0.0074704669735411
 20
-1.060192856139106
 10
-0.0308968203879495
 20
-1.057001965295938
 10
-0.0541082470150103
 20
-1.049758785773167
 10
-0.0753189165378083
 20
-1.039053515394463
 10
-0.0950380662817497
 20
-1.024704237110386
 10
-0.1124518588016663
 20
-1.007130364805802
 10
-0.1272213715233015
 20
-0.9864757124792699
 10
-0.1387996376506304
 20
-0.9631259040482075
 10
-0.1466806005745331
 20
-0.9375378573443703
 10
-0.150363514347745
 20
-0.9106661469564392
 10
-0.149564710562662
 20
-0.8827912949508135
 10
-0.144222775078145
 20
-0.8557532014369703
 10
-0.1341131796119139
 20
-0.8292578530719673
 10
-0.1230558297506148
 20
-0.8099574441593727
 10
-0.1091253433368378
 20
-0.7920564040997172
  0
LWPOLYLINE
  5
E3
330
9B
100
AcDbEntity
  8
AM_4
100
AcDbPolyline
 90
        9
 70
     0
 43
0.0
 10
-1.284143912683438
 20
-0.7802125976641058
 10
-1.277459536859934
 20
-0.7662076342966757
 10
-1.269815750909758
 20
-0.7551678253878177
 10
-1.260448665390364
 20
-0.7469212935941019
 10
-1.250264021557619
 20
-0.7429454413071674
 10
-1.239998283904538
 20
-0.7433616393670845
 10
-1.229537568371096
 20
-0.7478248712389836
 10
-1.219320673990705
 20
-0.7561122226346713
 10
-1.213468096095871
 20
-0.7626805899344887
  0
LINE
  5
E4
330
9B
100
AcDbEntity
  8
AM_4
100
AcDbLine
 10
1.375
 20
-1.15375
 30
0.0
 11
1.375
 21
-0.7474692803423777
 31
0.0
  0
LINE
  5
E5
330
9B
100
AcDbEntity
  8
AM_4
100
AcDbLine
 10
-1.375
 20
-0.7474692803423777
 30
0.0
 11
-1.375
 21
-1.15375
 31
0.0
  0
ARC
  5
E7
330
9B
100
AcDbEntity
  8
AM_5
100
AcDbCircle
 10
0.0000000000000001
 20
-0.9015
 30
0.0
 40
0.1299999999999999
100
AcDbArc
 50
75.00000000000001
 51
14.99999999999997
  0
ENDBLK
  5
9E
330
9B
100
AcDbEntity
  8
0
100
AcDbBlockEnd
  0
BLOCK
  5
EA
330
E8
100
AcDbEntity
  8
0
100
AcDbBlockBegin
  2
3_405020c_Inch_0_in_048000_4
 70
     2
 10
0.0
 20
0.0
 30
0.0
  3
3_405020c_Inch_0_in_048000_4
  1

  0
ATTDEF
  5
EC
330
E8
100
AcDbEntity
  8
AM_6
100
AcDbText
 10
6.25498020799089
 20
0.1624086307230418
 30
0.0
 40
0.5
  1
405020C -Inch
100
AcDbAttributeDefinition
  3

  2
NN
 70
     8
280
     0
  0
ATTDEF
  5
ED
330
E8
100
AcDbEntity
  8
AM_6
100
AcDbText
 10
6.25498020799089
 20
-0.3375913692769582
 30
0.0
 40
0.5
  1
Grease fitting
100
AcDbAttributeDefinition
  3

  2
NT
 70
     8
280
     0
  0
ATTDEF
  5
EE
330
E8
100
AcDbEntity
  8
AM_6
100
AcDbText
 10
6.25498020799089
 20
-0.8375913692769582
 30
0.0
 40
0.5
  1
405020c-Inch
100
AcDbAttributeDefinition
  3

  2
NB
 70
     8
280
     0
  0
ATTDEF
  5
EF
330
E8
100
AcDbEntity
  8
AM_6
100
AcDbText
 10
6.25498020799089
 20
-1.337591369276958
 30
0.0
 40
0.5
  1
$MN.-Inch
100
AcDbAttributeDefinition
  3

  2
NBSYN
 70
     8
280
     0
  0
ATTDEF
  5
F0
330
E8
100
AcDbEntity
  8
AM_6
100
AcDbText
 10
6.25498020799089
 20
-1.837591369276958
 30
0.0
 40
0.5
  1
405020c
100
AcDbAttributeDefinition
  3

  2
LINA
 70
     8
280
     0
  0
ATTDEF
  5
F1
330
E8
100
AcDbEntity
  8
AM_6
100
AcDbText
 10
6.25498020799089
 20
-2.337591369276958
 30
0.0
 40
0.5
  1
405020c
100
AcDbAttributeDefinition
  3

  2
MN
 70
     8
280
     0
  0
ATTDEF
  5
F2
330
E8
100
AcDbEntity
  8
AM_6
100
AcDbText
 10
6.25498020799089
 20
-2.837591369276958
 30
0.0
 40
0.5
  1
0.230
100
AcDbAttributeDefinition
  3

  2
NDR
 70
     8
280
     0
  0
ATTDEF
  5
F3
330
E8
100
AcDbEntity
  8
AM_6
100
AcDbText
 10
6.25498020799089
 20
-3.337591369276958
 30
0.0
 40
0.5
  1
0.210
100
AcDbAttributeDefinition
  3

  2
KDR
 70
     8
280
     0
  0
ATTDEF
  5
F4
330
E8
100
AcDbEntity
  8
AM_6
100
AcDbText
 10
6.25498020799089
 20
-3.837591369276958
 30
0.0
 40
0.5
  1
0.157
100
AcDbAttributeDefinition
  3

  2
BZE
 70
     8
280
     0
  0
ATTDEF
  5
F5
330
E8
100
AcDbEntity
  8
AM_6
100
AcDbText
 10
6.25498020799089
 20
-4.337591369276958
 30
0.0
 40
0.5
  1
9/32
100
AcDbAttributeDefinition
  3

  2
WAF
 70
     8
280
     0
  0
ATTDEF
  5
F6
330
E8
100
AcDbEntity
  8
AM_6
100
AcDbText
 10
6.25498020799089
 20
-4.837591369276958
 30
0.0
 40
0.5
  1
0.2813
100
AcDbAttributeDefinition
  3

  2
WAF1
 70
     8
280
     0
  0
ATTDEF
  5
F7
330
E8
100
AcDbEntity
  8
AM_6
100
AcDbText
 10
6.25498020799089
 20
-5.337591369276958
 30
0.0
 40
0.5
  1
0.545
100
AcDbAttributeDefinition
  3

  2
BL
 70
     8
280
     0
  0
ATTDEF
  5
F8
330
E8
100
AcDbEntity
  8
AM_6
100
AcDbText
 10
6.25498020799089
 20
-5.837591369276958
 30
0.0
 40
0.5
  1
0.200
100
AcDbAttributeDefinition
  3

  2
TL
 70
     8
280
     0
  0
ATTDEF
  5
F9
330
E8
100
AcDbEntity
  8
AM_6
100
AcDbText
 10
6.25498020799089
 20
-6.337591369276958
 30
0.0
 40
0.5
  1
baldor
100
AcDbAttributeDefinition
  3

  2
COMPANY
 70
     8
280
     0
  0
ELLIPSE
  5
FA
330
E8
100
AcDbEntity
  8
AM_9
100
AcDbEllipse
 10
0.9000000000000002
 20
0.0000000000000001
 30
0.0
 11
-1.838598171376523E-17
 21
-0.1000886227036577
 31
0.0
210
0.0
220
0.0
230
1.0
 40
0.8660254037844382
 41
0.0
 42
6.283185307179586
  0
LWPOLYLINE
  5
FB
330
E8
100
AcDbEntity
  8
AM_9
100
AcDbPolyline
 90
        3
 70
     0
 43
0.0
 10
1.106422497465048
 20
-0.09250698348966
 10
1.092268008735289
 20
-0.1014141150849085
 10
1.060903236521141
 20
-0.1218064730422812
  0
LINE
  5
FC
330
E8
100
AcDbEntity
  8
AM_9
100
AcDbLine
 10
1.124721576807605
 20
-0.0812043153615208
 30
0.0
 11
1.106422497465048
 21
-0.09250698348966
 31
0.0
  0
LWPOLYLINE
  5
FD
330
E8
100
AcDbEntity
  8
AM_9
100
AcDbPolyline
 90
        3
 70
     0
 43
0.0
 10
1.121806473042282
 20
0.0000000000000001
 10
1.122575910773516
 20
-0.0406021576807603
 10
1.124721576807605
 20
-0.0812043153615208
  0
LINE
  5
FE
330
E8
100
AcDbEntity
  8
AM_9
100
AcDbLine
 10
1.105745414269094
 20
0.0929295226896471
 30
0.0
 11
1.124721576807605
 21
0.081204315361521
 31
0.0
  0
LWPOLYLINE
  5
FF
330
E8
100
AcDbEntity
  8
AM_9
100
AcDbPolyline
 90
        3
 70
     0
 43
0.0
 10
1.060903236521141
 20
0.1218064730422814
 10
1.092124292512946
 20
0.1015053942019012
 10
1.105745414269094
 20
0.0929295226896471
  0
LWPOLYLINE
  5
100
330
E8
100
AcDbEntity
  8
AM_9
100
AcDbPolyline
 90
        4
 70
     0
 43
0.0
 10
1.124721576807605
 20
0.081204315361521
 10
1.123572372260408
 20
0.0623017518439032
 10
1.122265768908418
 20
0.0312428256208205
 10
1.121806473042282
 20
0.0000000000000001
  0
LINE
  5
101
330
E8
100
AcDbEntity
  8
AM_9
100
AcDbLine
 10
1.152224702610292
 20
-0.0812043153615208
 30
0.0
 11
1.124721576807605
 21
-0.0812043153615208
 31
0.0
  0
LINE
  5
102
330
E8
100
AcDbEntity
  8
AM_9
100
AcDbLine
 10
1.152224702610292
 20
0.081204315361521
 30
0.0
 11
1.124721576807605
 21
0.081204315361521
 31
0.0
  0
LWPOLYLINE
  5
103
330
E8
100
AcDbEntity
  8
AM_9
100
AcDbPolyline
 90
        3
 70
     0
 43
0.0
 10
1.152224702610292
 20
0.081204315361521
 10
1.124048871512444
 20
0.1014141150849087
 10
1.094236569854474
 20
0.1218064730422814
  0
LWPOLYLINE
  5
104
330
E8
100
AcDbEntity
  8
AM_9
100
AcDbPolyline
 90
        4
 70
     0
 43
0.0
 10
1.155139806375615
 20
0.0000000000000001
 10
1.154683178075432
 20
0.0311508759219517
 10
1.153373907157489
 20
0.0623017518439032
 10
1.152224702610292
 20
0.081204315361521
  0
LWPOLYLINE
  5
105
330
E8
100
AcDbEntity
  8
AM_9
100
AcDbPolyline
 90
        3
 70
     0
 43
0.0
 10
1.094236569854474
 20
-0.1218064730422812
 10
1.12391875038381
 20
-0.101505394201901
 10
1.152224702610292
 20
-0.0812043153615208
  0
LWPOLYLINE
  5
106
330
E8
100
AcDbEntity
  8
AM_9
100
AcDbPolyline
 90
        3
 70
     0
 43
0.0
 10
1.152224702610292
 20
-0.0812043153615208
 10
1.154363571097526
 20
-0.0407847159147454
 10
1.155139806375615
 20
0.0000000000000001
  0
LWPOLYLINE
  5
107
330
E8
100
AcDbEntity
  8
AM_9
100
AcDbPolyline
 90
        3
 70
     0
 43
0.0
 10
1.002915103765323
 20
0.1624086307230418
 10
1.031090934863171
 20
0.1421988309996541
 10
1.060903236521141
 20
0.1218064730422814
  0
LWPOLYLINE
  5
108
330
E8
100
AcDbEntity
  8
AM_9
100
AcDbPolyline
 90
        3
 70
     0
 43
0.0
 10
1.060903236521141
 20
-0.1218064730422812
 10
1.031221055991805
 20
-0.1421075518826614
 10
1.002915103765323
 20
-0.1624086307230416
  0
LINE
  5
109
330
E8
100
AcDbEntity
  8
AM_9
100
AcDbLine
 10
0.8999877976204066
 20
-0.1102543821984235
 30
0.0
 11
0.994541168084269
 21
-0.1161729401709174
 31
0.0
  0
LINE
  5
10A
330
E8
100
AcDbEntity
  8
AM_9
100
AcDbLine
 10
0.9945411680842688
 20
0.1161729401709176
 30
0.0
 11
0.8999877976204064
 21
0.1102543821984237
 31
0.0
  0
LINE
  5
10B
330
E8
100
AcDbEntity
  8
AM_9
100
AcDbLine
 10
1.094236569854474
 20
0.1218064730422814
 30
0.0
 11
1.08332205966948
 21
0.1290169544785658
 31
0.0
  0
LINE
  5
10C
330
E8
100
AcDbEntity
  8
AM_9
100
AcDbLine
 10
1.083371017880869
 20
-0.1289848984423827
 30
0.0
 11
1.094236569854474
 21
-0.1218064730422812
 31
0.0
  0
ELLIPSE
  5
10D
330
E8
100
AcDbEntity
  8
AM_9
100
AcDbEllipse
 10
1.033333333333241
 20
-0.000000000000056
 30
0.0
 11
8.612328615007591E-18
 21
0.1406500000000626
 31
0.0
210
0.0
220
0.0
230
1.0
 40
0.8660254037846622
 41
3.5493239161517
 42
5.871298706568876
  0
ELLIPSE
  5
10E
330
E8
100
AcDbEntity
  8
AM_9
100
AcDbEllipse
 10
1.048993608043448
 20
0.0000000000000001
 30
0.0
 11
6.694498085252778E-18
 21
0.1093294505797712
 31
0.0
210
0.0
220
0.0
230
1.0
 40
0.8660254037844177
 41
3.122188238394561
 42
6.283185307179586
  0
LWPOLYLINE
  5
10F
330
E8
100
AcDbEntity
  8
AM_9
100
AcDbPolyline
 90
        3
 70
     0
 43
0.0
 10
1.01386873029406
 20
-0.0671829630570269
 10
1.013264268920408
 20
-0.0664243417359363
 10
1.009076387343702
 20
-0.0606590260717652
  0
LWPOLYLINE
  5
110
330
E8
100
AcDbEntity
  8
AM_9
100
AcDbPolyline
 90
       31
 70
     0
 43
0.0
 10
1.066671277573112
 20
0.0946847896390989
 10
1.070360905516635
 20
0.0945684011010636
 10
1.079900837184682
 20
0.0931787856165657
 10
1.089267561645523
 20
0.0902296040998827
 10
1.098217899949949
 20
0.0858111411519472
 10
1.106596404201832
 20
0.0800447619739144
 10
1.11429958758731
 20
0.0730451747455537
 10
1.121237155955545
 20
0.0649212385028407
 10
1.127317356535764
 20
0.0557882668612974
 10
1.13244806106351
 20
0.0457767960689183
 10
1.136543041020425
 20
0.0350359494732645
 10
1.13952865208883
 20
0.0237329112918155
 10
1.1413493730882
 20
0.0120499891442322
 10
1.141971842174906
 20
0.0001802503323739
 10
1.141387395442838
 20
-0.0116776549752771
 10
1.139613364200983
 20
-0.0233241963936217
 10
1.136693092221438
 20
-0.0345653609731246
 10
1.132694129400493
 20
-0.0452191171682951
 10
1.127705275314545
 20
-0.0551199753167131
 10
1.121831847055494
 20
-0.0641238865898227
 10
1.115188983222317
 20
-0.0721118591842048
 10
1.107892941032231
 20
-0.0789913493336008
 10
1.100050789325483
 20
-0.0846940991841185
 10
1.091750005935458
 20
-0.0891687804405451
 10
1.083051976941889
 20
-0.0923671336583051
 10
1.073998165857526
 20
-0.0942250947256352
 10
1.064642631967308
 20
-0.0946496177547651
 10
1.055112813969113
 20
-0.0935371327114512
 10
1.045695405323886
 20
-0.090857177194003
 10
1.036658474607303
 20
-0.0866880662285306
 10
1.028827172221465
 20
-0.0816403794538523
  0
LWPOLYLINE
  5
111
330
E8
100
AcDbEntity
  8
AM_9
100
AcDbPolyline
 90
        5
 70
     0
 43
0.0
 10
1.032953563809944
 20
0.0844795537539404
 10
1.040104735663019
 20
0.0884739269238528
 10
1.048736338834088
 20
0.0919003465655914
 10
1.057730554855378
 20
0.0939995736311759
 10
1.066671277573112
 20
0.0946847896390989
  0
LWPOLYLINE
  5
112
330
E8
100
AcDbEntity
  8
AM_9
100
AcDbPolyline
 90
        4
 70
     0
 43
0.0
 10
1.007342017743342
 20
0.0579703041511668
 10
1.010420272998684
 20
0.0626132556540666
 10
1.016936529672592
 20
0.0707870775892757
 10
1.018464143279145
 20
0.0724410340703173
  0
ELLIPSE
  5
113
330
E8
100
AcDbEntity
  8
AM_9
100
AcDbEllipse
 10
1.077236734117724
 20
0.000000000000459
 30
0.0
 11
6.084620899796115E-18
 21
0.09936940028802534
 31
0.0
210
0.0
220
0.0
230
1.0
 40
0.8660254037890581
 41
2.201405349609074
 42
6.283185307179586
  0
ELLIPSE
  5
114
330
E8
100
AcDbEntity
  8
AM_9
100
AcDbEllipse
 10
1.11141214438732
 20
0.0000000000000007
 30
0.0
 11
8.036249332247464E-18
 21
0.1312419113468898
 31
0.0
210
0.0
220
0.0
230
1.0
 40
0.8660254037844418
 41
2.201405349610313
 42
7.223372611159077
  0
ELLIPSE
  5
115
330
E8
100
AcDbEntity
  8
AM_9
100
AcDbEllipse
 10
1.13174587914307
 20
0.0000000000000002
 30
0.0
 11
8.079715312105923E-18
 21
0.1319517646676795
 31
0.0
210
0.0
220
0.0
230
1.0
 40
0.866025403784437
 41
3.967571964592127
 42
5.457205996177253
  0
ELLIPSE
  5
116
330
E8
100
AcDbEntity
  8
AM_9
100
AcDbEllipse
 10
1.164884139106117
 20
0.0000000000000001
 30
0.0
 11
6.357083428130939E-18
 21
0.1038190510530381
 31
0.0
210
0.0
220
0.0
230
1.0
 40
0.8660254037844357
 41
3.967571964592119
 42
5.338568851286576
  0
ELLIPSE
  5
117
330
E8
100
AcDbEntity
  8
AM_9
100
AcDbEllipse
 10
1.000000000000001
 20
0.0000000000000007
 30
0.0
 11
8.612328615003817E-18
 21
0.1406500000000009
 31
0.0
210
0.0
220
0.0
230
1.0
 40
0.866025403784437
 41
0.0
 42
6.283185307179586
  0
ELLIPSE
  5
118
330
E8
100
AcDbEntity
  8
AM_9
100
AcDbEllipse
 10
1.0
 20
0.0000000000000001
 30
0.0
 11
7.124004163867293E-18
 21
0.1163438171532772
 31
0.0
210
0.0
220
0.0
230
1.0
 40
0.8660254037844267
 41
0.0
 42
6.283185307179586
  0
ELLIPSE
  5
119
330
E8
100
AcDbEntity
  8
AM_9
100
AcDbEllipse
 10
0.9051638184451659
 20
0.0000000000000001
 30
0.0
 11
6.761045944280105E-18
 21
0.1104162595939892
 31
0.0
210
0.0
220
0.0
230
1.0
 40
0.8660254037844208
 41
0.0
 42
6.283185307179586
  0
LWPOLYLINE
  5
11A
330
E8
100
AcDbEntity
  8
AM_4
100
AcDbPolyline
 90
        3
 70
     0
 43
0.0
 10
1.08332205966948
 20
0.1290169544785658
 10
1.063015513862669
 20
0.1421075518826616
 10
1.030418229568011
 20
0.1624086307230418
  0
LWPOLYLINE
  5
11B
330
E8
100
AcDbEntity
  8
AM_4
100
AcDbPolyline
 90
        3
 70
     0
 43
0.0
 10
1.030418229568011
 20
-0.1624086307230416
 10
1.062871797640326
 20
-0.1421988309996539
 10
1.083371017880869
 20
-0.1289848984423827
  0
LINE
  5
11C
330
E8
100
AcDbEntity
  8
AM_4
100
AcDbLine
 10
1.030418229568011
 20
0.1624086307230418
 30
0.0
 11
1.002915103765323
 21
0.1624086307230418
 31
0.0
  0
LWPOLYLINE
  5
11D
330
E8
100
AcDbEntity
  8
AM_4
100
AcDbPolyline
 90
        3
 70
     0
 43
0.0
 10
0.9390967634788596
 20
0.1218064730422814
 10
0.9703178194706645
 20
0.1421075518826616
 10
1.002915103765323
 20
0.1624086307230418
  0
LWPOLYLINE
  5
11E
330
E8
100
AcDbEntity
  8
AM_4
100
AcDbPolyline
 90
        3
 70
     0
 43
0.0
 10
0.881108630723042
 20
0.081204315361521
 10
0.9092844618208897
 20
0.1014141150849086
 10
0.9390967634788596
 20
0.1218064730422814
  0
LWPOLYLINE
  5
11F
330
E8
100
AcDbEntity
  8
AM_4
100
AcDbPolyline
 90
        3
 70
     0
 43
0.0
 10
1.030418229568011
 20
0.1624086307230418
 10
1.002242398470163
 20
0.1421988309996541
 10
0.972430096812193
 20
0.1218064730422814
  0
LWPOLYLINE
  5
120
330
E8
100
AcDbEntity
  8
AM_4
100
AcDbPolyline
 90
        3
 70
     0
 43
0.0
 10
0.972430096812193
 20
0.1218064730422814
 10
0.941209040820388
 20
0.1015053942019012
 10
0.9086117565257292
 20
0.081204315361521
  0
LINE
  5
121
330
E8
100
AcDbEntity
  8
AM_4
100
AcDbLine
 10
0.9086117565257292
 20
0.081204315361521
 30
0.0
 11
0.881108630723042
 21
0.081204315361521
 31
0.0
  0
LWPOLYLINE
  5
122
330
E8
100
AcDbEntity
  8
AM_4
100
AcDbPolyline
 90
        4
 70
     0
 43
0.0
 10
0.8781935269577189
 20
0.0000000000000001
 10
0.8786501552579018
 20
0.0311508759219517
 10
0.8799594261758449
 20
0.0623017518439032
 10
0.881108630723042
 20
0.081204315361521
  0
LWPOLYLINE
  5
123
330
E8
100
AcDbEntity
  8
AM_4
100
AcDbPolyline
 90
        3
 70
     0
 43
0.0
 10
0.881108630723042
 20
-0.0812043153615208
 10
0.8789697622358082
 20
-0.0407847159147454
 10
0.8781935269577189
 20
0.0000000000000001
  0
LWPOLYLINE
  5
124
330
E8
100
AcDbEntity
  8
AM_4
100
AcDbPolyline
 90
        3
 70
     0
 43
0.0
 10
0.9115268602910522
 20
0.0000000000000001
 10
0.9107574225598177
 20
-0.0406021576807603
 10
0.9086117565257292
 20
-0.0812043153615208
  0
LWPOLYLINE
  5
125
330
E8
100
AcDbEntity
  8
AM_4
100
AcDbPolyline
 90
        4
 70
     0
 43
0.0
 10
0.9086117565257292
 20
0.081204315361521
 10
0.9097609610729263
 20
0.0623017518439032
 10
0.911067564424916
 20
0.0312428256208205
 10
0.9115268602910522
 20
0.0000000000000001
  0
LINE
  5
126
330
E8
100
AcDbEntity
  8
AM_4
100
AcDbLine
 10
0.9086117565257292
 20
-0.0812043153615208
 30
0.0
 11
0.881108630723042
 21
-0.0812043153615208
 31
0.0
  0
LWPOLYLINE
  5
127
330
E8
100
AcDbEntity
  8
AM_4
100
AcDbPolyline
 90
        3
 70
     0
 43
0.0
 10
0.9390967634788596
 20
-0.1218064730422811
 10
0.9094145829495238
 20
-0.1015053942019009
 10
0.881108630723042
 20
-0.0812043153615208
  0
LWPOLYLINE
  5
128
330
E8
100
AcDbEntity
  8
AM_4
100
AcDbPolyline
 90
        3
 70
     0
 43
0.0
 10
1.002915103765323
 20
-0.1624086307230416
 10
0.970461535693008
 20
-0.1421988309996539
 10
0.9390967634788596
 20
-0.1218064730422811
  0
LINE
  5
129
330
E8
100
AcDbEntity
  8
AM_4
100
AcDbLine
 10
1.030418229568011
 20
-0.1624086307230416
 30
0.0
 11
1.002915103765323
 21
-0.1624086307230416
 31
0.0
  0
LWPOLYLINE
  5
12A
330
E8
100
AcDbEntity
  8
AM_4
100
AcDbPolyline
 90
        3
 70
     0
 43
0.0
 10
0.972430096812193
 20
-0.1218064730422812
 10
1.002112277341529
 20
-0.1421075518826614
 10
1.030418229568011
 20
-0.1624086307230416
  0
LWPOLYLINE
  5
12B
330
E8
100
AcDbEntity
  8
AM_4
100
AcDbPolyline
 90
        3
 70
     0
 43
0.0
 10
0.9086117565257292
 20
-0.0812043153615208
 10
0.9410653245980446
 20
-0.1014141150849085
 10
0.972430096812193
 20
-0.1218064730422812
  0
ELLIPSE
  5
12C
330
E8
100
AcDbEntity
  8
AM_4
100
AcDbEllipse
 10
1.033333333333333
 20
0.0
 30
0.0
 11
8.612328615003743E-18
 21
0.1406499999999997
 31
0.0
210
0.0
220
0.0
230
1.0
 40
0.8660254037844398
 41
5.871298706569318
 42
9.832509223330522
  0
ELLIPSE
  5
12D
330
E8
100
AcDbEntity
  8
AM_4
100
AcDbEllipse
 10
1.048993608043448
 20
0.0000000000000001
 30
0.0
 11
6.694498085252784E-18
 21
0.1093294505797713
 31
0.0
210
0.0
220
0.0
230
1.0
 40
0.8660254037844171
 41
0.0
 42
3.122188238394561
  0
LINE
  5
12E
330
E8
100
AcDbEntity
  8
AM_4
100
AcDbLine
 10
1.007731665606296
 20
-0.0585918508151906
 30
0.0
 11
1.019613481889388
 21
-0.077385054836875
 31
0.0
  0
LINE
  5
12F
330
E8
100
AcDbEntity
  8
AM_4
100
AcDbLine
 10
1.019613481889388
 20
0.0773850548368752
 30
0.0
 11
1.007731665606296
 21
0.0585918508151908
 31
0.0
  0
ELLIPSE
  5
130
330
E8
100
AcDbEntity
  8
AM_4
100
AcDbEllipse
 10
1.077236734116629
 20
0.0000000000000001
 30
0.0
 11
6.084620899749653E-18
 21
0.09936940028726655
 31
0.0
210
0.0
220
0.0
230
1.0
 40
0.8660254037844358
 41
0.9401873039794886
 42
2.201405349610304
  0
ELLIPSE
  5
131
330
E8
100
AcDbEntity
  8
AM_4
100
AcDbEllipse
 10
1.1114121443894
 20
-0.0000000000016077
 30
0.0
 11
8.036249332078290E-18
 21
0.131241911344127
 31
0.0
210
0.0
220
0.0
230
1.0
 40
0.8660254038093845
 41
-4.100075623387073
 42
-4.081779957576247
  0
LINE
  5
132
330
E8
100
AcDbEntity
  8
AM_4
100
AcDbLine
 10
1.01890890525926
 20
0.0762585568583661
 30
0.0
 11
1.01826287534771
 21
0.0752038105365558
 31
0.0
  0
LWPOLYLINE
  5
133
330
E8
100
AcDbEntity
  8
AM_4
100
AcDbPolyline
 90
       11
 70
     0
 43
0.0
 10
1.121977600930837
 20
0.1359265219950581
 10
1.112633554529638
 20
0.1355445190165264
 10
1.09940363393549
 20
0.1336812757419437
 10
1.086467724620642
 20
0.13029874403902
 10
1.073963210206795
 20
0.1254425653586598
 10
1.062018807310296
 20
0.1191684761658171
 10
1.050758301267513
 20
0.1115426632946556
 10
1.040301090530222
 20
0.1026427398703262
 10
1.030761943901412
 20
0.0925591620796575
 10
1.022249802886779
 20
0.0813965147898802
 10
1.01890890525926
 20
0.0762585568583661
  0
LWPOLYLINE
  5
134
330
E8
100
AcDbEntity
  8
AM_4
100
AcDbPolyline
 90
        4
 70
     0
 43
0.0
 10
1.197993859915514
 20
-0.1077030429261517
 10
1.202995337727433
 20
-0.1032636236021015
 10
1.212598091654599
 20
-0.0932546126266441
 10
1.216205278631532
 20
-0.088882540968178
  0
LWPOLYLINE
  5
135
330
E8
100
AcDbEntity
  8
AM_4
100
AcDbPolyline
 90
       17
 70
     0
 43
0.0
 10
1.018954305869749
 20
-0.0763318833020925
 10
1.023579952263339
 20
-0.0833089213482894
 10
1.03249980086869
 20
-0.0945628449594935
 10
1.042497426901924
 20
-0.1046790305436774
 10
1.053442979037896
 20
-0.1135288742766076
 10
1.065191761643483
 20
-0.1210043924052383
 10
1.077588649355211
 20
-0.127020782166337
 10
1.090472889070539
 20
-0.1315172369395754
 10
1.103682531133506
 20
-0.1344560896509365
 10
1.117057953174405
 20
-0.1358207394291701
 10
1.130444247012364
 20
-0.1356129712349566
 10
1.143691497261628
 20
-0.1338504333850217
 10
1.156651057090042
 20
-0.1305662306224176
 10
1.169187859863471
 20
-0.12580508198293
 10
1.181172830756982
 20
-0.1196220545435276
 10
1.192481884554906
 20
-0.1120826275756775
 10
1.197993859915514
 20
-0.1077030429261517
  0
LWPOLYLINE
  5
136
330
E8
100
AcDbEntity
  8
AM_4
100
AcDbPolyline
 90
        9
 70
     0
 43
0.0
 10
1.203998555265912
 20
0.1023145755524551
 10
1.202143857942245
 20
0.1040532097547796
 10
1.191256168474335
 20
0.1129896369113742
 10
1.179555389503328
 20
0.1205581278529006
 10
1.167196109667492
 20
0.1266723152196067
 10
1.154338856326365
 20
0.1312698288085396
 10
1.141145620364709
 20
0.1343115376854411
 10
1.12777626257384
 20
0.1357795384172742
 10
1.121977600930837
 20
0.1359265219950581
  0
LWPOLYLINE
  5
137
330
E8
100
AcDbEntity
  8
AM_4
100
AcDbPolyline
 90
        3
 70
     0
 43
0.0
 10
1.217503477920468
 20
0.0872113980862133
 10
1.212074609101592
 20
0.0938582783560213
 10
1.20499946759927
 20
0.1013469471507137
  0
ELLIPSE
  5
138
330
E8
100
AcDbEntity
  8
AM_4
100
AcDbEllipse
 10
1.111412144387319
 20
0.0000000000000002
 30
0.0
 11
8.036249332247462E-18
 21
0.1312419113468898
 31
0.0
210
0.0
220
0.0
230
1.0
 40
0.866025403784437
 41
0.9597789642549683
 42
2.183109683799513
  0
ELLIPSE
  5
139
330
E8
100
AcDbEntity
  8
AM_4
100
AcDbEllipse
 10
1.111412144385334
 20
0.000000000000999
 30
0.0
 11
8.036249332141957E-18
 21
0.1312419113451667
 31
0.0
210
0.0
220
0.0
230
1.0
 40
0.8660254037796663
 41
0.9401873039779529
 42
0.9597789642537686
  0
ELLIPSE
  5
13A
330
E8
100
AcDbEntity
  8
AM_4
100
AcDbEllipse
 10
1.1725
 20
0.0000000000000001
 30
0.0
 11
-1.484390032546748E-17
 21
-0.08080642971672804
 31
0.0
210
0.0
220
0.0
230
1.0
 40
0.8660254037844377
 41
0.0
 42
6.283185307179586
  0
LINE
  5
13B
330
E8
100
AcDbEntity
  8
AM_4
100
AcDbLine
 10
1.241656977152691
 20
0.0541175018714693
 30
0.0
 11
1.23789525095609
 21
0.0606195106480088
 31
0.0
  0
LINE
  5
13C
330
E8
100
AcDbEntity
  8
AM_4
100
AcDbLine
 10
1.242480251504445
 20
0.0525422769050017
 30
0.0
 11
1.241656977152691
 21
0.0541175018714693
 31
0.0
  0
LWPOLYLINE
  5
13D
330
E8
100
AcDbEntity
  8
AM_4
100
AcDbPolyline
 90
       13
 70
     0
 43
0.0
 10
1.230514454912872
 20
-0.0709598174380805
 10
1.230832027825366
 20
-0.0705660348565051
 10
1.237977711879993
 20
-0.0604876226087918
 10
1.243981968216226
 20
-0.0494957785789355
 10
1.248750484643594
 20
-0.0377506958893239
 10
1.252207192448523
 20
-0.0254259042846875
 10
1.254295780346401
 20
-0.0127044853307032
 10
1.25498020799089
 20
0.000224461465498
 10
1.254244627339139
 20
0.0131687409912958
 10
1.252093340206677
 20
0.0259345765978149
 10
1.248551012993664
 20
0.038329200463618
 10
1.243662923357899
 20
0.050163229683735
 10
1.242480251504445
 20
0.0525422769050017
  0
ELLIPSE
  5
13E
330
E8
100
AcDbEntity
  8
AM_4
100
AcDbEllipse
 10
1.131745879143069
 20
0.0000000000000007
 30
0.0
 11
8.079715312105915E-18
 21
0.1319517646676793
 31
0.0
210
0.0
220
0.0
230
1.0
 40
0.8660254037844395
 41
5.457205996177247
 42
10.25075727177171
  0
ELLIPSE
  5
13F
330
E8
100
AcDbEntity
  8
AM_4
100
AcDbEllipse
 10
1.164884139106116
 20
0.0000000000000007
 30
0.0
 11
6.357083428130965E-18
 21
0.1038190510530385
 31
0.0
210
0.0
220
0.0
230
1.0
 40
0.8660254037844408
 41
5.457205996177247
 42
10.25075727177171
  0
LINE
  5
140
330
E8
100
AcDbEntity
  8
AM_4
100
AcDbLine
 10
1.230986998028307
 20
0.0703724241776375
 30
0.0
 11
1.215761180726839
 21
0.089441826524092
 31
0.0
  0
LINE
  5
141
330
E8
100
AcDbEntity
  8
AM_4
100
AcDbLine
 10
1.215761180726839
 20
-0.0894418265240918
 30
0.0
 11
1.230986998028307
 21
-0.0703724241776373
 31
0.0
  0
ELLIPSE
  5
142
330
E8
100
AcDbEntity
  8
AM_4
100
AcDbEllipse
 10
1.164884139106024
 20
-0.000000000000053
 30
0.0
 11
6.357083428135959E-18
 21
0.1038190510531201
 31
0.0
210
0.0
220
0.0
230
1.0
 40
0.8660254037847315
 41
5.338568851286543
 42
5.457205996177097
  0
ENDBLK
  5
EB
330
E8
100
AcDbEntity
  8
0
100
AcDbBlockEnd
  0
BLOCK
  5
145
330
143
100
AcDbEntity
  8
0
100
AcDbBlockBegin
  2
4_048000B_0_in_048000_4
 70
     2
 10
0.0
 20
0.0
 30
0.0
  3
4_048000B_0_in_048000_4
  1

  0
ATTDEF
  5
147
330
143
100
AcDbEntity
  8
AM_6
100
AcDbText
 10
8.461318658536587
 20
1.074221499999999
 30
0.0
 40
0.5
  1
Unisphere II - Pillow Block Bearing - Inch - Body
100
AcDbAttributeDefinition
  3

  2
NN
 70
     8
280
     0
  0
ATTDEF
  5
148
330
143
100
AcDbEntity
  8
AM_6
100
AcDbText
 10
8.461318658536587
 20
0.5742214999999995
 30
0.0
 40
0.5
  1
Unisphere II
100
AcDbAttributeDefinition
  3

  2
NT
 70
     8
280
     0
  0
ATTDEF
  5
149
330
143
100
AcDbEntity
  8
AM_6
100
AcDbText
 10
8.461318658536587
 20
0.0742214999999995
 30
0.0
 40
0.5
  1
048000B
100
AcDbAttributeDefinition
  3

  2
NB
 70
     8
280
     0
  0
ATTDEF
  5
14A
330
143
100
AcDbEntity
  8
AM_6
100
AcDbText
 10
8.461318658536587
 20
-0.4257785000000005
 30
0.0
 40
0.5
  1
$PN.
100
AcDbAttributeDefinition
  3

  2
NBSYN
 70
     8
280
     0
  0
ATTDEF
  5
14B
330
143
100
AcDbEntity
  8
AM_6
100
AcDbText
 10
8.461318658536587
 20
-0.9257785000000005
 30
0.0
 40
0.5
  1
048000B
100
AcDbAttributeDefinition
  3

  2
LINA
 70
     8
280
     0
  0
ATTDEF
  5
14C
330
143
100
AcDbEntity
  8
AM_6
100
AcDbText
 10
8.461318658536587
 20
-1.425778500000001
 30
0.0
 40
0.5
  1
1-7/16
100
AcDbAttributeDefinition
  3

  2
SS
 70
     8
280
     0
  0
ATTDEF
  5
14D
330
143
100
AcDbEntity
  8
AM_6
100
AcDbText
 10
8.461318658536587
 20
-1.925778500000001
 30
0.0
 40
0.5
  1
1.43750
100
AcDbAttributeDefinition
  3

  2
SS1
 70
     8
280
     0
  0
ATTDEF
  5
14E
330
143
100
AcDbEntity
  8
AM_6
100
AcDbText
 10
8.461318658536587
 20
-2.425778500000001
 30
0.0
 40
0.5
  1
Non Expansion Type
100
AcDbAttributeDefinition
  3

  2
TYPE
 70
     8
280
     0
  0
ATTDEF
  5
14F
330
143
100
AcDbEntity
  8
AM_6
100
AcDbText
 10
8.461318658536587
 20
-2.925778500000001
 30
0.0
 40
0.5
  1
048000B
100
AcDbAttributeDefinition
  3

  2
PNNE
 70
     8
280
     0
  0
ATTDEF
  5
150
330
143
100
AcDbEntity
  8
AM_6
100
AcDbText
 10
8.461318658536587
 20
-3.425778500000001
 30
0.0
 40
0.5
  1
048017B
100
AcDbAttributeDefinition
  3

  2
PNE
 70
     8
280
     0
  0
ATTDEF
  5
151
330
143
100
AcDbEntity
  8
AM_6
100
AcDbText
 10
8.461318658536587
 20
-3.925778500000001
 30
0.0
 40
0.5
  1
P2B-UN2-107
100
AcDbAttributeDefinition
  3

  2
DESCRIPTIONNE
 70
     8
280
     0
  0
ATTDEF
  5
152
330
143
100
AcDbEntity
  8
AM_6
100
AcDbText
 10
8.461318658536587
 20
-4.425778500000001
 30
0.0
 40
0.5
  1
P2B-UN2-107E
100
AcDbAttributeDefinition
  3

  2
DESCRIPTIONE
 70
     8
280
     0
  0
ATTDEF
  5
153
330
143
100
AcDbEntity
  8
AM_6
100
AcDbText
 10
8.461318658536587
 20
-4.925778500000001
 30
0.0
 40
0.5
  1
5.5
100
AcDbAttributeDefinition
  3

  2
WEIGHT
 70
     8
280
     0
  0
ATTDEF
  5
154
330
143
100
AcDbEntity
  8
AM_6
100
AcDbText
 10
8.461318658536587
 20
-5.425778500000001
 30
0.0
 40
0.5
  1
1-11/16
100
AcDbAttributeDefinition
  3

  2
A
 70
     8
280
     0
  0
ATTDEF
  5
155
330
143
100
AcDbEntity
  8
AM_6
100
AcDbText
 10
8.461318658536587
 20
-5.925778500000001
 30
0.0
 40
0.5
  1
1.68750
100
AcDbAttributeDefinition
  3

  2
A1
 70
     8
280
     0
  0
ATTDEF
  5
156
330
143
100
AcDbEntity
  8
AM_6
100
AcDbText
 10
8.461318658536587
 20
-6.425778500000001
 30
0.0
 40
0.5
  1
6-7/8
100
AcDbAttributeDefinition
  3

  2
B
 70
     8
280
     0
  0
ATTDEF
  5
157
330
143
100
AcDbEntity
  8
AM_6
100
AcDbText
 10
8.461318658536587
 20
-6.925778500000001
 30
0.0
 40
0.5
  1
6.87500
100
AcDbAttributeDefinition
  3

  2
B1
 70
     8
280
     0
  0
ATTDEF
  5
158
330
143
100
AcDbEntity
  8
AM_6
100
AcDbText
 10
8.461318658536587
 20
-7.425778500000001
 30
0.0
 40
0.5
  1
1-61/64
100
AcDbAttributeDefinition
  3

  2
C
 70
     8
280
     0
  0
ATTDEF
  5
159
330
143
100
AcDbEntity
  8
AM_6
100
AcDbText
 10
8.461318658536587
 20
-7.925778500000001
 30
0.0
 40
0.5
  1
1.95313
100
AcDbAttributeDefinition
  3

  2
C1
 70
     8
280
     0
  0
ATTDEF
  5
15A
330
143
100
AcDbEntity
  8
AM_6
100
AcDbText
 10
8.461318658536587
 20
-8.4257785
 30
0.0
 40
0.5
  1
4-11/16
100
AcDbAttributeDefinition
  3

  2
DMIN
 70
     8
280
     0
  0
ATTDEF
  5
15B
330
143
100
AcDbEntity
  8
AM_6
100
AcDbText
 10
8.461318658536587
 20
-8.9257785
 30
0.0
 40
0.5
  1
4.68750
100
AcDbAttributeDefinition
  3

  2
DMIN1
 70
     8
280
     0
  0
ATTDEF
  5
15C
330
143
100
AcDbEntity
  8
AM_6
100
AcDbText
 10
8.461318658536587
 20
-9.4257785
 30
0.0
 40
0.5
  1
5-1/2
100
AcDbAttributeDefinition
  3

  2
DMAX
 70
     8
280
     0
  0
ATTDEF
  5
15D
330
143
100
AcDbEntity
  8
AM_6
100
AcDbText
 10
8.461318658536587
 20
-9.9257785
 30
0.0
 40
0.5
  1
5.50000
100
AcDbAttributeDefinition
  3

  2
DMAX1
 70
     8
280
     0
  0
ATTDEF
  5
15E
330
143
100
AcDbEntity
  8
AM_6
100
AcDbText
 10
8.461318658536587
 20
-10.4257785
 30
0.0
 40
0.5
  1
5/32
100
AcDbAttributeDefinition
  3

  2
E
 70
     8
280
     0
  0
ATTDEF
  5
15F
330
143
100
AcDbEntity
  8
AM_6
100
AcDbText
 10
8.461318658536587
 20
-10.9257785
 30
0.0
 40
0.5
  1
0.15625
100
AcDbAttributeDefinition
  3

  2
E1
 70
     8
280
     0
  0
ATTDEF
  5
160
330
143
100
AcDbEntity
  8
AM_6
100
AcDbText
 10
8.461318658536587
 20
-11.4257785
 30
0.0
 40
0.5
  1
1/2
100
AcDbAttributeDefinition
  3

  2
F
 70
     8
280
     0
  0
ATTDEF
  5
161
330
143
100
AcDbEntity
  8
AM_6
100
AcDbText
 10
8.461318658536587
 20
-11.9257785
 30
0.0
 40
0.5
  1
0.50000
100
AcDbAttributeDefinition
  3

  2
F1
 70
     8
280
     0
  0
ATTDEF
  5
162
330
143
100
AcDbEntity
  8
AM_6
100
AcDbText
 10
8.461318658536587
 20
-12.4257785
 30
0.0
 40
0.5
  1
31/32
100
AcDbAttributeDefinition
  3

  2
G
 70
     8
280
     0
  0
ATTDEF
  5
163
330
143
100
AcDbEntity
  8
AM_6
100
AcDbText
 10
8.461318658536587
 20
-12.9257785
 30
0.0
 40
0.5
  1
0.96875
100
AcDbAttributeDefinition
  3

  2
G1
 70
     8
280
     0
  0
ATTDEF
  5
164
330
143
100
AcDbEntity
  8
AM_6
100
AcDbText
 10
8.461318658536587
 20
-13.4257785
 30
0.0
 40
0.5
  1
1-3/16
100
AcDbAttributeDefinition
  3

  2
H
 70
     8
280
     0
  0
ATTDEF
  5
165
330
143
100
AcDbEntity
  8
AM_6
100
AcDbText
 10
8.461318658536587
 20
-13.9257785
 30
0.0
 40
0.5
  1
1.18750
100
AcDbAttributeDefinition
  3

  2
H1
 70
     8
280
     0
  0
ATTDEF
  5
166
330
143
100
AcDbEntity
  8
AM_6
100
AcDbText
 10
8.461318658536587
 20
-14.4257785
 30
0.0
 40
0.5
  1
3-7/8
100
AcDbAttributeDefinition
  3

  2
J
 70
     8
280
     0
  0
ATTDEF
  5
167
330
143
100
AcDbEntity
  8
AM_6
100
AcDbText
 10
8.461318658536587
 20
-14.9257785
 30
0.0
 40
0.5
  1
3.87500
100
AcDbAttributeDefinition
  3

  2
J1
 70
     8
280
     0
  0
ATTDEF
  5
168
330
143
100
AcDbEntity
  8
AM_6
100
AcDbText
 10
8.461318658536587
 20
-15.4257785
 30
0.0
 40
0.5
  1
2-3/4
100
AcDbAttributeDefinition
  3

  2
L
 70
     8
280
     0
  0
ATTDEF
  5
169
330
143
100
AcDbEntity
  8
AM_6
100
AcDbText
 10
8.461318658536587
 20
-15.9257785
 30
0.0
 40
0.5
  1
2.75000
100
AcDbAttributeDefinition
  3

  2
L1
 70
     8
280
     0
  0
ATTDEF
  5
16A
330
143
100
AcDbEntity
  8
AM_6
100
AcDbText
 10
8.461318658536587
 20
-16.4257785
 30
0.0
 40
0.5
  1
1-7/8
100
AcDbAttributeDefinition
  3

  2
M
 70
     8
280
     0
  0
ATTDEF
  5
16B
330
143
100
AcDbEntity
  8
AM_6
100
AcDbText
 10
8.461318658536587
 20
-16.9257785
 30
0.0
 40
0.5
  1
1.87500
100
AcDbAttributeDefinition
  3

  2
M1
 70
     8
280
     0
  0
ATTDEF
  5
16C
330
143
100
AcDbEntity
  8
AM_6
100
AcDbText
 10
8.461318658536587
 20
-17.4257785
 30
0.0
 40
0.5
  1
1/2
100
AcDbAttributeDefinition
  3

  2
R
 70
     8
280
     0
  0
ATTDEF
  5
16D
330
143
100
AcDbEntity
  8
AM_6
100
AcDbText
 10
8.461318658536587
 20
-17.9257785
 30
0.0
 40
0.5
  1
0.50000
100
AcDbAttributeDefinition
  3

  2
R1
 70
     8
280
     0
  0
ATTDEF
  5
16E
330
143
100
AcDbEntity
  8
AM_6
100
AcDbText
 10
8.461318658536587
 20
-18.4257785
 30
0.0
 40
0.5
  1
1-3/16
100
AcDbAttributeDefinition
  3

  2
S
 70
     8
280
     0
  0
ATTDEF
  5
16F
330
143
100
AcDbEntity
  8
AM_6
100
AcDbText
 10
8.461318658536587
 20
-18.9257785
 30
0.0
 40
0.5
  1
1.18750
100
AcDbAttributeDefinition
  3

  2
S1
 70
     8
280
     0
  0
ATTDEF
  5
170
330
143
100
AcDbEntity
  8
AM_6
100
AcDbText
 10
8.461318658536587
 20
-19.4257785
 30
0.0
 40
0.5
  1
3000
100
AcDbAttributeDefinition
  3

  2
MRP
 70
     8
280
     0
  0
ATTDEF
  5
171
330
143
100
AcDbEntity
  8
AM_6
100
AcDbText
 10
8.461318658536587
 20
-19.9257785
 30
0.0
 40
0.5
  1
22400
100
AcDbAttributeDefinition
  3

  2
CS
 70
     8
280
     0
  0
ATTDEF
  5
172
330
143
100
AcDbEntity
  8
AM_6
100
AcDbText
 10
8.461318658536587
 20
-20.4257785
 30
0.0
 40
0.5
  1
20800
100
AcDbAttributeDefinition
  3

  2
CD
 70
     8
280
     0
  0
ATTDEF
  5
173
330
143
100
AcDbEntity
  8
AM_6
100
AcDbText
 10
8.461318658536587
 20
-20.9257785
 30
0.0
 40
0.5
  1
15
100
AcDbAttributeDefinition
  3

  2
RN
 70
     8
280
     0
  0
ATTDEF
  5
174
330
143
100
AcDbEntity
  8
AM_6
100
AcDbText
 10
8.461318658536587
 20
-21.4257785
 30
0.0
 40
0.5
  1
0.4488
100
AcDbAttributeDefinition
  3

  2
RM
 70
     8
280
     0
  0
ATTDEF
  5
175
330
143
100
AcDbEntity
  8
AM_6
100
AcDbText
 10
8.461318658536587
 20
-21.9257785
 30
0.0
 40
0.5
  1
2.449
100
AcDbAttributeDefinition
  3

  2
PDI
 70
     8
280
     0
  0
ATTDEF
  5
176
330
143
100
AcDbEntity
  8
AM_6
100
AcDbText
 10
8.461318658536587
 20
-22.4257785
 30
0.0
 40
0.5
  1
0.0012-0.0018
100
AcDbAttributeDefinition
  3

  2
RC
 70
     8
280
     0
  0
ATTDEF
  5
177
330
143
100
AcDbEntity
  8
AM_6
100
AcDbText
 10
8.461318658536587
 20
-22.9257785
 30
0.0
 40
0.5
  1
5/16-18x5/8
100
AcDbAttributeDefinition
  3

  2
COS
 70
     8
280
     0
  0
ATTDEF
  5
178
330
143
100
AcDbEntity
  8
AM_6
100
AcDbText
 10
8.461318658536587
 20
-23.4257785
 30
0.0
 40
0.5
  1
165
100
AcDbAttributeDefinition
  3

  2
CT
 70
     8
280
     0
  0
ATTDEF
  5
179
330
143
100
AcDbEntity
  8
AM_6
100
AcDbText
 10
8.461318658536587
 20
-23.9257785
 30
0.0
 40
0.5
  1
Ductile Iron Grade 65-45-13 ASTM A536
100
AcDbAttributeDefinition
  3

  2
MH
 70
     8
280
     0
  0
ATTDEF
  5
17A
330
143
100
AcDbEntity
  8
AM_6
100
AcDbText
 10
8.461318658536587
 20
-24.4257785
 30
0.0
 40
0.5
  1
4118 Case Carb,
100
AcDbAttributeDefinition
  3

  2
MIR
 70
     8
280
     0
  0
ATTDEF
  5
17B
330
143
100
AcDbEntity
  8
AM_6
100
AcDbText
 10
8.461318658536587
 20
-24.9257785
 30
0.0
 40
0.5
  1
E52100 Steel
100
AcDbAttributeDefinition
  3

  2
MOR
 70
     8
280
     0
  0
ATTDEF
  5
17C
330
143
100
AcDbEntity
  8
AM_6
100
AcDbText
 10
8.461318658536587
 20
-25.4257785
 30
0.0
 40
0.5
  1
Polyamide
100
AcDbAttributeDefinition
  3

  2
MR
 70
     8
280
     0
  0
ATTDEF
  5
17D
330
143
100
AcDbEntity
  8
AM_6
100
AcDbText
 10
8.461318658536587
 20
-25.9257785
 30
0.0
 40
0.5
  1
E52100 Steel
100
AcDbAttributeDefinition
  3

  2
MRO
 70
     8
280
     0
  0
ATTDEF
  5
17E
330
143
100
AcDbEntity
  8
AM_6
100
AcDbText
 10
8.461318658536587
 20
-26.4257785
 30
0.0
 40
0.5
  1
2°
100
AcDbAttributeDefinition
  3

  2
SM
 70
     8
280
     0
  0
ATTDEF
  5
17F
330
143
100
AcDbEntity
  8
AM_6
100
AcDbText
 10
8.461318658536587
 20
-26.9257785
 30
0.0
 40
0.5
  1
baldor
100
AcDbAttributeDefinition
  3

  2
COMPANY
 70
     8
280
     0
  0
LINE
  5
180
330
143
100
AcDbEntity
  8
AM_9
100
AcDbLine
 10
-3.36875
 20
-0.2465253505739527
 30
0.0
 11
-3.36875
 21
0.2465253505739526
 31
0.0
  0
LINE
  5
181
330
143
100
AcDbEntity
  8
AM_9
100
AcDbLine
 10
-1.991619883480807
 20
0.4437667338692126
 30
0.0
 11
-1.985738340455717
 21
0.4410195708618248
 31
0.0
  0
LINE
  5
182
330
143
100
AcDbEntity
  8
AM_9
100
AcDbLine
 10
-1.985738340452545
 20
0.4412852869342643
 30
0.0
 11
-1.985738340452545
 21
0.8435561469534051
 31
0.0
  0
LINE
  5
183
330
143
100
AcDbEntity
  8
AM_9
100
AcDbLine
 10
-1.985738340452545
 20
-0.843556146953405
 30
0.0
 11
-1.985738340452545
 21
-0.4412996069204975
 31
0.0
  0
LINE
  5
184
330
143
100
AcDbEntity
  8
AM_9
100
AcDbLine
 10
1.985738340452545
 20
0.8435561469534051
 30
0.0
 11
1.985738340452545
 21
0.4413061066750175
 31
0.0
  0
LWPOLYLINE
  5
185
330
143
100
AcDbEntity
  8
AM_9
100
AcDbPolyline
 90
        4
 70
     0
 43
0.0
 10
1.990619592207126
 20
-0.4433062244232421
 10
1.989913587915328
 20
-0.4429888726460934
 10
1.98646839239909
 20
-0.4413657549949608
 10
1.985738340455717
 20
-0.4410195708618246
  0
LINE
  5
186
330
143
100
AcDbEntity
  8
AM_9
100
AcDbLine
 10
1.985738340452545
 20
-0.441285286934264
 30
0.0
 11
1.985738340452545
 21
-0.8435561469534049
 31
0.0
  0
LINE
  5
187
330
143
100
AcDbEntity
  8
AM_9
100
AcDbLine
 10
1.375
 20
-0.4752315789473681
 30
0.0
 11
1.375
 21
0.4752315789473684
 31
0.0
  0
LINE
  5
188
330
143
100
AcDbEntity
  8
AM_9
100
AcDbLine
 10
-1.375
 20
0.4752315789473684
 30
0.0
 11
-1.375
 21
-0.4752315789473681
 31
0.0
  0
LINE
  5
189
330
143
100
AcDbEntity
  8
AM_9
100
AcDbLine
 10
-1.375
 20
0.4752315789473684
 30
0.0
 11
1.375
 21
0.4752315789473684
 31
0.0
  0
ARC
  5
18A
330
143
100
AcDbEntity
  8
AM_9
100
AcDbCircle
 10
1.413749999999999
 20
0.4752315789473688
 30
0.0
 40
0.0387499999999995
100
AcDbArc
 50
90.0
 51
180.0
  0
ARC
  5
18B
330
143
100
AcDbEntity
  8
AM_9
100
AcDbCircle
 10
-1.413749999999999
 20
0.4752315789473688
 30
0.0
 40
0.0387499999999994
100
AcDbArc
 50
0.0
 51
90.0
  0
LINE
  5
18C
330
143
100
AcDbEntity
  8
AM_9
100
AcDbLine
 10
-1.375
 20
-0.4752315789473681
 30
0.0
 11
1.375
 21
-0.4752315789473681
 31
0.0
  0
ARC
  5
18D
330
143
100
AcDbEntity
  8
AM_9
100
AcDbCircle
 10
1.413750000000001
 20
-0.4752315789473676
 30
0.0
 40
0.0387500000000007
100
AcDbArc
 50
180.0
 51
270.0
  0
ARC
  5
18E
330
143
100
AcDbEntity
  8
AM_9
100
AcDbCircle
 10
-1.413750000000001
 20
-0.4752315789473676
 30
0.0
 40
0.0387500000000008
100
AcDbArc
 50
270.0
 51
0.0
  0
LINE
  5
18F
330
143
100
AcDbEntity
  8
AM_9
100
AcDbLine
 10
-1.578897058823522
 20
-0.5139815789473681
 30
0.0
 11
1.578897058823047
 21
-0.5139815789473681
 31
0.0
  0
ARC
  5
190
330
143
100
AcDbEntity
  8
AM_9
100
AcDbCircle
 10
1.578897058823522
 20
-0.552731578947369
 30
0.0
 40
0.038750000000001
100
AcDbArc
 50
0.0
 51
90.0
  0
ARC
  5
191
330
143
100
AcDbEntity
  8
AM_9
100
AcDbCircle
 10
-1.578897058823522
 20
-0.552731578947369
 30
0.0
 40
0.038750000000001
100
AcDbArc
 50
90.0
 51
180.0
  0
LINE
  5
192
330
143
100
AcDbEntity
  8
AM_9
100
AcDbLine
 10
-1.617647058823523
 20
-0.5527315789473675
 30
0.0
 11
1.617647058823526
 21
-0.5527315789473675
 31
0.0
  0
LINE
  5
193
330
143
100
AcDbEntity
  8
AM_9
100
AcDbLine
 10
1.617647058823526
 20
-0.819054516129032
 30
0.0
 11
1.617647058823526
 21
-0.5527315789473675
 31
0.0
  0
LINE
  5
194
330
143
100
AcDbEntity
  8
AM_9
100
AcDbLine
 10
-1.617647058823526
 20
-0.5527315789473675
 30
0.0
 11
-1.617647058823526
 21
-0.819054516129032
 31
0.0
  0
LWPOLYLINE
  5
195
330
143
100
AcDbEntity
  8
AM_9
100
AcDbPolyline
 90
        4
 70
     0
 43
0.0
 10
-1.176120946491065
 20
-0.912354498130426
 10
-1.268444117754505
 20
-0.9033884120299447
 10
-1.351113663374334
 20
-0.8937804940594589
 10
-1.374999999999999
 20
-0.8906397519156862
  0
LWPOLYLINE
  5
196
330
143
100
AcDbEntity
  8
AM_9
100
AcDbPolyline
 90
        6
 70
     0
 43
0.0
 10
-0.6958346462945908
 20
-0.9417313345555428
 10
-0.8204638993265136
 20
-0.9361699103525553
 10
-0.9388489266749145
 20
-0.9297171672833181
 10
-1.050088746798838
 20
-0.9224222146188612
 10
-1.153336757498701
 20
-0.9143405713537737
 10
-1.176120946491065
 20
-0.912354498130426
  0
LWPOLYLINE
  5
197
330
143
100
AcDbEntity
  8
AM_9
100
AcDbPolyline
 90
        6
 70
     0
 43
0.0
 10
-0.118669873260779
 20
-0.9545797624362332
 10
-0.2588256475100706
 20
-0.953195198207904
 10
-0.3970116022986118
 20
-0.9507897423925964
 10
-0.5321760590715009
 20
-0.9473817019615186
 10
-0.6632903346981656
 20
-0.9429970141601822
 10
-0.6958346462945908
 20
-0.9417313345555428
  0
LINE
  5
198
330
143
100
AcDbEntity
  8
AM_9
100
AcDbLine
 10
0.1186698732607794
 20
-0.9545797624362332
 30
0.0
 11
-0.118669873260779
 21
-0.9545797624362332
 31
0.0
  0
LWPOLYLINE
  5
199
330
143
100
AcDbEntity
  8
AM_9
100
AcDbPolyline
 90
       12
 70
     0
 43
0.0
 10
1.375
 20
-0.8906397519156862
 10
1.29549807745128
 20
-0.9004345068370437
 10
1.20613663229003
 20
-0.9096099108905313
 10
1.107595759071842
 20
-0.9180961337110416
 10
1.000625413342513
 20
-0.925828590018789
 10
0.886039704023503
 20
-0.932748431152287
 10
0.7647106975514737
 20
-0.9388029929421949
 10
0.6375617809261339
 20
-0.9439461965174476
 10
0.5055606341776175
 20
-0.9481388989932859
 10
0.3697118657371522
 20
-0.9513491913722458
 10
0.2310493667602992
 20
-0.953552641390896
 10
0.1186698732607794
 20
-0.9545797624362332
  0
LINE
  5
19A
330
143
100
AcDbEntity
  8
AM_9
100
AcDbLine
 10
-1.578897058823529
 20
0.5139815789473684
 30
0.0
 11
1.578897058823054
 21
0.5139815789473684
 31
0.0
  0
ARC
  5
19B
330
143
100
AcDbEntity
  8
AM_9
100
AcDbCircle
 10
1.578897058823529
 20
0.5527315789473689
 30
0.0
 40
0.0387500000000005
100
AcDbArc
 50
270.0
 51
0.0
  0
ARC
  5
19C
330
143
100
AcDbEntity
  8
AM_9
100
AcDbCircle
 10
-1.578897058823529
 20
0.5527315789473689
 30
0.0
 40
0.0387500000000005
100
AcDbArc
 50
180.0
 51
270.0
  0
LINE
  5
19D
330
143
100
AcDbEntity
  8
AM_9
100
AcDbLine
 10
-1.617647058823529
 20
0.5527315789473689
 30
0.0
 11
1.617647058823529
 21
0.5527315789473689
 31
0.0
  0
LINE
  5
19E
330
143
100
AcDbEntity
  8
AM_9
100
AcDbLine
 10
1.617647058823529
 20
0.5527315789473689
 30
0.0
 11
1.617647058823529
 21
0.8190545161290322
 31
0.0
  0
LINE
  5
19F
330
143
100
AcDbEntity
  8
AM_9
100
AcDbLine
 10
-1.617647058823529
 20
0.8190545161290322
 30
0.0
 11
-1.617647058823529
 21
0.5527315789473689
 31
0.0
  0
LINE
  5
1A0
330
143
100
AcDbEntity
  8
AM_9
100
AcDbLine
 10
-1.990459098839333
 20
-0.8354458510359296
 30
0.0
 11
-1.990459098839333
 21
-0.443232082531833
 31
0.0
  0
LINE
  5
1A1
330
143
100
AcDbEntity
  8
AM_9
100
AcDbLine
 10
1.990459098839333
 20
-0.8354458510359296
 30
0.0
 11
1.990459098839333
 21
-0.4432320825318329
 31
0.0
  0
LINE
  5
1A2
330
143
100
AcDbEntity
  8
AM_9
100
AcDbLine
 10
1.990459098839333
 20
0.443232082531833
 30
0.0
 11
1.990459098839333
 21
0.8354458510359296
 31
0.0
  0
LINE
  5
1A3
330
143
100
AcDbEntity
  8
AM_9
100
AcDbLine
 10
-1.990459098839333
 20
0.4432320825318332
 30
0.0
 11
-1.990459098839333
 21
0.8354458510359296
 31
0.0
  0
LINE
  5
1A4
330
143
100
AcDbEntity
  8
AM_9
100
AcDbLine
 10
-1.375
 20
-0.9765650000000001
 30
0.0
 11
1.375
 21
-0.9765650000000001
 31
0.0
  0
LINE
  5
1A5
330
143
100
AcDbEntity
  8
AM_7
100
AcDbLine
 10
0.0
 20
-1.271875
 30
0.0
 11
0.0
 21
1.074221499999999
 31
0.0
  0
LINE
  5
1A6
330
143
100
AcDbEntity
  8
AM_7
100
AcDbLine
 10
-3.461318658536586
 20
0.0
 30
0.0
 11
-1.695121170731707
 21
-0.0000000000000001
 31
0.0
  0
LINE
  5
1A7
330
143
100
AcDbEntity
  8
AM_7
100
AcDbLine
 10
-2.961126829268293
 20
-0.500191829268293
 30
0.0
 11
-2.961126829268293
 21
0.500191829268293
 31
0.0
  0
LINE
  5
1A8
330
143
100
AcDbEntity
  8
AM_7
100
AcDbLine
 10
1.695121170731707
 20
-0.0000000000000001
 30
0.0
 11
3.461318658536586
 21
-0.0000000000000001
 31
0.0
  0
LINE
  5
1A9
330
143
100
AcDbEntity
  8
AM_7
100
AcDbLine
 10
2.961126829268294
 20
-0.5001918292682926
 30
0.0
 11
2.961126829268294
 21
0.5001918292682924
 31
0.0
  0
LINE
  5
1AA
330
143
100
AcDbEntity
  8
AM_7
100
AcDbLine
 10
-2.779513888888892
 20
-0.2643229166666671
 30
0.0
 11
-2.779513888888892
 21
0.2643229166666598
 31
0.0
  0
LINE
  5
1AB
330
143
100
AcDbEntity
  8
AM_7
100
AcDbLine
 10
2.314236111111108
 20
-0.2643229166666671
 30
0.0
 11
2.314236111111108
 21
0.2643229166666599
 31
0.0
  0
LINE
  5
1AC
330
143
100
AcDbEntity
  8
AM_7
100
AcDbLine
 10
-2.195313
 20
-0.5001918292682929
 30
0.0
 11
-2.195313
 21
0.5001918292682926
 31
0.0
  0
LINE
  5
1AD
330
143
100
AcDbEntity
  8
AM_7
100
AcDbLine
 10
2.779513888888892
 20
-0.2643229166666669
 30
0.0
 11
2.779513888888892
 21
0.2643229166666592
 31
0.0
  0
LINE
  5
1AE
330
143
100
AcDbEntity
  8
AM_7
100
AcDbLine
 10
-2.314236111111108
 20
-0.264322916666667
 30
0.0
 11
-2.314236111111108
 21
0.2643229166666599
 31
0.0
  0
LINE
  5
1AF
330
143
100
AcDbEntity
  8
AM_7
100
AcDbLine
 10
2.195313
 20
-0.5001918292682928
 30
0.0
 11
2.195313
 21
0.5001918292682928
 31
0.0
  0
LINE
  5
1B0
330
143
100
AcDbEntity
  8
AM_4
100
AcDbLine
 10
-3.36875
 20
-0.926686680107527
 30
0.0
 11
-3.36875
 21
-0.2465253505739527
 31
0.0
  0
LINE
  5
1B1
330
143
100
AcDbEntity
  8
AM_4
100
AcDbLine
 10
-3.36875
 20
0.2465253505739526
 30
0.0
 11
-3.36875
 21
0.9266866801075265
 31
0.0
  0
LINE
  5
1B2
330
143
100
AcDbEntity
  8
AM_4
100
AcDbLine
 10
2.75000000000006
 20
0.2499999999999996
 30
0.0
 11
2.34374999999994
 21
0.25
 31
0.0
  0
LINE
  5
1B3
330
143
100
AcDbEntity
  8
AM_4
100
AcDbLine
 10
2.34375
 20
-0.25
 30
0.0
 11
2.75
 21
-0.2500000000000001
 31
0.0
  0
ARC
  5
1B4
330
143
100
AcDbEntity
  8
AM_4
100
AcDbCircle
 10
2.314236111111108
 20
-0.0000000000000036
 30
0.0
 40
0.2517361111111079
100
AcDbArc
 50
83.26707867315346
 51
276.7329213268604
  0
ARC
  5
1B5
330
143
100
AcDbEntity
  8
AM_4
100
AcDbCircle
 10
2.779513888888892
 20
-0.0000000000000037
 30
0.0
 40
0.2517361111111078
100
AcDbArc
 50
263.2670786731396
 51
96.73292132684655
  0
LINE
  5
1B6
330
143
100
AcDbEntity
  8
AM_4
100
AcDbLine
 10
2.195313
 20
-0.4763731707317074
 30
0.0
 11
2.961126829268292
 21
-0.4763731707317074
 31
0.0
  0
LINE
  5
1B7
330
143
100
AcDbEntity
  8
AM_4
100
AcDbLine
 10
2.961126829268293
 20
0.4763731707317072
 30
0.0
 11
2.195313
 21
0.4763731707317073
 31
0.0
  0
ARC
  5
1B8
330
143
100
AcDbEntity
  8
AM_4
100
AcDbCircle
 10
2.961126829268294
 20
-0.0000000000000001
 30
0.0
 40
0.4763731707317074
100
AcDbArc
 50
270.0
 51
90.0
  0
ARC
  5
1B9
330
143
100
AcDbEntity
  8
AM_4
100
AcDbCircle
 10
2.195313
 20
-0.0000000000000001
 30
0.0
 40
0.4763731707317074
100
AcDbArc
 50
90.0
 51
270.0
  0
LINE
  5
1BA
330
143
100
AcDbEntity
  8
AM_4
100
AcDbLine
 10
-2.343749999999939
 20
0.2499999999999999
 30
0.0
 11
-2.75000000000006
 21
0.25
 31
0.0
  0
LINE
  5
1BB
330
143
100
AcDbEntity
  8
AM_4
100
AcDbLine
 10
-2.75
 20
-0.2500000000000003
 30
0.0
 11
-2.34375
 21
-0.2500000000000001
 31
0.0
  0
ARC
  5
1BC
330
143
100
AcDbEntity
  8
AM_4
100
AcDbCircle
 10
-2.779513888888892
 20
-0.0000000000000037
 30
0.0
 40
0.251736111111108
100
AcDbArc
 50
83.26707867315346
 51
276.7329213268604
  0
ARC
  5
1BD
330
143
100
AcDbEntity
  8
AM_4
100
AcDbCircle
 10
-2.314236111111108
 20
-0.0000000000000036
 30
0.0
 40
0.251736111111108
100
AcDbArc
 50
263.2670786731396
 51
96.73292132684648
  0
LINE
  5
1BE
330
143
100
AcDbEntity
  8
AM_4
100
AcDbLine
 10
-2.195313
 20
0.4763731707317074
 30
0.0
 11
-2.961126829268293
 21
0.4763731707317072
 31
0.0
  0
ARC
  5
1BF
330
143
100
AcDbEntity
  8
AM_4
100
AcDbCircle
 10
-2.961126829268294
 20
-0.0000000000000001
 30
0.0
 40
0.4763731707317073
100
AcDbArc
 50
90.0
 51
270.0
  0
LINE
  5
1C0
330
143
100
AcDbEntity
  8
AM_4
100
AcDbLine
 10
-2.961126829268293
 20
-0.4763731707317073
 30
0.0
 11
-2.195313000000001
 21
-0.4763731707317074
 31
0.0
  0
ARC
  5
1C1
330
143
100
AcDbEntity
  8
AM_4
100
AcDbCircle
 10
-2.195313
 20
-0.0000000000000002
 30
0.0
 40
0.4763731707317073
100
AcDbArc
 50
270.0
 51
90.0
  0
LINE
  5
1C2
330
143
100
AcDbEntity
  8
AM_4
100
AcDbLine
 10
-1.99925020347878
 20
0.4471903170089098
 30
0.0
 11
-1.991619883480807
 21
0.4437667338692126
 31
0.0
  0
LWPOLYLINE
  5
1C3
330
143
100
AcDbEntity
  8
AM_4
100
AcDbPolyline
 90
        9
 70
     0
 43
0.0
 10
-2.195313
 20
0.4882825
 10
-2.172709559350371
 20
0.4877590901070839
 10
-2.151280551306966
 20
0.4862930631505505
 10
-2.111800793439507
 20
0.4810878414194724
 10
-2.076779530584005
 20
0.4736767003288819
 10
-2.047083422497733
 20
0.4652394997845191
 10
-2.023339152732035
 20
0.4569954000447976
 10
-2.005182454449978
 20
0.4497445668989243
 10
-1.99925020347878
 20
0.4471903170089098
  0
LINE
  5
1C4
330
143
100
AcDbEntity
  8
AM_4
100
AcDbLine
 10
-2.975321673785878
 20
0.4882824999999994
 30
0.0
 11
-2.975321673785878
 21
0.9266866801075265
 31
0.0
  0
LINE
  5
1C5
330
143
100
AcDbEntity
  8
AM_4
100
AcDbLine
 10
-2.975321673785878
 20
0.4882824999999994
 30
0.0
 11
-2.195313
 21
0.4882825
 31
0.0
  0
LWPOLYLINE
  5
1C6
330
143
100
AcDbEntity
  8
AM_4
100
AcDbPolyline
 90
        3
 70
     0
 43
0.0
 10
-1.985738340452545
 20
0.8435561469534051
 10
-1.989504003799255
 20
0.8363108435913489
 10
-1.990459098839333
 20
0.8354458510359297
  0
LINE
  5
1C7
330
143
100
AcDbEntity
  8
AM_4
100
AcDbLine
 10
-2.195313
 20
-0.4882825000000001
 30
0.0
 11
-2.975321673785878
 21
-0.4882825000000001
 31
0.0
  0
LINE
  5
1C8
330
143
100
AcDbEntity
  8
AM_4
100
AcDbLine
 10
-2.975321673785878
 20
-0.926686680107527
 30
0.0
 11
-2.975321673785878
 21
-0.4882825000000001
 31
0.0
  0
LWPOLYLINE
  5
1C9
330
143
100
AcDbEntity
  8
AM_4
100
AcDbPolyline
 90
       19
 70
     0
 43
0.0
 10
-1.985738340452545
 20
-0.843556146953405
 10
-1.989504003799255
 20
-0.8508014503154613
 10
-2.000772334867547
 20
-0.8579916125440986
 10
-2.019457574853988
 20
-0.8650719121632182
 10
-2.045417517799823
 20
-0.8719884638175169
 10
-2.078454592864193
 20
-0.8786886283725776
 10
-2.118317367957527
 20
-0.8851214135304659
 10
-2.164702463291563
 20
-0.8912378619119087
 10
-2.217256860282722
 20
-0.8969914236515105
 10
-2.27558058823669
 20
-0.9023383106703377
 10
-2.339229768366906
 20
-0.907237829929638
 10
-2.407719991980154
 20
-0.9116526931294378
 10
-2.48053000711921
 20
-0.915549300495019
 10
-2.557105685604976
 20
-0.918897996491494
 10
-2.636864240286517
 20
-0.9216732955203316
 10
-2.719198660403173
 20
-0.923854075880151
 10
-2.803482331302976
 20
-0.9254237405156226
 10
-2.889073803358506
 20
-0.9263703433310814
 10
-2.975321673785876
 20
-0.9266866801075269
  0
LWPOLYLINE
  5
1CA
330
143
100
AcDbEntity
  8
AM_4
100
AcDbPolyline
 90
        8
 70
     0
 43
0.0
 10
-1.999323751640175
 20
-0.4472225557075589
 10
-2.007476599688618
 20
-0.4507075399017774
 10
-2.025905179824842
 20
-0.45795282537588
 10
-2.049926457514242
 20
-0.4661357667786146
 10
-2.079897184002768
 20
-0.4744459813550359
 10
-2.1155480669713
 20
-0.4817233181663283
 10
-2.153102350067516
 20
-0.4864545825033694
 10
-2.195313000000001
 20
-0.4882825000000002
  0
LINE
  5
1CB
330
143
100
AcDbEntity
  8
AM_4
100
AcDbLine
 10
-1.993866404879258
 20
-0.444791039838385
 30
0.0
 11
-1.999323751640175
 21
-0.4472225557075589
 31
0.0
  0
LINE
  5
1CC
330
143
100
AcDbEntity
  8
AM_4
100
AcDbLine
 10
-1.985738340497702
 20
-0.4410195708817758
 30
0.0
 11
-1.993866404879258
 21
-0.444791039838385
 31
0.0
  0
LINE
  5
1CD
330
143
100
AcDbEntity
  8
AM_4
100
AcDbLine
 10
2.195313000000001
 20
0.4882825
 30
0.0
 11
2.975321673785879
 21
0.4882825
 31
0.0
  0
LINE
  5
1CE
330
143
100
AcDbEntity
  8
AM_4
100
AcDbLine
 10
2.975321673785879
 20
0.4882825
 30
0.0
 11
2.975321673785879
 21
0.9266866801075269
 31
0.0
  0
LWPOLYLINE
  5
1CF
330
143
100
AcDbEntity
  8
AM_4
100
AcDbPolyline
 90
       19
 70
     0
 43
0.0
 10
1.985738340452545
 20
0.8435561469534051
 10
1.989504003799255
 20
0.8508014503154614
 10
2.000772334867547
 20
0.8579916125440987
 10
2.019457574853988
 20
0.8650719121632183
 10
2.045417517799823
 20
0.871988463817517
 10
2.078454592864193
 20
0.8786886283725776
 10
2.118317367957527
 20
0.885121413530466
 10
2.164702463291563
 20
0.8912378619119087
 10
2.217256860282722
 20
0.8969914236515106
 10
2.27558058823669
 20
0.9023383106703378
 10
2.339229768366907
 20
0.9072378299296382
 10
2.407719991980155
 20
0.9116526931294379
 10
2.48053000711921
 20
0.915549300495019
 10
2.557105685604977
 20
0.9188979964914941
 10
2.636864240286517
 20
0.9216732955203317
 10
2.719198660403174
 20
0.923854075880151
 10
2.803482331302977
 20
0.9254237405156227
 10
2.889073803358507
 20
0.9263703433310815
 10
2.975321673785877
 20
0.926686680107527
  0
LWPOLYLINE
  5
1D0
330
143
100
AcDbEntity
  8
AM_4
100
AcDbPolyline
 90
        8
 70
     0
 43
0.0
 10
1.999323647477075
 20
0.4472225100594718
 10
2.007476599688618
 20
0.4507075399017775
 10
2.025970534072518
 20
0.4579814958088242
 10
2.049926457514242
 20
0.4661357667786145
 10
2.080002192431709
 20
0.4744738406323212
 10
2.1155480669713
 20
0.4817233181663283
 10
2.153102350067517
 20
0.4864545825033693
 10
2.195313000000001
 20
0.4882825
  0
LWPOLYLINE
  5
1D1
330
143
100
AcDbEntity
  8
AM_4
100
AcDbPolyline
 90
        3
 70
     0
 43
0.0
 10
1.992954830016435
 20
0.4443770593169201
 10
1.99436475087607
 20
0.4450264400505513
 10
1.999323647477075
 20
0.4472225100594718
  0
LINE
  5
1D2
330
143
100
AcDbEntity
  8
AM_4
100
AcDbLine
 10
1.985738340497561
 20
0.4410195708817088
 30
0.0
 11
1.992954830016435
 21
0.4443770593169201
 31
0.0
  0
LINE
  5
1D3
330
143
100
AcDbEntity
  8
AM_4
100
AcDbLine
 10
1.999659897547289
 20
-0.4473697165733049
 30
0.0
 11
1.990619592207126
 21
-0.4433062244232421
 31
0.0
  0
LWPOLYLINE
  5
1D4
330
143
100
AcDbEntity
  8
AM_4
100
AcDbPolyline
 90
        9
 70
     0
 43
0.0
 10
2.195313000000001
 20
-0.4882825000000001
 10
2.165335980663904
 20
-0.4873624529721403
 10
2.137457058648729
 20
-0.4848435929263853
 10
2.111800793439508
 20
-0.4810878414194726
 10
2.076681751381615
 20
-0.4736546478938656
 10
2.047083422497734
 20
-0.4652394997845191
 10
2.023277746466584
 20
-0.4569774540049381
 10
2.005182454449978
 20
-0.4497445668989242
 10
1.999659897547289
 20
-0.4473697165733049
  0
LINE
  5
1D5
330
143
100
AcDbEntity
  8
AM_4
100
AcDbLine
 10
2.975321673785879
 20
-0.9266866801075269
 30
0.0
 11
2.975321673785879
 21
-0.4882825000000001
 31
0.0
  0
LINE
  5
1D6
330
143
100
AcDbEntity
  8
AM_4
100
AcDbLine
 10
2.975321673785879
 20
-0.4882825000000001
 30
0.0
 11
2.195313000000001
 21
-0.4882825000000001
 31
0.0
  0
LWPOLYLINE
  5
1D7
330
143
100
AcDbEntity
  8
AM_4
100
AcDbPolyline
 90
        3
 70
     0
 43
0.0
 10
1.985738340452545
 20
-0.8435561469534049
 10
1.989504003799255
 20
-0.8363108435913486
 10
1.990459098839333
 20
-0.8354458510359296
  0
LWPOLYLINE
  5
1D8
330
143
100
AcDbEntity
  8
AM_4
100
AcDbPolyline
 90
        8
 70
     0
 43
0.0
 10
-1.374999999999999
 20
-0.8906397519156862
 10
-1.444037342301019
 20
-0.8803001901256452
 10
-1.502084688493541
 20
-0.8694945117753409
 10
-1.548700263223096
 20
-0.858304954601666
 10
-1.583529293818735
 20
-0.8468166778911517
 10
-1.606306710327285
 20
-0.8351171143663759
 10
-1.616859162855733
 20
-0.8232953047701521
 10
-1.617647058823527
 20
-0.819054516129032
  0
LWPOLYLINE
  5
1D9
330
143
100
AcDbEntity
  8
AM_4
100
AcDbPolyline
 90
        8
 70
     0
 43
0.0
 10
1.617647058823527
 20
-0.819054516129032
 10
1.611491423383703
 20
-0.8308982318416194
 10
1.593071365166804
 20
-0.8426518097262029
 10
1.562527071938196
 20
-0.8542257979580764
 10
1.520091004212496
 20
-0.8655321114982305
 10
1.466086126088696
 20
-0.8764847024736854
 10
1.400923447298355
 20
-0.887000215053763
 10
1.375
 20
-0.8906397519156862
  0
LWPOLYLINE
  5
1DA
330
143
100
AcDbEntity
  8
AM_4
100
AcDbPolyline
 90
       19
 70
     0
 43
0.0
 10
-1.617647058823527
 20
-0.819054516129032
 10
-1.611491423383703
 20
-0.8072108004164447
 10
-1.593071365166804
 20
-0.795457222531861
 10
-1.562527071938196
 20
-0.7838832342999875
 10
-1.520091004212496
 20
-0.7725769207598334
 10
-1.466086126088696
 20
-0.7616243297843786
 10
-1.400923447298355
 20
-0.7511088172043009
 10
-1.325098895173368
 20
-0.7411104124197753
 10
-1.239189540339522
 20
-0.7317052093284138
 10
-1.143849204860591
 20
-0.7229647872047583
 10
-1.039803486257637
 20
-0.7149556659387812
 10
-0.9278442352737512
 20
-0.7077387997793564
 10
-0.8088235294117652
 20
-0.7013691134356198
 10
-0.683647188109956
 20
-0.695895084066769
 10
-0.5532678789091715
 20
-0.6913583723416103
 10
-0.418677867077609
 20
-0.6877935053757137
 10
-0.2809014638729779
 20
-0.685227613959215
 10
-0.1409872309153322
 20
-0.6836802260751217
 10
-0.0000000000000033
 20
-0.6831631182795698
  0
LWPOLYLINE
  5
1DB
330
143
100
AcDbEntity
  8
AM_4
100
AcDbPolyline
 90
       37
 70
     0
 43
0.0
 10
1.61764705882353
 20
0.8190545161290322
 10
1.611491423383707
 20
0.8072108004164449
 10
1.593071365166808
 20
0.7954572225318614
 10
1.562527071938199
 20
0.7838832342999876
 10
1.5200910042125
 20
0.7725769207598338
 10
1.466086126088699
 20
0.7616243297843788
 10
1.400923447298358
 20
0.7511088172043012
 10
1.32509889517337
 20
0.7411104124197756
 10
1.239189540339524
 20
0.7317052093284139
 10
1.143849204860593
 20
0.7229647872047584
 10
1.039803486257639
 20
0.7149556659387816
 10
0.9278442352737528
 20
0.7077387997793566
 10
0.8088235294117666
 20
0.7013691134356199
 10
0.6836471881099572
 20
0.6958950840667691
 10
0.5532678789091724
 20
0.6913583723416106
 10
0.4186778670776097
 20
0.6877935053757138
 10
0.2809014638729784
 20
0.6852276139592154
 10
0.1409872309153324
 20
0.6836802260751218
 10
0.0000000000000031
 20
0.6831631182795699
 10
-0.1409872309153262
 20
0.6836802260751218
 10
-0.2809014638729723
 20
0.6852276139592153
 10
-0.4186778670776037
 20
0.6877935053757137
 10
-0.5532678789091666
 20
0.6913583723416103
 10
-0.6836471881099516
 20
0.695895084066769
 10
-0.8088235294117613
 20
0.7013691134356198
 10
-0.9278442352737479
 20
0.7077387997793564
 10
-1.039803486257634
 20
0.7149556659387811
 10
-1.143849204860589
 20
0.7229647872047582
 10
-1.239189540339521
 20
0.7317052093284134
 10
-1.325098895173367
 20
0.7411104124197752
 10
-1.400923447298354
 20
0.7511088172043007
 10
-1.466086126088696
 20
0.7616243297843782
 10
-1.520091004212497
 20
0.7725769207598332
 10
-1.562527071938198
 20
0.7838832342999873
 10
-1.593071365166807
 20
0.7954572225318609
 10
-1.611491423383706
 20
0.8072108004164443
 10
-1.61764705882353
 20
0.8190545161290317
  0
LWPOLYLINE
  5
1DC
330
143
100
AcDbEntity
  8
AM_4
100
AcDbPolyline
 90
       19
 70
     0
 43
0.0
 10
-1.61764705882353
 20
0.8190545161290322
 10
-1.611491423383707
 20
0.8308982318416196
 10
-1.593071365166808
 20
0.8426518097262032
 10
-1.562527071938199
 20
0.8542257979580767
 10
-1.5200910042125
 20
0.8655321114982307
 10
-1.466086126088699
 20
0.8764847024736857
 10
-1.400923447298358
 20
0.8870002150537633
 10
-1.32509889517337
 20
0.896998619838289
 10
-1.239189540339525
 20
0.9064038229296505
 10
-1.143849204860593
 20
0.915144245053306
 10
-1.039803486257639
 20
0.923153366319283
 10
-0.9278442352737531
 20
0.9303702324787079
 10
-0.8088235294117668
 20
0.9367399188224445
 10
-0.6836471881099573
 20
0.9422139481912953
 10
-0.5532678789091726
 20
0.9467506599164539
 10
-0.4186778670776099
 20
0.9503155268823507
 10
-0.2809014638729785
 20
0.9528814182988491
 10
-0.1409872309153325
 20
0.9544288061829427
 10
-0.0000000000000033
 20
0.9549459139784946
  0
LINE
  5
1DD
330
143
100
AcDbEntity
  8
AM_4
100
AcDbLine
 10
2.0
 20
-0.8190545161290322
 30
0.0
 11
2.0
 21
-0.4473999397258875
 31
0.0
  0
LINE
  5
1DE
330
143
100
AcDbEntity
  8
AM_4
100
AcDbLine
 10
2.0
 20
0.4475008054641534
 30
0.0
 11
2.0
 21
0.8190545161290322
 31
0.0
  0
LINE
  5
1DF
330
143
100
AcDbEntity
  8
AM_4
100
AcDbLine
 10
-1.999999999999999
 20
0.8190545161290322
 30
0.0
 11
-1.999999999999999
 21
0.4473999397258874
 31
0.0
  0
LINE
  5
1E0
330
143
100
AcDbEntity
  8
AM_4
100
AcDbLine
 10
-1.999999999999999
 20
-0.4475008054641533
 30
0.0
 11
-1.999999999999999
 21
-0.8190545161290322
 31
0.0
  0
LWPOLYLINE
  5
1E1
330
143
100
AcDbEntity
  8
AM_4
100
AcDbPolyline
 90
       37
 70
     0
 43
0.0
 10
-1.999999999999999
 20
-0.8190545161290322
 10
-1.99238939618349
 20
-0.8044113767025606
 10
-1.969615506024416
 20
-0.7898796804088936
 10
-1.931851652578136
 20
-0.7755700222313044
 10
-1.879385241571817
 20
-0.7615913073089323
 10
-1.8126155740733
 20
-0.7480499221029151
 10
-1.732050807568878
 20
-0.7350489247311829
 10
-1.638304088577984
 20
-0.7226872606339511
 10
-1.532088886237957
 20
-0.7110590095391768
 10
-1.414213562373096
 20
-0.700252669459021
 10
-1.28557521937308
 20
-0.6903504831665404
 10
-1.147152872702094
 20
-0.6814278122785241
 10
-1.000000000000002
 20
-0.673552563708086
 10
-0.8452365234814013
 20
-0.6667846728520522
 10
-0.6840402866513403
 20
-0.6611756474464016
 10
-0.5176380902050446
 20
-0.6567681755612931
 10
-0.3472963553338641
 20
-0.6535958007190765
 10
-0.17431148549532
 20
-0.6516826666078338
 10
-0.0000000000000039
 20
-0.6510433333333332
 10
0.1743114854953122
 20
-0.6516826666078337
 10
0.3472963553338564
 20
-0.6535958007190764
 10
0.5176380902050371
 20
-0.6567681755612929
 10
0.6840402866513329
 20
-0.6611756474464013
 10
0.8452365234813943
 20
-0.666784672852052
 10
0.9999999999999954
 20
-0.6735525637080856
 10
1.147152872702088
 20
-0.6814278122785237
 10
1.285575219373074
 20
-0.6903504831665398
 10
1.414213562373091
 20
-0.7002526694590205
 10
1.532088886237952
 20
-0.7110590095391762
 10
1.63830408857798
 20
-0.7226872606339505
 10
1.732050807568874
 20
-0.7350489247311823
 10
1.812615574073297
 20
-0.7480499221029145
 10
1.879385241571814
 20
-0.7615913073089317
 10
1.931851652578134
 20
-0.7755700222313038
 10
1.969615506024415
 20
-0.789879680408893
 10
1.99238939618349
 20
-0.8044113767025599
 10
2.0
 20
-0.8190545161290316
  0
LWPOLYLINE
  5
1E2
330
143
100
AcDbEntity
  8
AM_4
100
AcDbPolyline
 90
        3
 70
     0
 43
0.0
 10
2.0
 20
-0.8190545161290322
 10
1.992389396183491
 20
-0.8336976555555039
 10
1.990459098839333
 20
-0.8354458510359296
  0
LWPOLYLINE
  5
1E3
330
143
100
AcDbEntity
  8
AM_4
100
AcDbPolyline
 90
       50
 70
     0
 43
0.0
 10
1.999999999998251
 20
0.4475183033536914
 10
1.999986102332341
 20
0.4475457642554563
 10
1.997273234976593
 20
0.4463183295314286
 10
1.989256601321319
 20
0.4427184099752532
 10
1.976004866561246
 20
0.4363067157060995
 10
1.95762532739397
 20
0.426525931330533
 10
1.94072915614898
 20
0.4166671296171815
 10
1.921173291566488
 20
0.4040633861985501
 10
1.898782767213392
 20
0.3879397581880693
 10
1.874039649352932
 20
0.3676999238105113
 10
1.854813020940823
 20
0.3499753738685849
 10
1.834723482255339
 20
0.3292339586053091
 10
1.813601178672276
 20
0.30450004613774
 10
1.792268042789264
 20
0.275634835014092
 10
1.780045373352654
 20
0.2568520496062112
 10
1.768073624616961
 20
0.2364028678518099
 10
1.756293631012187
 20
0.2137325819604494
 10
1.745161489706854
 20
0.1891650538208727
 10
1.737115453695222
 20
0.1687431802919054
 10
1.729737014748446
 20
0.1471692962655405
 10
1.723006809847746
 20
0.1238757566704798
 10
1.717277004796211
 20
0.09950571388505
 10
1.713439895014499
 20
0.078847993330629
 10
1.710447138807066
 20
0.0576619151250141
 10
1.708320920760936
 20
0.0354527787691264
 10
1.707202855507743
 20
0.0129725344477511
 10
1.707115143362488
 20
-0.0090060755628918
 10
1.708010358218623
 20
-0.0309182004511999
 10
1.709945710361791
 20
-0.0532624784742177
 10
1.712857074678758
 20
-0.0752069141015256
 10
1.720847402391707
 20
-0.1153351485560881
 10
1.731820584331349
 20
-0.1536052747267744
 10
1.741211123244211
 20
-0.1794724699841836
 10
1.751502885509648
 20
-0.2035985807472886
 10
1.762781841826642
 20
-0.2265759309070828
 10
1.774563969041038
 20
-0.2477701611440413
 10
1.79297642572271
 20
-0.2766722019367346
 10
1.811637229217264
 20
-0.3020144081339875
 10
1.830622315510982
 20
-0.3246893395796869
 10
1.849165046888448
 20
-0.3443855315818811
 10
1.869966559596218
 20
-0.3641196826027868
 10
1.889623229295934
 20
-0.3807710760877543
 10
1.907919700859087
 20
-0.3947466167241351
 10
1.933091191057214
 20
-0.4119104425907576
 10
1.954471006505108
 20
-0.4247527916043123
 10
1.973514756120878
 20
-0.4350461851364809
 10
1.987503436020429
 20
-0.4418981691000534
 10
1.996321777663202
 20
-0.4458949352024074
 10
1.999926991591769
 20
-0.4475281351579414
 10
1.999999999988548
 20
-0.4475183033494567
  0
LWPOLYLINE
  5
1E4
330
143
100
AcDbEntity
  8
AM_4
100
AcDbPolyline
 90
       37
 70
     0
 43
0.0
 10
2.0
 20
0.8190545161290322
 10
1.992389396183491
 20
0.8044113767025606
 10
1.969615506024416
 20
0.7898796804088938
 10
1.931851652578136
 20
0.7755700222313044
 10
1.879385241571817
 20
0.7615913073089323
 10
1.8126155740733
 20
0.7480499221029151
 10
1.732050807568878
 20
0.735048924731183
 10
1.638304088577984
 20
0.7226872606339512
 10
1.532088886237957
 20
0.7110590095391769
 10
1.414213562373096
 20
0.7002526694590212
 10
1.28557521937308
 20
0.6903504831665404
 10
1.147152872702094
 20
0.6814278122785242
 10
1.000000000000002
 20
0.6735525637080861
 10
0.8452365234814013
 20
0.6667846728520526
 10
0.6840402866513403
 20
0.6611756474464019
 10
0.5176380902050446
 20
0.6567681755612932
 10
0.3472963553338641
 20
0.6535958007190769
 10
0.1743114854953201
 20
0.6516826666078339
 10
0.0000000000000039
 20
0.6510433333333334
 10
-0.1743114854953122
 20
0.6516826666078339
 10
-0.3472963553338564
 20
0.6535958007190767
 10
-0.517638090205037
 20
0.6567681755612931
 10
-0.6840402866513329
 20
0.6611756474464016
 10
-0.8452365234813943
 20
0.6667846728520522
 10
-0.9999999999999953
 20
0.6735525637080859
 10
-1.147152872702088
 20
0.6814278122785238
 10
-1.285575219373074
 20
0.6903504831665401
 10
-1.414213562373091
 20
0.7002526694590206
 10
-1.532088886237952
 20
0.7110590095391763
 10
-1.638304088577979
 20
0.7226872606339507
 10
-1.732050807568874
 20
0.7350489247311824
 10
-1.812615574073297
 20
0.7480499221029145
 10
-1.879385241571814
 20
0.7615913073089318
 10
-1.931851652578134
 20
0.7755700222313039
 10
-1.969615506024415
 20
0.789879680408893
 10
-1.99238939618349
 20
0.80441137670256
 10
-1.999999999999999
 20
0.8190545161290316
  0
LWPOLYLINE
  5
1E5
330
143
100
AcDbEntity
  8
AM_4
100
AcDbPolyline
 90
        3
 70
     0
 43
0.0
 10
-1.999999999999999
 20
0.8190545161290322
 10
-1.99238939618349
 20
0.8336976555555039
 10
-1.990459098839333
 20
0.8354458510359296
  0
LWPOLYLINE
  5
1E6
330
143
100
AcDbEntity
  8
AM_4
100
AcDbPolyline
 90
       50
 70
     0
 43
0.0
 10
-1.99999999999825
 20
-0.4475183033536911
 10
-1.999986102332341
 20
-0.4475457642554562
 10
-1.997273234976593
 20
-0.4463183295314285
 10
-1.989256601321319
 20
-0.4427184099752532
 10
-1.976004866561246
 20
-0.4363067157060994
 10
-1.95762532739397
 20
-0.426525931330533
 10
-1.94072915614898
 20
-0.4166671296171815
 10
-1.921173291566488
 20
-0.4040633861985502
 10
-1.898782767213392
 20
-0.3879397581880694
 10
-1.874039649352932
 20
-0.3676999238105114
 10
-1.854813020940823
 20
-0.349975373868585
 10
-1.834723482255339
 20
-0.3292339586053094
 10
-1.813601178672276
 20
-0.3045000461377405
 10
-1.792268042789264
 20
-0.2756348350140926
 10
-1.780045373352654
 20
-0.2568520496062116
 10
-1.768073624616961
 20
-0.2364028678518102
 10
-1.756293631012187
 20
-0.2137325819604498
 10
-1.745161489706854
 20
-0.1891650538208731
 10
-1.737115453695221
 20
-0.1687431802919057
 10
-1.729737014748446
 20
-0.1471692962655409
 10
-1.723006809847746
 20
-0.1238757566704801
 10
-1.717277004796211
 20
-0.0995057138850502
 10
-1.713439895014499
 20
-0.0788479933306294
 10
-1.710447138807066
 20
-0.0576619151250147
 10
-1.708320920760936
 20
-0.0354527787691268
 10
-1.707202855507743
 20
-0.0129725344477514
 10
-1.707115143362488
 20
0.0090060755628916
 10
-1.708010358218623
 20
0.0309182004511998
 10
-1.70994571036179
 20
0.0532624784742176
 10
-1.712857074678758
 20
0.0752069141015255
 10
-1.720847402391706
 20
0.1153351485560879
 10
-1.731820584331348
 20
0.1536052747267743
 10
-1.741211123244211
 20
0.1794724699841836
 10
-1.751502885509648
 20
0.2035985807472887
 10
-1.762781841826641
 20
0.2265759309070828
 10
-1.774563969041038
 20
0.2477701611440412
 10
-1.792976425722709
 20
0.2766722019367346
 10
-1.811637229217263
 20
0.3020144081339875
 10
-1.830622315510981
 20
0.3246893395796869
 10
-1.849165046888447
 20
0.3443855315818812
 10
-1.869966559596218
 20
0.3641196826027869
 10
-1.889623229295934
 20
0.3807710760877546
 10
-1.907919700859086
 20
0.3947466167241355
 10
-1.933091191057214
 20
0.4119104425907578
 10
-1.954471006505108
 20
0.4247527916043123
 10
-1.973514756120878
 20
0.4350461851364809
 10
-1.987503436020429
 20
0.4418981691000534
 10
-1.996321777663202
 20
0.4458949352024072
 10
-1.999926991591769
 20
0.4475281351579413
 10
-1.999999999988547
 20
0.4475183033494566
  0
LWPOLYLINE
  5
1E7
330
143
100
AcDbEntity
  8
AM_4
100
AcDbPolyline
 90
       19
 70
     0
 43
0.0
 10
0.0
 20
-0.6831631182795698
 10
0.1409872309153291
 20
-0.6836802260751217
 10
0.280901463872975
 20
-0.685227613959215
 10
0.4186778670776063
 20
-0.6877935053757136
 10
0.5532678789091691
 20
-0.6913583723416103
 10
0.6836471881099537
 20
-0.6958950840667689
 10
0.808823529411763
 20
-0.7013691134356196
 10
0.9278442352737494
 20
-0.7077387997793564
 10
1.039803486257635
 20
-0.7149556659387812
 10
1.143849204860589
 20
-0.7229647872047582
 10
1.239189540339521
 20
-0.7317052093284137
 10
1.325098895173367
 20
-0.7411104124197753
 10
1.400923447298354
 20
-0.7511088172043008
 10
1.466086126088696
 20
-0.7616243297843784
 10
1.520091004212496
 20
-0.7725769207598333
 10
1.562527071938196
 20
-0.7838832342999874
 10
1.593071365166804
 20
-0.795457222531861
 10
1.611491423383703
 20
-0.8072108004164444
 10
1.617647058823527
 20
-0.8190545161290318
  0
LWPOLYLINE
  5
1E8
330
143
100
AcDbEntity
  8
AM_4
100
AcDbPolyline
 90
       19
 70
     0
 43
0.0
 10
2.97532168853182
 20
-0.9266866801075269
 10
2.889073818048337
 20
-0.9263703434390447
 10
2.803482345824896
 20
-0.9254237407307278
 10
2.719198674646661
 20
-0.9238540762007608
 10
2.636864254143171
 20
-0.9216732959440062
 10
2.55710569896934
 20
-0.9188979970150087
 10
2.480530019889572
 20
-0.9155493011143898
 10
2.407720004059324
 20
-0.9116526938399506
 10
2.339229779662954
 20
-0.9072378307258856
 10
2.275580598663646
 20
-0.9023383115462601
 10
2.217256869761232
 20
-0.8969914246004417
 10
2.164702471749488
 20
-0.8912378629266263
 10
2.118317375330499
 20
-0.8851214146032474
 10
2.078454599096098
 20
-0.8786886294952586
 10
2.045417522843233
 20
-0.8719884649815532
 10
2.019457578670518
 20
-0.8650719133597508
 10
2.000772337428153
 20
-0.8579916137640209
 10
1.989504005084449
 20
-0.850801451549489
 10
1.985738340452545
 20
-0.8435561481921464
  0
LWPOLYLINE
  5
1E9
330
143
100
AcDbEntity
  8
AM_4
100
AcDbPolyline
 90
        3
 70
     0
 43
0.0
 10
-1.990459098839333
 20
-0.8354458510359297
 10
-1.999890799617126
 20
-0.8208101920044328
 10
-1.999999999999999
 20
-0.8190545161290322
  0
LWPOLYLINE
  5
1EA
330
143
100
AcDbEntity
  8
AM_4
100
AcDbPolyline
 90
        3
 70
     0
 43
0.0
 10
-1.990459098839333
 20
-0.8354458510359296
 10
-1.985792371891987
 20
-0.8426874531608889
 10
-1.985738340452545
 20
-0.843556146953405
  0
LINE
  5
1EB
330
143
100
AcDbEntity
  8
AM_4
100
AcDbLine
 10
-3.36875
 20
-0.926686680107527
 30
0.0
 11
-2.975321673785878
 21
-0.926686680107527
 31
0.0
  0
LWPOLYLINE
  5
1EC
330
143
100
AcDbEntity
  8
AM_4
100
AcDbPolyline
 90
       19
 70
     0
 43
0.0
 10
-3.437500000000001
 20
-0.9324620645161291
 10
-3.437238385493808
 20
-0.9319587065983442
 10
-3.43645553301959
 20
-0.9314591795382494
 10
-3.435157400557374
 20
-0.9309672850383947
 10
-3.433353867679032
 20
-0.9304867667129381
 10
-3.43105866035877
 20
-0.9300212815964813
 10
-3.428289246510181
 20
-0.929574372311828
 10
-3.425066703044869
 20
-0.9291494401084857
 10
-3.421415555464431
 20
-0.9287497189771028
 10
-3.417363591206576
 20
-0.9283782510368475
 10
-3.41294164816595
 20
-0.9280378633830434
 10
-3.408183379999135
 20
-0.9277311465712679
 10
-3.403125000000001
 20
-0.9274604349016591
 10
-3.397805005494674
 20
-0.9272277886534829
 10
-3.39226388485364
 20
-0.9270349784051637
 10
-3.386543809350799
 20
-0.926883471559113
 10
-3.380688312214601
 20
-0.9267744211739118
 10
-3.374741957313902
 20
-0.9267086571888379
 10
-3.36875
 20
-0.9266866801075269
  0
LINE
  5
1ED
330
143
100
AcDbEntity
  8
AM_4
100
AcDbLine
 10
-3.4375
 20
0.9765649999999996
 30
0.0
 11
-3.4375
 21
-0.9765650000000001
 31
0.0
  0
LINE
  5
1EE
330
143
100
AcDbEntity
  8
AM_4
100
AcDbLine
 10
1.375
 20
-0.9765650000000001
 30
0.0
 11
3.4375
 21
-0.9765650000000001
 31
0.0
  0
LINE
  5
1EF
330
143
100
AcDbEntity
  8
AM_4
100
AcDbLine
 10
-3.4375
 20
-0.9765650000000001
 30
0.0
 11
-1.375
 21
-0.9765650000000001
 31
0.0
  0
LINE
  5
1F0
330
143
100
AcDbEntity
  8
AM_4
100
AcDbLine
 10
2.975321673785879
 20
-0.9266866801075269
 30
0.0
 11
3.4375
 21
-0.926686680107527
 31
0.0
  0
LWPOLYLINE
  5
1F1
330
143
100
AcDbEntity
  8
AM_4
100
AcDbPolyline
 90
       19
 70
     0
 43
0.0
 10
0.0
 20
0.9549459139784946
 10
0.1409872309153294
 20
0.9544288061829427
 10
0.2809014638729756
 20
0.9528814182988493
 10
0.4186778670776072
 20
0.9503155268823507
 10
0.5532678789091701
 20
0.946750659916454
 10
0.6836471881099552
 20
0.9422139481912953
 10
0.8088235294117647
 20
0.9367399188224446
 10
0.9278442352737514
 20
0.930370232478708
 10
1.039803486257637
 20
0.9231533663192831
 10
1.143849204860592
 20
0.915144245053306
 10
1.239189540339523
 20
0.9064038229296506
 10
1.325098895173369
 20
0.8969986198382891
 10
1.400923447298357
 20
0.8870002150537635
 10
1.466086126088699
 20
0.8764847024736858
 10
1.520091004212499
 20
0.865532111498231
 10
1.562527071938199
 20
0.8542257979580768
 10
1.593071365166807
 20
0.8426518097262032
 10
1.611491423383706
 20
0.8308982318416197
 10
1.61764705882353
 20
0.8190545161290324
  0
LINE
  5
1F2
330
143
100
AcDbEntity
  8
AM_4
100
AcDbLine
 10
3.4375
 20
0.9765649999999999
 30
0.0
 11
3.4375
 21
-0.9765650000000001
 31
0.0
  0
LINE
  5
1F3
330
143
100
AcDbEntity
  8
AM_4
100
AcDbLine
 10
-3.4375
 20
0.9765649999999996
 30
0.0
 11
3.4375
 21
0.9765649999999999
 31
0.0
  0
LWPOLYLINE
  5
1F4
330
143
100
AcDbEntity
  8
AM_4
100
AcDbPolyline
 90
       19
 70
     0
 43
0.0
 10
-3.36875
 20
0.9266866801075268
 10
-3.374741957313902
 20
0.9267086571888378
 10
-3.380688312214601
 20
0.9267744211739117
 10
-3.386543809350798
 20
0.9268834715591129
 10
-3.392263884853639
 20
0.9270349784051636
 10
-3.397805005494673
 20
0.9272277886534827
 10
-3.403125
 20
0.927460434901659
 10
-3.408183379999135
 20
0.9277311465712678
 10
-3.41294164816595
 20
0.9280378633830433
 10
-3.417363591206576
 20
0.9283782510368473
 10
-3.42141555546443
 20
0.9287497189771026
 10
-3.425066703044869
 20
0.9291494401084855
 10
-3.428289246510181
 20
0.9295743723118279
 10
-3.43105866035877
 20
0.9300212815964811
 10
-3.433353867679032
 20
0.930486766712938
 10
-3.435157400557374
 20
0.9309672850383945
 10
-3.43645553301959
 20
0.9314591795382492
 10
-3.437238385493808
 20
0.9319587065983439
 10
-3.437500000000001
 20
0.932462064516129
  0
LINE
  5
1F5
330
143
100
AcDbEntity
  8
AM_4
100
AcDbLine
 10
-2.975321673785878
 20
0.9266866801075265
 30
0.0
 11
-3.36875
 21
0.9266866801075265
 31
0.0
  0
LWPOLYLINE
  5
1F6
330
143
100
AcDbEntity
  8
AM_4
100
AcDbPolyline
 90
       19
 70
     0
 43
0.0
 10
-2.975321659039937
 20
0.926686680107527
 10
-2.88907378866868
 20
0.9263703432231178
 10
-2.803482316781061
 20
0.9254237403005174
 10
-2.71919864615969
 20
0.9238540755595411
 10
-2.636864226429867
 20
0.9216732950966571
 10
-2.557105672240617
 20
0.9188979959679793
 10
-2.480529994348852
 20
0.9155492998756484
 10
-2.407719979900988
 20
0.9116526924189249
 10
-2.339229757070861
 20
0.9072378291333903
 10
-2.275580577809736
 20
0.9023383097944152
 10
-2.217256850804215
 20
0.8969914227025796
 10
-2.164702454833639
 20
0.8912378608971913
 10
-2.118317360584557
 20
0.8851214124576845
 10
-2.07845458663229
 20
0.8786886272498967
 10
-2.045417512756415
 20
0.8719884626534808
 10
-2.019457571037457
 20
0.865071910966686
 10
-2.000772332306942
 20
0.8579916113241766
 10
-1.989504002514062
 20
0.8508014490814337
 10
-1.985738340452545
 20
0.8435561469534051
  0
LWPOLYLINE
  5
1F7
330
143
100
AcDbEntity
  8
AM_4
100
AcDbPolyline
 90
        3
 70
     0
 43
0.0
 10
1.990459098839333
 20
0.8354458510359296
 10
1.999890799617126
 20
0.8208101920044327
 10
2.0
 20
0.8190545161290322
  0
LWPOLYLINE
  5
1F8
330
143
100
AcDbEntity
  8
AM_4
100
AcDbPolyline
 90
        3
 70
     0
 43
0.0
 10
1.990459098839333
 20
0.8354458510359297
 10
1.985792371891987
 20
0.8426874531608891
 10
1.985738340452545
 20
0.8435561469534051
  0
LINE
  5
1F9
330
143
100
AcDbEntity
  8
AM_4
100
AcDbLine
 10
3.4375
 20
0.9266866801075265
 30
0.0
 11
2.975321673785879
 21
0.9266866801075269
 31
0.0
  0
ENDBLK
  5
146
330
143
100
AcDbEntity
  8
0
100
AcDbBlockEnd
  0
ENDSEC
  0
SECTION
  2
ENTITIES
  0
INSERT
  5
6F
330
1F
100
AcDbEntity
  8
0
100
AcDbBlockReference
  2
1_048000_4
 10
0.0
 20
0.0
 30
0.0
  0
POINT
  5
1FB
330
1F
100
AcDbEntity
  8
ConnectionPoints
100
AcDbPoint
 10
1.0
 20
0.0000000000000001
 30
1.732050807568877
  0
POINT
  5
1FC
330
1F
100
AcDbEntity
  8
ConnectionPoints
100
AcDbPoint
 10
1.0
 20
0.0000000000000001
 30
1.732050807568877
  0
POINT
  5
1FD
330
1F
100
AcDbEntity
  8
ConnectionPoints
100
AcDbPoint
 10
0.0
 20
-1.1875
 30
0.0000000000000001
  0
ENDSEC
  0
SECTION
  2
OBJECTS
  0
DICTIONARY
  5
C
330
0
100
AcDbDictionary
281
     1
  3
ACAD_DETAILVIEWSTYLE
350
205
  3
ACAD_GROUP
350
D
  3
ACAD_LAYOUT
350
1A
  3
ACAD_MATERIAL
350
43
  3
ACAD_MLEADERSTYLE
350
6B
  3
ACAD_MLINESTYLE
350
17
  3
ACAD_PLOTSETTINGS
350
19
  3
ACAD_PLOTSTYLENAME
350
E
  3
ACAD_SCALELIST
350
47
  3
ACAD_SECTIONVIEWSTYLE
350
206
  3
ACAD_TABLESTYLE
350
69
  3
ACAD_VISUALSTYLE
350
2A
  3
ACDB_RECOMPOSE_DATA
350
202
  3
AcDbVariableDictionary
350
1FE
  0
SUN
  5
6D
330
29
100
AcDbSun
 90
        1
290
     0
 63
     7
421
 16777215
 40
1.0
291
     1
 91
  2455826
 92
 54000000
292
     0
 70
     2
 71
   256
280
     1
  0
DICTIONARY
  5
205
102
{ACAD_REACTORS
330
C
102
}
330
C
100
AcDbDictionary
281
     1
  0
DICTIONARY
  5
D
102
{ACAD_REACTORS
330
C
102
}
330
C
100
AcDbDictionary
281
     1
  0
DICTIONARY
  5
1A
102
{ACAD_REACTORS
330
C
102
}
330
C
100
AcDbDictionary
281
     1
  3
Layout1
350
1E
  3
Layout2
350
26
  3
Model
350
22
  0
DICTIONARY
  5
43
102
{ACAD_REACTORS
330
C
102
}
330
C
100
AcDbDictionary
281
     1
  3
ByBlock
350
45
  3
ByLayer
350
44
  3
Global
350
46
  0
DICTIONARY
  5
6B
102
{ACAD_REACTORS
330
C
102
}
330
C
100
AcDbDictionary
281
     1
  3
Standard
350
6C
  0
DICTIONARY
  5
17
102
{ACAD_REACTORS
330
C
102
}
330
C
100
AcDbDictionary
281
     1
  3
Standard
350
18
  0
DICTIONARY
  5
19
102
{ACAD_REACTORS
330
C
102
}
330
C
100
AcDbDictionary
281
     1
  0
ACDBDICTIONARYWDFLT
  5
E
102
{ACAD_REACTORS
330
C
102
}
330
C
100
AcDbDictionary
281
     1
  3
Normal
350
F
100
AcDbDictionaryWithDefault
340
F
  0
DICTIONARY
  5
47
102
{ACAD_REACTORS
330
C
102
}
330
C
100
AcDbDictionary
281
     1
  3
A0
350
48
  3
A1
350
49
  3
A2
350
4A
  3
A3
350
4B
  3
A4
350
4C
  3
A5
350
4D
  3
A6
350
4E
  3
A7
350
4F
  3
A8
350
50
  3
A9
350
51
  3
B0
350
52
  3
B1
350
53
  3
B2
350
54
  3
B3
350
55
  3
B4
350
56
  3
B5
350
57
  3
B6
350
58
  3
B7
350
59
  3
B8
350
5A
  3
B9
350
5B
  3
C0
350
5C
  3
C1
350
5D
  3
C2
350
5E
  3
C3
350
5F
  3
C4
350
60
  3
C5
350
61
  3
C6
350
62
  3
C7
350
63
  3
C8
350
64
  3
C9
350
65
  3
D0
350
66
  3
D1
350
67
  3
D2
350
68
  0
DICTIONARY
  5
206
102
{ACAD_REACTORS
330
C
102
}
330
C
100
AcDbDictionary
281
     1
  0
DICTIONARY
  5
69
102
{ACAD_REACTORS
330
C
102
}
330
C
100
AcDbDictionary
281
     1
  3
Standard
350
6A
  0
DICTIONARY
  5
2A
102
{ACAD_REACTORS
330
C
102
}
330
C
100
AcDbDictionary
281
     1
  3
2dWireframe
350
2F
  3
Basic
350
32
  3
Brighten
350
36
  3
ColorChange
350
3A
  3
Conceptual
350
34
  3
Dim
350
35
  3
EdgeColorOff
350
3D
  3
Facepattern
350
39
  3
Flat
350
2B
  3
FlatWithEdges
350
2C
  3
Gouraud
350
2D
  3
GouraudWithEdges
350
2E
  3
Hidden
350
31
  3
JitterOff
350
3B
  3
Linepattern
350
38
  3
OverhangOff
350
3C
  3
Realistic
350
33
  3
Shaded
350
42
  3
Shaded with edges
350
41
  3
Shades of Gray
350
3E
  3
Sketchy
350
3F
  3
Thicken
350
37
  3
Wireframe
350
30
  3
X-Ray
350
40
  0
XRECORD
  5
202
102
{ACAD_REACTORS
330
C
102
}
330
C
100
AcDbXrecord
280
     1
 90
        1
330
6A
  0
DICTIONARY
  5
1FE
102
{ACAD_REACTORS
330
C
102
}
330
C
100
AcDbDictionary
281
     1
  3
CANNOSCALE
350
1FF
  3
CMLEADERSTYLE
350
204
  3
CTABLESTYLE
350
203
  0
LAYOUT
  5
1E
102
{ACAD_REACTORS
330
1A
102
}
330
1A
100
AcDbPlotSettings
  1

  2
none_device
  4

  6

 40
0.0
 41
0.0
 42
0.0
 43
0.0
 44
0.0
 45
0.0
 46
0.0
 47
0.0
 48
0.0
 49
0.0
140
0.0
141
0.0
142
1.0
143
1.0
 70
   688
 72
     0
 73
     0
 74
     5
  7

 75
    16
 76
     0
 77
     2
 78
   300
147
1.0
148
0.0
149
0.0
100
AcDbLayout
  1
Layout1
 70
     1
 71
     1
 10
0.0
 20
0.0
 11
12.0
 21
9.0
 12
0.0
 22
0.0
 32
0.0
 14
1.000000000000000E+20
 24
1.000000000000000E+20
 34
1.000000000000000E+20
 15
-1.000000000000000E+20
 25
-1.000000000000000E+20
 35
-1.000000000000000E+20
146
0.0
 13
0.0
 23
0.0
 33
0.0
 16
1.0
 26
0.0
 36
0.0
 17
0.0
 27
1.0
 37
0.0
 76
     0
330
1B
  0
LAYOUT
  5
26
102
{ACAD_REACTORS
330
1A
102
}
330
1A
100
AcDbPlotSettings
  1

  2
none_device
  4

  6

 40
0.0
 41
0.0
 42
0.0
 43
0.0
 44
0.0
 45
0.0
 46
0.0
 47
0.0
 48
0.0
 49
0.0
140
0.0
141
0.0
142
1.0
143
1.0
 70
   688
 72
     0
 73
     0
 74
     5
  7

 75
    16
 76
     0
 77
     2
 78
   300
147
1.0
148
0.0
149
0.0
100
AcDbLayout
  1
Layout2
 70
     1
 71
     2
 10
0.0
 20
0.0
 11
0.0
 21
0.0
 12
0.0
 22
0.0
 32
0.0
 14
0.0
 24
0.0
 34
0.0
 15
0.0
 25
0.0
 35
0.0
146
0.0
 13
0.0
 23
0.0
 33
0.0
 16
1.0
 26
0.0
 36
0.0
 17
0.0
 27
1.0
 37
0.0
 76
     0
330
23
  0
LAYOUT
  5
22
102
{ACAD_REACTORS
330
1A
102
}
330
1A
100
AcDbPlotSettings
  1

  2
none_device
  4
Letter_(8.50_x_11.00_Inches)
  6

 40
6.35
 41
6.35
 42
6.35000508
 43
6.35000508
 44
215.9
 45
279.4
 46
0.0
 47
0.0
 48
0.0
 49
0.0
140
0.0
141
0.0
142
1.0
143
1.0
 70
  1712
 72
     0
 73
     0
 74
     0
  7

 75
     0
 76
     0
 77
     2
 78
   300
147
1.0
148
0.0
149
0.0
100
AcDbLayout
  1
Model
 70
     1
 71
     0
 10
0.0
 20
0.0
 11
12.0
 21
9.0
 12
0.0
 22
0.0
 32
0.0
 14
1.000000000000000E+20
 24
1.000000000000000E+20
 34
1.000000000000000E+20
 15
-1.000000000000000E+20
 25
-1.000000000000000E+20
 35
-1.000000000000000E+20
146
0.0
 13
0.0
 23
0.0
 33
0.0
 16
1.0
 26
0.0
 36
0.0
 17
0.0
 27
1.0
 37
0.0
 76
     0
330
1F
331
29
  0
MATERIAL
  5
45
102
{ACAD_REACTORS
330
43
102
}
330
43
100
AcDbMaterial
  1
ByBlock
 72
     1
 94
      127
  0
MATERIAL
  5
44
102
{ACAD_REACTORS
330
43
102
}
330
43
100
AcDbMaterial
  1
ByLayer
 72
     1
 94
      127
  0
MATERIAL
  5
46
102
{ACAD_REACTORS
330
43
102
}
330
43
100
AcDbMaterial
  1
Global
 72
     1
 94
      127
  0
MLEADERSTYLE
  5
6C
102
{ACAD_REACTORS
330
6B
102
}
330
6B
100
AcDbMLeaderStyle
179
     2
170
     2
171
     1
172
     0
 90
        2
 40
0.0
 41
0.0
173
     1
 91
-1056964608
340
14
 92
       -2
290
     1
 42
0.09
291
     1
 43
0.36
  3
Standard
341
0
 44
0.18
300

342
11
174
     1
178
     6
175
     1
176
     0
 93
-1056964608
 45
0.18
292
     0
297
     0
 46
0.18
343
0
 94
-1056964608
 47
1.0
 49
1.0
140
1.0
293
     1
141
0.0
294
     1
177
     0
142
1.0
295
     0
296
     0
143
0.125
271
     0
272
     9
273
     9
298
     0
  0
MLINESTYLE
  5
18
102
{ACAD_REACTORS
330
17
102
}
330
17
100
AcDbMlineStyle
  2
Standard
 70
     0
  3

 62
   256
 51
90.0
 52
90.0
 71
     2
 49
0.5
 62
   256
  6
BYLAYER
 49
-0.5
 62
   256
  6
BYLAYER
  0
ACDBPLACEHOLDER
  5
F
102
{ACAD_REACTORS
330
E
102
}
330
E
  0
SCALE
  5
48
102
{ACAD_REACTORS
330
47
102
}
330
47
100
AcDbScale
 70
     0
300
1:1
140
1.0
141
1.0
290
     1
  0
SCALE
  5
49
102
{ACAD_REACTORS
330
47
102
}
330
47
100
AcDbScale
 70
     0
300
1:2
140
1.0
141
2.0
290
     0
  0
SCALE
  5
4A
102
{ACAD_REACTORS
330
47
102
}
330
47
100
AcDbScale
 70
     0
300
1:4
140
1.0
141
4.0
290
     0
  0
SCALE
  5
4B
102
{ACAD_REACTORS
330
47
102
}
330
47
100
AcDbScale
 70
     0
300
1:5
140
1.0
141
5.0
290
     0
  0
SCALE
  5
4C
102
{ACAD_REACTORS
330
47
102
}
330
47
100
AcDbScale
 70
     0
300
1:8
140
1.0
141
8.0
290
     0
  0
SCALE
  5
4D
102
{ACAD_REACTORS
330
47
102
}
330
47
100
AcDbScale
 70
     0
300
1:10
140
1.0
141
10.0
290
     0
  0
SCALE
  5
4E
102
{ACAD_REACTORS
330
47
102
}
330
47
100
AcDbScale
 70
     0
300
1:16
140
1.0
141
16.0
290
     0
  0
SCALE
  5
4F
102
{ACAD_REACTORS
330
47
102
}
330
47
100
AcDbScale
 70
     0
300
1:20
140
1.0
141
20.0
290
     0
  0
SCALE
  5
50
102
{ACAD_REACTORS
330
47
102
}
330
47
100
AcDbScale
 70
     0
300
1:30
140
1.0
141
30.0
290
     0
  0
SCALE
  5
51
102
{ACAD_REACTORS
330
47
102
}
330
47
100
AcDbScale
 70
     0
300
1:40
140
1.0
141
40.0
290
     0
  0
SCALE
  5
52
102
{ACAD_REACTORS
330
47
102
}
330
47
100
AcDbScale
 70
     0
300
1:50
140
1.0
141
50.0
290
     0
  0
SCALE
  5
53
102
{ACAD_REACTORS
330
47
102
}
330
47
100
AcDbScale
 70
     0
300
1:100
140
1.0
141
100.0
290
     0
  0
SCALE
  5
54
102
{ACAD_REACTORS
330
47
102
}
330
47
100
AcDbScale
 70
     0
300
2:1
140
2.0
141
1.0
290
     0
  0
SCALE
  5
55
102
{ACAD_REACTORS
330
47
102
}
330
47
100
AcDbScale
 70
     0
300
4:1
140
4.0
141
1.0
290
     0
  0
SCALE
  5
56
102
{ACAD_REACTORS
330
47
102
}
330
47
100
AcDbScale
 70
     0
300
8:1
140
8.0
141
1.0
290
     0
  0
SCALE
  5
57
102
{ACAD_REACTORS
330
47
102
}
330
47
100
AcDbScale
 70
     0
300
10:1
140
10.0
141
1.0
290
     0
  0
SCALE
  5
58
102
{ACAD_REACTORS
330
47
102
}
330
47
100
AcDbScale
 70
     0
300
100:1
140
100.0
141
1.0
290
     0
  0
SCALE
  5
59
102
{ACAD_REACTORS
330
47
102
}
330
47
100
AcDbScale
 70
     0
300
1/128" = 1'-0"
140
0.0078125
141
12.0
290
     0
  0
SCALE
  5
5A
102
{ACAD_REACTORS
330
47
102
}
330
47
100
AcDbScale
 70
     0
300
1/64" = 1'-0"
140
0.015625
141
12.0
290
     0
  0
SCALE
  5
5B
102
{ACAD_REACTORS
330
47
102
}
330
47
100
AcDbScale
 70
     0
300
1/32" = 1'-0"
140
0.03125
141
12.0
290
     0
  0
SCALE
  5
5C
102
{ACAD_REACTORS
330
47
102
}
330
47
100
AcDbScale
 70
     0
300
1/16" = 1'-0"
140
0.0625
141
12.0
290
     0
  0
SCALE
  5
5D
102
{ACAD_REACTORS
330
47
102
}
330
47
100
AcDbScale
 70
     0
300
3/32" = 1'-0"
140
0.09375
141
12.0
290
     0
  0
SCALE
  5
5E
102
{ACAD_REACTORS
330
47
102
}
330
47
100
AcDbScale
 70
     0
300
1/8" = 1'-0"
140
0.125
141
12.0
290
     0
  0
SCALE
  5
5F
102
{ACAD_REACTORS
330
47
102
}
330
47
100
AcDbScale
 70
     0
300
3/16" = 1'-0"
140
0.1875
141
12.0
290
     0
  0
SCALE
  5
60
102
{ACAD_REACTORS
330
47
102
}
330
47
100
AcDbScale
 70
     0
300
1/4" = 1'-0"
140
0.25
141
12.0
290
     0
  0
SCALE
  5
61
102
{ACAD_REACTORS
330
47
102
}
330
47
100
AcDbScale
 70
     0
300
3/8" = 1'-0"
140
0.375
141
12.0
290
     0
  0
SCALE
  5
62
102
{ACAD_REACTORS
330
47
102
}
330
47
100
AcDbScale
 70
     0
300
1/2" = 1'-0"
140
0.5
141
12.0
290
     0
  0
SCALE
  5
63
102
{ACAD_REACTORS
330
47
102
}
330
47
100
AcDbScale
 70
     0
300
3/4" = 1'-0"
140
0.75
141
12.0
290
     0
  0
SCALE
  5
64
102
{ACAD_REACTORS
330
47
102
}
330
47
100
AcDbScale
 70
     0
300
1" = 1'-0"
140
1.0
141
12.0
290
     0
  0
SCALE
  5
65
102
{ACAD_REACTORS
330
47
102
}
330
47
100
AcDbScale
 70
     0
300
1-1/2" = 1'-0"
140
1.5
141
12.0
290
     0
  0
SCALE
  5
66
102
{ACAD_REACTORS
330
47
102
}
330
47
100
AcDbScale
 70
     0
300
3" = 1'-0"
140
3.0
141
12.0
290
     0
  0
SCALE
  5
67
102
{ACAD_REACTORS
330
47
102
}
330
47
100
AcDbScale
 70
     0
300
6" = 1'-0"
140
6.0
141
12.0
290
     0
  0
SCALE
  5
68
102
{ACAD_REACTORS
330
47
102
}
330
47
100
AcDbScale
 70
     0
300
1'-0" = 1'-0"
140
12.0
141
12.0
290
     0
  0
TABLESTYLE
  5
6A
102
{ACAD_REACTORS
330
69
102
}
102
{ACAD_XDICTIONARY
360
200
102
}
330
69
100
AcDbTableStyle
  3
Standard
 70
     0
 71
     0
 40
0.06
 41
0.06
280
     0
281
     0
  7
Standard
140
0.18
170
     2
 62
     0
 63
   257
283
     0
 90
        4
 91
        0
  1

274
    -2
284
     1
 64
     0
275
    -2
285
     1
 65
     0
276
    -2
286
     1
 66
     0
277
    -2
287
     1
 67
     0
278
    -2
288
     1
 68
     0
279
    -2
289
     1
 69
     0
  7
Standard
140
0.25
170
     5
 62
     0
 63
   257
283
     0
 90
        4
 91
        0
  1

274
    -2
284
     1
 64
     0
275
    -2
285
     1
 65
     0
276
    -2
286
     1
 66
     0
277
    -2
287
     1
 67
     0
278
    -2
288
     1
 68
     0
279
    -2
289
     1
 69
     0
  7
Standard
140
0.18
170
     5
 62
     0
 63
   257
283
     0
 90
        4
 91
        0
  1

274
    -2
284
     1
 64
     0
275
    -2
285
     1
 65
     0
276
    -2
286
     1
 66
     0
277
    -2
287
     1
 67
     0
278
    -2
288
     1
 68
     0
279
    -2
289
     1
 69
     0
  0
VISUALSTYLE
  5
2F
102
{ACAD_REACTORS
330
2A
102
}
330
2A
100
AcDbVisualStyle
  2
2dWireframe
 70
     4
177
     3
291
     0
 70
    58
 90
        0
176
     1
 90
        2
176
     1
 90
        0
176
     1
 90
        0
176
     1
 40
0.6
176
     1
 40
30.0
176
     1
 62
     7
420
 16777215
176
     1
 90
        1
176
     1
 90
        4
176
     1
 62
     7
176
     1
 62
   257
176
     1
 90
        1
176
     1
 90
        1
176
     1
 40
1.0
176
     1
 90
        0
176
     1
 62
   257
176
     1
 40
1.0
176
     1
 90
        1
176
     1
 90
        6
176
     1
 90
        2
176
     1
 62
     7
176
     1
 90
        5
176
     1
 90
        0
176
     1
 90
        0
176
     1
290
     0
176
     1
 90
        1
176
     1
 40
0.0
176
     1
 90
        0
176
     1
290
     1
176
     1
290
     1
176
     1
290
     0
176
     1
290
     0
176
     1
290
     0
176
     1
290
     0
176
     1
290
     0
176
     1
290
     0
176
     1
290
     0
176
     1
 90
       50
176
     1
 40
0.0
176
     1
 40
1.0
176
     1
 90
        0
176
     1
 62
    18
420
        0
176
     1
 90
       50
176
     1
 90
        3
176
     1
 62
     5
420
      255
176
     1
290
     0
176
     1
 90
       50
176
     1
 90
       50
176
     1
 90
       50
176
     1
290
     0
176
     1
 90
       50
176
     1
 62
   256
176
     0
 40
1.0
176
     0
 90
        2
176
     1
  1
strokes_ogs.tif
176
     1
290
     0
176
     1
 40
1.0
176
     1
 40
1.0
176
     1
  0
VISUALSTYLE
  5
32
102
{ACAD_REACTORS
330
2A
102
}
330
2A
100
AcDbVisualStyle
  2
Basic
 70
     7
177
     3
291
     1
 70
    58
 90
        1
176
     1
 90
        0
176
     1
 90
        1
176
     1
 90
        0
176
     1
 40
0.6
176
     1
 40
30.0
176
     1
 62
     7
420
 16777215
176
     1
 90
        0
176
     1
 90
        4
176
     1
 62
     7
176
     1
 62
   257
176
     1
 90
        1
176
     1
 90
        1
176
     1
 40
1.0
176
     1
 90
        8
176
     1
 62
     7
176
     1
 40
1.0
176
     1
 90
        1
176
     1
 90
        6
176
     1
 90
        2
176
     1
 62
     7
176
     1
 90
        5
176
     1
 90
        0
176
     1
 90
        0
176
     1
290
     0
176
     1
 90
        1
176
     1
 40
0.0
176
     1
 90
        0
176
     1
290
     0
176
     1
290
     1
176
     1
290
     1
176
     1
290
     0
176
     1
290
     0
176
     1
290
     0
176
     1
290
     0
176
     1
290
     0
176
     1
290
     0
176
     1
 90
       50
176
     1
 40
0.0
176
     1
 40
1.0
176
     1
 90
        0
176
     1
 62
    18
420
        0
176
     1
 90
       50
176
     1
 90
        3
176
     1
 62
     5
420
      255
176
     1
290
     0
176
     1
 90
       50
176
     1
 90
       50
176
     1
 90
       50
176
     1
290
     0
176
     1
 90
       50
176
     1
 62
   256
176
     0
 40
1.0
176
     0
 90
        2
176
     1
  1
strokes_ogs.tif
176
     1
290
     0
176
     1
 40
1.0
176
     1
 40
1.0
176
     1
  0
VISUALSTYLE
  5
36
102
{ACAD_REACTORS
330
2A
102
}
330
2A
100
AcDbVisualStyle
  2
Brighten
 70
    12
177
     3
291
     1
 70
    58
 90
        2
176
     1
 90
        2
176
     1
 90
        0
176
     1
 90
        0
176
     1
 40
0.6
176
     1
 40
30.0
176
     1
 62
     7
420
 16777215
176
     1
 90
        1
176
     1
 90
        4
176
     1
 62
     7
176
     1
 62
   257
176
     1
 90
        1
176
     1
 90
        1
176
     1
 40
1.0
176
     1
 90
        8
176
     1
 62
     7
176
     1
 40
1.0
176
     1
 90
        1
176
     1
 90
        6
176
     1
 90
        2
176
     1
 62
     7
176
     1
 90
        5
176
     1
 90
        0
176
     1
 90
        0
176
     1
290
     0
176
     1
 90
        1
176
     1
 40
50.0
176
     1
 90
        0
176
     1
290
     0
176
     1
290
     1
176
     1
290
     1
176
     1
290
     0
176
     1
290
     0
176
     1
290
     0
176
     1
290
     0
176
     1
290
     0
176
     1
290
     0
176
     1
 90
       50
176
     1
 40
0.0
176
     1
 40
1.0
176
     1
 90
        0
176
     1
 62
    18
420
        0
176
     1
 90
       50
176
     1
 90
        3
176
     1
 62
     5
420
      255
176
     1
290
     0
176
     1
 90
       50
176
     1
 90
       50
176
     1
 90
       50
176
     1
290
     0
176
     1
 90
       50
176
     1
 62
   256
176
     0
 40
1.0
176
     0
 90
        2
176
     1
  1
strokes_ogs.tif
176
     1
290
     0
176
     1
 40
1.0
176
     1
 40
1.0
176
     1
  0
VISUALSTYLE
  5
3A
102
{ACAD_REACTORS
330
2A
102
}
330
2A
100
AcDbVisualStyle
  2
ColorChange
 70
    16
177
     3
291
     1
 70
    58
 90
        2
176
     1
 90
        2
176
     1
 90
        3
176
     1
 90
        0
176
     1
 40
0.6
176
     1
 40
30.0
176
     1
 62
     8
420
  8421504
176
     1
 90
        1
176
     1
 90
        4
176
     1
 62
     7
176
     1
 62
   257
176
     1
 90
        1
176
     1
 90
        1
176
     1
 40
1.0
176
     1
 90
        8
176
     1
 62
     8
420
  8421504
176
     1
 40
1.0
176
     1
 90
        1
176
     1
 90
        6
176
     1
 90
        2
176
     1
 62
     7
176
     1
 90
        5
176
     1
 90
        0
176
     1
 90
        0
176
     1
290
     0
176
     1
 90
        1
176
     1
 40
0.0
176
     1
 90
        0
176
     1
290
     0
176
     1
290
     1
176
     1
290
     1
176
     1
290
     0
176
     1
290
     0
176
     1
290
     0
176
     1
290
     0
176
     1
290
     0
176
     1
290
     0
176
     1
 90
       50
176
     1
 40
0.0
176
     1
 40
1.0
176
     1
 90
        0
176
     1
 62
    18
420
        0
176
     1
 90
       50
176
     1
 90
        3
176
     1
 62
     5
420
      255
176
     1
290
     0
176
     1
 90
       50
176
     1
 90
       50
176
     1
 90
       50
176
     1
290
     0
176
     1
 90
       50
176
     1
 62
   256
176
     0
 40
1.0
176
     0
 90
        2
176
     1
  1
strokes_ogs.tif
176
     1
290
     0
176
     1
 40
1.0
176
     1
 40
1.0
176
     1
  0
VISUALSTYLE
  5
34
102
{ACAD_REACTORS
330
2A
102
}
330
2A
100
AcDbVisualStyle
  2
Conceptual
 70
     9
177
     3
291
     0
 70
    58
 90
        3
176
     1
 90
        2
176
     1
 90
        0
176
     1
 90
        0
176
     1
 40
0.6
176
     1
 40
30.0
176
     1
 62
     7
420
 16777215
176
     1
 90
        2
176
     1
 90
        2
176
     1
 62
     7
176
     1
 62
   257
176
     1
 90
        1
176
     1
 90
        1
176
     1
 40
179.0
176
     1
 90
        8
176
     1
 62
     7
176
     1
 40
1.0
176
     1
 90
        1
176
     1
 90
        6
176
     1
 90
        2
176
     1
 62
     7
176
     1
 90
        3
176
     1
 90
        0
176
     1
 90
        0
176
     1
290
     0
176
     1
 90
        1
176
     1
 40
0.0
176
     1
 90
        0
176
     1
290
     0
176
     1
290
     1
176
     1
290
     1
176
     1
290
     0
176
     1
290
     0
176
     1
290
     0
176
     1
290
     0
176
     1
290
     0
176
     1
290
     0
176
     1
 90
       50
176
     1
 40
0.0
176
     1
 40
1.0
176
     1
 90
        0
176
     1
 62
    18
420
        0
176
     1
 90
       50
176
     1
 90
        3
176
     1
 62
     5
420
      255
176
     1
290
     0
176
     1
 90
       50
176
     1
 90
       50
176
     1
 90
       50
176
     1
290
     0
176
     1
 90
       50
176
     1
 62
   256
176
     0
 40
1.0
176
     0
 90
        2
176
     1
  1
strokes_ogs.tif
176
     1
290
     0
176
     1
 40
1.0
176
     1
 40
1.0
176
     1
  0
VISUALSTYLE
  5
35
102
{ACAD_REACTORS
330
2A
102
}
330
2A
100
AcDbVisualStyle
  2
Dim
 70
    11
177
     3
291
     1
 70
    58
 90
        2
176
     1
 90
        2
176
     1
 90
        0
176
     1
 90
        0
176
     1
 40
0.6
176
     1
 40
30.0
176
     1
 62
     7
420
 16777215
176
     1
 90
        1
176
     1
 90
        4
176
     1
 62
     7
176
     1
 62
   257
176
     1
 90
        1
176
     1
 90
        1
176
     1
 40
1.0
176
     1
 90
        8
176
     1
 62
     7
176
     1
 40
1.0
176
     1
 90
        1
176
     1
 90
        6
176
     1
 90
        2
176
     1
 62
     7
176
     1
 90
        5
176
     1
 90
        0
176
     1
 90
        0
176
     1
290
     0
176
     1
 90
        1
176
     1
 40
-50.0
176
     1
 90
        0
176
     1
290
     0
176
     1
290
     1
176
     1
290
     1
176
     1
290
     0
176
     1
290
     0
176
     1
290
     0
176
     1
290
     0
176
     1
290
     0
176
     1
290
     0
176
     1
 90
       50
176
     1
 40
0.0
176
     1
 40
1.0
176
     1
 90
        0
176
     1
 62
    18
420
        0
176
     1
 90
       50
176
     1
 90
        3
176
     1
 62
     5
420
      255
176
     1
290
     0
176
     1
 90
       50
176
     1
 90
       50
176
     1
 90
       50
176
     1
290
     0
176
     1
 90
       50
176
     1
 62
   256
176
     0
 40
1.0
176
     0
 90
        2
176
     1
  1
strokes_ogs.tif
176
     1
290
     0
176
     1
 40
1.0
176
     1
 40
1.0
176
     1
  0
VISUALSTYLE
  5
3D
102
{ACAD_REACTORS
330
2A
102
}
330
2A
100
AcDbVisualStyle
  2
EdgeColorOff
 70
    22
177
     3
291
     1
 70
    58
 90
        2
176
     0
 90
        2
176
     0
 90
        0
176
     0
 90
        0
176
     0
 40
0.6
176
     0
 40
30.0
176
     0
 62
     7
420
 16777215
176
     0
 90
        1
176
     0
 90
        4
176
     0
 62
     7
176
     0
 62
   257
176
     0
 90
        1
176
     0
 90
        1
176
     0
 40
1.0
176
     0
 90
        8
176
     2
 62
     7
176
     0
 40
1.0
176
     0
 90
        1
176
     0
 90
        6
176
     0
 90
        2
176
     0
 62
     7
176
     0
 90
        5
176
     0
 90
        0
176
     0
 90
        0
176
     0
290
     0
176
     0
 90
        1
176
     0
 40
0.0
176
     0
 90
        0
176
     0
290
     0
176
     0
290
     1
176
     0
290
     1
176
     0
290
     0
176
     0
290
     0
176
     0
290
     0
176
     0
290
     0
176
     0
290
     0
176
     0
290
     0
176
     0
 90
       50
176
     0
 40
0.0
176
     0
 40
1.0
176
     0
 90
        0
176
     0
 62
    18
420
        0
176
     0
 90
       50
176
     0
 90
        3
176
     0
 62
     5
420
      255
176
     0
290
     0
176
     0
 90
       50
176
     0
 90
       50
176
     0
 90
       50
176
     0
290
     0
176
     0
 90
       50
176
     0
 62
   256
176
     0
 40
1.0
176
     0
 90
        2
176
     0
  1
strokes_ogs.tif
176
     0
290
     0
176
     0
 40
1.0
176
     0
 40
1.0
176
     0
  0
VISUALSTYLE
  5
39
102
{ACAD_REACTORS
330
2A
102
}
330
2A
100
AcDbVisualStyle
  2
Facepattern
 70
    15
177
     3
291
     1
 70
    58
 90
        2
176
     1
 90
        2
176
     1
 90
        0
176
     1
 90
        0
176
     1
 40
0.6
176
     1
 40
30.0
176
     1
 62
     7
420
 16777215
176
     1
 90
        1
176
     1
 90
        4
176
     1
 62
     7
176
     1
 62
   257
176
     1
 90
        1
176
     1
 90
        1
176
     1
 40
1.0
176
     1
 90
        8
176
     1
 62
     7
176
     1
 40
1.0
176
     1
 90
        1
176
     1
 90
        6
176
     1
 90
        2
176
     1
 62
     7
176
     1
 90
        5
176
     1
 90
        0
176
     1
 90
        0
176
     1
290
     0
176
     1
 90
        1
176
     1
 40
0.0
176
     1
 90
        0
176
     1
290
     0
176
     1
290
     1
176
     1
290
     1
176
     1
290
     0
176
     1
290
     0
176
     1
290
     0
176
     1
290
     0
176
     1
290
     0
176
     1
290
     0
176
     1
 90
       50
176
     1
 40
0.0
176
     1
 40
1.0
176
     1
 90
        0
176
     1
 62
    18
420
        0
176
     1
 90
       50
176
     1
 90
        3
176
     1
 62
     5
420
      255
176
     1
290
     0
176
     1
 90
       50
176
     1
 90
       50
176
     1
 90
       50
176
     1
290
     0
176
     1
 90
       50
176
     1
 62
   256
176
     0
 40
1.0
176
     0
 90
        2
176
     1
  1
strokes_ogs.tif
176
     1
290
     0
176
     1
 40
1.0
176
     1
 40
1.0
176
     1
  0
VISUALSTYLE
  5
2B
102
{ACAD_REACTORS
330
2A
102
}
330
2A
100
AcDbVisualStyle
  2
Flat
 70
     0
177
     3
291
     1
 70
    58
 90
        2
176
     1
 90
        1
176
     1
 90
        1
176
     1
 90
        2
176
     1
 40
0.6
176
     1
 40
30.0
176
     1
 62
     7
420
 16777215
176
     1
 90
        0
176
     1
 90
        0
176
     1
 62
     7
176
     1
 62
   257
176
     1
 90
        1
176
     1
 90
        1
176
     1
 40
1.0
176
     1
 90
        8
176
     1
 62
     7
176
     1
 40
1.0
176
     1
 90
        1
176
     1
 90
        6
176
     1
 90
        2
176
     1
 62
     7
176
     1
 90
        5
176
     1
 90
        0
176
     1
 90
        0
176
     1
290
     0
176
     1
 90
       13
176
     1
 40
0.0
176
     1
 90
        0
176
     1
290
     0
176
     1
290
     1
176
     1
290
     1
176
     1
290
     0
176
     1
290
     0
176
     1
290
     0
176
     1
290
     0
176
     1
290
     0
176
     1
290
     0
176
     1
 90
       50
176
     1
 40
0.0
176
     1
 40
1.0
176
     1
 90
        0
176
     1
 62
    18
420
        0
176
     1
 90
       50
176
     1
 90
        3
176
     1
 62
     5
420
      255
176
     1
290
     0
176
     1
 90
       50
176
     1
 90
       50
176
     1
 90
       50
176
     1
290
     0
176
     1
 90
       50
176
     1
 62
   256
176
     0
 40
1.0
176
     0
 90
        2
176
     1
  1
strokes_ogs.tif
176
     1
290
     0
176
     1
 40
1.0
176
     1
 40
1.0
176
     1
  0
VISUALSTYLE
  5
2C
102
{ACAD_REACTORS
330
2A
102
}
330
2A
100
AcDbVisualStyle
  2
FlatWithEdges
 70
     1
177
     3
291
     1
 70
    58
 90
        2
176
     1
 90
        1
176
     1
 90
        1
176
     1
 90
        2
176
     1
 40
0.6
176
     1
 40
30.0
176
     1
 62
     7
420
 16777215
176
     1
 90
        1
176
     1
 90
        0
176
     1
 62
     7
176
     1
 62
   257
176
     1
 90
        1
176
     1
 90
        1
176
     1
 40
1.0
176
     1
 90
        0
176
     1
 62
   257
176
     1
 40
1.0
176
     1
 90
        1
176
     1
 90
        6
176
     1
 90
        2
176
     1
 62
     7
176
     1
 90
        5
176
     1
 90
        0
176
     1
 90
        0
176
     1
290
     0
176
     1
 90
       13
176
     1
 40
0.0
176
     1
 90
        0
176
     1
290
     0
176
     1
290
     1
176
     1
290
     1
176
     1
290
     0
176
     1
290
     0
176
     1
290
     0
176
     1
290
     0
176
     1
290
     0
176
     1
290
     0
176
     1
 90
       50
176
     1
 40
0.0
176
     1
 40
1.0
176
     1
 90
        0
176
     1
 62
    18
420
        0
176
     1
 90
       50
176
     1
 90
        3
176
     1
 62
     5
420
      255
176
     1
290
     0
176
     1
 90
       50
176
     1
 90
       50
176
     1
 90
       50
176
     1
290
     0
176
     1
 90
       50
176
     1
 62
   256
176
     0
 40
1.0
176
     0
 90
        2
176
     1
  1
strokes_ogs.tif
176
     1
290
     0
176
     1
 40
1.0
176
     1
 40
1.0
176
     1
  0
VISUALSTYLE
  5
2D
102
{ACAD_REACTORS
330
2A
102
}
330
2A
100
AcDbVisualStyle
  2
Gouraud
 70
     2
177
     3
291
     1
 70
    58
 90
        2
176
     1
 90
        2
176
     1
 90
        1
176
     1
 90
        2
176
     1
 40
0.6
176
     1
 40
30.0
176
     1
 62
     7
420
 16777215
176
     1
 90
        0
176
     1
 90
        0
176
     1
 62
     7
176
     1
 62
   257
176
     1
 90
        1
176
     1
 90
        1
176
     1
 40
1.0
176
     1
 90
        0
176
     1
 62
     7
176
     1
 40
1.0
176
     1
 90
        1
176
     1
 90
        6
176
     1
 90
        2
176
     1
 62
     7
176
     1
 90
        5
176
     1
 90
        0
176
     1
 90
        0
176
     1
290
     0
176
     1
 90
       13
176
     1
 40
0.0
176
     1
 90
        0
176
     1
290
     0
176
     1
290
     1
176
     1
290
     1
176
     1
290
     0
176
     1
290
     0
176
     1
290
     0
176
     1
290
     0
176
     1
290
     0
176
     1
290
     0
176
     1
 90
       50
176
     1
 40
0.0
176
     1
 40
1.0
176
     1
 90
        0
176
     1
 62
    18
420
        0
176
     1
 90
       50
176
     1
 90
        3
176
     1
 62
     5
420
      255
176
     1
290
     0
176
     1
 90
       50
176
     1
 90
       50
176
     1
 90
       50
176
     1
290
     0
176
     1
 90
       50
176
     1
 62
   256
176
     0
 40
1.0
176
     0
 90
        2
176
     1
  1
strokes_ogs.tif
176
     1
290
     0
176
     1
 40
1.0
176
     1
 40
1.0
176
     1
  0
VISUALSTYLE
  5
2E
102
{ACAD_REACTORS
330
2A
102
}
330
2A
100
AcDbVisualStyle
  2
GouraudWithEdges
 70
     3
177
     3
291
     1
 70
    58
 90
        2
176
     1
 90
        2
176
     1
 90
        1
176
     1
 90
        2
176
     1
 40
0.6
176
     1
 40
30.0
176
     1
 62
     7
420
 16777215
176
     1
 90
        1
176
     1
 90
        0
176
     1
 62
     7
176
     1
 62
   257
176
     1
 90
        1
176
     1
 90
        1
176
     1
 40
1.0
176
     1
 90
        0
176
     1
 62
   257
176
     1
 40
1.0
176
     1
 90
        1
176
     1
 90
        6
176
     1
 90
        2
176
     1
 62
     7
176
     1
 90
        5
176
     1
 90
        0
176
     1
 90
        0
176
     1
290
     0
176
     1
 90
       13
176
     1
 40
0.0
176
     1
 90
        0
176
     1
290
     0
176
     1
290
     1
176
     1
290
     1
176
     1
290
     0
176
     1
290
     0
176
     1
290
     0
176
     1
290
     0
176
     1
290
     0
176
     1
290
     0
176
     1
 90
       50
176
     1
 40
0.0
176
     1
 40
1.0
176
     1
 90
        0
176
     1
 62
    18
420
        0
176
     1
 90
       50
176
     1
 90
        3
176
     1
 62
     5
420
      255
176
     1
290
     0
176
     1
 90
       50
176
     1
 90
       50
176
     1
 90
       50
176
     1
290
     0
176
     1
 90
       50
176
     1
 62
   256
176
     0
 40
1.0
176
     0
 90
        2
176
     1
  1
strokes_ogs.tif
176
     1
290
     0
176
     1
 40
1.0
176
     1
 40
1.0
176
     1
  0
VISUALSTYLE
  5
31
102
{ACAD_REACTORS
330
2A
102
}
330
2A
100
AcDbVisualStyle
  2
Hidden
 70
     6
177
     3
291
     0
 70
    58
 90
        1
176
     1
 90
        2
176
     1
 90
        2
176
     1
 90
        0
176
     1
 40
0.6
176
     1
 40
30.0
176
     1
 62
     7
420
 16777215
176
     1
 90
        2
176
     1
 90
        2
176
     1
 62
     7
176
     1
 62
   257
176
     1
 90
        2
176
     1
 90
        1
176
     1
 40
40.0
176
     1
 90
        0
176
     1
 62
   257
176
     1
 40
1.0
176
     1
 90
        1
176
     1
 90
        6
176
     1
 90
        2
176
     1
 62
     7
176
     1
 90
        3
176
     1
 90
        0
176
     1
 90
        0
176
     1
290
     0
176
     1
 90
        1
176
     1
 40
0.0
176
     1
 90
        0
176
     1
290
     0
176
     1
290
     1
176
     1
290
     1
176
     1
290
     0
176
     1
290
     0
176
     1
290
     0
176
     1
290
     0
176
     1
290
     0
176
     1
290
     0
176
     1
 90
       50
176
     1
 40
0.0
176
     1
 40
1.0
176
     1
 90
        0
176
     1
 62
    18
420
        0
176
     1
 90
       50
176
     1
 90
        3
176
     1
 62
     5
420
      255
176
     1
290
     0
176
     1
 90
       50
176
     1
 90
       50
176
     1
 90
       50
176
     1
290
     0
176
     1
 90
       50
176
     1
 62
   256
176
     0
 40
1.0
176
     0
 90
        2
176
     1
  1
strokes_ogs.tif
176
     1
290
     0
176
     1
 40
1.0
176
     1
 40
1.0
176
     1
  0
VISUALSTYLE
  5
3B
102
{ACAD_REACTORS
330
2A
102
}
330
2A
100
AcDbVisualStyle
  2
JitterOff
 70
    20
177
     3
291
     1
 70
    58
 90
        2
176
     0
 90
        2
176
     0
 90
        0
176
     0
 90
        0
176
     0
 40
0.6
176
     0
 40
30.0
176
     0
 62
     7
420
 16777215
176
     0
 90
        1
176
     0
 90
        4
176
     0
 62
     7
176
     0
 62
   257
176
     0
 90
        1
176
     0
 90
        1
176
     0
 40
1.0
176
     0
 90
       10
176
     2
 62
     7
176
     0
 40
1.0
176
     0
 90
        1
176
     0
 90
        6
176
     0
 90
        2
176
     0
 62
     7
176
     0
 90
        5
176
     0
 90
        0
176
     0
 90
        0
176
     0
290
     0
176
     0
 90
        1
176
     0
 40
0.0
176
     0
 90
        0
176
     0
290
     0
176
     0
290
     1
176
     0
290
     1
176
     0
290
     0
176
     0
290
     0
176
     0
290
     0
176
     0
290
     0
176
     0
290
     0
176
     0
290
     0
176
     0
 90
       50
176
     0
 40
0.0
176
     0
 40
1.0
176
     0
 90
        0
176
     0
 62
    18
420
        0
176
     0
 90
       50
176
     0
 90
        3
176
     0
 62
     5
420
      255
176
     0
290
     0
176
     0
 90
       50
176
     0
 90
       50
176
     0
 90
       50
176
     0
290
     0
176
     0
 90
       50
176
     0
 62
   256
176
     0
 40
1.0
176
     0
 90
        2
176
     0
  1
strokes_ogs.tif
176
     0
290
     0
176
     0
 40
1.0
176
     0
 40
1.0
176
     0
  0
VISUALSTYLE
  5
38
102
{ACAD_REACTORS
330
2A
102
}
330
2A
100
AcDbVisualStyle
  2
Linepattern
 70
    14
177
     3
291
     1
 70
    58
 90
        2
176
     1
 90
        2
176
     1
 90
        0
176
     1
 90
        0
176
     1
 40
0.6
176
     1
 40
30.0
176
     1
 62
     7
420
 16777215
176
     1
 90
        1
176
     1
 90
        4
176
     1
 62
     7
176
     1
 62
   257
176
     1
 90
        7
176
     1
 90
        7
176
     1
 40
1.0
176
     1
 90
        8
176
     1
 62
     7
176
     1
 40
1.0
176
     1
 90
        1
176
     1
 90
        6
176
     1
 90
        2
176
     1
 62
     7
176
     1
 90
        5
176
     1
 90
        0
176
     1
 90
        0
176
     1
290
     0
176
     1
 90
        1
176
     1
 40
0.0
176
     1
 90
        0
176
     1
290
     0
176
     1
290
     1
176
     1
290
     1
176
     1
290
     0
176
     1
290
     0
176
     1
290
     0
176
     1
290
     0
176
     1
290
     0
176
     1
290
     0
176
     1
 90
       50
176
     1
 40
0.0
176
     1
 40
1.0
176
     1
 90
        0
176
     1
 62
    18
420
        0
176
     1
 90
       50
176
     1
 90
        3
176
     1
 62
     5
420
      255
176
     1
290
     0
176
     1
 90
       50
176
     1
 90
       50
176
     1
 90
       50
176
     1
290
     0
176
     1
 90
       50
176
     1
 62
   256
176
     0
 40
1.0
176
     0
 90
        2
176
     1
  1
strokes_ogs.tif
176
     1
290
     0
176
     1
 40
1.0
176
     1
 40
1.0
176
     1
  0
VISUALSTYLE
  5
3C
102
{ACAD_REACTORS
330
2A
102
}
330
2A
100
AcDbVisualStyle
  2
OverhangOff
 70
    21
177
     3
291
     1
 70
    58
 90
        2
176
     0
 90
        2
176
     0
 90
        0
176
     0
 90
        0
176
     0
 40
0.6
176
     0
 40
30.0
176
     0
 62
     7
420
 16777215
176
     0
 90
        1
176
     0
 90
        4
176
     0
 62
     7
176
     0
 62
   257
176
     0
 90
        1
176
     0
 90
        1
176
     0
 40
1.0
176
     0
 90
        9
176
     2
 62
     7
176
     0
 40
1.0
176
     0
 90
        1
176
     0
 90
        6
176
     0
 90
        2
176
     0
 62
     7
176
     0
 90
        5
176
     0
 90
        0
176
     0
 90
        0
176
     0
290
     0
176
     0
 90
        1
176
     0
 40
0.0
176
     0
 90
        0
176
     0
290
     0
176
     0
290
     1
176
     0
290
     1
176
     0
290
     0
176
     0
290
     0
176
     0
290
     0
176
     0
290
     0
176
     0
290
     0
176
     0
290
     0
176
     0
 90
       50
176
     0
 40
0.0
176
     0
 40
1.0
176
     0
 90
        0
176
     0
 62
    18
420
        0
176
     0
 90
       50
176
     0
 90
        3
176
     0
 62
     5
420
      255
176
     0
290
     0
176
     0
 90
       50
176
     0
 90
       50
176
     0
 90
       50
176
     0
290
     0
176
     0
 90
       50
176
     0
 62
   256
176
     0
 40
1.0
176
     0
 90
        2
176
     0
  1
strokes_ogs.tif
176
     0
290
     0
176
     0
 40
1.0
176
     0
 40
1.0
176
     0
  0
VISUALSTYLE
  5
33
102
{ACAD_REACTORS
330
2A
102
}
330
2A
100
AcDbVisualStyle
  2
Realistic
 70
     8
177
     3
291
     0
 70
    58
 90
        2
176
     1
 90
        3
176
     1
 90
        0
176
     1
 90
        2
176
     1
 40
0.6
176
     1
 40
30.0
176
     1
 62
     7
420
 16777215
176
     1
 90
        0
176
     1
 90
        0
176
     1
 62
     7
176
     1
 62
   257
176
     1
 90
        1
176
     1
 90
        1
176
     1
 40
1.0
176
     1
 90
        8
176
     1
 62
   257
176
     1
 40
1.0
176
     1
 90
        1
176
     1
 90
        6
176
     1
 90
        2
176
     1
 62
     7
176
     1
 90
        3
176
     1
 90
        0
176
     1
 90
        0
176
     1
290
     0
176
     1
 90
       13
176
     1
 40
0.0
176
     1
 90
        0
176
     1
290
     0
176
     1
290
     1
176
     1
290
     1
176
     1
290
     0
176
     1
290
     0
176
     1
290
     0
176
     1
290
     0
176
     1
290
     0
176
     1
290
     0
176
     1
 90
       50
176
     1
 40
0.0
176
     1
 40
1.0
176
     1
 90
        0
176
     1
 62
    18
420
        0
176
     1
 90
       50
176
     1
 90
        3
176
     1
 62
     5
420
      255
176
     1
290
     0
176
     1
 90
       50
176
     1
 90
       50
176
     1
 90
       50
176
     1
290
     0
176
     1
 90
       50
176
     1
 62
   256
176
     0
 40
1.0
176
     0
 90
        2
176
     1
  1
strokes_ogs.tif
176
     1
290
     0
176
     1
 40
1.0
176
     1
 40
1.0
176
     1
  0
VISUALSTYLE
  5
42
102
{ACAD_REACTORS
330
2A
102
}
330
2A
100
AcDbVisualStyle
  2
Shaded
 70
    27
177
     3
291
     0
 70
    58
 90
        2
176
     1
 90
        2
176
     1
 90
        1
176
     1
 90
        2
176
     1
 40
0.6
176
     1
 40
30.0
176
     1
 62
     7
420
 16777215
176
     1
 90
        0
176
     1
 90
        4
176
     1
 62
     7
176
     1
 62
   257
176
     1
 90
        1
176
     1
 90
        1
176
     1
 40
1.0
176
     1
 90
        8
176
     1
 62
   257
176
     1
 40
1.0
176
     1
 90
        1
176
     1
 90
        6
176
     1
 90
        2
176
     1
 62
     8
420
  7895160
176
     1
 90
        3
176
     1
 90
        0
176
     1
 90
        0
176
     1
290
     0
176
     1
 90
        5
176
     1
 40
0.0
176
     1
 90
        0
176
     1
290
     0
176
     1
290
     1
176
     1
290
     1
176
     1
290
     0
176
     1
290
     0
176
     1
290
     0
176
     1
290
     0
176
     1
290
     0
176
     1
290
     0
176
     1
 90
       50
176
     1
 40
0.0
176
     1
 40
1.0
176
     1
 90
        0
176
     1
 62
    18
420
        0
176
     1
 90
       50
176
     1
 90
        3
176
     1
 62
     5
420
      255
176
     1
290
     0
176
     1
 90
       50
176
     1
 90
       50
176
     1
 90
       50
176
     1
290
     0
176
     1
 90
       50
176
     1
 62
   256
176
     0
 40
1.0
176
     0
 90
        2
176
     1
  1
strokes_ogs.tif
176
     1
290
     0
176
     1
 40
1.0
176
     1
 40
1.0
176
     1
  0
VISUALSTYLE
  5
41
102
{ACAD_REACTORS
330
2A
102
}
330
2A
100
AcDbVisualStyle
  2
Shaded with edges
 70
    26
177
     3
291
     0
 70
    58
 90
        2
176
     1
 90
        2
176
     1
 90
        1
176
     1
 90
        2
176
     1
 40
0.6
176
     1
 40
30.0
176
     1
 62
     7
420
 16777215
176
     1
 90
        1
176
     1
 90
       10
176
     1
 62
     7
176
     1
 62
   257
176
     1
 90
        2
176
     1
 90
        1
176
     1
 40
1.0
176
     1
 90
        8
176
     1
 62
   257
176
     1
 40
1.0
176
     1
 90
        1
176
     1
 90
        6
176
     1
 90
        2
176
     1
 62
     7
176
     1
 90
        3
176
     1
 90
        0
176
     1
 90
        0
176
     1
290
     0
176
     1
 90
        5
176
     1
 40
0.0
176
     1
 90
        0
176
     1
290
     0
176
     1
290
     1
176
     1
290
     1
176
     1
290
     0
176
     1
290
     0
176
     1
290
     0
176
     1
290
     0
176
     1
290
     0
176
     1
290
     0
176
     1
 90
       50
176
     1
 40
0.0
176
     1
 40
1.0
176
     1
 90
        0
176
     1
 62
    18
420
        0
176
     1
 90
       50
176
     1
 90
        3
176
     1
 62
     5
420
      255
176
     1
290
     0
176
     1
 90
       50
176
     1
 90
       50
176
     1
 90
       50
176
     1
290
     0
176
     1
 90
       50
176
     1
 62
   256
176
     0
 40
1.0
176
     0
 90
        2
176
     1
  1
strokes_ogs.tif
176
     1
290
     0
176
     1
 40
1.0
176
     1
 40
1.0
176
     1
  0
VISUALSTYLE
  5
3E
102
{ACAD_REACTORS
330
2A
102
}
330
2A
100
AcDbVisualStyle
  2
Shades of Gray
 70
    23
177
     3
291
     0
 70
    58
 90
        2
176
     1
 90
        2
176
     1
 90
        3
176
     1
 90
        0
176
     1
 40
0.6
176
     1
 40
30.0
176
     1
 62
     7
420
 16777215
176
     1
 90
        2
176
     1
 90
        2
176
     1
 62
     7
176
     1
 62
     7
176
     1
 90
        1
176
     1
 90
        1
176
     1
 40
40.0
176
     1
 90
        8
176
     1
 62
     7
176
     1
 40
1.0
176
     1
 90
        1
176
     1
 90
        6
176
     1
 90
        2
176
     1
 62
     7
176
     1
 90
        3
176
     1
 90
        0
176
     1
 90
        0
176
     1
290
     0
176
     1
 90
        1
176
     1
 40
0.0
176
     1
 90
        0
176
     1
290
     0
176
     1
290
     1
176
     1
290
     1
176
     1
290
     0
176
     1
290
     0
176
     1
290
     0
176
     1
290
     0
176
     1
290
     0
176
     1
290
     0
176
     1
 90
       50
176
     1
 40
0.0
176
     1
 40
1.0
176
     1
 90
        0
176
     1
 62
    18
420
        0
176
     1
 90
       50
176
     1
 90
        3
176
     1
 62
     5
420
      255
176
     1
290
     0
176
     1
 90
       50
176
     1
 90
       50
176
     1
 90
       50
176
     1
290
     0
176
     1
 90
       50
176
     1
 62
   256
176
     0
 40
1.0
176
     0
 90
        2
176
     1
  1
strokes_ogs.tif
176
     1
290
     0
176
     1
 40
1.0
176
     1
 40
1.0
176
     1
  0
VISUALSTYLE
  5
3F
102
{ACAD_REACTORS
330
2A
102
}
330
2A
100
AcDbVisualStyle
  2
Sketchy
 70
    24
177
     3
291
     0
 70
    58
 90
        1
176
     1
 90
        2
176
     1
 90
        2
176
     1
 90
        0
176
     1
 40
0.6
176
     1
 40
30.0
176
     1
 62
     7
420
 16777215
176
     1
 90
        2
176
     1
 90
        2
176
     1
 62
     7
176
     1
 62
     7
176
     1
 90
        1
176
     1
 90
        1
176
     1
 40
40.0
176
     1
 90
       11
176
     1
 62
     7
176
     1
 40
1.0
176
     1
 90
        1
176
     1
 90
        6
176
     1
 90
        2
176
     1
 62
     7
176
     1
 90
        6
176
     1
 90
        0
176
     1
 90
        0
176
     1
290
     0
176
     1
 90
        1
176
     1
 40
0.0
176
     1
 90
        0
176
     1
290
     0
176
     1
290
     1
176
     1
290
     1
176
     1
290
     0
176
     1
290
     0
176
     1
290
     0
176
     1
290
     0
176
     1
290
     0
176
     1
290
     0
176
     1
 90
       50
176
     1
 40
0.0
176
     1
 40
1.0
176
     1
 90
        0
176
     1
 62
    18
420
        0
176
     1
 90
       50
176
     1
 90
        3
176
     1
 62
     5
420
      255
176
     1
290
     0
176
     1
 90
       50
176
     1
 90
       50
176
     1
 90
       50
176
     1
290
     0
176
     1
 90
       50
176
     1
 62
   256
176
     0
 40
1.0
176
     0
 90
        2
176
     1
  1
strokes_ogs.tif
176
     1
290
     0
176
     1
 40
1.0
176
     1
 40
1.0
176
     1
  0
VISUALSTYLE
  5
37
102
{ACAD_REACTORS
330
2A
102
}
330
2A
100
AcDbVisualStyle
  2
Thicken
 70
    13
177
     3
291
     1
 70
    58
 90
        2
176
     1
 90
        2
176
     1
 90
        0
176
     1
 90
        0
176
     1
 40
0.6
176
     1
 40
30.0
176
     1
 62
     7
420
 16777215
176
     1
 90
        1
176
     1
 90
        4
176
     1
 62
     7
176
     1
 62
   257
176
     1
 90
        1
176
     1
 90
        1
176
     1
 40
1.0
176
     1
 90
       12
176
     1
 62
     7
176
     1
 40
1.0
176
     1
 90
        1
176
     1
 90
        6
176
     1
 90
        2
176
     1
 62
     7
176
     1
 90
        5
176
     1
 90
        0
176
     1
 90
        0
176
     1
290
     0
176
     1
 90
        1
176
     1
 40
0.0
176
     1
 90
        0
176
     1
290
     0
176
     1
290
     1
176
     1
290
     1
176
     1
290
     0
176
     1
290
     0
176
     1
290
     0
176
     1
290
     0
176
     1
290
     0
176
     1
290
     0
176
     1
 90
       50
176
     1
 40
0.0
176
     1
 40
1.0
176
     1
 90
        0
176
     1
 62
    18
420
        0
176
     1
 90
       50
176
     1
 90
        3
176
     1
 62
     5
420
      255
176
     1
290
     0
176
     1
 90
       50
176
     1
 90
       50
176
     1
 90
       50
176
     1
290
     0
176
     1
 90
       50
176
     1
 62
   256
176
     0
 40
1.0
176
     0
 90
        2
176
     1
  1
strokes_ogs.tif
176
     1
290
     0
176
     1
 40
1.0
176
     1
 40
1.0
176
     1
  0
VISUALSTYLE
  5
30
102
{ACAD_REACTORS
330
2A
102
}
330
2A
100
AcDbVisualStyle
  2
Wireframe
 70
     5
177
     3
291
     0
 70
    58
 90
        0
176
     1
 90
        2
176
     1
 90
        0
176
     1
 90
        0
176
     1
 40
0.6
176
     1
 40
30.0
176
     1
 62
     7
420
 16777215
176
     1
 90
        1
176
     1
 90
        4
176
     1
 62
     7
176
     1
 62
   257
176
     1
 90
        1
176
     1
 90
        1
176
     1
 40
1.0
176
     1
 90
        0
176
     1
 62
   257
176
     1
 40
1.0
176
     1
 90
        1
176
     1
 90
        6
176
     1
 90
        2
176
     1
 62
     7
176
     1
 90
        3
176
     1
 90
        0
176
     1
 90
        0
176
     1
290
     0
176
     1
 90
        1
176
     1
 40
0.0
176
     1
 90
        0
176
     1
290
     0
176
     1
290
     1
176
     1
290
     1
176
     1
290
     0
176
     1
290
     0
176
     1
290
     0
176
     1
290
     0
176
     1
290
     0
176
     1
290
     0
176
     1
 90
       50
176
     1
 40
0.0
176
     1
 40
1.0
176
     1
 90
        0
176
     1
 62
    18
420
        0
176
     1
 90
       50
176
     1
 90
        3
176
     1
 62
     5
420
      255
176
     1
290
     0
176
     1
 90
       50
176
     1
 90
       50
176
     1
 90
       50
176
     1
290
     0
176
     1
 90
       50
176
     1
 62
   256
176
     0
 40
1.0
176
     0
 90
        2
176
     1
  1
strokes_ogs.tif
176
     1
290
     0
176
     1
 40
1.0
176
     1
 40
1.0
176
     1
  0
VISUALSTYLE
  5
40
102
{ACAD_REACTORS
330
2A
102
}
330
2A
100
AcDbVisualStyle
  2
X-Ray
 70
    25
177
     3
291
     0
 70
    58
 90
        2
176
     1
 90
        2
176
     1
 90
        1
176
     1
 90
        1
176
     1
 40
0.5
176
     1
 40
30.0
176
     1
 62
     7
420
 16777215
176
     1
 90
        1
176
     1
 90
        0
176
     1
 62
     7
176
     1
 62
   257
176
     1
 90
        1
176
     1
 90
        1
176
     1
 40
1.0
176
     1
 90
        8
176
     1
 62
     7
176
     1
 40
1.0
176
     1
 90
        1
176
     1
 90
        6
176
     1
 90
        2
176
     1
 62
     7
176
     1
 90
        3
176
     1
 90
        0
176
     1
 90
        0
176
     1
290
     0
176
     1
 90
       13
176
     1
 40
0.0
176
     1
 90
        0
176
     1
290
     0
176
     1
290
     1
176
     1
290
     1
176
     1
290
     0
176
     1
290
     0
176
     1
290
     0
176
     1
290
     0
176
     1
290
     0
176
     1
290
     0
176
     1
 90
       50
176
     1
 40
0.0
176
     1
 40
1.0
176
     1
 90
        0
176
     1
 62
    18
420
        0
176
     1
 90
       50
176
     1
 90
        3
176
     1
 62
     5
420
      255
176
     1
290
     0
176
     1
 90
       50
176
     1
 90
       50
176
     1
 90
       50
176
     1
290
     0
176
     1
 90
       50
176
     1
 62
   256
176
     0
 40
1.0
176
     0
 90
        2
176
     1
  1
strokes_ogs.tif
176
     1
290
     0
176
     1
 40
1.0
176
     1
 40
1.0
176
     1
  0
DICTIONARYVAR
  5
1FF
102
{ACAD_REACTORS
330
1FE
102
}
330
1FE
100
DictionaryVariables
280
     0
  1
1:1
  0
DICTIONARYVAR
  5
204
102
{ACAD_REACTORS
330
1FE
102
}
330
1FE
100
DictionaryVariables
280
     0
  1
Standard
  0
DICTIONARYVAR
  5
203
102
{ACAD_REACTORS
330
1FE
102
}
330
1FE
100
DictionaryVariables
280
     0
  1
Standard
  0
DICTIONARY
  5
200
330
6A
100
AcDbDictionary
280
     1
281
     1
  3
ACAD_ROUNDTRIP_2008_TABLESTYLE_CELLSTYLEMAP
360
201
  0
CELLSTYLEMAP
  5
201
102
{ACAD_REACTORS
330
200
102
}
330
200
100
AcDbCellStyleMap
 90
        3
300
CELLSTYLE
  1
TABLEFORMAT_BEGIN
 90
        5
170
     1
 91
        0
 92
    32768
 62
   257
 93
        1
300
CONTENTFORMAT
  1
CONTENTFORMAT_BEGIN
 90
        0
 91
        0
 92
        4
 93
        0
300

 40
0.0
140
1.0
 94
        5
 62
     0
340
11
144
0.25
309
CONTENTFORMAT_END
171
     1
301
MARGIN
  1
CELLMARGIN_BEGIN
 40
0.06
 40
0.06
 40
0.06
 40
0.06
 40
0.06
 40
0.06
309
CELLMARGIN_END
 94
        6
 95
        1
302
GRIDFORMAT
  1
GRIDFORMAT_BEGIN
 90
        0
 91
        1
 62
     0
 92
       -2
340
14
 93
        0
 40
0.045
309
GRIDFORMAT_END
 95
        2
302
GRIDFORMAT
  1
GRIDFORMAT_BEGIN
 90
        0
 91
        1
 62
     0
 92
       -2
340
14
 93
        0
 40
0.045
309
GRIDFORMAT_END
 95
        4
302
GRIDFORMAT
  1
GRIDFORMAT_BEGIN
 90
        0
 91
        1
 62
     0
 92
       -2
340
14
 93
        0
 40
0.045
309
GRIDFORMAT_END
 95
        8
302
GRIDFORMAT
  1
GRIDFORMAT_BEGIN
 90
        0
 91
        1
 62
     0
 92
       -2
340
14
 93
        0
 40
0.045
309
GRIDFORMAT_END
 95
       16
302
GRIDFORMAT
  1
GRIDFORMAT_BEGIN
 90
        0
 91
        1
 62
     0
 92
       -2
340
14
 93
        0
 40
0.045
309
GRIDFORMAT_END
 95
       32
302
GRIDFORMAT
  1
GRIDFORMAT_BEGIN
 90
        0
 91
        1
 62
     0
 92
       -2
340
14
 93
        0
 40
0.045
309
GRIDFORMAT_END
309
TABLEFORMAT_END
  1
CELLSTYLE_BEGIN
 90
        1
 91
        1
300
_TITLE
309
CELLSTYLE_END
300
CELLSTYLE
  1
TABLEFORMAT_BEGIN
 90
        5
170
     1
 91
        0
 92
        0
 62
   257
 93
        1
300
CONTENTFORMAT
  1
CONTENTFORMAT_BEGIN
 90
        0
 91
        0
 92
        4
 93
        0
300

 40
0.0
140
1.0
 94
        5
 62
     0
340
11
144
0.18
309
CONTENTFORMAT_END
171
     1
301
MARGIN
  1
CELLMARGIN_BEGIN
 40
0.06
 40
0.06
 40
0.06
 40
0.06
 40
0.06
 40
0.06
309
CELLMARGIN_END
 94
        6
 95
        1
302
GRIDFORMAT
  1
GRIDFORMAT_BEGIN
 90
        0
 91
        1
 62
     0
 92
       -2
340
14
 93
        0
 40
0.045
309
GRIDFORMAT_END
 95
        2
302
GRIDFORMAT
  1
GRIDFORMAT_BEGIN
 90
        0
 91
        1
 62
     0
 92
       -2
340
14
 93
        0
 40
0.045
309
GRIDFORMAT_END
 95
        4
302
GRIDFORMAT
  1
GRIDFORMAT_BEGIN
 90
        0
 91
        1
 62
     0
 92
       -2
340
14
 93
        0
 40
0.045
309
GRIDFORMAT_END
 95
        8
302
GRIDFORMAT
  1
GRIDFORMAT_BEGIN
 90
        0
 91
        1
 62
     0
 92
       -2
340
14
 93
        0
 40
0.045
309
GRIDFORMAT_END
 95
       16
302
GRIDFORMAT
  1
GRIDFORMAT_BEGIN
 90
        0
 91
        1
 62
     0
 92
       -2
340
14
 93
        0
 40
0.045
309
GRIDFORMAT_END
 95
       32
302
GRIDFORMAT
  1
GRIDFORMAT_BEGIN
 90
        0
 91
        1
 62
     0
 92
       -2
340
14
 93
        0
 40
0.045
309
GRIDFORMAT_END
309
TABLEFORMAT_END
  1
CELLSTYLE_BEGIN
 90
        2
 91
        1
300
_HEADER
309
CELLSTYLE_END
300
CELLSTYLE
  1
TABLEFORMAT_BEGIN
 90
        5
170
     1
 91
        0
 92
        0
 62
   257
 93
        1
300
CONTENTFORMAT
  1
CONTENTFORMAT_BEGIN
 90
        0
 91
        0
 92
        4
 93
        0
300

 40
0.0
140
1.0
 94
        2
 62
     0
340
11
144
0.18
309
CONTENTFORMAT_END
171
     1
301
MARGIN
  1
CELLMARGIN_BEGIN
 40
0.06
 40
0.06
 40
0.06
 40
0.06
 40
0.06
 40
0.06
309
CELLMARGIN_END
 94
        6
 95
        1
302
GRIDFORMAT
  1
GRIDFORMAT_BEGIN
 90
        0
 91
        1
 62
     0
 92
       -2
340
14
 93
        0
 40
0.045
309
GRIDFORMAT_END
 95
        2
302
GRIDFORMAT
  1
GRIDFORMAT_BEGIN
 90
        0
 91
        1
 62
     0
 92
       -2
340
14
 93
        0
 40
0.045
309
GRIDFORMAT_END
 95
        4
302
GRIDFORMAT
  1
GRIDFORMAT_BEGIN
 90
        0
 91
        1
 62
     0
 92
       -2
340
14
 93
        0
 40
0.045
309
GRIDFORMAT_END
 95
        8
302
GRIDFORMAT
  1
GRIDFORMAT_BEGIN
 90
        0
 91
        1
 62
     0
 92
       -2
340
14
 93
        0
 40
0.045
309
GRIDFORMAT_END
 95
       16
302
GRIDFORMAT
  1
GRIDFORMAT_BEGIN
 90
        0
 91
        1
 62
     0
 92
       -2
340
14
 93
        0
 40
0.045
309
GRIDFORMAT_END
 95
       32
302
GRIDFORMAT
  1
GRIDFORMAT_BEGIN
 90
        0
 91
        1
 62
     0
 92
       -2
340
14
 93
        0
 40
0.045
309
GRIDFORMAT_END
309
TABLEFORMAT_END
  1
CELLSTYLE_BEGIN
 90
        3
 91
        2
300
_DATA
309
CELLSTYLE_END
  0
ENDSEC
  0
EOF