0
SECTION
  2
HEADER
  9
$ACADVER
  1
AC1027
  9
$ACADMAINTVER
 70
   105
  9
$DWGCODEPAGE
  3
ANSI_1252
  9
$REQUIREDVERSIONS
160
                 0
  9
$COMMENTS
  1
File was created by Cadenas
  9
$CUSTOMPROPERTYTAG
  1
NN
  9
$CUSTOMPROPERTY
  1
INS-IP-507-700 -Inch
  9
$CUSTOMPROPERTYTAG
  1
NT
  9
$CUSTOMPROPERTY
  1
Imperial Insert 507-700 Inch Bore
  9
$CUSTOMPROPERTYTAG
  1
NB
  9
$CUSTOMPROPERTY
  1
037928
  9
$CUSTOMPROPERTYTAG
  1
NBSYN
  9
$CUSTOMPROPERTY
  1
$PN.
  9
$CUSTOMPROPERTYTAG
  1
LINA
  9
$CUSTOMPROPERTY
  1
037928
  9
$CUSTOMPROPERTYTAG
  1
SS
  9
$CUSTOMPROPERTY
  1
6
  9
$CUSTOMPROPERTYTAG
  1
PN
  9
$CUSTOMPROPERTY
  1
037928
  9
$CUSTOMPROPERTYTAG
  1
DESCRIPTION
  9
$CUSTOMPROPERTY
  1
INS-IP-600R
  9
$CUSTOMPROPERTYTAG
  1
ST
  9
$CUSTOMPROPERTY
  1
Contact Seal
  9
$CUSTOMPROPERTYTAG
  1
A
  9
$CUSTOMPROPERTY
  1
11.4173
  9
$CUSTOMPROPERTYTAG
  1
B
  9
$CUSTOMPROPERTY
  1
3-7/32
  9
$CUSTOMPROPERTYTAG
  1
C
  9
$CUSTOMPROPERTY
  1
7-5/64
  9
$CUSTOMPROPERTYTAG
  1
D
  9
$CUSTOMPROPERTY
  1
2.768
  9
$CUSTOMPROPERTYTAG
  1
E
  9
$CUSTOMPROPERTY
  1
10-1/4
  9
$CUSTOMPROPERTYTAG
  1
COMPANY
  9
$CUSTOMPROPERTY
  1
baldor
  9
$INSBASE
 10
0.0
 20
0.0
 30
0.0
  9
$EXTMIN
 10
1.000000000000000E+20
 20
1.000000000000000E+20
 30
1.000000000000000E+20
  9
$EXTMAX
 10
-1.000000000000000E+20
 20
-1.000000000000000E+20
 30
-1.000000000000000E+20
  9
$LIMMIN
 10
0.0
 20
0.0
  9
$LIMMAX
 10
12.0
 20
9.0
  9
$ORTHOMODE
 70
     0
  9
$REGENMODE
 70
     1
  9
$FILLMODE
 70
     1
  9
$QTEXTMODE
 70
     0
  9
$MIRRTEXT
 70
     1
  9
$LTSCALE
 40
1.0
  9
$ATTMODE
 70
     1
  9
$TEXTSIZE
 40
0.2
  9
$TRACEWID
 40
0.05
  9
$TEXTSTYLE
  7
Standard
  9
$CLAYER
  8
0
  9
$CELTYPE
  6
ByLayer
  9
$CECOLOR
 62
   256
  9
$CELTSCALE
 40
1.0
  9
$DISPSILH
 70
     0
  9
$DIMSCALE
 40
1.0
  9
$DIMASZ
 40
0.18
  9
$DIMEXO
 40
0.0625
  9
$DIMDLI
 40
0.38
  9
$DIMRND
 40
0.0
  9
$DIMDLE
 40
0.0
  9
$DIMEXE
 40
0.18
  9
$DIMTP
 40
0.0
  9
$DIMTM
 40
0.0
  9
$DIMTXT
 40
0.18
  9
$DIMCEN
 40
0.09
  9
$DIMTSZ
 40
0.0
  9
$DIMTOL
 70
     0
  9
$DIMLIM
 70
     0
  9
$DIMTIH
 70
     1
  9
$DIMTOH
 70
     1
  9
$DIMSE1
 70
     0
  9
$DIMSE2
 70
     0
  9
$DIMTAD
 70
     0
  9
$DIMZIN
 70
     0
  9
$DIMBLK
  1

  9
$DIMASO
 70
     1
  9
$DIMSHO
 70
     1
  9
$DIMPOST
  1

  9
$DIMAPOST
  1

  9
$DIMALT
 70
     0
  9
$DIMALTD
 70
     2
  9
$DIMALTF
 40
25.4
  9
$DIMLFAC
 40
1.0
  9
$DIMTOFL
 70
     0
  9
$DIMTVP
 40
0.0
  9
$DIMTIX
 70
     0
  9
$DIMSOXD
 70
     0
  9
$DIMSAH
 70
     0
  9
$DIMBLK1
  1

  9
$DIMBLK2
  1

  9
$DIMSTYLE
  2
Standard
  9
$DIMCLRD
 70
     0
  9
$DIMCLRE
 70
     0
  9
$DIMCLRT
 70
     0
  9
$DIMTFAC
 40
1.0
  9
$DIMGAP
 40
0.09
  9
$DIMJUST
 70
     0
  9
$DIMSD1
 70
     0
  9
$DIMSD2
 70
     0
  9
$DIMTOLJ
 70
     1
  9
$DIMTZIN
 70
     0
  9
$DIMALTZ
 70
     0
  9
$DIMALTTZ
 70
     0
  9
$DIMUPT
 70
     0
  9
$DIMDEC
 70
     4
  9
$DIMTDEC
 70
     4
  9
$DIMALTU
 70
     2
  9
$DIMALTTD
 70
     2
  9
$DIMTXSTY
  7
Standard
  9
$DIMAUNIT
 70
     0
  9
$DIMADEC
 70
     0
  9
$DIMALTRND
 40
0.0
  9
$DIMAZIN
 70
     0
  9
$DIMDSEP
 70
    46
  9
$DIMATFIT
 70
     3
  9
$DIMFRAC
 70
     0
  9
$DIMLDRBLK
  1

  9
$DIMLUNIT
 70
     2
  9
$DIMLWD
 70
    -2
  9
$DIMLWE
 70
    -2
  9
$DIMTMOVE
 70
     0
  9
$DIMFXL
 40
1.0
  9
$DIMFXLON
 70
     0
  9
$DIMJOGANG
 40
0.7853981633974483
  9
$DIMTFILL
 70
     0
  9
$DIMTFILLCLR
 70
     0
  9
$DIMARCSYM
 70
     0
  9
$DIMLTYPE
  6

  9
$DIMLTEX1
  6

  9
$DIMLTEX2
  6

  9
$DIMTXTDIRECTION
 70
     0
  9
$LUNITS
 70
     2
  9
$LUPREC
 70
     4
  9
$SKETCHINC
 40
0.1
  9
$FILLETRAD
 40
0.5
  9
$AUNITS
 70
     0
  9
$AUPREC
 70
     0
  9
$MENU
  1
.
  9
$ELEVATION
 40
0.0
  9
$PELEVATION
 40
0.0
  9
$THICKNESS
 40
0.0
  9
$LIMCHECK
 70
     0
  9
$CHAMFERA
 40
0.0
  9
$CHAMFERB
 40
0.0
  9
$CHAMFERC
 40
0.0
  9
$CHAMFERD
 40
0.0
  9
$SKPOLY
 70
     0
  9
$TDCREATE
 40
2458168.95993625
  9
$TDUCREATE
 40
2458168.918269583
  9
$TDUPDATE
 40
2458168.959936424
  9
$TDUUPDATE
 40
2458168.918269757
  9
$TDINDWG
 40
0.0000000116
  9
$TDUSRTIMER
 40
0.0000000116
  9
$USRTIMER
 70
     1
  9
$ANGBASE
 50
0.0
  9
$ANGDIR
 70
     0
  9
$PDMODE
 70
     0
  9
$PDSIZE
 40
0.0
  9
$PLINEWID
 40
0.0
  9
$SPLFRAME
 70
     0
  9
$SPLINETYPE
 70
     6
  9
$SPLINESEGS
 70
     8
  9
$HANDSEED
  5
172
  9
$SURFTAB1
 70
     6
  9
$SURFTAB2
 70
     6
  9
$SURFTYPE
 70
     6
  9
$SURFU
 70
     6
  9
$SURFV
 70
     6
  9
$UCSBASE
  2

  9
$UCSNAME
  2

  9
$UCSORG
 10
0.0
 20
0.0
 30
0.0
  9
$UCSXDIR
 10
1.0
 20
0.0
 30
0.0
  9
$UCSYDIR
 10
0.0
 20
1.0
 30
0.0
  9
$UCSORTHOREF
  2

  9
$UCSORTHOVIEW
 70
     0
  9
$UCSORGTOP
 10
0.0
 20
0.0
 30
0.0
  9
$UCSORGBOTTOM
 10
0.0
 20
0.0
 30
0.0
  9
$UCSORGLEFT
 10
0.0
 20
0.0
 30
0.0
  9
$UCSORGRIGHT
 10
0.0
 20
0.0
 30
0.0
  9
$UCSORGFRONT
 10
0.0
 20
0.0
 30
0.0
  9
$UCSORGBACK
 10
0.0
 20
0.0
 30
0.0
  9
$PUCSBASE
  2

  9
$PUCSNAME
  2

  9
$PUCSORG
 10
0.0
 20
0.0
 30
0.0
  9
$PUCSXDIR
 10
1.0
 20
0.0
 30
0.0
  9
$PUCSYDIR
 10
0.0
 20
1.0
 30
0.0
  9
$PUCSORTHOREF
  2

  9
$PUCSORTHOVIEW
 70
     0
  9
$PUCSORGTOP
 10
0.0
 20
0.0
 30
0.0
  9
$PUCSORGBOTTOM
 10
0.0
 20
0.0
 30
0.0
  9
$PUCSORGLEFT
 10
0.0
 20
0.0
 30
0.0
  9
$PUCSORGRIGHT
 10
0.0
 20
0.0
 30
0.0
  9
$PUCSORGFRONT
 10
0.0
 20
0.0
 30
0.0
  9
$PUCSORGBACK
 10
0.0
 20
0.0
 30
0.0
  9
$USERI1
 70
     0
  9
$USERI2
 70
     0
  9
$USERI3
 70
     0
  9
$USERI4
 70
     0
  9
$USERI5
 70
     0
  9
$USERR1
 40
0.0
  9
$USERR2
 40
0.0
  9
$USERR3
 40
0.0
  9
$USERR4
 40
0.0
  9
$USERR5
 40
0.0
  9
$WORLDVIEW
 70
     1
  9
$SHADEDGE
 70
     3
  9
$SHADEDIF
 70
    70
  9
$TILEMODE
 70
     1
  9
$MAXACTVP
 70
    64
  9
$PINSBASE
 10
0.0
 20
0.0
 30
0.0
  9
$PLIMCHECK
 70
     0
  9
$PEXTMIN
 10
1.000000000000000E+20
 20
1.000000000000000E+20
 30
1.000000000000000E+20
  9
$PEXTMAX
 10
-1.000000000000000E+20
 20
-1.000000000000000E+20
 30
-1.000000000000000E+20
  9
$PLIMMIN
 10
0.0
 20
0.0
  9
$PLIMMAX
 10
12.0
 20
9.0
  9
$UNITMODE
 70
     0
  9
$VISRETAIN
 70
     1
  9
$PLINEGEN
 70
     0
  9
$PSLTSCALE
 70
     1
  9
$TREEDEPTH
 70
  3020
  9
$CMLSTYLE
  2
Standard
  9
$CMLJUST
 70
     0
  9
$CMLSCALE
 40
1.0
  9
$PROXYGRAPHICS
 70
     1
  9
$MEASUREMENT
 70
     0
  9
$CELWEIGHT
370
    -1
  9
$ENDCAPS
280
     0
  9
$JOINSTYLE
280
     0
  9
$LWDISPLAY
290
     0
  9
$INSUNITS
 70
     1
  9
$HYPERLINKBASE
  1

  9
$STYLESHEET
  1

  9
$XEDIT
290
     1
  9
$CEPSNTYPE
380
     0
  9
$PSTYLEMODE
290
     1
  9
$FINGERPRINTGUID
  2
{3D98FCA7-A553-4CFD-AB23-99C1C46BA120}
  9
$VERSIONGUID
  2
{FAEB1C32-E019-11D5-929B-00C0DF256EC4}
  9
$EXTNAMES
290
     1
  9
$PSVPSCALE
 40
0.0
  9
$OLESTARTUP
290
     0
  9
$SORTENTS
280
   127
  9
$INDEXCTL
280
     0
  9
$HIDETEXT
280
     1
  9
$XCLIPFRAME
280
     2
  9
$HALOGAP
280
     0
  9
$OBSCOLOR
 70
   257
  9
$OBSLTYPE
280
     0
  9
$INTERSECTIONDISPLAY
280
     0
  9
$INTERSECTIONCOLOR
 70
   257
  9
$DIMASSOC
280
     2
  9
$PROJECTNAME
  1

  9
$CAMERADISPLAY
290
     0
  9
$LENSLENGTH
 40
50.0
  9
$CAMERAHEIGHT
 40
0.0
  9
$STEPSPERSEC
 40
2.0
  9
$STEPSIZE
 40
6.0
  9
$3DDWFPREC
 40
2.0
  9
$PSOLWIDTH
 40
0.25
  9
$PSOLHEIGHT
 40
4.0
  9
$LOFTANG1
 40
1.570796326794897
  9
$LOFTANG2
 40
1.570796326794897
  9
$LOFTMAG1
 40
0.0
  9
$LOFTMAG2
 40
0.0
  9
$LOFTPARAM
 70
     7
  9
$LOFTNORMALS
280
     1
  9
$LATITUDE
 40
37.795
  9
$LONGITUDE
 40
-122.394
  9
$NORTHDIRECTION
 40
0.0
  9
$TIMEZONE
 70
 -8000
  9
$LIGHTGLYPHDISPLAY
280
     1
  9
$TILEMODELIGHTSYNCH
280
     1
  9
$CMATERIAL
347
44
  9
$SOLIDHIST
280
     0
  9
$SHOWHIST
280
     1
  9
$DWFFRAME
280
     2
  9
$DGNFRAME
280
     2
  9
$REALWORLDSCALE
290
     1
  9
$INTERFERECOLOR
 62
   256
  9
$CSHADOW
280
     0
  9
$SHADOWPLANELOCATION
 40
0.0
  0
ENDSEC
  0
SECTION
  2
CLASSES
  0
CLASS
  1
ACDBDICTIONARYWDFLT
  2
AcDbDictionaryWithDefault
  3
ObjectDBX Classes
 90
        0
 91
        4
280
     0
281
     0
  0
CLASS
  1
VISUALSTYLE
  2
AcDbVisualStyle
  3
ObjectDBX Classes
 90
     4095
 91
        4
280
     0
281
     0
  0
CLASS
  1
MATERIAL
  2
AcDbMaterial
  3
ObjectDBX Classes
 90
     1153
 91
        4
280
     0
281
     0
  0
CLASS
  1
SCALE
  2
AcDbScale
  3
ObjectDBX Classes
 90
     1153
 91
        4
280
     0
281
     0
  0
CLASS
  1
TABLESTYLE
  2
AcDbTableStyle
  3
ObjectDBX Classes
 90
     4095
 91
        4
280
     0
281
     0
  0
CLASS
  1
MLEADERSTYLE
  2
AcDbMLeaderStyle
  3
ACDB_MLEADERSTYLE_CLASS
 90
     4095
 91
        4
280
     0
281
     0
  0
CLASS
  1
SUN
  2
AcDbSun
  3
SCENEOE
 90
     1153
 91
        4
280
     0
281
     0
  0
CLASS
  1
DICTIONARYVAR
  2
AcDbDictionaryVar
  3
ObjectDBX Classes
 90
        0
 91
        4
280
     0
281
     0
  0
CLASS
  1
CELLSTYLEMAP
  2
AcDbCellStyleMap
  3
ObjectDBX Classes
 90
     1152
 91
        4
280
     0
281
     0
  0
ENDSEC
  0
SECTION
  2
TABLES
  0
TABLE
  2
VPORT
  5
8
330
0
100
AcDbSymbolTable
 70
     1
  0
VPORT
  5
29
330
8
100
AcDbSymbolTableRecord
100
AcDbViewportTableRecord
  2
*Active
 70
     0
 10
0.0
 20
0.0
 11
1.0
 21
1.0
 12
4.821428571428571
 22
0.25
 13
0.0
 23
0.0
 14
0.5
 24
0.5
 15
0.5
 25
0.5
 16
0.0
 26
0.0
 36
1.0
 17
0.0
 27
0.0
 37
0.0
 40
12.73792829999999
 41
1.732121744296071
 42
50.0
 43
0.0
 44
0.0
 50
0.0
 51
0.0
 71
     0
 72
   100
 73
     1
 74
     3
 75
     0
 76
     0
 77
     0
 78
     0
281
     0
 65
     1
110
0.0
120
0.0
130
0.0
111
1.0
121
0.0
131
0.0
112
0.0
122
1.0
132
0.0
 79
     0
146
0.0
348
2F
 60
     3
 61
     5
292
     1
282
     1
141
0.0
142
0.0
 63
   250
361
6D
  0
ENDTAB
  0
TABLE
  2
LTYPE
  5
5
330
0
100
AcDbSymbolTable
 70
     3
  0
LTYPE
  5
14
330
5
100
AcDbSymbolTableRecord
100
AcDbLinetypeTableRecord
  2
ByBlock
 70
     0
  3

 72
    65
 73
     0
 40
0.0
  0
LTYPE
  5
15
330
5
100
AcDbSymbolTableRecord
100
AcDbLinetypeTableRecord
  2
ByLayer
 70
     0
  3

 72
    65
 73
     0
 40
0.0
  0
LTYPE
  5
16
330
5
100
AcDbSymbolTableRecord
100
AcDbLinetypeTableRecord
  2
Continuous
 70
     0
  3
Solid line
 72
    65
 73
     0
 40
0.0
  0
LTYPE
  5
8E
330
5
100
AcDbSymbolTableRecord
100
AcDbLinetypeTableRecord
  2
Dashed
 70
     0
  3

 72
    65
 73
     2
 40
2.0
 49
1.0
 74
     0
 49
-1.0
 74
     0
  0
LTYPE
  5
93
330
5
100
AcDbSymbolTableRecord
100
AcDbLinetypeTableRecord
  2
Center
 70
     0
  3

 72
    65
 73
     4
 40
1.5
 49
0.45
 74
     0
 49
-0.5
 74
     0
 49
0.05
 74
     0
 49
-0.5
 74
     0
  0
ENDTAB
  0
TABLE
  2
LAYER
  5
2
330
0
100
AcDbSymbolTable
 70
     8
  0
LAYER
  5
10
330
2
100
AcDbSymbolTableRecord
100
AcDbLayerTableRecord
  2
0
 70
     0
 62
     7
  6
Continuous
370
    -3
390
F
347
46
348
0
  0
LAYER
  5
6E
330
2
100
AcDbSymbolTableRecord
100
AcDbLayerTableRecord
  2
AM_6
 70
     0
 62
    -2
  6
Continuous
370
    35
390
F
347
46
348
0
  0
LAYER
  5
8F
330
2
100
AcDbSymbolTableRecord
100
AcDbLayerTableRecord
  2
AM_9
 70
     0
 62
     6
  6
Dashed
370
    25
390
F
347
46
348
0
  0
LAYER
  5
91
330
2
100
AcDbSymbolTableRecord
100
AcDbLayerTableRecord
  2
AM_5
 70
     0
 62
     3
  6
Continuous
370
    25
390
F
347
46
348
0
  0
LAYER
  5
94
330
2
100
AcDbSymbolTableRecord
100
AcDbLayerTableRecord
  2
AM_7
 70
     0
 62
     7
  6
Center
370
    25
390
F
347
46
348
0
  0
LAYER
  5
96
330
2
100
AcDbSymbolTableRecord
100
AcDbLayerTableRecord
  2
AM_0
 70
     0
 62
     7
  6
Continuous
370
    50
390
F
347
46
348
0
  0
LAYER
  5
98
330
2
100
AcDbSymbolTableRecord
100
AcDbLayerTableRecord
  2
AM_4
 70
     0
 62
     3
  6
Continuous
370
    25
390
F
347
46
348
0
  0
LAYER
  5
15F
330
2
100
AcDbSymbolTableRecord
100
AcDbLayerTableRecord
  2
ConnectionPoints
 70
     0
 62
     7
  6
Continuous
370
    50
390
F
347
46
348
0
  0
ENDTAB
  0
TABLE
  2
STYLE
  5
3
330
0
100
AcDbSymbolTable
 70
     1
  0
STYLE
  5
11
330
3
100
AcDbSymbolTableRecord
100
AcDbTextStyleTableRecord
  2
Standard
 70
     0
 40
0.0
 41
1.0
 50
0.0
 71
     0
 42
0.2
  3
txt
  4

  0
ENDTAB
  0
TABLE
  2
VIEW
  5
6
330
0
100
AcDbSymbolTable
 70
     0
  0
ENDTAB
  0
TABLE
  2
UCS
  5
7
330
0
100
AcDbSymbolTable
 70
     0
  0
ENDTAB
  0
TABLE
  2
APPID
  5
9
330
0
100
AcDbSymbolTable
 70
     1
  0
APPID
  5
12
330
9
100
AcDbSymbolTableRecord
100
AcDbRegAppTableRecord
  2
ACAD
 70
     0
  0
ENDTAB
  0
TABLE
  2
DIMSTYLE
  5
A
330
0
100
AcDbSymbolTable
 70
     1
100
AcDbDimStyleTable
  0
DIMSTYLE
105
27
330
A
100
AcDbSymbolTableRecord
100
AcDbDimStyleTableRecord
  2
Standard
 70
     0
178
     0
340
11
  0
ENDTAB
  0
TABLE
  2
BLOCK_RECORD
  5
1
330
0
100
AcDbSymbolTable
 70
     5
  0
BLOCK_RECORD
  5
1F
330
1
100
AcDbSymbolTableRecord
100
AcDbBlockTableRecord
  2
*Model_Space
340
22
 70
     0
280
     1
281
     0
  0
BLOCK_RECORD
  5
1B
330
1
100
AcDbSymbolTableRecord
100
AcDbBlockTableRecord
  2
*Paper_Space
340
1E
 70
     0
280
     1
281
     0
  0
BLOCK_RECORD
  5
23
330
1
100
AcDbSymbolTableRecord
100
AcDbBlockTableRecord
  2
*Paper_Space0
340
26
 70
     0
280
     1
281
     0
  0
BLOCK_RECORD
  5
7E
330
1
100
AcDbSymbolTableRecord
100
AcDbBlockTableRecord
  2
1_ASME_B18_3_3_8_1_0_in_037928_2
340
0
102
{BLKREFS
331
7F
102
}
 70
     0
280
     1
281
     0
  0
BLOCK_RECORD
  5
A1
330
1
100
AcDbSymbolTableRecord
100
AcDbBlockTableRecord
  2
2_ASME_B18_3_3_8_2_0_in_037928_2
340
0
102
{BLKREFS
331
A2
102
}
 70
     0
280
     1
281
     0
  0
BLOCK_RECORD
  5
BD
330
1
100
AcDbSymbolTableRecord
100
AcDbBlockTableRecord
  2
3_037928LW_0_in_037928_2
340
0
102
{BLKREFS
331
BE
102
}
 70
     0
280
     1
281
     0
  0
BLOCK_RECORD
  5
10A
330
1
100
AcDbSymbolTableRecord
100
AcDbBlockTableRecord
  2
4_037928I_0_in_037928_2
340
0
102
{BLKREFS
331
10B
102
}
 70
     0
280
     1
281
     0
  0
ENDTAB
  0
ENDSEC
  0
SECTION
  2
BLOCKS
  0
BLOCK
  5
20
330
1F
100
AcDbEntity
  8
0
100
AcDbBlockBegin
  2
*Model_Space
 70
     0
 10
0.0
 20
0.0
 30
0.0
  3
*Model_Space
  1

  0
ENDBLK
  5
21
330
1F
100
AcDbEntity
  8
0
100
AcDbBlockEnd
  0
BLOCK
  5
1C
330
1B
100
AcDbEntity
 67
     1
  8
0
100
AcDbBlockBegin
  2
*Paper_Space
 70
     0
 10
0.0
 20
0.0
 30
0.0
  3
*Paper_Space
  1

  0
ENDBLK
  5
1D
330
1B
100
AcDbEntity
 67
     1
  8
0
100
AcDbBlockEnd
  0
BLOCK
  5
24
330
23
100
AcDbEntity
  8
0
100
AcDbBlockBegin
  2
*Paper_Space0
 70
     0
 10
0.0
 20
0.0
 30
0.0
  3
*Paper_Space0
  1

  0
ENDBLK
  5
25
330
23
100
AcDbEntity
  8
0
100
AcDbBlockEnd
  0
BLOCK
  5
80
330
7E
100
AcDbEntity
  8
0
100
AcDbBlockBegin
  2
1_ASME_B18_3_3_8_1_0_in_037928_2
 70
     2
 10
0.0
 20
0.0
 30
0.0
  3
1_ASME_B18_3_3_8_1_0_in_037928_2
  1

  0
ATTDEF
  5
82
330
7E
100
AcDbEntity
  8
AM_6
100
AcDbText
 10
5.3444
 20
-3.901166666666665
 30
0.0
 40
0.5
  1
ANSI/ASME B18.3-1998
100
AcDbAttributeDefinition
  3

  2
NN
 70
     8
280
     0
  0
ATTDEF
  5
83
330
7E
100
AcDbEntity
  8
AM_6
100
AcDbText
 10
5.3444
 20
-4.401166666666665
 30
0.0
 40
0.5
  1
Socket Button Head Cap Screws
100
AcDbAttributeDefinition
  3

  2
NT
 70
     8
280
     0
  0
ATTDEF
  5
84
330
7E
100
AcDbEntity
  8
AM_6
100
AcDbText
 10
5.3444
 20
-4.901166666666665
 30
0.0
 40
0.5
  1
ASME B18.3-3/8
100
AcDbAttributeDefinition
  3

  2
NB
 70
     8
280
     0
  0
ATTDEF
  5
85
330
7E
100
AcDbEntity
  8
AM_6
100
AcDbText
 10
5.3444
 20
-5.401166666666665
 30
0.0
 40
0.5
  1
ASME B18.3-$NS.
100
AcDbAttributeDefinition
  3

  2
NBSYN
 70
     8
280
     0
  0
ATTDEF
  5
86
330
7E
100
AcDbEntity
  8
AM_6
100
AcDbText
 10
5.3444
 20
-5.901166666666665
 30
0.0
 40
0.5
  1
ASME B18.3-3/8
100
AcDbAttributeDefinition
  3

  2
LINA
 70
     8
280
     0
  0
ATTDEF
  5
87
330
7E
100
AcDbEntity
  8
AM_6
100
AcDbText
 10
5.3444
 20
-6.401166666666665
 30
0.0
 40
0.5
  1
3/8
100
AcDbAttributeDefinition
  3

  2
NS
 70
     8
280
     0
  0
ATTDEF
  5
88
330
7E
100
AcDbEntity
  8
AM_6
100
AcDbText
 10
5.3444
 20
-6.901166666666665
 30
0.0
 40
0.5
  1
0.656
100
AcDbAttributeDefinition
  3

  2
A
 70
     8
280
     0
  0
ATTDEF
  5
89
330
7E
100
AcDbEntity
  8
AM_6
100
AcDbText
 10
5.3444
 20
-7.401166666666665
 30
0.0
 40
0.5
  1
0.199
100
AcDbAttributeDefinition
  3

  2
H
 70
     8
280
     0
  0
ATTDEF
  5
8A
330
7E
100
AcDbEntity
  8
AM_6
100
AcDbText
 10
5.3444
 20
-7.901166666666665
 30
0.0
 40
0.5
  1
1.250
100
AcDbAttributeDefinition
  3

  2
L
 70
     8
280
     0
  0
ATTDEF
  5
8B
330
7E
100
AcDbEntity
  8
AM_6
100
AcDbText
 10
5.3444
 20
-8.401166666666665
 30
0.0
 40
0.5
  1
0.031
100
AcDbAttributeDefinition
  3

  2
S
 70
     8
280
     0
  0
ATTDEF
  5
8C
330
7E
100
AcDbEntity
  8
AM_6
100
AcDbText
 10
5.3444
 20
-8.901166666666665
 30
0.0
 40
0.5
  1
0.218750
100
AcDbAttributeDefinition
  3

  2
J
 70
     8
280
     0
  0
ATTDEF
  5
8D
330
7E
100
AcDbEntity
  8
AM_6
100
AcDbText
 10
5.3444
 20
-9.401166666666665
 30
0.0
 40
0.5
  1
baldor
100
AcDbAttributeDefinition
  3

  2
COMPANY
 70
     8
280
     0
  0
CIRCLE
  5
90
330
7E
100
AcDbEntity
  8
AM_9
 48
0.0019747825152
100
AcDbCircle
 10
0.0000000000000003
 20
-4.229166666666666
 30
0.0
 40
0.1875
  0
ARC
  5
92
330
7E
100
AcDbEntity
  8
AM_5
 48
0.0019747825152
100
AcDbCircle
 10
0.0000000000000008
 20
-4.229166666666666
 30
0.0
 40
0.15025
100
AcDbArc
 50
75.00000000000013
 51
14.99999999999991
  0
LINE
  5
95
330
7E
100
AcDbEntity
  8
AM_7
 48
0.0019747825152
100
AcDbLine
 10
-0.3444
 20
-4.229166666666665
 30
0.0
 11
0.3444000000000006
 21
-4.229166666666665
 31
0.0
  0
LINE
  5
97
330
7E
100
AcDbEntity
  8
AM_0
 48
0.0019747825152
100
AcDbLine
 10
0.0000000000000003
 20
-4.355462038051897
 30
0.0
 11
-0.1093749999999997
 21
-4.292314352359281
 31
0.0
  0
CIRCLE
  5
99
330
7E
100
AcDbEntity
  8
AM_4
 48
0.0019747825152
100
AcDbCircle
 10
0.0000000000000003
 20
-4.229166666666666
 30
0.0
 40
0.16
  0
LINE
  5
9A
330
7E
100
AcDbEntity
  8
AM_0
 48
0.0019747825152
100
AcDbLine
 10
-0.1093749999999997
 20
-4.292314352359281
 30
0.0
 11
-0.1093749999999997
 21
-4.166018980974051
 31
0.0
  0
LINE
  5
9B
330
7E
100
AcDbEntity
  8
AM_0
 48
0.0019747825152
100
AcDbLine
 10
-0.1093749999999997
 20
-4.166018980974051
 30
0.0
 11
0.0000000000000003
 21
-4.102871295281435
 31
0.0
  0
LINE
  5
9C
330
7E
100
AcDbEntity
  8
AM_0
 48
0.0019747825152
100
AcDbLine
 10
0.0000000000000003
 20
-4.102871295281435
 30
0.0
 11
0.1093750000000003
 21
-4.166018980974051
 31
0.0
  0
LINE
  5
9D
330
7E
100
AcDbEntity
  8
AM_0
 48
0.0019747825152
100
AcDbLine
 10
0.1093750000000003
 20
-4.166018980974051
 30
0.0
 11
0.1093750000000003
 21
-4.292314352359281
 31
0.0
  0
LINE
  5
9E
330
7E
100
AcDbEntity
  8
AM_0
 48
0.0019747825152
100
AcDbLine
 10
0.1093750000000003
 20
-4.292314352359281
 30
0.0
 11
0.0000000000000003
 21
-4.355462038051897
 31
0.0
  0
ARC
  5
9F
330
7E
100
AcDbEntity
  8
AM_5
 48
0.0019747825152
100
AcDbCircle
 10
-0.0000000000000002
 20
-4.229166666666664
 30
0.0
 40
0.1688999999999986
100
AcDbArc
 50
74.99999999999991
 51
14.9999999999997
  0
CIRCLE
  5
A0
330
7E
100
AcDbEntity
  8
AM_0
 48
0.0019747825152
100
AcDbCircle
 10
0.0000000000000002
 20
-4.229166666666665
 30
0.0
 40
0.3280000000000003
  0
ENDBLK
  5
81
330
7E
100
AcDbEntity
  8
0
100
AcDbBlockEnd
  0
BLOCK
  5
A3
330
A1
100
AcDbEntity
  8
0
100
AcDbBlockBegin
  2
2_ASME_B18_3_3_8_2_0_in_037928_2
 70
     2
 10
0.0
 20
0.0
 30
0.0
  3
2_ASME_B18_3_3_8_2_0_in_037928_2
  1

  0
ATTDEF
  5
A5
330
A1
100
AcDbEntity
  8
AM_6
100
AcDbText
 10
5.3444
 20
4.557166666666665
 30
0.0
 40
0.5
  1
ANSI/ASME B18.3-1998
100
AcDbAttributeDefinition
  3

  2
NN
 70
     8
280
     0
  0
ATTDEF
  5
A6
330
A1
100
AcDbEntity
  8
AM_6
100
AcDbText
 10
5.3444
 20
4.057166666666665
 30
0.0
 40
0.5
  1
Socket Button Head Cap Screws
100
AcDbAttributeDefinition
  3

  2
NT
 70
     8
280
     0
  0
ATTDEF
  5
A7
330
A1
100
AcDbEntity
  8
AM_6
100
AcDbText
 10
5.3444
 20
3.557166666666665
 30
0.0
 40
0.5
  1
ASME B18.3-3/8
100
AcDbAttributeDefinition
  3

  2
NB
 70
     8
280
     0
  0
ATTDEF
  5
A8
330
A1
100
AcDbEntity
  8
AM_6
100
AcDbText
 10
5.3444
 20
3.057166666666665
 30
0.0
 40
0.5
  1
ASME B18.3-$NS.
100
AcDbAttributeDefinition
  3

  2
NBSYN
 70
     8
280
     0
  0
ATTDEF
  5
A9
330
A1
100
AcDbEntity
  8
AM_6
100
AcDbText
 10
5.3444
 20
2.557166666666665
 30
0.0
 40
0.5
  1
ASME B18.3-3/8
100
AcDbAttributeDefinition
  3

  2
LINA
 70
     8
280
     0
  0
ATTDEF
  5
AA
330
A1
100
AcDbEntity
  8
AM_6
100
AcDbText
 10
5.3444
 20
2.057166666666665
 30
0.0
 40
0.5
  1
3/8
100
AcDbAttributeDefinition
  3

  2
NS
 70
     8
280
     0
  0
ATTDEF
  5
AB
330
A1
100
AcDbEntity
  8
AM_6
100
AcDbText
 10
5.3444
 20
1.557166666666665
 30
0.0
 40
0.5
  1
0.656
100
AcDbAttributeDefinition
  3

  2
A
 70
     8
280
     0
  0
ATTDEF
  5
AC
330
A1
100
AcDbEntity
  8
AM_6
100
AcDbText
 10
5.3444
 20
1.057166666666665
 30
0.0
 40
0.5
  1
0.199
100
AcDbAttributeDefinition
  3

  2
H
 70
     8
280
     0
  0
ATTDEF
  5
AD
330
A1
100
AcDbEntity
  8
AM_6
100
AcDbText
 10
5.3444
 20
0.5571666666666655
 30
0.0
 40
0.5
  1
1.250
100
AcDbAttributeDefinition
  3

  2
L
 70
     8
280
     0
  0
ATTDEF
  5
AE
330
A1
100
AcDbEntity
  8
AM_6
100
AcDbText
 10
5.3444
 20
0.0571666666666655
 30
0.0
 40
0.5
  1
0.031
100
AcDbAttributeDefinition
  3

  2
S
 70
     8
280
     0
  0
ATTDEF
  5
AF
330
A1
100
AcDbEntity
  8
AM_6
100
AcDbText
 10
5.3444
 20
-0.4428333333333345
 30
0.0
 40
0.5
  1
0.218750
100
AcDbAttributeDefinition
  3

  2
J
 70
     8
280
     0
  0
ATTDEF
  5
B0
330
A1
100
AcDbEntity
  8
AM_6
100
AcDbText
 10
5.3444
 20
-0.9428333333333345
 30
0.0
 40
0.5
  1
baldor
100
AcDbAttributeDefinition
  3

  2
COMPANY
 70
     8
280
     0
  0
CIRCLE
  5
B1
330
A1
100
AcDbEntity
  8
AM_9
 48
0.0019747825152
100
AcDbCircle
 10
0.0000000000000003
 20
4.229166666666666
 30
0.0
 40
0.1875
  0
ARC
  5
B2
330
A1
100
AcDbEntity
  8
AM_5
 48
0.0019747825152
100
AcDbCircle
 10
0.0000000000000009
 20
4.229166666666666
 30
0.0
 40
0.15025
100
AcDbArc
 50
75.00000000000014
 51
14.99999999999992
  0
LINE
  5
B3
330
A1
100
AcDbEntity
  8
AM_7
 48
0.0019747825152
100
AcDbLine
 10
-0.3443999999999996
 20
4.229166666666666
 30
0.0
 11
0.3444000000000002
 21
4.229166666666666
 31
0.0
  0
CIRCLE
  5
B4
330
A1
100
AcDbEntity
  8
AM_4
 48
0.0019747825152
100
AcDbCircle
 10
0.0000000000000003
 20
4.229166666666666
 30
0.0
 40
0.16
  0
LINE
  5
B5
330
A1
100
AcDbEntity
  8
AM_0
 48
0.0019747825152
100
AcDbLine
 10
-0.1093749999999997
 20
4.166018980974051
 30
0.0
 11
-0.1093749999999997
 21
4.292314352359281
 31
0.0
  0
LINE
  5
B6
330
A1
100
AcDbEntity
  8
AM_0
 48
0.0019747825152
100
AcDbLine
 10
-0.1093749999999997
 20
4.292314352359281
 30
0.0
 11
0.0000000000000003
 21
4.355462038051897
 31
0.0
  0
LINE
  5
B7
330
A1
100
AcDbEntity
  8
AM_0
 48
0.0019747825152
100
AcDbLine
 10
0.0000000000000003
 20
4.355462038051897
 30
0.0
 11
0.1093750000000003
 21
4.292314352359281
 31
0.0
  0
LINE
  5
B8
330
A1
100
AcDbEntity
  8
AM_0
 48
0.0019747825152
100
AcDbLine
 10
0.1093750000000003
 20
4.292314352359281
 30
0.0
 11
0.1093750000000003
 21
4.166018980974051
 31
0.0
  0
LINE
  5
B9
330
A1
100
AcDbEntity
  8
AM_0
 48
0.0019747825152
100
AcDbLine
 10
0.1093750000000003
 20
4.166018980974051
 30
0.0
 11
0.0000000000000003
 21
4.102871295281435
 31
0.0
  0
LINE
  5
BA
330
A1
100
AcDbEntity
  8
AM_0
 48
0.0019747825152
100
AcDbLine
 10
0.0000000000000003
 20
4.102871295281435
 30
0.0
 11
-0.1093749999999997
 21
4.166018980974051
 31
0.0
  0
ARC
  5
BB
330
A1
100
AcDbEntity
  8
AM_5
 48
0.0019747825152
100
AcDbCircle
 10
0.000000000000001
 20
4.229166666666665
 30
0.0
 40
0.1689000000000003
100
AcDbArc
 50
75.00000000000013
 51
14.99999999999996
  0
CIRCLE
  5
BC
330
A1
100
AcDbEntity
  8
AM_0
 48
0.0019747825152
100
AcDbCircle
 10
0.0000000000000002
 20
4.229166666666666
 30
0.0
 40
0.3279999999999998
  0
ENDBLK
  5
A4
330
A1
100
AcDbEntity
  8
0
100
AcDbBlockEnd
  0
BLOCK
  5
BF
330
BD
100
AcDbEntity
  8
0
100
AcDbBlockBegin
  2
3_037928LW_0_in_037928_2
 70
     2
 10
0.0
 20
0.0
 30
0.0
  3
3_037928LW_0_in_037928_2
  1

  0
ATTDEF
  5
C1
330
BD
100
AcDbEntity
  8
AM_6
100
AcDbText
 10
10.125
 20
5.125
 30
0.0
 40
0.5
  1
Imperial Insert Lockwasher -Inch
100
AcDbAttributeDefinition
  3

  2
NN
 70
     8
280
     0
  0
ATTDEF
  5
C2
330
BD
100
AcDbEntity
  8
AM_6
100
AcDbText
 10
10.125
 20
4.625
 30
0.0
 40
0.5
  1
Imperial Bearings
100
AcDbAttributeDefinition
  3

  2
NT
 70
     8
280
     0
  0
ATTDEF
  5
C3
330
BD
100
AcDbEntity
  8
AM_6
100
AcDbText
 10
10.125
 20
4.125
 30
0.0
 40
0.5
  1
037928LW
100
AcDbAttributeDefinition
  3

  2
NB
 70
     8
280
     0
  0
ATTDEF
  5
C4
330
BD
100
AcDbEntity
  8
AM_6
100
AcDbText
 10
10.125
 20
3.625
 30
0.0
 40
0.5
  1
$PN.LW
100
AcDbAttributeDefinition
  3

  2
NBSYN
 70
     8
280
     0
  0
ATTDEF
  5
C5
330
BD
100
AcDbEntity
  8
AM_6
100
AcDbText
 10
10.125
 20
3.125
 30
0.0
 40
0.5
  1
037928
100
AcDbAttributeDefinition
  3

  2
LINA
 70
     8
280
     0
  0
ATTDEF
  5
C6
330
BD
100
AcDbEntity
  8
AM_6
100
AcDbText
 10
10.125
 20
2.625
 30
0.0
 40
0.5
  1
6
100
AcDbAttributeDefinition
  3

  2
SS
 70
     8
280
     0
  0
ATTDEF
  5
C7
330
BD
100
AcDbEntity
  8
AM_6
100
AcDbText
 10
10.125
 20
2.125
 30
0.0
 40
0.5
  1
6.000000
100
AcDbAttributeDefinition
  3

  2
SS1
 70
     8
280
     0
  0
ATTDEF
  5
C8
330
BD
100
AcDbEntity
  8
AM_6
100
AcDbText
 10
10.125
 20
1.625
 30
0.0
 40
0.5
  1
037928
100
AcDbAttributeDefinition
  3

  2
PN
 70
     8
280
     0
  0
ATTDEF
  5
C9
330
BD
100
AcDbEntity
  8
AM_6
100
AcDbText
 10
10.125
 20
1.125
 30
0.0
 40
0.5
  1
INS-IP-600R
100
AcDbAttributeDefinition
  3

  2
DESCRIPTION
 70
     8
280
     0
  0
ATTDEF
  5
CA
330
BD
100
AcDbEntity
  8
AM_6
100
AcDbText
 10
10.125
 20
0.625
 30
0.0
 40
0.5
  1
11.4173
100
AcDbAttributeDefinition
  3

  2
A
 70
     8
280
     0
  0
ATTDEF
  5
CB
330
BD
100
AcDbEntity
  8
AM_6
100
AcDbText
 10
10.125
 20
0.125
 30
0.0
 40
0.5
  1
3-7/32
100
AcDbAttributeDefinition
  3

  2
B
 70
     8
280
     0
  0
ATTDEF
  5
CC
330
BD
100
AcDbEntity
  8
AM_6
100
AcDbText
 10
10.125
 20
-0.375
 30
0.0
 40
0.5
  1
7-5/64
100
AcDbAttributeDefinition
  3

  2
C
 70
     8
280
     0
  0
ATTDEF
  5
CD
330
BD
100
AcDbEntity
  8
AM_6
100
AcDbText
 10
10.125
 20
-0.875
 30
0.0
 40
0.5
  1
2.768
100
AcDbAttributeDefinition
  3

  2
D
 70
     8
280
     0
  0
ATTDEF
  5
CE
330
BD
100
AcDbEntity
  8
AM_6
100
AcDbText
 10
10.125
 20
-1.375
 30
0.0
 40
0.5
  1
10-1/4
100
AcDbAttributeDefinition
  3

  2
E
 70
     8
280
     0
  0
ATTDEF
  5
CF
330
BD
100
AcDbEntity
  8
AM_6
100
AcDbText
 10
10.125
 20
-1.875
 30
0.0
 40
0.5
  1
0.3750
100
AcDbAttributeDefinition
  3

  2
NDM
 70
     8
280
     0
  0
ATTDEF
  5
D0
330
BD
100
AcDbEntity
  8
AM_6
100
AcDbText
 10
10.125
 20
-2.375
 30
0.0
 40
0.5
  1
0.3070
100
AcDbAttributeDefinition
  3

  2
KDM
 70
     8
280
     0
  0
ATTDEF
  5
D1
330
BD
100
AcDbEntity
  8
AM_6
100
AcDbText
 10
10.125
 20
-2.875
 30
0.0
 40
0.5
  1
9.05
100
AcDbAttributeDefinition
  3

  2
AL
 70
     8
280
     0
  0
ATTDEF
  5
D2
330
BD
100
AcDbEntity
  8
AM_6
100
AcDbText
 10
10.125
 20
-3.375
 30
0.0
 40
0.5
  1
0.75
100
AcDbAttributeDefinition
  3

  2
BL
 70
     8
280
     0
  0
ATTDEF
  5
D3
330
BD
100
AcDbEntity
  8
AM_6
100
AcDbText
 10
10.125
 20
-3.875
 30
0.0
 40
0.5
  1
0.07
100
AcDbAttributeDefinition
  3

  2
CL
 70
     8
280
     0
  0
ATTDEF
  5
D4
330
BD
100
AcDbEntity
  8
AM_6
100
AcDbText
 10
10.125
 20
-4.375
 30
0.0
 40
0.5
  1
1.00
100
AcDbAttributeDefinition
  3

  2
DL
 70
     8
280
     0
  0
ATTDEF
  5
D5
330
BD
100
AcDbEntity
  8
AM_6
100
AcDbText
 10
10.125
 20
-4.875
 30
0.0
 40
0.5
  1
baldor
100
AcDbAttributeDefinition
  3

  2
COMPANY
 70
     8
280
     0
  0
LINE
  5
D6
330
BD
100
AcDbEntity
  8
AM_9
 48
0.0458013780286484
100
AcDbLine
 10
-0.1875000000000002
 20
3.960042624634
 30
0.0
 11
-0.1875000000000002
 21
4.229166666666666
 31
0.0
  0
ARC
  5
D7
330
BD
100
AcDbEntity
  8
AM_9
 48
0.0458013780286484
100
AcDbCircle
 10
0.0000000000000001
 20
4.229212769177776
 30
0.0
 40
0.1875000056678446
100
AcDbArc
 50
359.9859121106222
 51
180.0140878893778
  0
LINE
  5
D8
330
BD
100
AcDbEntity
  8
AM_9
 48
0.0458013780286484
100
AcDbLine
 10
0.1875000000000007
 20
4.229166666666666
 30
0.0
 11
0.1875000000000007
 21
3.960042624634001
 31
0.0
  0
LINE
  5
D9
330
BD
100
AcDbEntity
  8
AM_9
 48
0.0458013780286484
100
AcDbLine
 10
0.1875000000000002
 20
-3.960042624634
 30
0.0
 11
0.1875000000000002
 21
-4.229166666666666
 31
0.0
  0
ARC
  5
DA
330
BD
100
AcDbEntity
  8
AM_9
 48
0.0458013780286484
100
AcDbCircle
 10
0.0000000000000002
 20
-4.229212769177777
 30
0.0
 40
0.1875000056678439
100
AcDbArc
 50
179.985912110622
 51
0.014087889378021
  0
LINE
  5
DB
330
BD
100
AcDbEntity
  8
AM_9
 48
0.0458013780286484
100
AcDbLine
 10
-0.1874999999999997
 20
-4.229166666666666
 30
0.0
 11
-0.1874999999999998
 21
-3.960042624634
 31
0.0
  0
LINE
  5
DC
330
BD
100
AcDbEntity
  8
AM_9
 48
0.0458013780286484
100
AcDbLine
 10
-1.033114532408587
 20
-2.984120227454191
 30
0.0
 11
-0.9725784049934331
 21
-2.837973087634981
 31
0.0
  0
LINE
  5
DD
330
BD
100
AcDbEntity
  8
AM_9
 48
0.0458013780286484
100
AcDbLine
 10
-1.319033229685165
 20
-2.694466800498073
 30
0.0
 11
-1.37956935710032
 21
-2.840613940317282
 31
0.0
  0
LINE
  5
DE
330
BD
100
AcDbEntity
  8
AM_7
 48
0.0458013780286484
100
AcDbLine
 10
2.793630022215106
 20
-2.990505028166343
 30
0.0
 11
3.187380034117579
 21
-2.990505028166343
 31
0.0
  0
LINE
  5
DF
330
BD
100
AcDbEntity
  8
AM_7
 48
0.0458013780286484
100
AcDbLine
 10
2.990505028166343
 20
-3.187380034117579
 30
0.0
 11
2.990505028166343
 21
-2.793630022215106
 31
0.0
  0
LINE
  5
E0
330
BD
100
AcDbEntity
  8
AM_7
 48
0.0458013780286484
100
AcDbLine
 10
-3.187380034117579
 20
-2.990505028166343
 30
0.0
 11
-2.793630022215106
 21
-2.990505028166343
 31
0.0
  0
LINE
  5
E1
330
BD
100
AcDbEntity
  8
AM_7
 48
0.0458013780286484
100
AcDbLine
 10
-2.990505028166343
 20
-3.187380034117579
 30
0.0
 11
-2.990505028166343
 21
-2.793630022215106
 31
0.0
  0
LINE
  5
E2
330
BD
100
AcDbEntity
  8
AM_7
 48
0.0458013780286484
100
AcDbLine
 10
-3.187380034117579
 20
2.990505028166343
 30
0.0
 11
-2.793630022215106
 21
2.990505028166343
 31
0.0
  0
LINE
  5
E3
330
BD
100
AcDbEntity
  8
AM_7
 48
0.0458013780286484
100
AcDbLine
 10
-2.990505028166343
 20
2.793630022215106
 30
0.0
 11
-2.990505028166343
 21
3.187380034117579
 31
0.0
  0
LINE
  5
E4
330
BD
100
AcDbEntity
  8
AM_7
 48
0.0458013780286484
100
AcDbLine
 10
4.229212769177776
 20
-0.1968750059512371
 30
0.0
 11
4.229212769177776
 21
0.1968750059512371
 31
0.0
  0
LINE
  5
E5
330
BD
100
AcDbEntity
  8
AM_7
 48
0.0458013780286484
100
AcDbLine
 10
-4.229212769177776
 20
-0.1968750059512371
 30
0.0
 11
-4.229212769177776
 21
0.1968750059512371
 31
0.0
  0
LINE
  5
E6
330
BD
100
AcDbEntity
  8
AM_7
 48
0.0458013780286484
100
AcDbLine
 10
2.793630022215106
 20
2.990505028166343
 30
0.0
 11
3.187380034117579
 21
2.990505028166343
 31
0.0
  0
LINE
  5
E7
330
BD
100
AcDbEntity
  8
AM_7
 48
0.0458013780286484
100
AcDbLine
 10
2.990505028166343
 20
2.793630022215106
 30
0.0
 11
2.990505028166343
 21
3.187380034117579
 31
0.0
  0
CIRCLE
  5
E8
330
BD
100
AcDbEntity
  8
AM_0
 48
0.0458013780286484
100
AcDbCircle
 10
0.0000000000000002
 20
0.0
 30
0.0
 40
5.125
  0
LINE
  5
E9
330
BD
100
AcDbEntity
  8
AM_0
 48
0.0458013780286484
100
AcDbLine
 10
-3.237818785053133
 20
-0.1874999999999998
 30
0.0
 11
-4.229166666666666
 21
-0.1875000000000005
 31
0.0
  0
ARC
  5
EA
330
BD
100
AcDbEntity
  8
AM_0
 48
0.0458013780286484
100
AcDbCircle
 10
-4.229212769177776
 20
0.0
 30
0.0
 40
0.1875000056678444
100
AcDbArc
 50
89.98591211062225
 51
270.0140878893777
  0
LINE
  5
EB
330
BD
100
AcDbEntity
  8
AM_0
 48
0.0458013780286484
100
AcDbLine
 10
-4.229166666666666
 20
0.1875000000000005
 30
0.0
 11
-3.237818785053133
 21
0.1875000000000002
 31
0.0
  0
ARC
  5
EC
330
BD
100
AcDbEntity
  8
AM_0
 48
0.0458013780286484
100
AcDbCircle
 10
-0.0000000000000155
 20
0.0000000000000056
 30
0.0
 40
3.243243243243226
100
AcDbArc
 50
138.314260204874
 51
176.685739795126
  0
LINE
  5
ED
330
BD
100
AcDbEntity
  8
AM_0
 48
0.0458013780286484
100
AcDbLine
 10
-2.422066140636736
 20
2.156901097691781
 30
0.0
 11
-3.123054950240585
 21
2.857889907295629
 31
0.0
  0
ARC
  5
EE
330
BD
100
AcDbEntity
  8
AM_0
 48
0.0458013780286484
100
AcDbCircle
 10
-2.990505028166343
 20
2.990505028166343
 30
0.0
 40
0.1875000056678442
100
AcDbArc
 50
44.98591211062212
 51
225.0140878893779
  0
LINE
  5
EF
330
BD
100
AcDbEntity
  8
AM_0
 48
0.0458013780286484
100
AcDbLine
 10
-2.857889907295629
 20
3.123054950240585
 30
0.0
 11
-2.156901097691781
 21
2.422066140636737
 31
0.0
  0
ARC
  5
F0
330
BD
100
AcDbEntity
  8
AM_0
 48
0.0458013780286484
100
AcDbCircle
 10
0.0000000000000023
 20
-0.0000000000000031
 30
0.0
 40
3.243243243243247
100
AcDbArc
 50
93.31426020487416
 51
131.6857397951259
  0
LINE
  5
F1
330
BD
100
AcDbEntity
  8
AM_0
 48
0.0458013780286484
100
AcDbLine
 10
-0.1875000000000001
 20
3.237818785053133
 30
0.0
 11
-0.1875000000000002
 21
3.960042624634
 31
0.0
  0
LINE
  5
F2
330
BD
100
AcDbEntity
  8
AM_0
 48
0.0458013780286484
100
AcDbLine
 10
0.1875000000000007
 20
3.960042624634001
 30
0.0
 11
0.1875000000000007
 21
3.237818785053133
 31
0.0
  0
ARC
  5
F3
330
BD
100
AcDbEntity
  8
AM_0
 48
0.0458013780286484
100
AcDbCircle
 10
0.0000000000000051
 20
0.0000000000000111
 30
0.0
 40
3.243243243243231
100
AcDbArc
 50
48.31426020487405
 51
86.68573979512595
  0
LINE
  5
F4
330
BD
100
AcDbEntity
  8
AM_0
 48
0.0458013780286484
100
AcDbLine
 10
2.156901097691781
 20
2.422066140636737
 30
0.0
 11
2.857889907295629
 21
3.123054950240585
 31
0.0
  0
ARC
  5
F5
330
BD
100
AcDbEntity
  8
AM_0
 48
0.0458013780286484
100
AcDbCircle
 10
2.990505028166343
 20
2.990505028166343
 30
0.0
 40
0.1875000056678442
100
AcDbArc
 50
314.9859121106221
 51
135.0140878893779
  0
LINE
  5
F6
330
BD
100
AcDbEntity
  8
AM_0
 48
0.0458013780286484
100
AcDbLine
 10
3.123054950240585
 20
2.857889907295629
 30
0.0
 11
2.422066140636737
 21
2.156901097691781
 31
0.0
  0
ARC
  5
F7
330
BD
100
AcDbEntity
  8
AM_0
 48
0.0458013780286484
100
AcDbCircle
 10
0.0000000000000013
 20
-0.0000000000000019
 30
0.0
 40
3.243243243243243
100
AcDbArc
 50
3.314260204874145
 51
41.68573979512591
  0
LINE
  5
F8
330
BD
100
AcDbEntity
  8
AM_0
 48
0.0458013780286484
100
AcDbLine
 10
3.237818785053134
 20
0.1874999999999999
 30
0.0
 11
4.229166666666666
 21
0.1875000000000005
 31
0.0
  0
ARC
  5
F9
330
BD
100
AcDbEntity
  8
AM_0
 48
0.0458013780286484
100
AcDbCircle
 10
4.229212769177776
 20
0.0000000000000002
 30
0.0
 40
0.1875000056678447
100
AcDbArc
 50
269.9859121106222
 51
90.01408788937776
  0
LINE
  5
FA
330
BD
100
AcDbEntity
  8
AM_0
 48
0.0458013780286484
100
AcDbLine
 10
4.229166666666666
 20
-0.1875000000000005
 30
0.0
 11
3.237818785053133
 21
-0.1875000000000002
 31
0.0
  0
ARC
  5
FB
330
BD
100
AcDbEntity
  8
AM_0
 48
0.0458013780286484
100
AcDbCircle
 10
0.0000000000000093
 20
-0.0000000000000051
 30
0.0
 40
3.243243243243232
100
AcDbArc
 50
318.3142602048741
 51
356.685739795126
  0
LINE
  5
FC
330
BD
100
AcDbEntity
  8
AM_0
 48
0.0458013780286484
100
AcDbLine
 10
2.422066140636737
 20
-2.156901097691781
 30
0.0
 11
3.123054950240585
 21
-2.857889907295629
 31
0.0
  0
ARC
  5
FD
330
BD
100
AcDbEntity
  8
AM_0
 48
0.0458013780286484
100
AcDbCircle
 10
2.990505028166343
 20
-2.990505028166343
 30
0.0
 40
0.1875000056678442
100
AcDbArc
 50
224.9859121106221
 51
45.0140878893779
  0
LINE
  5
FE
330
BD
100
AcDbEntity
  8
AM_0
 48
0.0458013780286484
100
AcDbLine
 10
2.857889907295629
 20
-3.123054950240585
 30
0.0
 11
2.156901097691781
 21
-2.422066140636737
 31
0.0
  0
ARC
  5
FF
330
BD
100
AcDbEntity
  8
AM_0
 48
0.0458013780286484
100
AcDbCircle
 10
-0.0000000000000066
 20
0.0000000000000133
 30
0.0
 40
3.243243243243257
100
AcDbArc
 50
273.3142602048742
 51
311.6857397951258
  0
LINE
  5
100
330
BD
100
AcDbEntity
  8
AM_0
 48
0.0458013780286484
100
AcDbLine
 10
0.1875000000000005
 20
-3.237818785053133
 30
0.0
 11
0.1875000000000002
 21
-3.960042624634
 31
0.0
  0
LINE
  5
101
330
BD
100
AcDbEntity
  8
AM_0
 48
0.0458013780286484
100
AcDbLine
 10
-0.1874999999999998
 20
-3.960042624634
 30
0.0
 11
-0.1874999999999998
 21
-3.237818785053133
 31
0.0
  0
ARC
  5
102
330
BD
100
AcDbEntity
  8
AM_0
 48
0.0458013780286484
100
AcDbCircle
 10
0.0000000000000053
 20
0.0000000000000271
 30
0.0
 40
3.24324324324327
100
AcDbArc
 50
250.8142602048742
 51
266.6857397951258
  0
LINE
  5
103
330
BD
100
AcDbEntity
  8
AM_0
 48
0.0458013780286484
100
AcDbLine
 10
-1.065832193694431
 20
-3.063107649059606
 30
0.0
 11
-1.033114532408587
 21
-2.984120227454191
 31
0.0
  0
LINE
  5
104
330
BD
100
AcDbEntity
  8
AM_0
 48
0.0458013780286484
100
AcDbLine
 10
-1.37956935710032
 20
-2.840613940317282
 30
0.0
 11
-1.412287018386164
 21
-2.919601361922697
 31
0.0
  0
ARC
  5
105
330
BD
100
AcDbEntity
  8
AM_0
 48
0.0458013780286484
100
AcDbCircle
 10
0.0000000000000369
 20
0.0000000000000542
 30
0.0
 40
3.243243243243307
100
AcDbArc
 50
228.3142602048743
 51
244.1857397951257
  0
LINE
  5
106
330
BD
100
AcDbEntity
  8
AM_0
 48
0.0458013780286484
100
AcDbLine
 10
-2.15690109769178
 20
-2.422066140636738
 30
0.0
 11
-2.857889907295629
 21
-3.123054950240585
 31
0.0
  0
ARC
  5
107
330
BD
100
AcDbEntity
  8
AM_0
 48
0.0458013780286484
100
AcDbCircle
 10
-2.990505028166343
 20
-2.990505028166343
 30
0.0
 40
0.1875000056678442
100
AcDbArc
 50
134.9859121106221
 51
315.0140878893779
  0
LINE
  5
108
330
BD
100
AcDbEntity
  8
AM_0
 48
0.0458013780286484
100
AcDbLine
 10
-3.123054950240585
 20
-2.857889907295629
 30
0.0
 11
-2.422066140636737
 21
-2.156901097691781
 31
0.0
  0
ARC
  5
109
330
BD
100
AcDbEntity
  8
AM_0
 48
0.0458013780286484
100
AcDbCircle
 10
-0.0000000000000169
 20
-0.0000000000000064
 30
0.0
 40
3.243243243243225
100
AcDbArc
 50
183.314260204874
 51
221.685739795126
  0
ENDBLK
  5
C0
330
BD
100
AcDbEntity
  8
0
100
AcDbBlockEnd
  0
BLOCK
  5
10C
330
10A
100
AcDbEntity
  8
0
100
AcDbBlockBegin
  2
4_037928I_0_in_037928_2
 70
     2
 10
0.0
 20
0.0
 30
0.0
  3
4_037928I_0_in_037928_2
  1

  0
ATTDEF
  5
10E
330
10A
100
AcDbEntity
  8
AM_6
100
AcDbText
 10
10.9940825
 20
5.994082499999998
 30
0.0
 40
0.5
  1
Imperial Insert -Inch
100
AcDbAttributeDefinition
  3

  2
NN
 70
     8
280
     0
  0
ATTDEF
  5
10F
330
10A
100
AcDbEntity
  8
AM_6
100
AcDbText
 10
10.9940825
 20
5.494082499999998
 30
0.0
 40
0.5
  1
Imperial Bearings
100
AcDbAttributeDefinition
  3

  2
NT
 70
     8
280
     0
  0
ATTDEF
  5
110
330
10A
100
AcDbEntity
  8
AM_6
100
AcDbText
 10
10.9940825
 20
4.994082499999998
 30
0.0
 40
0.5
  1
037928I
100
AcDbAttributeDefinition
  3

  2
NB
 70
     8
280
     0
  0
ATTDEF
  5
111
330
10A
100
AcDbEntity
  8
AM_6
100
AcDbText
 10
10.9940825
 20
4.494082499999998
 30
0.0
 40
0.5
  1
$PN.I
100
AcDbAttributeDefinition
  3

  2
NBSYN
 70
     8
280
     0
  0
ATTDEF
  5
112
330
10A
100
AcDbEntity
  8
AM_6
100
AcDbText
 10
10.9940825
 20
3.994082499999998
 30
0.0
 40
0.5
  1
037928
100
AcDbAttributeDefinition
  3

  2
LINA
 70
     8
280
     0
  0
ATTDEF
  5
113
330
10A
100
AcDbEntity
  8
AM_6
100
AcDbText
 10
10.9940825
 20
3.494082499999998
 30
0.0
 40
0.5
  1
6
100
AcDbAttributeDefinition
  3

  2
SS
 70
     8
280
     0
  0
ATTDEF
  5
114
330
10A
100
AcDbEntity
  8
AM_6
100
AcDbText
 10
10.9940825
 20
2.994082499999998
 30
0.0
 40
0.5
  1
6.000000
100
AcDbAttributeDefinition
  3

  2
SS1
 70
     8
280
     0
  0
ATTDEF
  5
115
330
10A
100
AcDbEntity
  8
AM_6
100
AcDbText
 10
10.9940825
 20
2.494082499999998
 30
0.0
 40
0.5
  1
037928
100
AcDbAttributeDefinition
  3

  2
PN
 70
     8
280
     0
  0
ATTDEF
  5
116
330
10A
100
AcDbEntity
  8
AM_6
100
AcDbText
 10
10.9940825
 20
1.994082499999998
 30
0.0
 40
0.5
  1
INS-IP-600R
100
AcDbAttributeDefinition
  3

  2
DESCRIPTION
 70
     8
280
     0
  0
ATTDEF
  5
117
330
10A
100
AcDbEntity
  8
AM_6
100
AcDbText
 10
10.9940825
 20
1.494082499999998
 30
0.0
 40
0.5
  1
Contact Seal
100
AcDbAttributeDefinition
  3

  2
ST
 70
     8
280
     0
  0
ATTDEF
  5
118
330
10A
100
AcDbEntity
  8
AM_6
100
AcDbText
 10
10.9940825
 20
0.9940824999999975
 30
0.0
 40
0.5
  1
11.4173
100
AcDbAttributeDefinition
  3

  2
A
 70
     8
280
     0
  0
ATTDEF
  5
119
330
10A
100
AcDbEntity
  8
AM_6
100
AcDbText
 10
10.9940825
 20
0.4940824999999975
 30
0.0
 40
0.5
  1
3-7/32
100
AcDbAttributeDefinition
  3

  2
B
 70
     8
280
     0
  0
ATTDEF
  5
11A
330
10A
100
AcDbEntity
  8
AM_6
100
AcDbText
 10
10.9940825
 20
-0.0059175000000025
 30
0.0
 40
0.5
  1
7-5/64
100
AcDbAttributeDefinition
  3

  2
C
 70
     8
280
     0
  0
ATTDEF
  5
11B
330
10A
100
AcDbEntity
  8
AM_6
100
AcDbText
 10
10.9940825
 20
-0.5059175000000025
 30
0.0
 40
0.5
  1
2.768
100
AcDbAttributeDefinition
  3

  2
D
 70
     8
280
     0
  0
ATTDEF
  5
11C
330
10A
100
AcDbEntity
  8
AM_6
100
AcDbText
 10
10.9940825
 20
-1.005917500000002
 30
0.0
 40
0.5
  1
10-1/4
100
AcDbAttributeDefinition
  3

  2
E
 70
     8
280
     0
  0
ATTDEF
  5
11D
330
10A
100
AcDbEntity
  8
AM_6
100
AcDbText
 10
10.9940825
 20
-1.505917500000002
 30
0.0
 40
0.5
  1
0.3750
100
AcDbAttributeDefinition
  3

  2
NDM
 70
     8
280
     0
  0
ATTDEF
  5
11E
330
10A
100
AcDbEntity
  8
AM_6
100
AcDbText
 10
10.9940825
 20
-2.005917500000002
 30
0.0
 40
0.5
  1
0.199
100
AcDbAttributeDefinition
  3

  2
H
 70
     8
280
     0
  0
ATTDEF
  5
11F
330
10A
100
AcDbEntity
  8
AM_6
100
AcDbText
 10
10.9940825
 20
-2.505917500000002
 30
0.0
 40
0.5
  1
0.3070
100
AcDbAttributeDefinition
  3

  2
KDM
 70
     8
280
     0
  0
ATTDEF
  5
120
330
10A
100
AcDbEntity
  8
AM_6
100
AcDbText
 10
10.9940825
 20
-3.005917500000002
 30
0.0
 40
0.5
  1
9.05
100
AcDbAttributeDefinition
  3

  2
AL
 70
     8
280
     0
  0
ATTDEF
  5
121
330
10A
100
AcDbEntity
  8
AM_6
100
AcDbText
 10
10.9940825
 20
-3.505917500000002
 30
0.0
 40
0.5
  1
0.75
100
AcDbAttributeDefinition
  3

  2
BL
 70
     8
280
     0
  0
ATTDEF
  5
122
330
10A
100
AcDbEntity
  8
AM_6
100
AcDbText
 10
10.9940825
 20
-4.005917500000002
 30
0.0
 40
0.5
  1
0.07
100
AcDbAttributeDefinition
  3

  2
CL
 70
     8
280
     0
  0
ATTDEF
  5
123
330
10A
100
AcDbEntity
  8
AM_6
100
AcDbText
 10
10.9940825
 20
-4.505917500000002
 30
0.0
 40
0.5
  1
1.00
100
AcDbAttributeDefinition
  3

  2
DL
 70
     8
280
     0
  0
ATTDEF
  5
124
330
10A
100
AcDbEntity
  8
AM_6
100
AcDbText
 10
10.9940825
 20
-5.005917500000002
 30
0.0
 40
0.5
  1
1.2500
100
AcDbAttributeDefinition
  3

  2
LL
 70
     8
280
     0
  0
ATTDEF
  5
125
330
10A
100
AcDbEntity
  8
AM_6
100
AcDbText
 10
10.9940825
 20
-5.505917500000002
 30
0.0
 40
0.5
  1
0.036
100
AcDbAttributeDefinition
  3

  2
Y
 70
     8
280
     0
  0
ATTDEF
  5
126
330
10A
100
AcDbEntity
  8
AM_6
100
AcDbText
 10
10.9940825
 20
-6.005917500000002
 30
0.0
 40
0.5
  1
0.036000
100
AcDbAttributeDefinition
  3

  2
Y1
 70
     8
280
     0
  0
ATTDEF
  5
127
330
10A
100
AcDbEntity
  8
AM_6
100
AcDbText
 10
10.9940825
 20
-6.505917500000002
 30
0.0
 40
0.5
  1
6-31/32
100
AcDbAttributeDefinition
  3

  2
Z
 70
     8
280
     0
  0
ATTDEF
  5
128
330
10A
100
AcDbEntity
  8
AM_6
100
AcDbText
 10
10.9940825
 20
-7.005917500000002
 30
0.0
 40
0.5
  1
6.968750
100
AcDbAttributeDefinition
  3

  2
Z1
 70
     8
280
     0
  0
ATTDEF
  5
129
330
10A
100
AcDbEntity
  8
AM_6
100
AcDbText
 10
10.9940825
 20
-7.505917500000002
 30
0.0
 40
0.5
  1
baldor
100
AcDbAttributeDefinition
  3

  2
COMPANY
 70
     8
280
     0
  0
CIRCLE
  5
12A
330
10A
100
AcDbEntity
  8
AM_9
 48
0.0569022270726889
100
AcDbCircle
 10
-0.0000000000000002
 20
0.0
 30
0.0
 40
3.484375
  0
CIRCLE
  5
12B
330
10A
100
AcDbEntity
  8
AM_9
 48
0.0569022270726889
100
AcDbCircle
 10
-0.0000000000000002
 20
0.0
 30
0.0
 40
3.782184829059828
  0
CIRCLE
  5
12C
330
10A
100
AcDbEntity
  8
AM_9
 48
0.0569022270726889
100
AcDbCircle
 10
-0.0000000000000001
 20
0.0
 30
0.0
 40
3.871527777777778
  0
CIRCLE
  5
12D
330
10A
100
AcDbEntity
  8
AM_9
 48
0.0569022270726889
100
AcDbCircle
 10
-0.0000000000000001
 20
0.0
 30
0.0
 40
5.079245737290215
  0
CIRCLE
  5
12E
330
10A
100
AcDbEntity
  8
AM_9
 48
0.0569022270726889
100
AcDbCircle
 10
-0.0000000000000001
 20
0.0
 30
0.0
 40
5.165848277668659
  0
CIRCLE
  5
12F
330
10A
100
AcDbEntity
  8
AM_9
 48
0.0569022270726889
100
AcDbCircle
 10
-0.0000000000000001
 20
0.0
 30
0.0
 40
5.508649999999999
  0
CIRCLE
  5
130
330
10A
100
AcDbEntity
  8
AM_9
 48
0.0569022270726889
100
AcDbCircle
 10
0.0
 20
0.0
 30
0.0
 40
5.547712499999998
  0
CIRCLE
  5
131
330
10A
100
AcDbEntity
  8
AM_9
 48
0.0569022270726889
100
AcDbCircle
 10
0.0000000000000002
 20
-4.229166666666666
 30
0.0
 40
0.1536500000000001
  0
CIRCLE
  5
132
330
10A
100
AcDbEntity
  8
AM_9
 48
0.0569022270726889
100
AcDbCircle
 10
0.0000000000000002
 20
4.229166666666666
 30
0.0
 40
0.1536500000000001
  0
LINE
  5
133
330
10A
100
AcDbEntity
  8
AM_9
 48
0.0569022270726889
100
AcDbLine
 10
3.880567865683346
 20
3.350237779793436
 30
0.0
 11
3.464823227814082
 21
2.934493141924173
 31
0.0
  0
LINE
  5
134
330
10A
100
AcDbEntity
  8
AM_9
 48
0.0569022270726889
100
AcDbLine
 10
3.464823227814083
 20
-2.934493141924173
 30
0.0
 11
3.880567865683346
 21
-3.350237779793436
 31
0.0
  0
LINE
  5
135
330
10A
100
AcDbEntity
  8
AM_9
 48
0.0569022270726889
100
AcDbLine
 10
3.350237779793434
 20
-3.880567865683347
 30
0.0
 11
2.934493141924171
 21
-3.464823227814084
 31
0.0
  0
LINE
  5
136
330
10A
100
AcDbEntity
  8
AM_9
 48
0.0569022270726889
100
AcDbLine
 10
-2.934493141924173
 20
-3.464823227814083
 30
0.0
 11
-3.350237779793436
 21
-3.880567865683346
 31
0.0
  0
LINE
  5
137
330
10A
100
AcDbEntity
  8
AM_9
 48
0.0569022270726889
100
AcDbLine
 10
2.934493141924173
 20
3.464823227814083
 30
0.0
 11
3.350237779793436
 21
3.880567865683346
 31
0.0
  0
LINE
  5
138
330
10A
100
AcDbEntity
  8
AM_9
 48
0.0569022270726889
100
AcDbLine
 10
-3.350237779793436
 20
3.880567865683346
 30
0.0
 11
-2.934493141924173
 21
3.464823227814082
 31
0.0
  0
LINE
  5
139
330
10A
100
AcDbEntity
  8
AM_9
 48
0.0569022270726889
100
AcDbLine
 10
-2.934493141924173
 20
3.464823227814082
 30
0.0
 11
-3.464823227814083
 21
2.934493141924173
 31
0.0
  0
LINE
  5
13A
330
10A
100
AcDbEntity
  8
AM_9
 48
0.0569022270726889
100
AcDbLine
 10
-3.464823227814083
 20
2.934493141924173
 30
0.0
 11
-3.880567865683346
 21
3.350237779793436
 31
0.0
  0
LINE
  5
13B
330
10A
100
AcDbEntity
  8
AM_9
 48
0.0569022270726889
100
AcDbLine
 10
-3.880567865683347
 20
-3.350237779793434
 30
0.0
 11
-3.464823227814084
 21
-2.934493141924171
 31
0.0
  0
LINE
  5
13C
330
10A
100
AcDbEntity
  8
AM_9
 48
0.0569022270726889
100
AcDbLine
 10
-3.464823227814084
 20
-2.934493141924171
 30
0.0
 11
-2.934493141924173
 21
-3.464823227814083
 31
0.0
  0
ARC
  5
13D
330
10A
100
AcDbEntity
  8
AM_9
 48
0.0569022270726889
100
AcDbCircle
 10
-0.0000000000000002
 20
0.0000000000000062
 30
0.0
 40
5.07671556125965
100
AcDbArc
 50
229.2361058172712
 51
310.7638941827288
  0
LINE
  5
13E
330
10A
100
AcDbEntity
  8
AM_9
 48
0.0569022270726889
100
AcDbLine
 10
2.934493141924171
 20
-3.464823227814084
 30
0.0
 11
3.464823227814083
 21
-2.934493141924173
 31
0.0
  0
ARC
  5
13F
330
10A
100
AcDbEntity
  8
AM_9
 48
0.0569022270726889
100
AcDbCircle
 10
-0.0000000000000071
 20
0.0
 30
0.0
 40
5.076715561259651
100
AcDbArc
 50
319.2361058172712
 51
40.76389418272876
  0
LINE
  5
140
330
10A
100
AcDbEntity
  8
AM_9
 48
0.0569022270726889
100
AcDbLine
 10
3.464823227814082
 20
2.934493141924173
 30
0.0
 11
2.934493141924173
 21
3.464823227814083
 31
0.0
  0
ARC
  5
141
330
10A
100
AcDbEntity
  8
AM_9
 48
0.0569022270726889
100
AcDbCircle
 10
0.0000000000000062
 20
0.0000000000000004
 30
0.0
 40
5.07671556125965
100
AcDbArc
 50
139.2361058172712
 51
220.7638941827288
  0
ARC
  5
142
330
10A
100
AcDbEntity
  8
AM_9
 48
0.0569022270726889
100
AcDbCircle
 10
0.0000000000000004
 20
-0.0000000000000062
 30
0.0
 40
5.07671556125965
100
AcDbArc
 50
49.23610581727123
 51
130.7638941827288
  0
ARC
  5
143
330
10A
100
AcDbEntity
  8
AM_5
 48
0.0569022270726889
100
AcDbCircle
 10
-0.0000000000000012
 20
4.229166666666667
 30
0.0
 40
0.1874999999999989
100
AcDbArc
 50
74.99999999999973
 51
14.99999999999978
  0
ARC
  5
144
330
10A
100
AcDbEntity
  8
AM_5
 48
0.0569022270726889
100
AcDbCircle
 10
-0.0000000000000012
 20
-4.229166666666665
 30
0.0
 40
0.1874999999999989
100
AcDbArc
 50
74.99999999999973
 51
14.99999999999978
  0
LINE
  5
145
330
10A
100
AcDbEntity
  8
AM_7
 48
0.0569022270726889
100
AcDbLine
 10
-5.994082499999998
 20
0.0
 30
0.0
 11
5.994082499999998
 21
0.0
 31
0.0
  0
LINE
  5
146
330
10A
100
AcDbEntity
  8
AM_7
 48
0.0569022270726889
100
AcDbLine
 10
0.0000000000000001
 20
-5.994082499999998
 30
0.0
 11
0.0000000000000001
 21
5.994082499999998
 31
0.0
  0
CIRCLE
  5
147
330
10A
100
AcDbEntity
  8
AM_0
 48
0.0569022270726889
100
AcDbCircle
 10
0.0000000000000001
 20
0.0
 30
0.0
 40
5.708649999999998
  0
CIRCLE
  5
148
330
10A
100
AcDbEntity
  8
AM_4
 48
0.0569022270726889
100
AcDbCircle
 10
0.0000000000000001
 20
0.0
 30
0.0
 40
5.65865
  0
LINE
  5
149
330
10A
100
AcDbEntity
  8
AM_0
 48
0.0569022270726889
100
AcDbLine
 10
-3.904131747068003
 20
-3.373801661178091
 30
0.0
 11
-3.880567865683347
 21
-3.350237779793434
 31
0.0
  0
LINE
  5
14A
330
10A
100
AcDbEntity
  8
AM_0
 48
0.0569022270726889
100
AcDbLine
 10
-3.373801661178091
 20
3.904131747068003
 30
0.0
 11
-3.350237779793436
 21
3.880567865683346
 31
0.0
  0
LINE
  5
14B
330
10A
100
AcDbEntity
  8
AM_0
 48
0.0569022270726889
100
AcDbLine
 10
-3.880567865683346
 20
3.350237779793436
 30
0.0
 11
-3.904131747068002
 21
3.373801661178092
 31
0.0
  0
LINE
  5
14C
330
10A
100
AcDbEntity
  8
AM_0
 48
0.0569022270726889
100
AcDbLine
 10
3.904131747068003
 20
3.373801661178091
 30
0.0
 11
3.880567865683346
 21
3.350237779793436
 31
0.0
  0
LINE
  5
14D
330
10A
100
AcDbEntity
  8
AM_0
 48
0.0569022270726889
100
AcDbLine
 10
3.373801661178091
 20
-3.904131747068003
 30
0.0
 11
3.350237779793434
 21
-3.880567865683347
 31
0.0
  0
LINE
  5
14E
330
10A
100
AcDbEntity
  8
AM_0
 48
0.0569022270726889
100
AcDbLine
 10
-3.350237779793436
 20
-3.880567865683346
 30
0.0
 11
-3.373801661178092
 21
-3.904131747068002
 31
0.0
  0
LINE
  5
14F
330
10A
100
AcDbEntity
  8
AM_0
 48
0.0569022270726889
100
AcDbLine
 10
3.350237779793436
 20
3.880567865683346
 30
0.0
 11
3.373801661178092
 21
3.904131747068002
 31
0.0
  0
LINE
  5
150
330
10A
100
AcDbEntity
  8
AM_0
 48
0.0569022270726889
100
AcDbLine
 10
3.880567865683346
 20
-3.350237779793436
 30
0.0
 11
3.904131747068002
 21
-3.373801661178092
 31
0.0
  0
CIRCLE
  5
151
330
10A
100
AcDbEntity
  8
AM_0
 48
0.0569022270726889
100
AcDbCircle
 10
0.0000000000000001
 20
0.0
 30
0.0
 40
5.200757699348221
  0
ARC
  5
152
330
10A
100
AcDbEntity
  8
AM_0
 48
0.0569022270726889
100
AcDbCircle
 10
-0.0000000000004592
 20
0.0000000000004614
 30
0.0
 40
5.159920769492397
100
AcDbArc
 50
310.832324334398
 51
319.1676756656019
  0
ARC
  5
153
330
10A
100
AcDbEntity
  8
AM_0
 48
0.0569022270726889
100
AcDbCircle
 10
0.0000000000003348
 20
0.0000000000003357
 30
0.0
 40
5.15992076949222
100
AcDbArc
 50
220.8323243343979
 51
229.1676756656021
  0
ARC
  5
154
330
10A
100
AcDbEntity
  8
AM_0
 48
0.0569022270726889
100
AcDbCircle
 10
0.0000000000004148
 20
-0.0000000000004206
 30
0.0
 40
5.159920769492336
100
AcDbArc
 50
130.832324334398
 51
139.1676756656019
  0
ARC
  5
155
330
10A
100
AcDbEntity
  8
AM_0
 48
0.0569022270726889
100
AcDbCircle
 10
-0.000000000000381
 20
-0.0000000000003788
 30
0.0
 40
5.159920769492283
100
AcDbArc
 50
40.83232433439797
 51
49.167675665602
  0
ARC
  5
156
330
10A
100
AcDbEntity
  8
AM_4
 48
0.0569022270726889
100
AcDbCircle
 10
0.0000000000000018
 20
-0.0000000000000004
 30
0.0
 40
5.126685102610598
100
AcDbArc
 50
319.1947424127866
 51
40.80525758721338
  0
ARC
  5
157
330
10A
100
AcDbEntity
  8
AM_4
 48
0.0569022270726889
100
AcDbCircle
 10
0.0000000000000007
 20
0.0
 30
0.0
 40
5.126685102610599
100
AcDbArc
 50
229.1947424127867
 51
310.8052575872133
  0
LINE
  5
158
330
10A
100
AcDbEntity
  8
AM_0
 48
0.0569022270726889
100
AcDbLine
 10
-0.9725784049934332
 20
2.837973087634982
 30
0.0
 11
-1.036308738693067
 21
2.991831723587202
 31
0.0
  0
LINE
  5
159
330
10A
100
AcDbEntity
  8
AM_0
 48
0.0569022270726889
100
AcDbLine
 10
-1.3827635633848
 20
2.848325436450293
 30
0.0
 11
-1.319033229685166
 21
2.694466800498073
 31
0.0
  0
ARC
  5
15A
330
10A
100
AcDbEntity
  8
AM_0
 48
0.0569022270726889
100
AcDbCircle
 10
-0.000000000000083
 20
0.0000000000002029
 30
0.0
 40
3.16622691292854
100
AcDbArc
 50
109.1050293004381
 51
115.8949706995619
  0
ARC
  5
15B
330
10A
100
AcDbEntity
  8
AM_4
 48
0.0569022270726889
100
AcDbCircle
 10
-0.0000000000000009
 20
-0.0000000000000004
 30
0.0
 40
5.126685102610598
100
AcDbArc
 50
139.1947424127866
 51
220.8052575872133
  0
ARC
  5
15C
330
10A
100
AcDbEntity
  8
AM_4
 48
0.0569022270726889
100
AcDbCircle
 10
0.0000000000000002
 20
0.0000000000000009
 30
0.0
 40
5.126685102610598
100
AcDbArc
 50
49.19474241278664
 51
130.8052575872134
  0
ARC
  5
15D
330
10A
100
AcDbEntity
  8
AM_0
 48
0.0569022270726889
100
AcDbCircle
 10
0.0000000000000088
 20
0.0000000000000039
 30
0.0
 40
3.0
100
AcDbArc
 50
116.0833216984721
 51
108.9166783015282
  0
CIRCLE
  5
15E
330
10A
100
AcDbEntity
  8
AM_0
 48
0.0569022270726889
100
AcDbCircle
 10
0.0000000000001481
 20
-0.0000000000003415
 30
0.0
 40
3.157894736842477
  0
ENDBLK
  5
10D
330
10A
100
AcDbEntity
  8
0
100
AcDbBlockEnd
  0
ENDSEC
  0
SECTION
  2
ENTITIES
  0
ATTDEF
  5
6F
330
1F
100
AcDbEntity
  8
AM_6
100
AcDbText
 10
10.9940825
 20
5.994082499999998
 30
0.0
 40
0.5
  1
INS-IP-507-700 -Inch
100
AcDbAttributeDefinition
  3

  2
NN
 70
     8
280
     0
  0
ATTDEF
  5
70
330
1F
100
AcDbEntity
  8
AM_6
100
AcDbText
 10
10.9940825
 20
5.494082499999998
 30
0.0
 40
0.5
  1
Imperial Insert 507-700 Inch Bore
100
AcDbAttributeDefinition
  3

  2
NT
 70
     8
280
     0
  0
ATTDEF
  5
71
330
1F
100
AcDbEntity
  8
AM_6
100
AcDbText
 10
10.9940825
 20
4.994082499999998
 30
0.0
 40
0.5
  1
037928
100
AcDbAttributeDefinition
  3

  2
NB
 70
     8
280
     0
  0
ATTDEF
  5
72
330
1F
100
AcDbEntity
  8
AM_6
100
AcDbText
 10
10.9940825
 20
4.494082499999998
 30
0.0
 40
0.5
  1
$PN.
100
AcDbAttributeDefinition
  3

  2
NBSYN
 70
     8
280
     0
  0
ATTDEF
  5
73
330
1F
100
AcDbEntity
  8
AM_6
100
AcDbText
 10
10.9940825
 20
3.994082499999998
 30
0.0
 40
0.5
  1
037928
100
AcDbAttributeDefinition
  3

  2
LINA
 70
     8
280
     0
  0
ATTDEF
  5
74
330
1F
100
AcDbEntity
  8
AM_6
100
AcDbText
 10
10.9940825
 20
3.494082499999998
 30
0.0
 40
0.5
  1
6
100
AcDbAttributeDefinition
  3

  2
SS
 70
     8
280
     0
  0
ATTDEF
  5
75
330
1F
100
AcDbEntity
  8
AM_6
100
AcDbText
 10
10.9940825
 20
2.994082499999998
 30
0.0
 40
0.5
  1
037928
100
AcDbAttributeDefinition
  3

  2
PN
 70
     8
280
     0
  0
ATTDEF
  5
76
330
1F
100
AcDbEntity
  8
AM_6
100
AcDbText
 10
10.9940825
 20
2.494082499999998
 30
0.0
 40
0.5
  1
INS-IP-600R
100
AcDbAttributeDefinition
  3

  2
DESCRIPTION
 70
     8
280
     0
  0
ATTDEF
  5
77
330
1F
100
AcDbEntity
  8
AM_6
100
AcDbText
 10
10.9940825
 20
1.994082499999998
 30
0.0
 40
0.5
  1
Contact Seal
100
AcDbAttributeDefinition
  3

  2
ST
 70
     8
280
     0
  0
ATTDEF
  5
78
330
1F
100
AcDbEntity
  8
AM_6
100
AcDbText
 10
10.9940825
 20
1.494082499999998
 30
0.0
 40
0.5
  1
11.4173
100
AcDbAttributeDefinition
  3

  2
A
 70
     8
280
     0
  0
ATTDEF
  5
79
330
1F
100
AcDbEntity
  8
AM_6
100
AcDbText
 10
10.9940825
 20
0.9940824999999975
 30
0.0
 40
0.5
  1
3-7/32
100
AcDbAttributeDefinition
  3

  2
B
 70
     8
280
     0
  0
ATTDEF
  5
7A
330
1F
100
AcDbEntity
  8
AM_6
100
AcDbText
 10
10.9940825
 20
0.4940824999999975
 30
0.0
 40
0.5
  1
7-5/64
100
AcDbAttributeDefinition
  3

  2
C
 70
     8
280
     0
  0
ATTDEF
  5
7B
330
1F
100
AcDbEntity
  8
AM_6
100
AcDbText
 10
10.9940825
 20
-0.0059175000000025
 30
0.0
 40
0.5
  1
2.768
100
AcDbAttributeDefinition
  3

  2
D
 70
     8
280
     0
  0
ATTDEF
  5
7C
330
1F
100
AcDbEntity
  8
AM_6
100
AcDbText
 10
10.9940825
 20
-0.5059175000000025
 30
0.0
 40
0.5
  1
10-1/4
100
AcDbAttributeDefinition
  3

  2
E
 70
     8
280
     0
  0
ATTDEF
  5
7D
330
1F
100
AcDbEntity
  8
AM_6
100
AcDbText
 10
10.9940825
 20
-1.005917500000002
 30
0.0
 40
0.5
  1
baldor
100
AcDbAttributeDefinition
  3

  2
COMPANY
 70
     8
280
     0
  0
INSERT
  5
7F
330
1F
100
AcDbEntity
  8
0
100
AcDbBlockReference
  2
1_ASME_B18_3_3_8_1_0_in_037928_2
 10
0.0
 20
0.0
 30
0.0
  0
INSERT
  5
A2
330
1F
100
AcDbEntity
  8
0
100
AcDbBlockReference
  2
2_ASME_B18_3_3_8_2_0_in_037928_2
 10
0.0
 20
0.0
 30
0.0
  0
INSERT
  5
BE
330
1F
100
AcDbEntity
  8
0
100
AcDbBlockReference
  2
3_037928LW_0_in_037928_2
 10
0.0
 20
0.0
 30
0.0
  0
INSERT
  5
10B
330
1F
100
AcDbEntity
  8
0
100
AcDbBlockReference
  2
4_037928I_0_in_037928_2
 10
0.0
 20
0.0
 30
0.0
  0
POINT
  5
160
330
1F
100
AcDbEntity
  8
ConnectionPoints
100
AcDbPoint
 10
0.0000000000000003
 20
4.229166666666666
 30
4.091125000000001
  0
POINT
  5
161
330
1F
100
AcDbEntity
  8
ConnectionPoints
100
AcDbPoint
 10
0.0000000000000002
 20
0.0
 30
3.778791666666667
  0
POINT
  5
162
330
1F
100
AcDbEntity
  8
ConnectionPoints
100
AcDbPoint
 10
0.0000000000000003
 20
0.0
 30
4.310125
  0
POINT
  5
163
330
1F
100
AcDbEntity
  8
ConnectionPoints
100
AcDbPoint
 10
0.0000000000000002
 20
0.0
 30
3.977791666666667
  0
POINT
  5
164
330
1F
100
AcDbEntity
  8
ConnectionPoints
100
AcDbPoint
 10
0.0000000000000002
 20
4.229166666666666
 30
3.778791666666667
  0
POINT
  5
165
330
1F
100
AcDbEntity
  8
ConnectionPoints
100
AcDbPoint
 10
0.0000000000000003
 20
4.229166666666666
 30
4.111125
  0
POINT
  5
166
330
1F
100
AcDbEntity
  8
ConnectionPoints
100
AcDbPoint
 10
0.0000000000000002
 20
-4.229166666666666
 30
3.778791666666667
  0
POINT
  5
167
330
1F
100
AcDbEntity
  8
ConnectionPoints
100
AcDbPoint
 10
0.0000000000000003
 20
-4.229166666666666
 30
4.111125
  0
POINT
  5
168
330
1F
100
AcDbEntity
  8
ConnectionPoints
100
AcDbPoint
 10
0.0000000000000002
 20
0.0
 30
3.778791666666667
  0
ENDSEC
  0
SECTION
  2
OBJECTS
  0
DICTIONARY
  5
C
330
0
100
AcDbDictionary
281
     1
  3
ACAD_DETAILVIEWSTYLE
350
170
  3
ACAD_GROUP
350
D
  3
ACAD_LAYOUT
350
1A
  3
ACAD_MATERIAL
350
43
  3
ACAD_MLEADERSTYLE
350
6B
  3
ACAD_MLINESTYLE
350
17
  3
ACAD_PLOTSETTINGS
350
19
  3
ACAD_PLOTSTYLENAME
350
E
  3
ACAD_SCALELIST
350
47
  3
ACAD_SECTIONVIEWSTYLE
350
171
  3
ACAD_TABLESTYLE
350
69
  3
ACAD_VISUALSTYLE
350
2A
  3
ACDB_RECOMPOSE_DATA
350
16D
  3
AcDbVariableDictionary
350
169
  0
SUN
  5
6D
330
29
100
AcDbSun
 90
        1
290
     0
 63
     7
421
 16777215
 40
1.0
291
     1
 91
  2455826
 92
 54000000
292
     0
 70
     2
 71
   256
280
     1
  0
DICTIONARY
  5
170
102
{ACAD_REACTORS
330
C
102
}
330
C
100
AcDbDictionary
281
     1
  0
DICTIONARY
  5
D
102
{ACAD_REACTORS
330
C
102
}
330
C
100
AcDbDictionary
281
     1
  0
DICTIONARY
  5
1A
102
{ACAD_REACTORS
330
C
102
}
330
C
100
AcDbDictionary
281
     1
  3
Layout1
350
1E
  3
Layout2
350
26
  3
Model
350
22
  0
DICTIONARY
  5
43
102
{ACAD_REACTORS
330
C
102
}
330
C
100
AcDbDictionary
281
     1
  3
ByBlock
350
45
  3
ByLayer
350
44
  3
Global
350
46
  0
DICTIONARY
  5
6B
102
{ACAD_REACTORS
330
C
102
}
330
C
100
AcDbDictionary
281
     1
  3
Standard
350
6C
  0
DICTIONARY
  5
17
102
{ACAD_REACTORS
330
C
102
}
330
C
100
AcDbDictionary
281
     1
  3
Standard
350
18
  0
DICTIONARY
  5
19
102
{ACAD_REACTORS
330
C
102
}
330
C
100
AcDbDictionary
281
     1
  0
ACDBDICTIONARYWDFLT
  5
E
102
{ACAD_REACTORS
330
C
102
}
330
C
100
AcDbDictionary
281
     1
  3
Normal
350
F
100
AcDbDictionaryWithDefault
340
F
  0
DICTIONARY
  5
47
102
{ACAD_REACTORS
330
C
102
}
330
C
100
AcDbDictionary
281
     1
  3
A0
350
48
  3
A1
350
49
  3
A2
350
4A
  3
A3
350
4B
  3
A4
350
4C
  3
A5
350
4D
  3
A6
350
4E
  3
A7
350
4F
  3
A8
350
50
  3
A9
350
51
  3
B0
350
52
  3
B1
350
53
  3
B2
350
54
  3
B3
350
55
  3
B4
350
56
  3
B5
350
57
  3
B6
350
58
  3
B7
350
59
  3
B8
350
5A
  3
B9
350
5B
  3
C0
350
5C
  3
C1
350
5D
  3
C2
350
5E
  3
C3
350
5F
  3
C4
350
60
  3
C5
350
61
  3
C6
350
62
  3
C7
350
63
  3
C8
350
64
  3
C9
350
65
  3
D0
350
66
  3
D1
350
67
  3
D2
350
68
  0
DICTIONARY
  5
171
102
{ACAD_REACTORS
330
C
102
}
330
C
100
AcDbDictionary
281
     1
  0
DICTIONARY
  5
69
102
{ACAD_REACTORS
330
C
102
}
330
C
100
AcDbDictionary
281
     1
  3
Standard
350
6A
  0
DICTIONARY
  5
2A
102
{ACAD_REACTORS
330
C
102
}
330
C
100
AcDbDictionary
281
     1
  3
2dWireframe
350
2F
  3
Basic
350
32
  3
Brighten
350
36
  3
ColorChange
350
3A
  3
Conceptual
350
34
  3
Dim
350
35
  3
EdgeColorOff
350
3D
  3
Facepattern
350
39
  3
Flat
350
2B
  3
FlatWithEdges
350
2C
  3
Gouraud
350
2D
  3
GouraudWithEdges
350
2E
  3
Hidden
350
31
  3
JitterOff
350
3B
  3
Linepattern
350
38
  3
OverhangOff
350
3C
  3
Realistic
350
33
  3
Shaded
350
42
  3
Shaded with edges
350
41
  3
Shades of Gray
350
3E
  3
Sketchy
350
3F
  3
Thicken
350
37
  3
Wireframe
350
30
  3
X-Ray
350
40
  0
XRECORD
  5
16D
102
{ACAD_REACTORS
330
C
102
}
330
C
100
AcDbXrecord
280
     1
 90
        1
330
6A
  0
DICTIONARY
  5
169
102
{ACAD_REACTORS
330
C
102
}
330
C
100
AcDbDictionary
281
     1
  3
CANNOSCALE
350
16A
  3
CMLEADERSTYLE
350
16F
  3
CTABLESTYLE
350
16E
  0
LAYOUT
  5
1E
102
{ACAD_REACTORS
330
1A
102
}
330
1A
100
AcDbPlotSettings
  1

  2
none_device
  4

  6

 40
0.0
 41
0.0
 42
0.0
 43
0.0
 44
0.0
 45
0.0
 46
0.0
 47
0.0
 48
0.0
 49
0.0
140
0.0
141
0.0
142
1.0
143
1.0
 70
   688
 72
     0
 73
     0
 74
     5
  7

 75
    16
 76
     0
 77
     2
 78
   300
147
1.0
148
0.0
149
0.0
100
AcDbLayout
  1
Layout1
 70
     1
 71
     1
 10
0.0
 20
0.0
 11
12.0
 21
9.0
 12
0.0
 22
0.0
 32
0.0
 14
1.000000000000000E+20
 24
1.000000000000000E+20
 34
1.000000000000000E+20
 15
-1.000000000000000E+20
 25
-1.000000000000000E+20
 35
-1.000000000000000E+20
146
0.0
 13
0.0
 23
0.0
 33
0.0
 16
1.0
 26
0.0
 36
0.0
 17
0.0
 27
1.0
 37
0.0
 76
     0
330
1B
  0
LAYOUT
  5
26
102
{ACAD_REACTORS
330
1A
102
}
330
1A
100
AcDbPlotSettings
  1

  2
none_device
  4

  6

 40
0.0
 41
0.0
 42
0.0
 43
0.0
 44
0.0
 45
0.0
 46
0.0
 47
0.0
 48
0.0
 49
0.0
140
0.0
141
0.0
142
1.0
143
1.0
 70
   688
 72
     0
 73
     0
 74
     5
  7

 75
    16
 76
     0
 77
     2
 78
   300
147
1.0
148
0.0
149
0.0
100
AcDbLayout
  1
Layout2
 70
     1
 71
     2
 10
0.0
 20
0.0
 11
0.0
 21
0.0
 12
0.0
 22
0.0
 32
0.0
 14
0.0
 24
0.0
 34
0.0
 15
0.0
 25
0.0
 35
0.0
146
0.0
 13
0.0
 23
0.0
 33
0.0
 16
1.0
 26
0.0
 36
0.0
 17
0.0
 27
1.0
 37
0.0
 76
     0
330
23
  0
LAYOUT
  5
22
102
{ACAD_REACTORS
330
1A
102
}
330
1A
100
AcDbPlotSettings
  1

  2
none_device
  4
Letter_(8.50_x_11.00_Inches)
  6

 40
6.35
 41
6.35
 42
6.35000508
 43
6.35000508
 44
215.9
 45
279.4
 46
0.0
 47
0.0
 48
0.0
 49
0.0
140
0.0
141
0.0
142
1.0
143
1.0
 70
  1712
 72
     0
 73
     0
 74
     0
  7

 75
     0
 76
     0
 77
     2
 78
   300
147
1.0
148
0.0
149
0.0
100
AcDbLayout
  1
Model
 70
     1
 71
     0
 10
0.0
 20
0.0
 11
12.0
 21
9.0
 12
0.0
 22
0.0
 32
0.0
 14
1.000000000000000E+20
 24
1.000000000000000E+20
 34
1.000000000000000E+20
 15
-1.000000000000000E+20
 25
-1.000000000000000E+20
 35
-1.000000000000000E+20
146
0.0
 13
0.0
 23
0.0
 33
0.0
 16
1.0
 26
0.0
 36
0.0
 17
0.0
 27
1.0
 37
0.0
 76
     0
330
1F
331
29
  0
MATERIAL
  5
45
102
{ACAD_REACTORS
330
43
102
}
330
43
100
AcDbMaterial
  1
ByBlock
 72
     1
 94
      127
  0
MATERIAL
  5
44
102
{ACAD_REACTORS
330
43
102
}
330
43
100
AcDbMaterial
  1
ByLayer
 72
     1
 94
      127
  0
MATERIAL
  5
46
102
{ACAD_REACTORS
330
43
102
}
330
43
100
AcDbMaterial
  1
Global
 72
     1
 94
      127
  0
MLEADERSTYLE
  5
6C
102
{ACAD_REACTORS
330
6B
102
}
330
6B
100
AcDbMLeaderStyle
179
     2
170
     2
171
     1
172
     0
 90
        2
 40
0.0
 41
0.0
173
     1
 91
-1056964608
340
14
 92
       -2
290
     1
 42
0.09
291
     1
 43
0.36
  3
Standard
341
0
 44
0.18
300

342
11
174
     1
178
     6
175
     1
176
     0
 93
-1056964608
 45
0.18
292
     0
297
     0
 46
0.18
343
0
 94
-1056964608
 47
1.0
 49
1.0
140
1.0
293
     1
141
0.0
294
     1
177
     0
142
1.0
295
     0
296
     0
143
0.125
271
     0
272
     9
273
     9
298
     0
  0
MLINESTYLE
  5
18
102
{ACAD_REACTORS
330
17
102
}
330
17
100
AcDbMlineStyle
  2
Standard
 70
     0
  3

 62
   256
 51
90.0
 52
90.0
 71
     2
 49
0.5
 62
   256
  6
BYLAYER
 49
-0.5
 62
   256
  6
BYLAYER
  0
ACDBPLACEHOLDER
  5
F
102
{ACAD_REACTORS
330
E
102
}
330
E
  0
SCALE
  5
48
102
{ACAD_REACTORS
330
47
102
}
330
47
100
AcDbScale
 70
     0
300
1:1
140
1.0
141
1.0
290
     1
  0
SCALE
  5
49
102
{ACAD_REACTORS
330
47
102
}
330
47
100
AcDbScale
 70
     0
300
1:2
140
1.0
141
2.0
290
     0
  0
SCALE
  5
4A
102
{ACAD_REACTORS
330
47
102
}
330
47
100
AcDbScale
 70
     0
300
1:4
140
1.0
141
4.0
290
     0
  0
SCALE
  5
4B
102
{ACAD_REACTORS
330
47
102
}
330
47
100
AcDbScale
 70
     0
300
1:5
140
1.0
141
5.0
290
     0
  0
SCALE
  5
4C
102
{ACAD_REACTORS
330
47
102
}
330
47
100
AcDbScale
 70
     0
300
1:8
140
1.0
141
8.0
290
     0
  0
SCALE
  5
4D
102
{ACAD_REACTORS
330
47
102
}
330
47
100
AcDbScale
 70
     0
300
1:10
140
1.0
141
10.0
290
     0
  0
SCALE
  5
4E
102
{ACAD_REACTORS
330
47
102
}
330
47
100
AcDbScale
 70
     0
300
1:16
140
1.0
141
16.0
290
     0
  0
SCALE
  5
4F
102
{ACAD_REACTORS
330
47
102
}
330
47
100
AcDbScale
 70
     0
300
1:20
140
1.0
141
20.0
290
     0
  0
SCALE
  5
50
102
{ACAD_REACTORS
330
47
102
}
330
47
100
AcDbScale
 70
     0
300
1:30
140
1.0
141
30.0
290
     0
  0
SCALE
  5
51
102
{ACAD_REACTORS
330
47
102
}
330
47
100
AcDbScale
 70
     0
300
1:40
140
1.0
141
40.0
290
     0
  0
SCALE
  5
52
102
{ACAD_REACTORS
330
47
102
}
330
47
100
AcDbScale
 70
     0
300
1:50
140
1.0
141
50.0
290
     0
  0
SCALE
  5
53
102
{ACAD_REACTORS
330
47
102
}
330
47
100
AcDbScale
 70
     0
300
1:100
140
1.0
141
100.0
290
     0
  0
SCALE
  5
54
102
{ACAD_REACTORS
330
47
102
}
330
47
100
AcDbScale
 70
     0
300
2:1
140
2.0
141
1.0
290
     0
  0
SCALE
  5
55
102
{ACAD_REACTORS
330
47
102
}
330
47
100
AcDbScale
 70
     0
300
4:1
140
4.0
141
1.0
290
     0
  0
SCALE
  5
56
102
{ACAD_REACTORS
330
47
102
}
330
47
100
AcDbScale
 70
     0
300
8:1
140
8.0
141
1.0
290
     0
  0
SCALE
  5
57
102
{ACAD_REACTORS
330
47
102
}
330
47
100
AcDbScale
 70
     0
300
10:1
140
10.0
141
1.0
290
     0
  0
SCALE
  5
58
102
{ACAD_REACTORS
330
47
102
}
330
47
100
AcDbScale
 70
     0
300
100:1
140
100.0
141
1.0
290
     0
  0
SCALE
  5
59
102
{ACAD_REACTORS
330
47
102
}
330
47
100
AcDbScale
 70
     0
300
1/128" = 1'-0"
140
0.0078125
141
12.0
290
     0
  0
SCALE
  5
5A
102
{ACAD_REACTORS
330
47
102
}
330
47
100
AcDbScale
 70
     0
300
1/64" = 1'-0"
140
0.015625
141
12.0
290
     0
  0
SCALE
  5
5B
102
{ACAD_REACTORS
330
47
102
}
330
47
100
AcDbScale
 70
     0
300
1/32" = 1'-0"
140
0.03125
141
12.0
290
     0
  0
SCALE
  5
5C
102
{ACAD_REACTORS
330
47
102
}
330
47
100
AcDbScale
 70
     0
300
1/16" = 1'-0"
140
0.0625
141
12.0
290
     0
  0
SCALE
  5
5D
102
{ACAD_REACTORS
330
47
102
}
330
47
100
AcDbScale
 70
     0
300
3/32" = 1'-0"
140
0.09375
141
12.0
290
     0
  0
SCALE
  5
5E
102
{ACAD_REACTORS
330
47
102
}
330
47
100
AcDbScale
 70
     0
300
1/8" = 1'-0"
140
0.125
141
12.0
290
     0
  0
SCALE
  5
5F
102
{ACAD_REACTORS
330
47
102
}
330
47
100
AcDbScale
 70
     0
300
3/16" = 1'-0"
140
0.1875
141
12.0
290
     0
  0
SCALE
  5
60
102
{ACAD_REACTORS
330
47
102
}
330
47
100
AcDbScale
 70
     0
300
1/4" = 1'-0"
140
0.25
141
12.0
290
     0
  0
SCALE
  5
61
102
{ACAD_REACTORS
330
47
102
}
330
47
100
AcDbScale
 70
     0
300
3/8" = 1'-0"
140
0.375
141
12.0
290
     0
  0
SCALE
  5
62
102
{ACAD_REACTORS
330
47
102
}
330
47
100
AcDbScale
 70
     0
300
1/2" = 1'-0"
140
0.5
141
12.0
290
     0
  0
SCALE
  5
63
102
{ACAD_REACTORS
330
47
102
}
330
47
100
AcDbScale
 70
     0
300
3/4" = 1'-0"
140
0.75
141
12.0
290
     0
  0
SCALE
  5
64
102
{ACAD_REACTORS
330
47
102
}
330
47
100
AcDbScale
 70
     0
300
1" = 1'-0"
140
1.0
141
12.0
290
     0
  0
SCALE
  5
65
102
{ACAD_REACTORS
330
47
102
}
330
47
100
AcDbScale
 70
     0
300
1-1/2" = 1'-0"
140
1.5
141
12.0
290
     0
  0
SCALE
  5
66
102
{ACAD_REACTORS
330
47
102
}
330
47
100
AcDbScale
 70
     0
300
3" = 1'-0"
140
3.0
141
12.0
290
     0
  0
SCALE
  5
67
102
{ACAD_REACTORS
330
47
102
}
330
47
100
AcDbScale
 70
     0
300
6" = 1'-0"
140
6.0
141
12.0
290
     0
  0
SCALE
  5
68
102
{ACAD_REACTORS
330
47
102
}
330
47
100
AcDbScale
 70
     0
300
1'-0" = 1'-0"
140
12.0
141
12.0
290
     0
  0
TABLESTYLE
  5
6A
102
{ACAD_REACTORS
330
69
102
}
102
{ACAD_XDICTIONARY
360
16B
102
}
330
69
100
AcDbTableStyle
  3
Standard
 70
     0
 71
     0
 40
0.06
 41
0.06
280
     0
281
     0
  7
Standard
140
0.18
170
     2
 62
     0
 63
   257
283
     0
 90
        4
 91
        0
  1

274
    -2
284
     1
 64
     0
275
    -2
285
     1
 65
     0
276
    -2
286
     1
 66
     0
277
    -2
287
     1
 67
     0
278
    -2
288
     1
 68
     0
279
    -2
289
     1
 69
     0
  7
Standard
140
0.25
170
     5
 62
     0
 63
   257
283
     0
 90
        4
 91
        0
  1

274
    -2
284
     1
 64
     0
275
    -2
285
     1
 65
     0
276
    -2
286
     1
 66
     0
277
    -2
287
     1
 67
     0
278
    -2
288
     1
 68
     0
279
    -2
289
     1
 69
     0
  7
Standard
140
0.18
170
     5
 62
     0
 63
   257
283
     0
 90
        4
 91
        0
  1

274
    -2
284
     1
 64
     0
275
    -2
285
     1
 65
     0
276
    -2
286
     1
 66
     0
277
    -2
287
     1
 67
     0
278
    -2
288
     1
 68
     0
279
    -2
289
     1
 69
     0
  0
VISUALSTYLE
  5
2F
102
{ACAD_REACTORS
330
2A
102
}
330
2A
100
AcDbVisualStyle
  2
2dWireframe
 70
     4
177
     3
291
     0
 70
    58
 90
        0
176
     1
 90
        2
176
     1
 90
        0
176
     1
 90
        0
176
     1
 40
0.6
176
     1
 40
30.0
176
     1
 62
     7
420
 16777215
176
     1
 90
        1
176
     1
 90
        4
176
     1
 62
     7
176
     1
 62
   257
176
     1
 90
        1
176
     1
 90
        1
176
     1
 40
1.0
176
     1
 90
        0
176
     1
 62
   257
176
     1
 40
1.0
176
     1
 90
        1
176
     1
 90
        6
176
     1
 90
        2
176
     1
 62
     7
176
     1
 90
        5
176
     1
 90
        0
176
     1
 90
        0
176
     1
290
     0
176
     1
 90
        1
176
     1
 40
0.0
176
     1
 90
        0
176
     1
290
     1
176
     1
290
     1
176
     1
290
     0
176
     1
290
     0
176
     1
290
     0
176
     1
290
     0
176
     1
290
     0
176
     1
290
     0
176
     1
290
     0
176
     1
 90
       50
176
     1
 40
0.0
176
     1
 40
1.0
176
     1
 90
        0
176
     1
 62
    18
420
        0
176
     1
 90
       50
176
     1
 90
        3
176
     1
 62
     5
420
      255
176
     1
290
     0
176
     1
 90
       50
176
     1
 90
       50
176
     1
 90
       50
176
     1
290
     0
176
     1
 90
       50
176
     1
 62
   256
176
     0
 40
1.0
176
     0
 90
        2
176
     1
  1
strokes_ogs.tif
176
     1
290
     0
176
     1
 40
1.0
176
     1
 40
1.0
176
     1
  0
VISUALSTYLE
  5
32
102
{ACAD_REACTORS
330
2A
102
}
330
2A
100
AcDbVisualStyle
  2
Basic
 70
     7
177
     3
291
     1
 70
    58
 90
        1
176
     1
 90
        0
176
     1
 90
        1
176
     1
 90
        0
176
     1
 40
0.6
176
     1
 40
30.0
176
     1
 62
     7
420
 16777215
176
     1
 90
        0
176
     1
 90
        4
176
     1
 62
     7
176
     1
 62
   257
176
     1
 90
        1
176
     1
 90
        1
176
     1
 40
1.0
176
     1
 90
        8
176
     1
 62
     7
176
     1
 40
1.0
176
     1
 90
        1
176
     1
 90
        6
176
     1
 90
        2
176
     1
 62
     7
176
     1
 90
        5
176
     1
 90
        0
176
     1
 90
        0
176
     1
290
     0
176
     1
 90
        1
176
     1
 40
0.0
176
     1
 90
        0
176
     1
290
     0
176
     1
290
     1
176
     1
290
     1
176
     1
290
     0
176
     1
290
     0
176
     1
290
     0
176
     1
290
     0
176
     1
290
     0
176
     1
290
     0
176
     1
 90
       50
176
     1
 40
0.0
176
     1
 40
1.0
176
     1
 90
        0
176
     1
 62
    18
420
        0
176
     1
 90
       50
176
     1
 90
        3
176
     1
 62
     5
420
      255
176
     1
290
     0
176
     1
 90
       50
176
     1
 90
       50
176
     1
 90
       50
176
     1
290
     0
176
     1
 90
       50
176
     1
 62
   256
176
     0
 40
1.0
176
     0
 90
        2
176
     1
  1
strokes_ogs.tif
176
     1
290
     0
176
     1
 40
1.0
176
     1
 40
1.0
176
     1
  0
VISUALSTYLE
  5
36
102
{ACAD_REACTORS
330
2A
102
}
330
2A
100
AcDbVisualStyle
  2
Brighten
 70
    12
177
     3
291
     1
 70
    58
 90
        2
176
     1
 90
        2
176
     1
 90
        0
176
     1
 90
        0
176
     1
 40
0.6
176
     1
 40
30.0
176
     1
 62
     7
420
 16777215
176
     1
 90
        1
176
     1
 90
        4
176
     1
 62
     7
176
     1
 62
   257
176
     1
 90
        1
176
     1
 90
        1
176
     1
 40
1.0
176
     1
 90
        8
176
     1
 62
     7
176
     1
 40
1.0
176
     1
 90
        1
176
     1
 90
        6
176
     1
 90
        2
176
     1
 62
     7
176
     1
 90
        5
176
     1
 90
        0
176
     1
 90
        0
176
     1
290
     0
176
     1
 90
        1
176
     1
 40
50.0
176
     1
 90
        0
176
     1
290
     0
176
     1
290
     1
176
     1
290
     1
176
     1
290
     0
176
     1
290
     0
176
     1
290
     0
176
     1
290
     0
176
     1
290
     0
176
     1
290
     0
176
     1
 90
       50
176
     1
 40
0.0
176
     1
 40
1.0
176
     1
 90
        0
176
     1
 62
    18
420
        0
176
     1
 90
       50
176
     1
 90
        3
176
     1
 62
     5
420
      255
176
     1
290
     0
176
     1
 90
       50
176
     1
 90
       50
176
     1
 90
       50
176
     1
290
     0
176
     1
 90
       50
176
     1
 62
   256
176
     0
 40
1.0
176
     0
 90
        2
176
     1
  1
strokes_ogs.tif
176
     1
290
     0
176
     1
 40
1.0
176
     1
 40
1.0
176
     1
  0
VISUALSTYLE
  5
3A
102
{ACAD_REACTORS
330
2A
102
}
330
2A
100
AcDbVisualStyle
  2
ColorChange
 70
    16
177
     3
291
     1
 70
    58
 90
        2
176
     1
 90
        2
176
     1
 90
        3
176
     1
 90
        0
176
     1
 40
0.6
176
     1
 40
30.0
176
     1
 62
     8
420
  8421504
176
     1
 90
        1
176
     1
 90
        4
176
     1
 62
     7
176
     1
 62
   257
176
     1
 90
        1
176
     1
 90
        1
176
     1
 40
1.0
176
     1
 90
        8
176
     1
 62
     8
420
  8421504
176
     1
 40
1.0
176
     1
 90
        1
176
     1
 90
        6
176
     1
 90
        2
176
     1
 62
     7
176
     1
 90
        5
176
     1
 90
        0
176
     1
 90
        0
176
     1
290
     0
176
     1
 90
        1
176
     1
 40
0.0
176
     1
 90
        0
176
     1
290
     0
176
     1
290
     1
176
     1
290
     1
176
     1
290
     0
176
     1
290
     0
176
     1
290
     0
176
     1
290
     0
176
     1
290
     0
176
     1
290
     0
176
     1
 90
       50
176
     1
 40
0.0
176
     1
 40
1.0
176
     1
 90
        0
176
     1
 62
    18
420
        0
176
     1
 90
       50
176
     1
 90
        3
176
     1
 62
     5
420
      255
176
     1
290
     0
176
     1
 90
       50
176
     1
 90
       50
176
     1
 90
       50
176
     1
290
     0
176
     1
 90
       50
176
     1
 62
   256
176
     0
 40
1.0
176
     0
 90
        2
176
     1
  1
strokes_ogs.tif
176
     1
290
     0
176
     1
 40
1.0
176
     1
 40
1.0
176
     1
  0
VISUALSTYLE
  5
34
102
{ACAD_REACTORS
330
2A
102
}
330
2A
100
AcDbVisualStyle
  2
Conceptual
 70
     9
177
     3
291
     0
 70
    58
 90
        3
176
     1
 90
        2
176
     1
 90
        0
176
     1
 90
        0
176
     1
 40
0.6
176
     1
 40
30.0
176
     1
 62
     7
420
 16777215
176
     1
 90
        2
176
     1
 90
        2
176
     1
 62
     7
176
     1
 62
   257
176
     1
 90
        1
176
     1
 90
        1
176
     1
 40
179.0
176
     1
 90
        8
176
     1
 62
     7
176
     1
 40
1.0
176
     1
 90
        1
176
     1
 90
        6
176
     1
 90
        2
176
     1
 62
     7
176
     1
 90
        3
176
     1
 90
        0
176
     1
 90
        0
176
     1
290
     0
176
     1
 90
        1
176
     1
 40
0.0
176
     1
 90
        0
176
     1
290
     0
176
     1
290
     1
176
     1
290
     1
176
     1
290
     0
176
     1
290
     0
176
     1
290
     0
176
     1
290
     0
176
     1
290
     0
176
     1
290
     0
176
     1
 90
       50
176
     1
 40
0.0
176
     1
 40
1.0
176
     1
 90
        0
176
     1
 62
    18
420
        0
176
     1
 90
       50
176
     1
 90
        3
176
     1
 62
     5
420
      255
176
     1
290
     0
176
     1
 90
       50
176
     1
 90
       50
176
     1
 90
       50
176
     1
290
     0
176
     1
 90
       50
176
     1
 62
   256
176
     0
 40
1.0
176
     0
 90
        2
176
     1
  1
strokes_ogs.tif
176
     1
290
     0
176
     1
 40
1.0
176
     1
 40
1.0
176
     1
  0
VISUALSTYLE
  5
35
102
{ACAD_REACTORS
330
2A
102
}
330
2A
100
AcDbVisualStyle
  2
Dim
 70
    11
177
     3
291
     1
 70
    58
 90
        2
176
     1
 90
        2
176
     1
 90
        0
176
     1
 90
        0
176
     1
 40
0.6
176
     1
 40
30.0
176
     1
 62
     7
420
 16777215
176
     1
 90
        1
176
     1
 90
        4
176
     1
 62
     7
176
     1
 62
   257
176
     1
 90
        1
176
     1
 90
        1
176
     1
 40
1.0
176
     1
 90
        8
176
     1
 62
     7
176
     1
 40
1.0
176
     1
 90
        1
176
     1
 90
        6
176
     1
 90
        2
176
     1
 62
     7
176
     1
 90
        5
176
     1
 90
        0
176
     1
 90
        0
176
     1
290
     0
176
     1
 90
        1
176
     1
 40
-50.0
176
     1
 90
        0
176
     1
290
     0
176
     1
290
     1
176
     1
290
     1
176
     1
290
     0
176
     1
290
     0
176
     1
290
     0
176
     1
290
     0
176
     1
290
     0
176
     1
290
     0
176
     1
 90
       50
176
     1
 40
0.0
176
     1
 40
1.0
176
     1
 90
        0
176
     1
 62
    18
420
        0
176
     1
 90
       50
176
     1
 90
        3
176
     1
 62
     5
420
      255
176
     1
290
     0
176
     1
 90
       50
176
     1
 90
       50
176
     1
 90
       50
176
     1
290
     0
176
     1
 90
       50
176
     1
 62
   256
176
     0
 40
1.0
176
     0
 90
        2
176
     1
  1
strokes_ogs.tif
176
     1
290
     0
176
     1
 40
1.0
176
     1
 40
1.0
176
     1
  0
VISUALSTYLE
  5
3D
102
{ACAD_REACTORS
330
2A
102
}
330
2A
100
AcDbVisualStyle
  2
EdgeColorOff
 70
    22
177
     3
291
     1
 70
    58
 90
        2
176
     0
 90
        2
176
     0
 90
        0
176
     0
 90
        0
176
     0
 40
0.6
176
     0
 40
30.0
176
     0
 62
     7
420
 16777215
176
     0
 90
        1
176
     0
 90
        4
176
     0
 62
     7
176
     0
 62
   257
176
     0
 90
        1
176
     0
 90
        1
176
     0
 40
1.0
176
     0
 90
        8
176
     2
 62
     7
176
     0
 40
1.0
176
     0
 90
        1
176
     0
 90
        6
176
     0
 90
        2
176
     0
 62
     7
176
     0
 90
        5
176
     0
 90
        0
176
     0
 90
        0
176
     0
290
     0
176
     0
 90
        1
176
     0
 40
0.0
176
     0
 90
        0
176
     0
290
     0
176
     0
290
     1
176
     0
290
     1
176
     0
290
     0
176
     0
290
     0
176
     0
290
     0
176
     0
290
     0
176
     0
290
     0
176
     0
290
     0
176
     0
 90
       50
176
     0
 40
0.0
176
     0
 40
1.0
176
     0
 90
        0
176
     0
 62
    18
420
        0
176
     0
 90
       50
176
     0
 90
        3
176
     0
 62
     5
420
      255
176
     0
290
     0
176
     0
 90
       50
176
     0
 90
       50
176
     0
 90
       50
176
     0
290
     0
176
     0
 90
       50
176
     0
 62
   256
176
     0
 40
1.0
176
     0
 90
        2
176
     0
  1
strokes_ogs.tif
176
     0
290
     0
176
     0
 40
1.0
176
     0
 40
1.0
176
     0
  0
VISUALSTYLE
  5
39
102
{ACAD_REACTORS
330
2A
102
}
330
2A
100
AcDbVisualStyle
  2
Facepattern
 70
    15
177
     3
291
     1
 70
    58
 90
        2
176
     1
 90
        2
176
     1
 90
        0
176
     1
 90
        0
176
     1
 40
0.6
176
     1
 40
30.0
176
     1
 62
     7
420
 16777215
176
     1
 90
        1
176
     1
 90
        4
176
     1
 62
     7
176
     1
 62
   257
176
     1
 90
        1
176
     1
 90
        1
176
     1
 40
1.0
176
     1
 90
        8
176
     1
 62
     7
176
     1
 40
1.0
176
     1
 90
        1
176
     1
 90
        6
176
     1
 90
        2
176
     1
 62
     7
176
     1
 90
        5
176
     1
 90
        0
176
     1
 90
        0
176
     1
290
     0
176
     1
 90
        1
176
     1
 40
0.0
176
     1
 90
        0
176
     1
290
     0
176
     1
290
     1
176
     1
290
     1
176
     1
290
     0
176
     1
290
     0
176
     1
290
     0
176
     1
290
     0
176
     1
290
     0
176
     1
290
     0
176
     1
 90
       50
176
     1
 40
0.0
176
     1
 40
1.0
176
     1
 90
        0
176
     1
 62
    18
420
        0
176
     1
 90
       50
176
     1
 90
        3
176
     1
 62
     5
420
      255
176
     1
290
     0
176
     1
 90
       50
176
     1
 90
       50
176
     1
 90
       50
176
     1
290
     0
176
     1
 90
       50
176
     1
 62
   256
176
     0
 40
1.0
176
     0
 90
        2
176
     1
  1
strokes_ogs.tif
176
     1
290
     0
176
     1
 40
1.0
176
     1
 40
1.0
176
     1
  0
VISUALSTYLE
  5
2B
102
{ACAD_REACTORS
330
2A
102
}
330
2A
100
AcDbVisualStyle
  2
Flat
 70
     0
177
     3
291
     1
 70
    58
 90
        2
176
     1
 90
        1
176
     1
 90
        1
176
     1
 90
        2
176
     1
 40
0.6
176
     1
 40
30.0
176
     1
 62
     7
420
 16777215
176
     1
 90
        0
176
     1
 90
        0
176
     1
 62
     7
176
     1
 62
   257
176
     1
 90
        1
176
     1
 90
        1
176
     1
 40
1.0
176
     1
 90
        8
176
     1
 62
     7
176
     1
 40
1.0
176
     1
 90
        1
176
     1
 90
        6
176
     1
 90
        2
176
     1
 62
     7
176
     1
 90
        5
176
     1
 90
        0
176
     1
 90
        0
176
     1
290
     0
176
     1
 90
       13
176
     1
 40
0.0
176
     1
 90
        0
176
     1
290
     0
176
     1
290
     1
176
     1
290
     1
176
     1
290
     0
176
     1
290
     0
176
     1
290
     0
176
     1
290
     0
176
     1
290
     0
176
     1
290
     0
176
     1
 90
       50
176
     1
 40
0.0
176
     1
 40
1.0
176
     1
 90
        0
176
     1
 62
    18
420
        0
176
     1
 90
       50
176
     1
 90
        3
176
     1
 62
     5
420
      255
176
     1
290
     0
176
     1
 90
       50
176
     1
 90
       50
176
     1
 90
       50
176
     1
290
     0
176
     1
 90
       50
176
     1
 62
   256
176
     0
 40
1.0
176
     0
 90
        2
176
     1
  1
strokes_ogs.tif
176
     1
290
     0
176
     1
 40
1.0
176
     1
 40
1.0
176
     1
  0
VISUALSTYLE
  5
2C
102
{ACAD_REACTORS
330
2A
102
}
330
2A
100
AcDbVisualStyle
  2
FlatWithEdges
 70
     1
177
     3
291
     1
 70
    58
 90
        2
176
     1
 90
        1
176
     1
 90
        1
176
     1
 90
        2
176
     1
 40
0.6
176
     1
 40
30.0
176
     1
 62
     7
420
 16777215
176
     1
 90
        1
176
     1
 90
        0
176
     1
 62
     7
176
     1
 62
   257
176
     1
 90
        1
176
     1
 90
        1
176
     1
 40
1.0
176
     1
 90
        0
176
     1
 62
   257
176
     1
 40
1.0
176
     1
 90
        1
176
     1
 90
        6
176
     1
 90
        2
176
     1
 62
     7
176
     1
 90
        5
176
     1
 90
        0
176
     1
 90
        0
176
     1
290
     0
176
     1
 90
       13
176
     1
 40
0.0
176
     1
 90
        0
176
     1
290
     0
176
     1
290
     1
176
     1
290
     1
176
     1
290
     0
176
     1
290
     0
176
     1
290
     0
176
     1
290
     0
176
     1
290
     0
176
     1
290
     0
176
     1
 90
       50
176
     1
 40
0.0
176
     1
 40
1.0
176
     1
 90
        0
176
     1
 62
    18
420
        0
176
     1
 90
       50
176
     1
 90
        3
176
     1
 62
     5
420
      255
176
     1
290
     0
176
     1
 90
       50
176
     1
 90
       50
176
     1
 90
       50
176
     1
290
     0
176
     1
 90
       50
176
     1
 62
   256
176
     0
 40
1.0
176
     0
 90
        2
176
     1
  1
strokes_ogs.tif
176
     1
290
     0
176
     1
 40
1.0
176
     1
 40
1.0
176
     1
  0
VISUALSTYLE
  5
2D
102
{ACAD_REACTORS
330
2A
102
}
330
2A
100
AcDbVisualStyle
  2
Gouraud
 70
     2
177
     3
291
     1
 70
    58
 90
        2
176
     1
 90
        2
176
     1
 90
        1
176
     1
 90
        2
176
     1
 40
0.6
176
     1
 40
30.0
176
     1
 62
     7
420
 16777215
176
     1
 90
        0
176
     1
 90
        0
176
     1
 62
     7
176
     1
 62
   257
176
     1
 90
        1
176
     1
 90
        1
176
     1
 40
1.0
176
     1
 90
        0
176
     1
 62
     7
176
     1
 40
1.0
176
     1
 90
        1
176
     1
 90
        6
176
     1
 90
        2
176
     1
 62
     7
176
     1
 90
        5
176
     1
 90
        0
176
     1
 90
        0
176
     1
290
     0
176
     1
 90
       13
176
     1
 40
0.0
176
     1
 90
        0
176
     1
290
     0
176
     1
290
     1
176
     1
290
     1
176
     1
290
     0
176
     1
290
     0
176
     1
290
     0
176
     1
290
     0
176
     1
290
     0
176
     1
290
     0
176
     1
 90
       50
176
     1
 40
0.0
176
     1
 40
1.0
176
     1
 90
        0
176
     1
 62
    18
420
        0
176
     1
 90
       50
176
     1
 90
        3
176
     1
 62
     5
420
      255
176
     1
290
     0
176
     1
 90
       50
176
     1
 90
       50
176
     1
 90
       50
176
     1
290
     0
176
     1
 90
       50
176
     1
 62
   256
176
     0
 40
1.0
176
     0
 90
        2
176
     1
  1
strokes_ogs.tif
176
     1
290
     0
176
     1
 40
1.0
176
     1
 40
1.0
176
     1
  0
VISUALSTYLE
  5
2E
102
{ACAD_REACTORS
330
2A
102
}
330
2A
100
AcDbVisualStyle
  2
GouraudWithEdges
 70
     3
177
     3
291
     1
 70
    58
 90
        2
176
     1
 90
        2
176
     1
 90
        1
176
     1
 90
        2
176
     1
 40
0.6
176
     1
 40
30.0
176
     1
 62
     7
420
 16777215
176
     1
 90
        1
176
     1
 90
        0
176
     1
 62
     7
176
     1
 62
   257
176
     1
 90
        1
176
     1
 90
        1
176
     1
 40
1.0
176
     1
 90
        0
176
     1
 62
   257
176
     1
 40
1.0
176
     1
 90
        1
176
     1
 90
        6
176
     1
 90
        2
176
     1
 62
     7
176
     1
 90
        5
176
     1
 90
        0
176
     1
 90
        0
176
     1
290
     0
176
     1
 90
       13
176
     1
 40
0.0
176
     1
 90
        0
176
     1
290
     0
176
     1
290
     1
176
     1
290
     1
176
     1
290
     0
176
     1
290
     0
176
     1
290
     0
176
     1
290
     0
176
     1
290
     0
176
     1
290
     0
176
     1
 90
       50
176
     1
 40
0.0
176
     1
 40
1.0
176
     1
 90
        0
176
     1
 62
    18
420
        0
176
     1
 90
       50
176
     1
 90
        3
176
     1
 62
     5
420
      255
176
     1
290
     0
176
     1
 90
       50
176
     1
 90
       50
176
     1
 90
       50
176
     1
290
     0
176
     1
 90
       50
176
     1
 62
   256
176
     0
 40
1.0
176
     0
 90
        2
176
     1
  1
strokes_ogs.tif
176
     1
290
     0
176
     1
 40
1.0
176
     1
 40
1.0
176
     1
  0
VISUALSTYLE
  5
31
102
{ACAD_REACTORS
330
2A
102
}
330
2A
100
AcDbVisualStyle
  2
Hidden
 70
     6
177
     3
291
     0
 70
    58
 90
        1
176
     1
 90
        2
176
     1
 90
        2
176
     1
 90
        0
176
     1
 40
0.6
176
     1
 40
30.0
176
     1
 62
     7
420
 16777215
176
     1
 90
        2
176
     1
 90
        2
176
     1
 62
     7
176
     1
 62
   257
176
     1
 90
        2
176
     1
 90
        1
176
     1
 40
40.0
176
     1
 90
        0
176
     1
 62
   257
176
     1
 40
1.0
176
     1
 90
        1
176
     1
 90
        6
176
     1
 90
        2
176
     1
 62
     7
176
     1
 90
        3
176
     1
 90
        0
176
     1
 90
        0
176
     1
290
     0
176
     1
 90
        1
176
     1
 40
0.0
176
     1
 90
        0
176
     1
290
     0
176
     1
290
     1
176
     1
290
     1
176
     1
290
     0
176
     1
290
     0
176
     1
290
     0
176
     1
290
     0
176
     1
290
     0
176
     1
290
     0
176
     1
 90
       50
176
     1
 40
0.0
176
     1
 40
1.0
176
     1
 90
        0
176
     1
 62
    18
420
        0
176
     1
 90
       50
176
     1
 90
        3
176
     1
 62
     5
420
      255
176
     1
290
     0
176
     1
 90
       50
176
     1
 90
       50
176
     1
 90
       50
176
     1
290
     0
176
     1
 90
       50
176
     1
 62
   256
176
     0
 40
1.0
176
     0
 90
        2
176
     1
  1
strokes_ogs.tif
176
     1
290
     0
176
     1
 40
1.0
176
     1
 40
1.0
176
     1
  0
VISUALSTYLE
  5
3B
102
{ACAD_REACTORS
330
2A
102
}
330
2A
100
AcDbVisualStyle
  2
JitterOff
 70
    20
177
     3
291
     1
 70
    58
 90
        2
176
     0
 90
        2
176
     0
 90
        0
176
     0
 90
        0
176
     0
 40
0.6
176
     0
 40
30.0
176
     0
 62
     7
420
 16777215
176
     0
 90
        1
176
     0
 90
        4
176
     0
 62
     7
176
     0
 62
   257
176
     0
 90
        1
176
     0
 90
        1
176
     0
 40
1.0
176
     0
 90
       10
176
     2
 62
     7
176
     0
 40
1.0
176
     0
 90
        1
176
     0
 90
        6
176
     0
 90
        2
176
     0
 62
     7
176
     0
 90
        5
176
     0
 90
        0
176
     0
 90
        0
176
     0
290
     0
176
     0
 90
        1
176
     0
 40
0.0
176
     0
 90
        0
176
     0
290
     0
176
     0
290
     1
176
     0
290
     1
176
     0
290
     0
176
     0
290
     0
176
     0
290
     0
176
     0
290
     0
176
     0
290
     0
176
     0
290
     0
176
     0
 90
       50
176
     0
 40
0.0
176
     0
 40
1.0
176
     0
 90
        0
176
     0
 62
    18
420
        0
176
     0
 90
       50
176
     0
 90
        3
176
     0
 62
     5
420
      255
176
     0
290
     0
176
     0
 90
       50
176
     0
 90
       50
176
     0
 90
       50
176
     0
290
     0
176
     0
 90
       50
176
     0
 62
   256
176
     0
 40
1.0
176
     0
 90
        2
176
     0
  1
strokes_ogs.tif
176
     0
290
     0
176
     0
 40
1.0
176
     0
 40
1.0
176
     0
  0
VISUALSTYLE
  5
38
102
{ACAD_REACTORS
330
2A
102
}
330
2A
100
AcDbVisualStyle
  2
Linepattern
 70
    14
177
     3
291
     1
 70
    58
 90
        2
176
     1
 90
        2
176
     1
 90
        0
176
     1
 90
        0
176
     1
 40
0.6
176
     1
 40
30.0
176
     1
 62
     7
420
 16777215
176
     1
 90
        1
176
     1
 90
        4
176
     1
 62
     7
176
     1
 62
   257
176
     1
 90
        7
176
     1
 90
        7
176
     1
 40
1.0
176
     1
 90
        8
176
     1
 62
     7
176
     1
 40
1.0
176
     1
 90
        1
176
     1
 90
        6
176
     1
 90
        2
176
     1
 62
     7
176
     1
 90
        5
176
     1
 90
        0
176
     1
 90
        0
176
     1
290
     0
176
     1
 90
        1
176
     1
 40
0.0
176
     1
 90
        0
176
     1
290
     0
176
     1
290
     1
176
     1
290
     1
176
     1
290
     0
176
     1
290
     0
176
     1
290
     0
176
     1
290
     0
176
     1
290
     0
176
     1
290
     0
176
     1
 90
       50
176
     1
 40
0.0
176
     1
 40
1.0
176
     1
 90
        0
176
     1
 62
    18
420
        0
176
     1
 90
       50
176
     1
 90
        3
176
     1
 62
     5
420
      255
176
     1
290
     0
176
     1
 90
       50
176
     1
 90
       50
176
     1
 90
       50
176
     1
290
     0
176
     1
 90
       50
176
     1
 62
   256
176
     0
 40
1.0
176
     0
 90
        2
176
     1
  1
strokes_ogs.tif
176
     1
290
     0
176
     1
 40
1.0
176
     1
 40
1.0
176
     1
  0
VISUALSTYLE
  5
3C
102
{ACAD_REACTORS
330
2A
102
}
330
2A
100
AcDbVisualStyle
  2
OverhangOff
 70
    21
177
     3
291
     1
 70
    58
 90
        2
176
     0
 90
        2
176
     0
 90
        0
176
     0
 90
        0
176
     0
 40
0.6
176
     0
 40
30.0
176
     0
 62
     7
420
 16777215
176
     0
 90
        1
176
     0
 90
        4
176
     0
 62
     7
176
     0
 62
   257
176
     0
 90
        1
176
     0
 90
        1
176
     0
 40
1.0
176
     0
 90
        9
176
     2
 62
     7
176
     0
 40
1.0
176
     0
 90
        1
176
     0
 90
        6
176
     0
 90
        2
176
     0
 62
     7
176
     0
 90
        5
176
     0
 90
        0
176
     0
 90
        0
176
     0
290
     0
176
     0
 90
        1
176
     0
 40
0.0
176
     0
 90
        0
176
     0
290
     0
176
     0
290
     1
176
     0
290
     1
176
     0
290
     0
176
     0
290
     0
176
     0
290
     0
176
     0
290
     0
176
     0
290
     0
176
     0
290
     0
176
     0
 90
       50
176
     0
 40
0.0
176
     0
 40
1.0
176
     0
 90
        0
176
     0
 62
    18
420
        0
176
     0
 90
       50
176
     0
 90
        3
176
     0
 62
     5
420
      255
176
     0
290
     0
176
     0
 90
       50
176
     0
 90
       50
176
     0
 90
       50
176
     0
290
     0
176
     0
 90
       50
176
     0
 62
   256
176
     0
 40
1.0
176
     0
 90
        2
176
     0
  1
strokes_ogs.tif
176
     0
290
     0
176
     0
 40
1.0
176
     0
 40
1.0
176
     0
  0
VISUALSTYLE
  5
33
102
{ACAD_REACTORS
330
2A
102
}
330
2A
100
AcDbVisualStyle
  2
Realistic
 70
     8
177
     3
291
     0
 70
    58
 90
        2
176
     1
 90
        3
176
     1
 90
        0
176
     1
 90
        2
176
     1
 40
0.6
176
     1
 40
30.0
176
     1
 62
     7
420
 16777215
176
     1
 90
        0
176
     1
 90
        0
176
     1
 62
     7
176
     1
 62
   257
176
     1
 90
        1
176
     1
 90
        1
176
     1
 40
1.0
176
     1
 90
        8
176
     1
 62
   257
176
     1
 40
1.0
176
     1
 90
        1
176
     1
 90
        6
176
     1
 90
        2
176
     1
 62
     7
176
     1
 90
        3
176
     1
 90
        0
176
     1
 90
        0
176
     1
290
     0
176
     1
 90
       13
176
     1
 40
0.0
176
     1
 90
        0
176
     1
290
     0
176
     1
290
     1
176
     1
290
     1
176
     1
290
     0
176
     1
290
     0
176
     1
290
     0
176
     1
290
     0
176
     1
290
     0
176
     1
290
     0
176
     1
 90
       50
176
     1
 40
0.0
176
     1
 40
1.0
176
     1
 90
        0
176
     1
 62
    18
420
        0
176
     1
 90
       50
176
     1
 90
        3
176
     1
 62
     5
420
      255
176
     1
290
     0
176
     1
 90
       50
176
     1
 90
       50
176
     1
 90
       50
176
     1
290
     0
176
     1
 90
       50
176
     1
 62
   256
176
     0
 40
1.0
176
     0
 90
        2
176
     1
  1
strokes_ogs.tif
176
     1
290
     0
176
     1
 40
1.0
176
     1
 40
1.0
176
     1
  0
VISUALSTYLE
  5
42
102
{ACAD_REACTORS
330
2A
102
}
330
2A
100
AcDbVisualStyle
  2
Shaded
 70
    27
177
     3
291
     0
 70
    58
 90
        2
176
     1
 90
        2
176
     1
 90
        1
176
     1
 90
        2
176
     1
 40
0.6
176
     1
 40
30.0
176
     1
 62
     7
420
 16777215
176
     1
 90
        0
176
     1
 90
        4
176
     1
 62
     7
176
     1
 62
   257
176
     1
 90
        1
176
     1
 90
        1
176
     1
 40
1.0
176
     1
 90
        8
176
     1
 62
   257
176
     1
 40
1.0
176
     1
 90
        1
176
     1
 90
        6
176
     1
 90
        2
176
     1
 62
     8
420
  7895160
176
     1
 90
        3
176
     1
 90
        0
176
     1
 90
        0
176
     1
290
     0
176
     1
 90
        5
176
     1
 40
0.0
176
     1
 90
        0
176
     1
290
     0
176
     1
290
     1
176
     1
290
     1
176
     1
290
     0
176
     1
290
     0
176
     1
290
     0
176
     1
290
     0
176
     1
290
     0
176
     1
290
     0
176
     1
 90
       50
176
     1
 40
0.0
176
     1
 40
1.0
176
     1
 90
        0
176
     1
 62
    18
420
        0
176
     1
 90
       50
176
     1
 90
        3
176
     1
 62
     5
420
      255
176
     1
290
     0
176
     1
 90
       50
176
     1
 90
       50
176
     1
 90
       50
176
     1
290
     0
176
     1
 90
       50
176
     1
 62
   256
176
     0
 40
1.0
176
     0
 90
        2
176
     1
  1
strokes_ogs.tif
176
     1
290
     0
176
     1
 40
1.0
176
     1
 40
1.0
176
     1
  0
VISUALSTYLE
  5
41
102
{ACAD_REACTORS
330
2A
102
}
330
2A
100
AcDbVisualStyle
  2
Shaded with edges
 70
    26
177
     3
291
     0
 70
    58
 90
        2
176
     1
 90
        2
176
     1
 90
        1
176
     1
 90
        2
176
     1
 40
0.6
176
     1
 40
30.0
176
     1
 62
     7
420
 16777215
176
     1
 90
        1
176
     1
 90
       10
176
     1
 62
     7
176
     1
 62
   257
176
     1
 90
        2
176
     1
 90
        1
176
     1
 40
1.0
176
     1
 90
        8
176
     1
 62
   257
176
     1
 40
1.0
176
     1
 90
        1
176
     1
 90
        6
176
     1
 90
        2
176
     1
 62
     7
176
     1
 90
        3
176
     1
 90
        0
176
     1
 90
        0
176
     1
290
     0
176
     1
 90
        5
176
     1
 40
0.0
176
     1
 90
        0
176
     1
290
     0
176
     1
290
     1
176
     1
290
     1
176
     1
290
     0
176
     1
290
     0
176
     1
290
     0
176
     1
290
     0
176
     1
290
     0
176
     1
290
     0
176
     1
 90
       50
176
     1
 40
0.0
176
     1
 40
1.0
176
     1
 90
        0
176
     1
 62
    18
420
        0
176
     1
 90
       50
176
     1
 90
        3
176
     1
 62
     5
420
      255
176
     1
290
     0
176
     1
 90
       50
176
     1
 90
       50
176
     1
 90
       50
176
     1
290
     0
176
     1
 90
       50
176
     1
 62
   256
176
     0
 40
1.0
176
     0
 90
        2
176
     1
  1
strokes_ogs.tif
176
     1
290
     0
176
     1
 40
1.0
176
     1
 40
1.0
176
     1
  0
VISUALSTYLE
  5
3E
102
{ACAD_REACTORS
330
2A
102
}
330
2A
100
AcDbVisualStyle
  2
Shades of Gray
 70
    23
177
     3
291
     0
 70
    58
 90
        2
176
     1
 90
        2
176
     1
 90
        3
176
     1
 90
        0
176
     1
 40
0.6
176
     1
 40
30.0
176
     1
 62
     7
420
 16777215
176
     1
 90
        2
176
     1
 90
        2
176
     1
 62
     7
176
     1
 62
     7
176
     1
 90
        1
176
     1
 90
        1
176
     1
 40
40.0
176
     1
 90
        8
176
     1
 62
     7
176
     1
 40
1.0
176
     1
 90
        1
176
     1
 90
        6
176
     1
 90
        2
176
     1
 62
     7
176
     1
 90
        3
176
     1
 90
        0
176
     1
 90
        0
176
     1
290
     0
176
     1
 90
        1
176
     1
 40
0.0
176
     1
 90
        0
176
     1
290
     0
176
     1
290
     1
176
     1
290
     1
176
     1
290
     0
176
     1
290
     0
176
     1
290
     0
176
     1
290
     0
176
     1
290
     0
176
     1
290
     0
176
     1
 90
       50
176
     1
 40
0.0
176
     1
 40
1.0
176
     1
 90
        0
176
     1
 62
    18
420
        0
176
     1
 90
       50
176
     1
 90
        3
176
     1
 62
     5
420
      255
176
     1
290
     0
176
     1
 90
       50
176
     1
 90
       50
176
     1
 90
       50
176
     1
290
     0
176
     1
 90
       50
176
     1
 62
   256
176
     0
 40
1.0
176
     0
 90
        2
176
     1
  1
strokes_ogs.tif
176
     1
290
     0
176
     1
 40
1.0
176
     1
 40
1.0
176
     1
  0
VISUALSTYLE
  5
3F
102
{ACAD_REACTORS
330
2A
102
}
330
2A
100
AcDbVisualStyle
  2
Sketchy
 70
    24
177
     3
291
     0
 70
    58
 90
        1
176
     1
 90
        2
176
     1
 90
        2
176
     1
 90
        0
176
     1
 40
0.6
176
     1
 40
30.0
176
     1
 62
     7
420
 16777215
176
     1
 90
        2
176
     1
 90
        2
176
     1
 62
     7
176
     1
 62
     7
176
     1
 90
        1
176
     1
 90
        1
176
     1
 40
40.0
176
     1
 90
       11
176
     1
 62
     7
176
     1
 40
1.0
176
     1
 90
        1
176
     1
 90
        6
176
     1
 90
        2
176
     1
 62
     7
176
     1
 90
        6
176
     1
 90
        0
176
     1
 90
        0
176
     1
290
     0
176
     1
 90
        1
176
     1
 40
0.0
176
     1
 90
        0
176
     1
290
     0
176
     1
290
     1
176
     1
290
     1
176
     1
290
     0
176
     1
290
     0
176
     1
290
     0
176
     1
290
     0
176
     1
290
     0
176
     1
290
     0
176
     1
 90
       50
176
     1
 40
0.0
176
     1
 40
1.0
176
     1
 90
        0
176
     1
 62
    18
420
        0
176
     1
 90
       50
176
     1
 90
        3
176
     1
 62
     5
420
      255
176
     1
290
     0
176
     1
 90
       50
176
     1
 90
       50
176
     1
 90
       50
176
     1
290
     0
176
     1
 90
       50
176
     1
 62
   256
176
     0
 40
1.0
176
     0
 90
        2
176
     1
  1
strokes_ogs.tif
176
     1
290
     0
176
     1
 40
1.0
176
     1
 40
1.0
176
     1
  0
VISUALSTYLE
  5
37
102
{ACAD_REACTORS
330
2A
102
}
330
2A
100
AcDbVisualStyle
  2
Thicken
 70
    13
177
     3
291
     1
 70
    58
 90
        2
176
     1
 90
        2
176
     1
 90
        0
176
     1
 90
        0
176
     1
 40
0.6
176
     1
 40
30.0
176
     1
 62
     7
420
 16777215
176
     1
 90
        1
176
     1
 90
        4
176
     1
 62
     7
176
     1
 62
   257
176
     1
 90
        1
176
     1
 90
        1
176
     1
 40
1.0
176
     1
 90
       12
176
     1
 62
     7
176
     1
 40
1.0
176
     1
 90
        1
176
     1
 90
        6
176
     1
 90
        2
176
     1
 62
     7
176
     1
 90
        5
176
     1
 90
        0
176
     1
 90
        0
176
     1
290
     0
176
     1
 90
        1
176
     1
 40
0.0
176
     1
 90
        0
176
     1
290
     0
176
     1
290
     1
176
     1
290
     1
176
     1
290
     0
176
     1
290
     0
176
     1
290
     0
176
     1
290
     0
176
     1
290
     0
176
     1
290
     0
176
     1
 90
       50
176
     1
 40
0.0
176
     1
 40
1.0
176
     1
 90
        0
176
     1
 62
    18
420
        0
176
     1
 90
       50
176
     1
 90
        3
176
     1
 62
     5
420
      255
176
     1
290
     0
176
     1
 90
       50
176
     1
 90
       50
176
     1
 90
       50
176
     1
290
     0
176
     1
 90
       50
176
     1
 62
   256
176
     0
 40
1.0
176
     0
 90
        2
176
     1
  1
strokes_ogs.tif
176
     1
290
     0
176
     1
 40
1.0
176
     1
 40
1.0
176
     1
  0
VISUALSTYLE
  5
30
102
{ACAD_REACTORS
330
2A
102
}
330
2A
100
AcDbVisualStyle
  2
Wireframe
 70
     5
177
     3
291
     0
 70
    58
 90
        0
176
     1
 90
        2
176
     1
 90
        0
176
     1
 90
        0
176
     1
 40
0.6
176
     1
 40
30.0
176
     1
 62
     7
420
 16777215
176
     1
 90
        1
176
     1
 90
        4
176
     1
 62
     7
176
     1
 62
   257
176
     1
 90
        1
176
     1
 90
        1
176
     1
 40
1.0
176
     1
 90
        0
176
     1
 62
   257
176
     1
 40
1.0
176
     1
 90
        1
176
     1
 90
        6
176
     1
 90
        2
176
     1
 62
     7
176
     1
 90
        3
176
     1
 90
        0
176
     1
 90
        0
176
     1
290
     0
176
     1
 90
        1
176
     1
 40
0.0
176
     1
 90
        0
176
     1
290
     0
176
     1
290
     1
176
     1
290
     1
176
     1
290
     0
176
     1
290
     0
176
     1
290
     0
176
     1
290
     0
176
     1
290
     0
176
     1
290
     0
176
     1
 90
       50
176
     1
 40
0.0
176
     1
 40
1.0
176
     1
 90
        0
176
     1
 62
    18
420
        0
176
     1
 90
       50
176
     1
 90
        3
176
     1
 62
     5
420
      255
176
     1
290
     0
176
     1
 90
       50
176
     1
 90
       50
176
     1
 90
       50
176
     1
290
     0
176
     1
 90
       50
176
     1
 62
   256
176
     0
 40
1.0
176
     0
 90
        2
176
     1
  1
strokes_ogs.tif
176
     1
290
     0
176
     1
 40
1.0
176
     1
 40
1.0
176
     1
  0
VISUALSTYLE
  5
40
102
{ACAD_REACTORS
330
2A
102
}
330
2A
100
AcDbVisualStyle
  2
X-Ray
 70
    25
177
     3
291
     0
 70
    58
 90
        2
176
     1
 90
        2
176
     1
 90
        1
176
     1
 90
        1
176
     1
 40
0.5
176
     1
 40
30.0
176
     1
 62
     7
420
 16777215
176
     1
 90
        1
176
     1
 90
        0
176
     1
 62
     7
176
     1
 62
   257
176
     1
 90
        1
176
     1
 90
        1
176
     1
 40
1.0
176
     1
 90
        8
176
     1
 62
     7
176
     1
 40
1.0
176
     1
 90
        1
176
     1
 90
        6
176
     1
 90
        2
176
     1
 62
     7
176
     1
 90
        3
176
     1
 90
        0
176
     1
 90
        0
176
     1
290
     0
176
     1
 90
       13
176
     1
 40
0.0
176
     1
 90
        0
176
     1
290
     0
176
     1
290
     1
176
     1
290
     1
176
     1
290
     0
176
     1
290
     0
176
     1
290
     0
176
     1
290
     0
176
     1
290
     0
176
     1
290
     0
176
     1
 90
       50
176
     1
 40
0.0
176
     1
 40
1.0
176
     1
 90
        0
176
     1
 62
    18
420
        0
176
     1
 90
       50
176
     1
 90
        3
176
     1
 62
     5
420
      255
176
     1
290
     0
176
     1
 90
       50
176
     1
 90
       50
176
     1
 90
       50
176
     1
290
     0
176
     1
 90
       50
176
     1
 62
   256
176
     0
 40
1.0
176
     0
 90
        2
176
     1
  1
strokes_ogs.tif
176
     1
290
     0
176
     1
 40
1.0
176
     1
 40
1.0
176
     1
  0
DICTIONARYVAR
  5
16A
102
{ACAD_REACTORS
330
169
102
}
330
169
100
DictionaryVariables
280
     0
  1
1:1
  0
DICTIONARYVAR
  5
16F
102
{ACAD_REACTORS
330
169
102
}
330
169
100
DictionaryVariables
280
     0
  1
Standard
  0
DICTIONARYVAR
  5
16E
102
{ACAD_REACTORS
330
169
102
}
330
169
100
DictionaryVariables
280
     0
  1
Standard
  0
DICTIONARY
  5
16B
330
6A
100
AcDbDictionary
280
     1
281
     1
  3
ACAD_ROUNDTRIP_2008_TABLESTYLE_CELLSTYLEMAP
360
16C
  0
CELLSTYLEMAP
  5
16C
102
{ACAD_REACTORS
330
16B
102
}
330
16B
100
AcDbCellStyleMap
 90
        3
300
CELLSTYLE
  1
TABLEFORMAT_BEGIN
 90
        5
170
     1
 91
        0
 92
    32768
 62
   257
 93
        1
300
CONTENTFORMAT
  1
CONTENTFORMAT_BEGIN
 90
        0
 91
        0
 92
        4
 93
        0
300

 40
0.0
140
1.0
 94
        5
 62
     0
340
11
144
0.25
309
CONTENTFORMAT_END
171
     1
301
MARGIN
  1
CELLMARGIN_BEGIN
 40
0.06
 40
0.06
 40
0.06
 40
0.06
 40
0.06
 40
0.06
309
CELLMARGIN_END
 94
        6
 95
        1
302
GRIDFORMAT
  1
GRIDFORMAT_BEGIN
 90
        0
 91
        1
 62
     0
 92
       -2
340
14
 93
        0
 40
0.045
309
GRIDFORMAT_END
 95
        2
302
GRIDFORMAT
  1
GRIDFORMAT_BEGIN
 90
        0
 91
        1
 62
     0
 92
       -2
340
14
 93
        0
 40
0.045
309
GRIDFORMAT_END
 95
        4
302
GRIDFORMAT
  1
GRIDFORMAT_BEGIN
 90
        0
 91
        1
 62
     0
 92
       -2
340
14
 93
        0
 40
0.045
309
GRIDFORMAT_END
 95
        8
302
GRIDFORMAT
  1
GRIDFORMAT_BEGIN
 90
        0
 91
        1
 62
     0
 92
       -2
340
14
 93
        0
 40
0.045
309
GRIDFORMAT_END
 95
       16
302
GRIDFORMAT
  1
GRIDFORMAT_BEGIN
 90
        0
 91
        1
 62
     0
 92
       -2
340
14
 93
        0
 40
0.045
309
GRIDFORMAT_END
 95
       32
302
GRIDFORMAT
  1
GRIDFORMAT_BEGIN
 90
        0
 91
        1
 62
     0
 92
       -2
340
14
 93
        0
 40
0.045
309
GRIDFORMAT_END
309
TABLEFORMAT_END
  1
CELLSTYLE_BEGIN
 90
        1
 91
        1
300
_TITLE
309
CELLSTYLE_END
300
CELLSTYLE
  1
TABLEFORMAT_BEGIN
 90
        5
170
     1
 91
        0
 92
        0
 62
   257
 93
        1
300
CONTENTFORMAT
  1
CONTENTFORMAT_BEGIN
 90
        0
 91
        0
 92
        4
 93
        0
300

 40
0.0
140
1.0
 94
        5
 62
     0
340
11
144
0.18
309
CONTENTFORMAT_END
171
     1
301
MARGIN
  1
CELLMARGIN_BEGIN
 40
0.06
 40
0.06
 40
0.06
 40
0.06
 40
0.06
 40
0.06
309
CELLMARGIN_END
 94
        6
 95
        1
302
GRIDFORMAT
  1
GRIDFORMAT_BEGIN
 90
        0
 91
        1
 62
     0
 92
       -2
340
14
 93
        0
 40
0.045
309
GRIDFORMAT_END
 95
        2
302
GRIDFORMAT
  1
GRIDFORMAT_BEGIN
 90
        0
 91
        1
 62
     0
 92
       -2
340
14
 93
        0
 40
0.045
309
GRIDFORMAT_END
 95
        4
302
GRIDFORMAT
  1
GRIDFORMAT_BEGIN
 90
        0
 91
        1
 62
     0
 92
       -2
340
14
 93
        0
 40
0.045
309
GRIDFORMAT_END
 95
        8
302
GRIDFORMAT
  1
GRIDFORMAT_BEGIN
 90
        0
 91
        1
 62
     0
 92
       -2
340
14
 93
        0
 40
0.045
309
GRIDFORMAT_END
 95
       16
302
GRIDFORMAT
  1
GRIDFORMAT_BEGIN
 90
        0
 91
        1
 62
     0
 92
       -2
340
14
 93
        0
 40
0.045
309
GRIDFORMAT_END
 95
       32
302
GRIDFORMAT
  1
GRIDFORMAT_BEGIN
 90
        0
 91
        1
 62
     0
 92
       -2
340
14
 93
        0
 40
0.045
309
GRIDFORMAT_END
309
TABLEFORMAT_END
  1
CELLSTYLE_BEGIN
 90
        2
 91
        1
300
_HEADER
309
CELLSTYLE_END
300
CELLSTYLE
  1
TABLEFORMAT_BEGIN
 90
        5
170
     1
 91
        0
 92
        0
 62
   257
 93
        1
300
CONTENTFORMAT
  1
CONTENTFORMAT_BEGIN
 90
        0
 91
        0
 92
        4
 93
        0
300

 40
0.0
140
1.0
 94
        2
 62
     0
340
11
144
0.18
309
CONTENTFORMAT_END
171
     1
301
MARGIN
  1
CELLMARGIN_BEGIN
 40
0.06
 40
0.06
 40
0.06
 40
0.06
 40
0.06
 40
0.06
309
CELLMARGIN_END
 94
        6
 95
        1
302
GRIDFORMAT
  1
GRIDFORMAT_BEGIN
 90
        0
 91
        1
 62
     0
 92
       -2
340
14
 93
        0
 40
0.045
309
GRIDFORMAT_END
 95
        2
302
GRIDFORMAT
  1
GRIDFORMAT_BEGIN
 90
        0
 91
        1
 62
     0
 92
       -2
340
14
 93
        0
 40
0.045
309
GRIDFORMAT_END
 95
        4
302
GRIDFORMAT
  1
GRIDFORMAT_BEGIN
 90
        0
 91
        1
 62
     0
 92
       -2
340
14
 93
        0
 40
0.045
309
GRIDFORMAT_END
 95
        8
302
GRIDFORMAT
  1
GRIDFORMAT_BEGIN
 90
        0
 91
        1
 62
     0
 92
       -2
340
14
 93
        0
 40
0.045
309
GRIDFORMAT_END
 95
       16
302
GRIDFORMAT
  1
GRIDFORMAT_BEGIN
 90
        0
 91
        1
 62
     0
 92
       -2
340
14
 93
        0
 40
0.045
309
GRIDFORMAT_END
 95
       32
302
GRIDFORMAT
  1
GRIDFORMAT_BEGIN
 90
        0
 91
        1
 62
     0
 92
       -2
340
14
 93
        0
 40
0.045
309
GRIDFORMAT_END
309
TABLEFORMAT_END
  1
CELLSTYLE_BEGIN
 90
        3
 91
        2
300
_DATA
309
CELLSTYLE_END
  0
ENDSEC
  0
EOF