0
SECTION
  2
HEADER
  9
$ACADVER
  1
AC1027
  9
$ACADMAINTVER
 70
     8
  9
$DWGCODEPAGE
  3
ANSI_1252
  9
$REQUIREDVERSIONS
160
                 0
  9
$COMMENTS
  1
File was created by Cadenas
  9
$CUSTOMPROPERTYTAG
  1
NN
  9
$CUSTOMPROPERTY
  1
TAF Units - Inch - Gray Iron
  9
$CUSTOMPROPERTYTAG
  1
NT
  9
$CUSTOMPROPERTY
  1
Taf Bearings
  9
$CUSTOMPROPERTYTAG
  1
NB
  9
$CUSTOMPROPERTY
  1
037648
  9
$CUSTOMPROPERTYTAG
  1
NBSYN
  9
$CUSTOMPROPERTY
  1
$PN.
  9
$CUSTOMPROPERTYTAG
  1
LINA
  9
$CUSTOMPROPERTY
  1
037648
  9
$CUSTOMPROPERTYTAG
  1
SS
  9
$CUSTOMPROPERTY
  1
4-15/16
  9
$CUSTOMPROPERTYTAG
  1
PN
  9
$CUSTOMPROPERTY
  1
037648
  9
$CUSTOMPROPERTYTAG
  1
DESCRIPTION
  9
$CUSTOMPROPERTY
  1
S1U-TAF-415
  9
$CUSTOMPROPERTYTAG
  1
A
  9
$CUSTOMPROPERTY
  1
7-1/4
  9
$CUSTOMPROPERTYTAG
  1
B
  9
$CUSTOMPROPERTY
  1
5-1/8
  9
$CUSTOMPROPERTYTAG
  1
C
  9
$CUSTOMPROPERTY
  1
3-1/8
  9
$CUSTOMPROPERTYTAG
  1
EM
  9
$CUSTOMPROPERTY
  1
9.563
  9
$CUSTOMPROPERTYTAG
  1
EC
  9
$CUSTOMPROPERTY
  1
9-11/16
  9
$CUSTOMPROPERTYTAG
  1
H
  9
$CUSTOMPROPERTY
  1
15/16
  9
$CUSTOMPROPERTYTAG
  1
K
  9
$CUSTOMPROPERTY
  1
10.185
  9
$CUSTOMPROPERTYTAG
  1
TOL
  9
$CUSTOMPROPERTY
  1
+0.000 to -0.003
  9
$CUSTOMPROPERTYTAG
  1
L
  9
$CUSTOMPROPERTY
  1
7-13/32
  9
$CUSTOMPROPERTYTAG
  1
M
  9
$CUSTOMPROPERTY
  1
6-3/16
  9
$CUSTOMPROPERTYTAG
  1
COMPANY
  9
$CUSTOMPROPERTY
  1
baldor
  9
$INSBASE
 10
0.0
 20
0.0
 30
0.0
  9
$EXTMIN
 10
1.000000000000000E+20
 20
1.000000000000000E+20
 30
1.000000000000000E+20
  9
$EXTMAX
 10
-1.000000000000000E+20
 20
-1.000000000000000E+20
 30
-1.000000000000000E+20
  9
$LIMMIN
 10
0.0
 20
0.0
  9
$LIMMAX
 10
12.0
 20
9.0
  9
$ORTHOMODE
 70
     0
  9
$REGENMODE
 70
     1
  9
$FILLMODE
 70
     1
  9
$QTEXTMODE
 70
     0
  9
$MIRRTEXT
 70
     1
  9
$LTSCALE
 40
1.0
  9
$ATTMODE
 70
     1
  9
$TEXTSIZE
 40
0.2
  9
$TRACEWID
 40
0.05
  9
$TEXTSTYLE
  7
Standard
  9
$CLAYER
  8
0
  9
$CELTYPE
  6
ByLayer
  9
$CECOLOR
 62
   256
  9
$CELTSCALE
 40
1.0
  9
$DISPSILH
 70
     0
  9
$DIMSCALE
 40
1.0
  9
$DIMASZ
 40
0.18
  9
$DIMEXO
 40
0.0625
  9
$DIMDLI
 40
0.38
  9
$DIMRND
 40
0.0
  9
$DIMDLE
 40
0.0
  9
$DIMEXE
 40
0.18
  9
$DIMTP
 40
0.0
  9
$DIMTM
 40
0.0
  9
$DIMTXT
 40
0.18
  9
$DIMCEN
 40
0.09
  9
$DIMTSZ
 40
0.0
  9
$DIMTOL
 70
     0
  9
$DIMLIM
 70
     0
  9
$DIMTIH
 70
     1
  9
$DIMTOH
 70
     1
  9
$DIMSE1
 70
     0
  9
$DIMSE2
 70
     0
  9
$DIMTAD
 70
     0
  9
$DIMZIN
 70
     0
  9
$DIMBLK
  1

  9
$DIMASO
 70
     1
  9
$DIMSHO
 70
     1
  9
$DIMPOST
  1

  9
$DIMAPOST
  1

  9
$DIMALT
 70
     0
  9
$DIMALTD
 70
     2
  9
$DIMALTF
 40
25.4
  9
$DIMLFAC
 40
1.0
  9
$DIMTOFL
 70
     0
  9
$DIMTVP
 40
0.0
  9
$DIMTIX
 70
     0
  9
$DIMSOXD
 70
     0
  9
$DIMSAH
 70
     0
  9
$DIMBLK1
  1

  9
$DIMBLK2
  1

  9
$DIMSTYLE
  2
Standard
  9
$DIMCLRD
 70
     0
  9
$DIMCLRE
 70
     0
  9
$DIMCLRT
 70
     0
  9
$DIMTFAC
 40
1.0
  9
$DIMGAP
 40
0.09
  9
$DIMJUST
 70
     0
  9
$DIMSD1
 70
     0
  9
$DIMSD2
 70
     0
  9
$DIMTOLJ
 70
     1
  9
$DIMTZIN
 70
     0
  9
$DIMALTZ
 70
     0
  9
$DIMALTTZ
 70
     0
  9
$DIMUPT
 70
     0
  9
$DIMDEC
 70
     4
  9
$DIMTDEC
 70
     4
  9
$DIMALTU
 70
     2
  9
$DIMALTTD
 70
     2
  9
$DIMTXSTY
  7
Standard
  9
$DIMAUNIT
 70
     0
  9
$DIMADEC
 70
     0
  9
$DIMALTRND
 40
0.0
  9
$DIMAZIN
 70
     0
  9
$DIMDSEP
 70
    46
  9
$DIMATFIT
 70
     3
  9
$DIMFRAC
 70
     0
  9
$DIMLDRBLK
  1

  9
$DIMLUNIT
 70
     2
  9
$DIMLWD
 70
    -2
  9
$DIMLWE
 70
    -2
  9
$DIMTMOVE
 70
     0
  9
$DIMFXL
 40
1.0
  9
$DIMFXLON
 70
     0
  9
$DIMJOGANG
 40
0.7853981633974483
  9
$DIMTFILL
 70
     0
  9
$DIMTFILLCLR
 70
     0
  9
$DIMARCSYM
 70
     0
  9
$DIMLTYPE
  6

  9
$DIMLTEX1
  6

  9
$DIMLTEX2
  6

  9
$DIMTXTDIRECTION
 70
     0
  9
$LUNITS
 70
     2
  9
$LUPREC
 70
     4
  9
$SKETCHINC
 40
0.1
  9
$FILLETRAD
 40
0.5
  9
$AUNITS
 70
     0
  9
$AUPREC
 70
     0
  9
$MENU
  1
.
  9
$ELEVATION
 40
0.0
  9
$PELEVATION
 40
0.0
  9
$THICKNESS
 40
0.0
  9
$LIMCHECK
 70
     0
  9
$CHAMFERA
 40
0.0
  9
$CHAMFERB
 40
0.0
  9
$CHAMFERC
 40
0.0
  9
$CHAMFERD
 40
0.0
  9
$SKPOLY
 70
     0
  9
$TDCREATE
 40
2458169.002622731
  9
$TDUCREATE
 40
2458168.960956065
  9
$TDUPDATE
 40
2458169.002622731
  9
$TDUUPDATE
 40
2458168.960956065
  9
$TDINDWG
 40
0.0000000116
  9
$TDUSRTIMER
 40
0.0000000116
  9
$USRTIMER
 70
     1
  9
$ANGBASE
 50
0.0
  9
$ANGDIR
 70
     0
  9
$PDMODE
 70
     0
  9
$PDSIZE
 40
0.0
  9
$PLINEWID
 40
0.0
  9
$SPLFRAME
 70
     0
  9
$SPLINETYPE
 70
     6
  9
$SPLINESEGS
 70
     8
  9
$HANDSEED
  5
169
  9
$SURFTAB1
 70
     6
  9
$SURFTAB2
 70
     6
  9
$SURFTYPE
 70
     6
  9
$SURFU
 70
     6
  9
$SURFV
 70
     6
  9
$UCSBASE
  2

  9
$UCSNAME
  2

  9
$UCSORG
 10
0.0
 20
0.0
 30
0.0
  9
$UCSXDIR
 10
1.0
 20
0.0
 30
0.0
  9
$UCSYDIR
 10
0.0
 20
1.0
 30
0.0
  9
$UCSORTHOREF
  2

  9
$UCSORTHOVIEW
 70
     0
  9
$UCSORGTOP
 10
0.0
 20
0.0
 30
0.0
  9
$UCSORGBOTTOM
 10
0.0
 20
0.0
 30
0.0
  9
$UCSORGLEFT
 10
0.0
 20
0.0
 30
0.0
  9
$UCSORGRIGHT
 10
0.0
 20
0.0
 30
0.0
  9
$UCSORGFRONT
 10
0.0
 20
0.0
 30
0.0
  9
$UCSORGBACK
 10
0.0
 20
0.0
 30
0.0
  9
$PUCSBASE
  2

  9
$PUCSNAME
  2

  9
$PUCSORG
 10
0.0
 20
0.0
 30
0.0
  9
$PUCSXDIR
 10
1.0
 20
0.0
 30
0.0
  9
$PUCSYDIR
 10
0.0
 20
1.0
 30
0.0
  9
$PUCSORTHOREF
  2

  9
$PUCSORTHOVIEW
 70
     0
  9
$PUCSORGTOP
 10
0.0
 20
0.0
 30
0.0
  9
$PUCSORGBOTTOM
 10
0.0
 20
0.0
 30
0.0
  9
$PUCSORGLEFT
 10
0.0
 20
0.0
 30
0.0
  9
$PUCSORGRIGHT
 10
0.0
 20
0.0
 30
0.0
  9
$PUCSORGFRONT
 10
0.0
 20
0.0
 30
0.0
  9
$PUCSORGBACK
 10
0.0
 20
0.0
 30
0.0
  9
$USERI1
 70
     0
  9
$USERI2
 70
     0
  9
$USERI3
 70
     0
  9
$USERI4
 70
     0
  9
$USERI5
 70
     0
  9
$USERR1
 40
0.0
  9
$USERR2
 40
0.0
  9
$USERR3
 40
0.0
  9
$USERR4
 40
0.0
  9
$USERR5
 40
0.0
  9
$WORLDVIEW
 70
     1
  9
$SHADEDGE
 70
     3
  9
$SHADEDIF
 70
    70
  9
$TILEMODE
 70
     1
  9
$MAXACTVP
 70
    64
  9
$PINSBASE
 10
0.0
 20
0.0
 30
0.0
  9
$PLIMCHECK
 70
     0
  9
$PEXTMIN
 10
1.000000000000000E+20
 20
1.000000000000000E+20
 30
1.000000000000000E+20
  9
$PEXTMAX
 10
-1.000000000000000E+20
 20
-1.000000000000000E+20
 30
-1.000000000000000E+20
  9
$PLIMMIN
 10
0.0
 20
0.0
  9
$PLIMMAX
 10
12.0
 20
9.0
  9
$UNITMODE
 70
     0
  9
$VISRETAIN
 70
     1
  9
$PLINEGEN
 70
     0
  9
$PSLTSCALE
 70
     1
  9
$TREEDEPTH
 70
  3020
  9
$CMLSTYLE
  2
Standard
  9
$CMLJUST
 70
     0
  9
$CMLSCALE
 40
1.0
  9
$PROXYGRAPHICS
 70
     1
  9
$MEASUREMENT
 70
     0
  9
$CELWEIGHT
370
    -1
  9
$ENDCAPS
280
     0
  9
$JOINSTYLE
280
     0
  9
$LWDISPLAY
290
     0
  9
$INSUNITS
 70
     1
  9
$HYPERLINKBASE
  1

  9
$STYLESHEET
  1

  9
$XEDIT
290
     1
  9
$CEPSNTYPE
380
     0
  9
$PSTYLEMODE
290
     1
  9
$FINGERPRINTGUID
  2
{28C185A8-DE44-400B-A138-0F8443068E97}
  9
$VERSIONGUID
  2
{FAEB1C32-E019-11D5-929B-00C0DF256EC4}
  9
$EXTNAMES
290
     1
  9
$PSVPSCALE
 40
0.0
  9
$OLESTARTUP
290
     0
  9
$SORTENTS
280
   127
  9
$INDEXCTL
280
     0
  9
$HIDETEXT
280
     1
  9
$XCLIPFRAME
280
     2
  9
$HALOGAP
280
     0
  9
$OBSCOLOR
 70
   257
  9
$OBSLTYPE
280
     0
  9
$INTERSECTIONDISPLAY
280
     0
  9
$INTERSECTIONCOLOR
 70
   257
  9
$DIMASSOC
280
     2
  9
$PROJECTNAME
  1

  9
$CAMERADISPLAY
290
     0
  9
$LENSLENGTH
 40
50.0
  9
$CAMERAHEIGHT
 40
0.0
  9
$STEPSPERSEC
 40
2.0
  9
$STEPSIZE
 40
6.0
  9
$3DDWFPREC
 40
2.0
  9
$PSOLWIDTH
 40
0.25
  9
$PSOLHEIGHT
 40
4.0
  9
$LOFTANG1
 40
1.570796326794897
  9
$LOFTANG2
 40
1.570796326794897
  9
$LOFTMAG1
 40
0.0
  9
$LOFTMAG2
 40
0.0
  9
$LOFTPARAM
 70
     7
  9
$LOFTNORMALS
280
     1
  9
$LATITUDE
 40
37.795
  9
$LONGITUDE
 40
-122.394
  9
$NORTHDIRECTION
 40
0.0
  9
$TIMEZONE
 70
 -8000
  9
$LIGHTGLYPHDISPLAY
280
     1
  9
$TILEMODELIGHTSYNCH
280
     1
  9
$CMATERIAL
347
44
  9
$SOLIDHIST
280
     0
  9
$SHOWHIST
280
     1
  9
$DWFFRAME
280
     2
  9
$DGNFRAME
280
     2
  9
$REALWORLDSCALE
290
     1
  9
$INTERFERECOLOR
 62
   256
  9
$CSHADOW
280
     0
  9
$SHADOWPLANELOCATION
 40
0.0
  0
ENDSEC
  0
SECTION
  2
CLASSES
  0
CLASS
  1
ACDBDICTIONARYWDFLT
  2
AcDbDictionaryWithDefault
  3
ObjectDBX Classes
 90
        0
 91
        4
280
     0
281
     0
  0
CLASS
  1
VISUALSTYLE
  2
AcDbVisualStyle
  3
ObjectDBX Classes
 90
     4095
 91
        4
280
     0
281
     0
  0
CLASS
  1
MATERIAL
  2
AcDbMaterial
  3
ObjectDBX Classes
 90
     1153
 91
        4
280
     0
281
     0
  0
CLASS
  1
SCALE
  2
AcDbScale
  3
ObjectDBX Classes
 90
     1153
 91
        4
280
     0
281
     0
  0
CLASS
  1
TABLESTYLE
  2
AcDbTableStyle
  3
ObjectDBX Classes
 90
     4095
 91
        4
280
     0
281
     0
  0
CLASS
  1
MLEADERSTYLE
  2
AcDbMLeaderStyle
  3
ACDB_MLEADERSTYLE_CLASS
 90
     4095
 91
        4
280
     0
281
     0
  0
CLASS
  1
SUN
  2
AcDbSun
  3
SCENEOE
 90
     1153
 91
        4
280
     0
281
     0
  0
CLASS
  1
DICTIONARYVAR
  2
AcDbDictionaryVar
  3
ObjectDBX Classes
 90
        0
 91
        4
280
     0
281
     0
  0
CLASS
  1
CELLSTYLEMAP
  2
AcDbCellStyleMap
  3
ObjectDBX Classes
 90
     1152
 91
        4
280
     0
281
     0
  0
ENDSEC
  0
SECTION
  2
TABLES
  0
TABLE
  2
VPORT
  5
8
330
0
100
AcDbSymbolTable
 70
     1
  0
VPORT
  5
29
330
8
100
AcDbSymbolTableRecord
100
AcDbViewportTableRecord
  2
*Active
 70
     0
 10
0.0
 20
0.0
 11
1.0
 21
1.0
 12
0.0
 22
0.0
 13
0.0
 23
0.0
 14
0.5
 24
0.5
 15
0.5
 25
0.5
 16
0.0
 26
0.0
 36
1.0
 17
0.0
 27
0.0
 37
0.0
 40
8.134499999999997
 41
1.277115987460814
 42
50.0
 43
0.0
 44
0.0
 50
0.0
 51
0.0
 71
     0
 72
   100
 73
     1
 74
     3
 75
     0
 76
     0
 77
     0
 78
     0
281
     0
 65
     1
110
0.0
120
0.0
130
0.0
111
1.0
121
0.0
131
0.0
112
0.0
122
1.0
132
0.0
 79
     0
146
0.0
348
2F
 60
     3
 61
     5
292
     1
282
     1
141
0.0
142
0.0
 63
   250
361
6D
  0
ENDTAB
  0
TABLE
  2
LTYPE
  5
5
330
0
100
AcDbSymbolTable
 70
     3
  0
LTYPE
  5
14
330
5
100
AcDbSymbolTableRecord
100
AcDbLinetypeTableRecord
  2
ByBlock
 70
     0
  3

 72
    65
 73
     0
 40
0.0
  0
LTYPE
  5
15
330
5
100
AcDbSymbolTableRecord
100
AcDbLinetypeTableRecord
  2
ByLayer
 70
     0
  3

 72
    65
 73
     0
 40
0.0
  0
LTYPE
  5
16
330
5
100
AcDbSymbolTableRecord
100
AcDbLinetypeTableRecord
  2
Continuous
 70
     0
  3
Solid line
 72
    65
 73
     0
 40
0.0
  0
LTYPE
  5
9B
330
5
100
AcDbSymbolTableRecord
100
AcDbLinetypeTableRecord
  2
Dashed
 70
     0
  3

 72
    65
 73
     2
 40
2.0
 49
1.0
 74
     0
 49
-1.0
 74
     0
  0
LTYPE
  5
AF
330
5
100
AcDbSymbolTableRecord
100
AcDbLinetypeTableRecord
  2
Center
 70
     0
  3

 72
    65
 73
     4
 40
1.5
 49
0.45
 74
     0
 49
-0.5
 74
     0
 49
0.05
 74
     0
 49
-0.5
 74
     0
  0
ENDTAB
  0
TABLE
  2
LAYER
  5
2
330
0
100
AcDbSymbolTable
 70
     7
  0
LAYER
  5
10
330
2
100
AcDbSymbolTableRecord
100
AcDbLayerTableRecord
  2
0
 70
     0
 62
     7
  6
Continuous
370
    -3
390
F
347
46
348
0
  0
LAYER
  5
72
330
2
100
AcDbSymbolTableRecord
100
AcDbLayerTableRecord
  2
AM_6
 70
     0
 62
    -2
  6
Continuous
370
    35
390
F
347
46
348
0
  0
LAYER
  5
9C
330
2
100
AcDbSymbolTableRecord
100
AcDbLayerTableRecord
  2
AM_9
 70
     0
 62
     6
  6
Dashed
370
    25
390
F
347
46
348
0
  0
LAYER
  5
B0
330
2
100
AcDbSymbolTableRecord
100
AcDbLayerTableRecord
  2
AM_7
 70
     0
 62
     7
  6
Center
370
    25
390
F
347
46
348
0
  0
LAYER
  5
B2
330
2
100
AcDbSymbolTableRecord
100
AcDbLayerTableRecord
  2
AM_4
 70
     0
 62
     7
  6
Continuous
370
    50
390
F
347
46
348
0
  0
LAYER
  5
BF
330
2
100
AcDbSymbolTableRecord
100
AcDbLayerTableRecord
  2
AM_5
 70
     0
 62
     3
  6
Continuous
370
    25
390
F
347
46
348
0
  0
LAYER
  5
158
330
2
100
AcDbSymbolTableRecord
100
AcDbLayerTableRecord
  2
ConnectionPoints
 70
     0
 62
     7
  6
Continuous
370
    50
390
F
347
46
348
0
  0
ENDTAB
  0
TABLE
  2
STYLE
  5
3
330
0
100
AcDbSymbolTable
 70
     1
  0
STYLE
  5
11
330
3
100
AcDbSymbolTableRecord
100
AcDbTextStyleTableRecord
  2
Standard
 70
     0
 40
0.0
 41
1.0
 50
0.0
 71
     0
 42
0.2
  3
txt
  4

  0
ENDTAB
  0
TABLE
  2
VIEW
  5
6
330
0
100
AcDbSymbolTable
 70
     0
  0
ENDTAB
  0
TABLE
  2
UCS
  5
7
330
0
100
AcDbSymbolTable
 70
     0
  0
ENDTAB
  0
TABLE
  2
APPID
  5
9
330
0
100
AcDbSymbolTable
 70
     1
  0
APPID
  5
12
330
9
100
AcDbSymbolTableRecord
100
AcDbRegAppTableRecord
  2
ACAD
 70
     0
  0
ENDTAB
  0
TABLE
  2
DIMSTYLE
  5
A
330
0
100
AcDbSymbolTable
 70
     1
100
AcDbDimStyleTable
  0
DIMSTYLE
105
27
330
A
100
AcDbSymbolTableRecord
100
AcDbDimStyleTableRecord
  2
Standard
 70
     0
178
     0
340
11
  0
ENDTAB
  0
TABLE
  2
BLOCK_RECORD
  5
1
330
0
100
AcDbSymbolTable
 70
     6
  0
BLOCK_RECORD
  5
1F
330
1
100
AcDbSymbolTableRecord
100
AcDbBlockTableRecord
  2
*Model_Space
340
22
 70
     0
280
     1
281
     0
  0
BLOCK_RECORD
  5
1B
330
1
100
AcDbSymbolTableRecord
100
AcDbBlockTableRecord
  2
*Paper_Space
340
1E
 70
     0
280
     1
281
     0
  0
BLOCK_RECORD
  5
23
330
1
100
AcDbSymbolTableRecord
100
AcDbBlockTableRecord
  2
*Paper_Space0
340
26
 70
     0
280
     1
281
     0
  0
BLOCK_RECORD
  5
6E
330
1
100
AcDbSymbolTableRecord
100
AcDbBlockTableRecord
  2
1_037648_4
340
0
102
{BLKREFS
331
6F
102
}
 70
     0
280
     1
281
     0
  0
BLOCK_RECORD
  5
86
330
1
100
AcDbSymbolTableRecord
100
AcDbBlockTableRecord
  2
2_4_15_16C_1_0_in_037648_4
340
0
102
{BLKREFS
331
87
102
}
 70
     0
280
     1
281
     0
  0
BLOCK_RECORD
  5
C2
330
1
100
AcDbSymbolTableRecord
100
AcDbBlockTableRecord
  2
3_4_15_16C_2_0_in_037648_4
340
0
102
{BLKREFS
331
C3
102
}
 70
     0
280
     1
281
     0
  0
BLOCK_RECORD
  5
F7
330
1
100
AcDbSymbolTableRecord
100
AcDbBlockTableRecord
  2
4_405015E_Inch_0_in_037648_4
340
0
102
{BLKREFS
331
F8
102
}
 70
     0
280
     1
281
     0
  0
BLOCK_RECORD
  5
114
330
1
100
AcDbSymbolTableRecord
100
AcDbBlockTableRecord
  2
5_S1U_TAF_415_Ins_0_in_037648_4
340
0
102
{BLKREFS
331
115
102
}
 70
     0
280
     1
281
     0
  0
ENDTAB
  0
ENDSEC
  0
SECTION
  2
BLOCKS
  0
BLOCK
  5
20
330
1F
100
AcDbEntity
  8
0
100
AcDbBlockBegin
  2
*Model_Space
 70
     0
 10
0.0
 20
0.0
 30
0.0
  3
*Model_Space
  1

  0
ENDBLK
  5
21
330
1F
100
AcDbEntity
  8
0
100
AcDbBlockEnd
  0
BLOCK
  5
1C
330
1B
100
AcDbEntity
 67
     1
  8
0
100
AcDbBlockBegin
  2
*Paper_Space
 70
     0
 10
0.0
 20
0.0
 30
0.0
  3
*Paper_Space
  1

  0
ENDBLK
  5
1D
330
1B
100
AcDbEntity
 67
     1
  8
0
100
AcDbBlockEnd
  0
BLOCK
  5
24
330
23
100
AcDbEntity
  8
0
100
AcDbBlockBegin
  2
*Paper_Space0
 70
     0
 10
0.0
 20
0.0
 30
0.0
  3
*Paper_Space0
  1

  0
ENDBLK
  5
25
330
23
100
AcDbEntity
  8
0
100
AcDbBlockEnd
  0
BLOCK
  5
70
330
6E
100
AcDbEntity
  8
0
100
AcDbBlockBegin
  2
1_037648_4
 70
     2
 10
0.0
 20
0.0
 30
0.0
  3
1_037648_4
  1

  0
ATTDEF
  5
73
330
6E
100
AcDbEntity
  8
AM_6
100
AcDbText
 10
10.0925
 20
3.987499999999999
 30
0.0
 40
0.5
  1
TAF Units - Inch - Gray Iron
100
AcDbAttributeDefinition
  3

  2
NN
 70
     8
280
     0
  0
ATTDEF
  5
74
330
6E
100
AcDbEntity
  8
AM_6
100
AcDbText
 10
10.0925
 20
3.487499999999999
 30
0.0
 40
0.5
  1
Taf Bearings
100
AcDbAttributeDefinition
  3

  2
NT
 70
     8
280
     0
  0
ATTDEF
  5
75
330
6E
100
AcDbEntity
  8
AM_6
100
AcDbText
 10
10.0925
 20
2.987499999999999
 30
0.0
 40
0.5
  1
037648
100
AcDbAttributeDefinition
  3

  2
NB
 70
     8
280
     0
  0
ATTDEF
  5
76
330
6E
100
AcDbEntity
  8
AM_6
100
AcDbText
 10
10.0925
 20
2.487499999999999
 30
0.0
 40
0.5
  1
$PN.
100
AcDbAttributeDefinition
  3

  2
NBSYN
 70
     8
280
     0
  0
ATTDEF
  5
77
330
6E
100
AcDbEntity
  8
AM_6
100
AcDbText
 10
10.0925
 20
1.987499999999999
 30
0.0
 40
0.5
  1
037648
100
AcDbAttributeDefinition
  3

  2
LINA
 70
     8
280
     0
  0
ATTDEF
  5
78
330
6E
100
AcDbEntity
  8
AM_6
100
AcDbText
 10
10.0925
 20
1.487499999999999
 30
0.0
 40
0.5
  1
4-15/16
100
AcDbAttributeDefinition
  3

  2
SS
 70
     8
280
     0
  0
ATTDEF
  5
79
330
6E
100
AcDbEntity
  8
AM_6
100
AcDbText
 10
10.0925
 20
0.9874999999999994
 30
0.0
 40
0.5
  1
037648
100
AcDbAttributeDefinition
  3

  2
PN
 70
     8
280
     0
  0
ATTDEF
  5
7A
330
6E
100
AcDbEntity
  8
AM_6
100
AcDbText
 10
10.0925
 20
0.4874999999999994
 30
0.0
 40
0.5
  1
S1U-TAF-415
100
AcDbAttributeDefinition
  3

  2
DESCRIPTION
 70
     8
280
     0
  0
ATTDEF
  5
7B
330
6E
100
AcDbEntity
  8
AM_6
100
AcDbText
 10
10.0925
 20
-0.0125000000000006
 30
0.0
 40
0.5
  1
7-1/4
100
AcDbAttributeDefinition
  3

  2
A
 70
     8
280
     0
  0
ATTDEF
  5
7C
330
6E
100
AcDbEntity
  8
AM_6
100
AcDbText
 10
10.0925
 20
-0.5125000000000006
 30
0.0
 40
0.5
  1
5-1/8
100
AcDbAttributeDefinition
  3

  2
B
 70
     8
280
     0
  0
ATTDEF
  5
7D
330
6E
100
AcDbEntity
  8
AM_6
100
AcDbText
 10
10.0925
 20
-1.012500000000001
 30
0.0
 40
0.5
  1
3-1/8
100
AcDbAttributeDefinition
  3

  2
C
 70
     8
280
     0
  0
ATTDEF
  5
7E
330
6E
100
AcDbEntity
  8
AM_6
100
AcDbText
 10
10.0925
 20
-1.512500000000001
 30
0.0
 40
0.5
  1
9.563
100
AcDbAttributeDefinition
  3

  2
EM
 70
     8
280
     0
  0
ATTDEF
  5
7F
330
6E
100
AcDbEntity
  8
AM_6
100
AcDbText
 10
10.0925
 20
-2.012500000000001
 30
0.0
 40
0.5
  1
9-11/16
100
AcDbAttributeDefinition
  3

  2
EC
 70
     8
280
     0
  0
ATTDEF
  5
80
330
6E
100
AcDbEntity
  8
AM_6
100
AcDbText
 10
10.0925
 20
-2.512500000000001
 30
0.0
 40
0.5
  1
15/16
100
AcDbAttributeDefinition
  3

  2
H
 70
     8
280
     0
  0
ATTDEF
  5
81
330
6E
100
AcDbEntity
  8
AM_6
100
AcDbText
 10
10.0925
 20
-3.012500000000001
 30
0.0
 40
0.5
  1
10.185
100
AcDbAttributeDefinition
  3

  2
K
 70
     8
280
     0
  0
ATTDEF
  5
82
330
6E
100
AcDbEntity
  8
AM_6
100
AcDbText
 10
10.0925
 20
-3.512500000000001
 30
0.0
 40
0.5
  1
+0.000 to -0.003
100
AcDbAttributeDefinition
  3

  2
TOL
 70
     8
280
     0
  0
ATTDEF
  5
83
330
6E
100
AcDbEntity
  8
AM_6
100
AcDbText
 10
10.0925
 20
-4.012500000000001
 30
0.0
 40
0.5
  1
7-13/32
100
AcDbAttributeDefinition
  3

  2
L
 70
     8
280
     0
  0
ATTDEF
  5
84
330
6E
100
AcDbEntity
  8
AM_6
100
AcDbText
 10
10.0925
 20
-4.512500000000001
 30
0.0
 40
0.5
  1
6-3/16
100
AcDbAttributeDefinition
  3

  2
M
 70
     8
280
     0
  0
ATTDEF
  5
85
330
6E
100
AcDbEntity
  8
AM_6
100
AcDbText
 10
10.0925
 20
-5.012500000000001
 30
0.0
 40
0.5
  1
baldor
100
AcDbAttributeDefinition
  3

  2
COMPANY
 70
     8
280
     0
  0
INSERT
  5
87
330
6E
100
AcDbEntity
  8
0
100
AcDbBlockReference
  2
2_4_15_16C_1_0_in_037648_4
 10
0.0
 20
0.0
 30
0.0
  0
INSERT
  5
C3
330
6E
100
AcDbEntity
  8
0
100
AcDbBlockReference
  2
3_4_15_16C_2_0_in_037648_4
 10
0.0
 20
0.0
 30
0.0
  0
INSERT
  5
F8
330
6E
100
AcDbEntity
  8
0
100
AcDbBlockReference
  2
4_405015E_Inch_0_in_037648_4
 10
0.0
 20
0.0
 30
0.0
  0
INSERT
  5
115
330
6E
100
AcDbEntity
  8
0
100
AcDbBlockReference
  2
5_S1U_TAF_415_Ins_0_in_037648_4
 10
0.0
 20
0.0
 30
0.0
  0
ENDBLK
  5
71
330
6E
100
AcDbEntity
  8
0
100
AcDbBlockEnd
  0
BLOCK
  5
88
330
86
100
AcDbEntity
  8
0
100
AcDbBlockBegin
  2
2_4_15_16C_1_0_in_037648_4
 70
     2
 10
0.0
 20
0.0
 30
0.0
  3
2_4_15_16C_1_0_in_037648_4
  1

  0
ATTDEF
  5
8A
330
86
100
AcDbEntity
  8
AM_6
100
AcDbText
 10
8.71875
 20
3.625
 30
0.0
 40
0.5
  1
E-Type Collar -Inch
100
AcDbAttributeDefinition
  3

  2
NN
 70
     8
280
     0
  0
ATTDEF
  5
8B
330
86
100
AcDbEntity
  8
AM_6
100
AcDbText
 10
8.71875
 20
3.125
 30
0.0
 40
0.5
  1
E-Type Bearings
100
AcDbAttributeDefinition
  3

  2
NT
 70
     8
280
     0
  0
ATTDEF
  5
8C
330
86
100
AcDbEntity
  8
AM_6
100
AcDbText
 10
8.71875
 20
2.625
 30
0.0
 40
0.5
  1
4-15/16C
100
AcDbAttributeDefinition
  3

  2
NB
 70
     8
280
     0
  0
ATTDEF
  5
8D
330
86
100
AcDbEntity
  8
AM_6
100
AcDbText
 10
8.71875
 20
2.125
 30
0.0
 40
0.5
  1
$BORE.C
100
AcDbAttributeDefinition
  3

  2
NBSYN
 70
     8
280
     0
  0
ATTDEF
  5
8E
330
86
100
AcDbEntity
  8
AM_6
100
AcDbText
 10
8.71875
 20
1.625
 30
0.0
 40
0.5
  1
4-15/16C
100
AcDbAttributeDefinition
  3

  2
LINA
 70
     8
280
     0
  0
ATTDEF
  5
8F
330
86
100
AcDbEntity
  8
AM_6
100
AcDbText
 10
8.71875
 20
1.125
 30
0.0
 40
0.5
  1
4-15/16
100
AcDbAttributeDefinition
  3

  2
BORE
 70
     8
280
     0
  0
ATTDEF
  5
90
330
86
100
AcDbEntity
  8
AM_6
100
AcDbText
 10
8.71875
 20
0.625
 30
0.0
 40
0.5
  1
7.43750
100
AcDbAttributeDefinition
  3

  2
L
 70
     8
280
     0
  0
ATTDEF
  5
91
330
86
100
AcDbEntity
  8
AM_6
100
AcDbText
 10
8.71875
 20
0.125
 30
0.0
 40
0.5
  1
7.25
100
AcDbAttributeDefinition
  3

  2
A
 70
     8
280
     0
  0
ATTDEF
  5
92
330
86
100
AcDbEntity
  8
AM_6
100
AcDbText
 10
8.71875
 20
-0.375
 30
0.0
 40
0.5
  1
3.75
100
AcDbAttributeDefinition
  3

  2
B
 70
     8
280
     0
  0
ATTDEF
  5
93
330
86
100
AcDbEntity
  8
AM_6
100
AcDbText
 10
8.71875
 20
-0.875
 30
0.0
 40
0.5
  1
5.79
100
AcDbAttributeDefinition
  3

  2
C
 70
     8
280
     0
  0
ATTDEF
  5
94
330
86
100
AcDbEntity
  8
AM_6
100
AcDbText
 10
8.71875
 20
-1.375
 30
0.0
 40
0.5
  1
8.12
100
AcDbAttributeDefinition
  3

  2
D
 70
     8
280
     0
  0
ATTDEF
  5
95
330
86
100
AcDbEntity
  8
AM_6
100
AcDbText
 10
8.71875
 20
-1.875
 30
0.0
 40
0.5
  1
0.78
100
AcDbAttributeDefinition
  3

  2
E
 70
     8
280
     0
  0
ATTDEF
  5
96
330
86
100
AcDbEntity
  8
AM_6
100
AcDbText
 10
8.71875
 20
-2.375
 30
0.0
 40
0.5
  1
0.62
100
AcDbAttributeDefinition
  3

  2
F
 70
     8
280
     0
  0
ATTDEF
  5
97
330
86
100
AcDbEntity
  8
AM_6
100
AcDbText
 10
8.71875
 20
-2.875
 30
0.0
 40
0.5
  1
5/8-11
100
AcDbAttributeDefinition
  3

  2
CS
 70
     8
280
     0
  0
ATTDEF
  5
98
330
86
100
AcDbEntity
  8
AM_6
100
AcDbText
 10
8.71875
 20
-3.375
 30
0.0
 40
0.5
  1
0.6250
100
AcDbAttributeDefinition
  3

  2
NDM
 70
     8
280
     0
  0
ATTDEF
  5
99
330
86
100
AcDbEntity
  8
AM_6
100
AcDbText
 10
8.71875
 20
-3.875
 30
0.0
 40
0.5
  1
0.5270
100
AcDbAttributeDefinition
  3

  2
KDM
 70
     8
280
     0
  0
ATTDEF
  5
9A
330
86
100
AcDbEntity
  8
AM_6
100
AcDbText
 10
8.71875
 20
-4.375
 30
0.0
 40
0.5
  1
baldor
100
AcDbAttributeDefinition
  3

  2
COMPANY
 70
     8
280
     0
  0
LINE
  5
9D
330
86
100
AcDbEntity
  8
AM_9
100
AcDbLine
 10
2.682477127869519
 20
3.23792113407955
 30
0.0
 11
2.675302876151743
 21
3.246869482009547
 31
0.0
  0
LINE
  5
9E
330
86
100
AcDbEntity
  8
AM_9
100
AcDbLine
 10
2.675317733733158
 20
2.763149049652447
 30
0.0
 11
2.682477127869519
 21
2.77207886592045
 31
0.0
  0
LWPOLYLINE
  5
9F
330
86
100
AcDbEntity
  8
AM_9
100
AcDbPolyline
 90
       26
 70
     0
 43
0.0
 10
2.67512710691493
 20
3.24708871429278
 10
2.672624900204763
 20
3.250102238252718
 10
2.655061628270261
 20
3.265933789599361
 10
2.635515524085129
 20
3.274508192293041
 10
2.614877377168269
 20
3.275104225244679
 10
2.593134180229573
 20
3.267355964910269
 10
2.572013135440688
 20
3.251729548043472
 10
2.55118782841324
 20
3.227678465270158
 10
2.532963318740971
 20
3.197720212568434
 10
2.516684648199885
 20
3.160423992568245
 10
2.504564685989068
 20
3.120830734906643
 10
2.495753385644373
 20
3.076152755146135
 10
2.491408971215338
 20
3.032932153462447
 10
2.490934207018453
 20
2.987513504108304
 10
2.494208333020257
 20
2.945402320322347
 10
2.501160834845112
 20
2.903792744831404
 10
2.51116342580607
 20
2.865808606914656
 10
2.524259165546245
 20
2.830617058241409
 10
2.53990290489105
 20
2.799697858352971
 10
2.557804378217862
 20
2.773647608219335
 10
2.577384809612997
 20
2.753512551682243
 10
2.598139029224233
 20
2.740120624592368
 10
2.619077669786209
 20
2.734370582093651
 10
2.639967736093444
 20
2.736711937046945
 10
2.659376945611304
 20
2.747165879077802
 10
2.675138398323263
 20
2.762925367003013
  0
LINE
  5
A0
330
86
100
AcDbEntity
  8
AM_9
100
AcDbLine
 10
2.680100663767532
 20
2.769555868923027
 30
0.0
 11
2.701754149328551
 21
2.811589506127452
 31
0.0
  0
LWPOLYLINE
  5
A1
330
86
100
AcDbEntity
  8
AM_9
100
AcDbPolyline
 90
        3
 70
     0
 43
0.0
 10
2.675138398323263
 20
2.762925367003013
 10
2.677628670982916
 20
2.766140554507453
 10
2.680100663767532
 20
2.769555868923027
  0
LINE
  5
A2
330
86
100
AcDbEntity
  8
AM_9
100
AcDbLine
 10
2.630588562133445
 20
2.7417
 30
0.0
 11
3.32574173992034
 21
2.7417
 31
0.0
  0
LINE
  5
A3
330
86
100
AcDbEntity
  8
AM_9
100
AcDbLine
 10
3.32574173992034
 20
3.2683
 30
0.0
 11
2.630588562133445
 21
3.2683
 31
0.0
  0
LINE
  5
A4
330
86
100
AcDbEntity
  8
AM_9
100
AcDbLine
 10
3.273853174184265
 20
2.77207886592045
 30
0.0
 11
3.306610149402927
 21
2.731221530142193
 31
0.0
  0
LINE
  5
A5
330
86
100
AcDbEntity
  8
AM_9
100
AcDbLine
 10
3.306410398095047
 20
3.278529322731012
 30
0.0
 11
3.273853174184265
 21
3.23792113407955
 31
0.0
  0
ELLIPSE
  5
A6
330
86
100
AcDbEntity
  8
AM_9
100
AcDbEllipse
 10
3.325741739920397
 20
3.005000000000097
 30
0.0
 11
-4.836742533234439E-17
 21
-0.2633000000001071
 31
0.0
210
0.0
220
0.0
230
1.0
 40
0.4226182617407555
 41
3.47801094634789
 42
5.926638608019933
  0
LWPOLYLINE
  5
A7
330
86
100
AcDbEntity
  8
AM_9
100
AcDbPolyline
 90
       13
 70
     0
 43
0.0
 10
2.701754149328551
 20
2.811589506127452
 10
2.711602736523003
 20
2.841457918583465
 10
2.71974067330758
 20
2.875927983491367
 10
2.726244877035884
 20
2.917169329548115
 10
2.730245114615701
 20
2.962537771137257
 10
2.731423297475353
 20
3.005807592076208
 10
2.730077465418883
 20
3.050356558953872
 10
2.726414909544383
 20
3.091425867020965
 10
2.720293243522049
 20
3.131217420264185
 10
2.711954246273755
 20
3.167280065128249
 10
2.701187260869988
 20
3.199864339861981
 10
2.688079703535927
 20
3.2277362041821
 10
2.67512710691493
 20
3.24708871429278
  0
LWPOLYLINE
  5
A8
330
86
100
AcDbEntity
  8
AM_9
100
AcDbPolyline
 90
       38
 70
     0
 43
0.0
 10
-0.1890555923615477
 20
2.802529807230673
 10
-0.1558491639781849
 20
2.778403785881555
 10
-0.1195407029820079
 20
2.759227261113208
 10
-0.0738343177972779
 20
2.743471842358723
 10
-0.0261609166152218
 20
2.735314363338737
 10
0.0235223945387242
 20
2.73512093805323
 10
0.072549820626238
 20
2.743121151585504
 10
0.1198285845986902
 20
2.759385974373646
 10
0.1636423748675177
 20
2.783413645596692
 10
0.2019610435906229
 20
2.814171109459538
 10
0.2343252271023393
 20
2.851123945135252
 10
0.2585757274814712
 20
2.891542242702164
 10
0.2753462796926268
 20
2.935601304475706
 10
0.283584884888875
 20
2.979525871597895
 10
0.2841644141119828
 20
3.024216797712859
 10
0.2773049239853014
 20
3.066857020775463
 10
0.2635184366209081
 20
3.107777060132173
 10
0.2430288488622691
 20
3.146121291392521
 10
0.2166730443462369
 20
3.180691758131177
 10
0.1837813901016258
 20
3.211786115472182
 10
0.1463559252289989
 20
3.237270348290474
 10
0.1032370946969244
 20
3.25735090387716
 10
0.0574310108537829
 20
3.270257032398428
 10
0.0083953173637595
 20
3.275689427738512
 10
-0.0408710726031625
 20
3.273023533481696
 10
-0.0896658207183846
 20
3.262001506228489
 10
-0.1358943649986353
 20
3.242954209206104
 10
-0.1777700441397832
 20
3.216473633894367
 10
-0.2144225073758017
 20
3.183168665346456
 10
-0.2436034289906677
 20
3.145203721245763
 10
-0.2656530215300298
 20
3.102695583472499
 10
-0.2790548681686071
 20
3.059270955432257
 10
-0.2847206750741648
 20
3.014171897729927
 10
-0.282558608388745
 20
2.970730913816495
 10
-0.273178327559687
 20
2.928265204321848
 10
-0.256954575077086
 20
2.888243704076126
 10
-0.2345002045584699
 20
2.851364794538956
 10
-0.1890555923615482
 20
2.802529807230673
  0
LINE
  5
A9
330
86
100
AcDbEntity
  8
AM_9
100
AcDbLine
 10
-2.895
 20
3.625
 30
0.0
 11
-2.895
 21
2.385
 31
0.0
  0
LINE
  5
AA
330
86
100
AcDbEntity
  8
AM_9
100
AcDbLine
 10
2.895
 20
2.385
 30
0.0
 11
2.895
 21
3.625
 31
0.0
  0
LINE
  5
AB
330
86
100
AcDbEntity
  8
AM_9
100
AcDbLine
 10
-3.71875
 20
2.5625
 30
0.0
 11
-3.71875
 21
2.385
 31
0.0
  0
LINE
  5
AC
330
86
100
AcDbEntity
  8
AM_9
100
AcDbLine
 10
3.71875
 20
2.385
 30
0.0
 11
3.71875
 21
2.5625
 31
0.0
  0
LINE
  5
AD
330
86
100
AcDbEntity
  8
AM_9
100
AcDbLine
 10
3.71875
 20
2.385
 30
0.0
 11
-3.71875
 21
2.385
 31
0.0
  0
ELLIPSE
  5
AE
330
86
100
AcDbEntity
  8
AM_9
100
AcDbEllipse
 10
2.630588562133445
 20
3.004999999999999
 30
0.0
 11
-4.836742533232465E-17
 21
-0.2632999999999996
 31
0.0
210
0.0
220
0.0
230
1.0
 40
0.4226182617407002
 41
0.0
 42
6.283185307179586
  0
LINE
  5
B1
330
86
100
AcDbEntity
  8
AM_7
100
AcDbLine
 10
-0.2764649999999997
 20
3.005
 30
0.0
 11
0.2764650000000003
 21
3.005
 31
0.0
  0
ELLIPSE
  5
B3
330
86
100
AcDbEntity
  8
AM_4
100
AcDbEllipse
 10
3.32574173992034
 20
3.004999999999999
 30
0.0
 11
-4.836742533232465E-17
 21
-0.2632999999999996
 31
0.0
210
0.0
220
0.0
230
1.0
 40
0.4226182617407002
 41
5.926638608020244
 42
9.76119625352691
  0
LWPOLYLINE
  5
B4
330
86
100
AcDbEntity
  8
AM_4
100
AcDbPolyline
 90
       14
 70
     0
 43
0.0
 10
3.306757227383277
 20
2.731038081760643
 10
3.290299498032945
 20
2.754916190456763
 10
3.273056257566819
 20
2.788620627686077
 10
3.258236077083775
 20
2.828119494759424
 10
3.24618737071443
 20
2.873290636624805
 10
3.237679602364404
 20
2.922397686718016
 10
3.233071748221957
 20
2.975100801047603
 10
3.23280892805658
 20
3.02847318489101
 10
3.237061076265442
 20
3.082695034179159
 10
3.245502885327448
 20
3.133534894411965
 10
3.258306748865622
 20
3.182101841722444
 10
3.274015390890979
 20
3.223545498986923
 10
3.293155698871818
 20
3.259739457840696
 10
3.306750604614499
 20
3.278953657097841
  0
LWPOLYLINE
  5
B5
330
86
100
AcDbEntity
  8
AM_4
100
AcDbPolyline
 90
       19
 70
     0
 43
0.0
 10
3.306750604614499
 20
3.278953657097841
 10
3.313169737240617
 20
3.286496461486706
 10
3.335165156974993
 20
3.305816952881941
 10
3.356170118969396
 20
3.315583246458646
 10
3.377643711693949
 20
3.316975164703139
 10
3.397197197026125
 20
3.31013552719689
 10
3.416005519915202
 20
3.29507065376448
 10
3.432678027443099
 20
3.272998267692158
 10
3.44773673236853
 20
3.243483343148808
 10
3.460504489242829
 20
3.207826635871118
 10
3.471025547372215
 20
3.165980711941309
 10
3.478905093337972
 20
3.119453728341878
 10
3.484052957820698
 20
3.068591140423817
 10
3.486191410862389
 20
3.015885073808555
 10
3.485226596165419
 20
2.961393454194156
 10
3.481148404369621
 20
2.908973667131356
 10
3.473726282951762
 20
2.857819466841466
 10
3.465899376145839
 20
2.821709364214355
 10
3.456041387053348
 20
2.788270751909425
  0
CIRCLE
  5
B6
330
86
100
AcDbEntity
  8
AM_4
100
AcDbCircle
 10
0.0000000000000003
 20
3.005
 30
0.0
 40
0.2633
  0
LINE
  5
B7
330
86
100
AcDbEntity
  8
AM_4
100
AcDbLine
 10
3.512083333333333
 20
3.625
 30
0.0
 11
-3.512083333333333
 21
3.625
 31
0.0
  0
ARC
  5
B8
330
86
100
AcDbEntity
  8
AM_4
100
AcDbCircle
 10
-3.512083333333332
 20
3.418333333333333
 30
0.0
 40
0.206666666666667
100
AcDbArc
 50
90.0
 51
179.9999991462263
  0
ARC
  5
B9
330
86
100
AcDbEntity
  8
AM_4
100
AcDbCircle
 10
3.512083333333332
 20
3.418333333333333
 30
0.0
 40
0.2066666666666674
100
AcDbArc
 50
0.0000008537736463
 51
90.0
  0
LWPOLYLINE
  5
BA
330
86
100
AcDbEntity
  8
AM_4
100
AcDbPolyline
 90
       10
 70
     0
 43
0.0
 10
3.456041387053348
 20
2.788270751909425
 10
3.443758099183697
 20
2.757627978454835
 10
3.429250993279038
 20
2.731673546221306
 10
3.411372951479039
 20
2.710349779305251
 10
3.391130432352123
 20
2.696854522972219
 10
3.370988597853569
 20
2.692504189358063
 10
3.349630343548614
 20
2.696574633762689
 10
3.329259213140752
 20
2.708427513770628
 10
3.308991069874493
 20
2.728308881641792
 10
3.306757227383277
 20
2.731038081760643
  0
LWPOLYLINE
  5
BB
330
86
100
AcDbEntity
  8
AM_4
100
AcDbPolyline
 90
       38
 70
     0
 43
0.0
 10
-0.1944596239017587
 20
2.766908164558774
 10
-0.2262614353820729
 20
2.799592615436441
 10
-0.2529483441688685
 20
2.836582010629103
 10
-0.2764937023453391
 20
2.883086055084843
 10
-0.2922146085639098
 20
2.932803020705212
 10
-0.2997643011657535
 20
2.985972748879066
 10
-0.298494803590399
 20
3.03966493515152
 10
-0.2881113427365565
 20
3.093130579647842
 10
-0.2689254284819961
 20
3.144085630984269
 10
-0.2414570515080471
 20
3.190715570236494
 10
-0.206414629077434
 20
3.231933772503582
 10
-0.1657763302977332
 20
3.265489360106697
 10
-0.1199285864315552
 20
3.291475421617708
 10
-0.0721662471010925
 20
3.308296144180521
 10
-0.022216056920852
 20
3.316642785559036
 10
0.0267050302308033
 20
3.316228060040426
 10
0.0748629823324228
 20
3.30762409116023
 10
0.1204860715358904
 20
3.291190755604176
 10
0.1628180735973153
 20
3.267546119666964
 10
0.2014946752049486
 20
3.236635866841996
 10
0.2347077888318882
 20
3.199909291148428
 10
0.2625216890276037
 20
3.15668806518813
 10
0.2830252176150623
 20
3.109537872522985
 10
0.2959842506471136
 20
3.057887375988935
 10
0.3003509244390034
 20
3.004804507398104
 10
0.2957386628550155
 20
2.950661570918159
 10
0.2821907590930645
 20
2.898050490730989
 10
0.2598833121023529
 20
2.848488121910576
 10
0.2294773018143821
 20
2.803462837718572
 10
0.1924452635862577
 20
2.76518955593742
 10
0.1493462834432963
 20
2.733917226745454
 10
0.103154331797983
 20
2.711571596154325
 10
0.0537865871427449
 20
2.697558489047447
 10
0.004676281002689
 20
2.692571711027186
 10
-0.0445702417685903
 20
2.695964604645163
 10
-0.0916506265317932
 20
2.707454673236685
 10
-0.1362002786270626
 20
2.726517380716325
 10
-0.1944596239152355
 20
2.766908164527706
  0
LINE
  5
BC
330
86
100
AcDbEntity
  8
AM_4
100
AcDbLine
 10
-3.71875
 20
3.418333333333333
 30
0.0
 11
-3.71875
 21
2.5625
 31
0.0
  0
LINE
  5
BD
330
86
100
AcDbEntity
  8
AM_4
100
AcDbLine
 10
3.71875
 20
2.5625
 30
0.0
 11
3.71875
 21
3.418333333333333
 31
0.0
  0
LINE
  5
BE
330
86
100
AcDbEntity
  8
AM_4
100
AcDbLine
 10
3.71875
 20
3.418333333333333
 30
0.0
 11
-3.71875
 21
3.418333333333333
 31
0.0
  0
ARC
  5
C0
330
86
100
AcDbEntity
  8
AM_5
100
AcDbCircle
 10
-0.0000000000000157
 20
3.004999999999947
 30
0.0
 40
0.312500000000055
100
AcDbArc
 50
63.85157066748354
 51
75.0
  0
ARC
  5
C1
330
86
100
AcDbEntity
  8
AM_5
100
AcDbCircle
 10
0.0000000000000021
 20
3.004999999999999
 30
0.0
 40
0.3125000000000006
100
AcDbArc
 50
75.0000000000007
 51
15.00000000000027
  0
ENDBLK
  5
89
330
86
100
AcDbEntity
  8
0
100
AcDbBlockEnd
  0
BLOCK
  5
C4
330
C2
100
AcDbEntity
  8
0
100
AcDbBlockBegin
  2
3_4_15_16C_2_0_in_037648_4
 70
     2
 10
0.0
 20
0.0
 30
0.0
  3
3_4_15_16C_2_0_in_037648_4
  1

  0
ATTDEF
  5
C6
330
C2
100
AcDbEntity
  8
AM_6
100
AcDbText
 10
8.71875
 20
-2.385
 30
0.0
 40
0.5
  1
E-Type Collar -Inch
100
AcDbAttributeDefinition
  3

  2
NN
 70
     8
280
     0
  0
ATTDEF
  5
C7
330
C2
100
AcDbEntity
  8
AM_6
100
AcDbText
 10
8.71875
 20
-2.885
 30
0.0
 40
0.5
  1
E-Type Bearings
100
AcDbAttributeDefinition
  3

  2
NT
 70
     8
280
     0
  0
ATTDEF
  5
C8
330
C2
100
AcDbEntity
  8
AM_6
100
AcDbText
 10
8.71875
 20
-3.385
 30
0.0
 40
0.5
  1
4-15/16C
100
AcDbAttributeDefinition
  3

  2
NB
 70
     8
280
     0
  0
ATTDEF
  5
C9
330
C2
100
AcDbEntity
  8
AM_6
100
AcDbText
 10
8.71875
 20
-3.885
 30
0.0
 40
0.5
  1
$BORE.C
100
AcDbAttributeDefinition
  3

  2
NBSYN
 70
     8
280
     0
  0
ATTDEF
  5
CA
330
C2
100
AcDbEntity
  8
AM_6
100
AcDbText
 10
8.71875
 20
-4.385
 30
0.0
 40
0.5
  1
4-15/16C
100
AcDbAttributeDefinition
  3

  2
LINA
 70
     8
280
     0
  0
ATTDEF
  5
CB
330
C2
100
AcDbEntity
  8
AM_6
100
AcDbText
 10
8.71875
 20
-4.885
 30
0.0
 40
0.5
  1
4-15/16
100
AcDbAttributeDefinition
  3

  2
BORE
 70
     8
280
     0
  0
ATTDEF
  5
CC
330
C2
100
AcDbEntity
  8
AM_6
100
AcDbText
 10
8.71875
 20
-5.385
 30
0.0
 40
0.5
  1
7.43750
100
AcDbAttributeDefinition
  3

  2
L
 70
     8
280
     0
  0
ATTDEF
  5
CD
330
C2
100
AcDbEntity
  8
AM_6
100
AcDbText
 10
8.71875
 20
-5.885
 30
0.0
 40
0.5
  1
7.25
100
AcDbAttributeDefinition
  3

  2
A
 70
     8
280
     0
  0
ATTDEF
  5
CE
330
C2
100
AcDbEntity
  8
AM_6
100
AcDbText
 10
8.71875
 20
-6.385
 30
0.0
 40
0.5
  1
3.75
100
AcDbAttributeDefinition
  3

  2
B
 70
     8
280
     0
  0
ATTDEF
  5
CF
330
C2
100
AcDbEntity
  8
AM_6
100
AcDbText
 10
8.71875
 20
-6.885
 30
0.0
 40
0.5
  1
5.79
100
AcDbAttributeDefinition
  3

  2
C
 70
     8
280
     0
  0
ATTDEF
  5
D0
330
C2
100
AcDbEntity
  8
AM_6
100
AcDbText
 10
8.71875
 20
-7.385
 30
0.0
 40
0.5
  1
8.12
100
AcDbAttributeDefinition
  3

  2
D
 70
     8
280
     0
  0
ATTDEF
  5
D1
330
C2
100
AcDbEntity
  8
AM_6
100
AcDbText
 10
8.71875
 20
-7.885
 30
0.0
 40
0.5
  1
0.78
100
AcDbAttributeDefinition
  3

  2
E
 70
     8
280
     0
  0
ATTDEF
  5
D2
330
C2
100
AcDbEntity
  8
AM_6
100
AcDbText
 10
8.71875
 20
-8.385
 30
0.0
 40
0.5
  1
0.62
100
AcDbAttributeDefinition
  3

  2
F
 70
     8
280
     0
  0
ATTDEF
  5
D3
330
C2
100
AcDbEntity
  8
AM_6
100
AcDbText
 10
8.71875
 20
-8.885
 30
0.0
 40
0.5
  1
5/8-11
100
AcDbAttributeDefinition
  3

  2
CS
 70
     8
280
     0
  0
ATTDEF
  5
D4
330
C2
100
AcDbEntity
  8
AM_6
100
AcDbText
 10
8.71875
 20
-9.385
 30
0.0
 40
0.5
  1
0.6250
100
AcDbAttributeDefinition
  3

  2
NDM
 70
     8
280
     0
  0
ATTDEF
  5
D5
330
C2
100
AcDbEntity
  8
AM_6
100
AcDbText
 10
8.71875
 20
-9.885
 30
0.0
 40
0.5
  1
0.5270
100
AcDbAttributeDefinition
  3

  2
KDM
 70
     8
280
     0
  0
ATTDEF
  5
D6
330
C2
100
AcDbEntity
  8
AM_6
100
AcDbText
 10
8.71875
 20
-10.385
 30
0.0
 40
0.5
  1
baldor
100
AcDbAttributeDefinition
  3

  2
COMPANY
 70
     8
280
     0
  0
LINE
  5
D7
330
C2
100
AcDbEntity
  8
AM_9
100
AcDbLine
 10
2.682477127869519
 20
-2.77207886592045
 30
0.0
 11
2.675304238363205
 21
-2.763132217058536
 31
0.0
  0
LINE
  5
D8
330
C2
100
AcDbEntity
  8
AM_9
100
AcDbLine
 10
2.675354186340925
 20
-3.24680548349887
 30
0.0
 11
2.682477127869519
 21
-3.237921134079549
 31
0.0
  0
LWPOLYLINE
  5
D9
330
C2
100
AcDbEntity
  8
AM_9
100
AcDbPolyline
 90
       26
 70
     0
 43
0.0
 10
2.675128410022994
 20
-2.762912910562894
 10
2.672043365032808
 20
-2.759227261113208
 10
2.654106843910934
 20
-2.743471842358723
 10
2.634709994373723
 20
-2.735314363338737
 10
2.613728132598836
 20
-2.73512093805323
 10
2.592276143849798
 20
-2.743121151585504
 10
2.570866289892421
 20
-2.759385974373646
 10
2.550407748262485
 20
-2.783413645596692
 10
2.532014288060892
 20
-2.814171109459537
 10
2.516122010382118
 20
-2.851123945135251
 10
2.503996409019408
 20
-2.891542242702164
 10
2.49550031706991
 20
-2.935601304475706
 10
2.491296628233019
 20
-2.979525871597895
 10
2.490997686898631
 20
-3.024216797712858
 10
2.494503957432427
 20
-3.066857020775462
 10
2.501500990402004
 20
-3.107777060132173
 10
2.511791184214017
 20
-3.146121291392521
 10
2.524832099043387
 20
-3.180691758131177
 10
2.540797558450735
 20
-3.211786115472182
 10
2.558553333587398
 20
-3.237270348290474
 10
2.578458472022645
 20
-3.257350903877159
 10
2.598973313021238
 20
-3.270257032398427
 10
2.620196802613369
 20
-3.275689427738512
 10
2.640772417673992
 20
-3.273023533481695
 10
2.660391735198755
 20
-3.262001506228489
 10
2.67513737687715
 20
-3.247075907003969
  0
LWPOLYLINE
  5
DA
330
C2
100
AcDbEntity
  8
AM_9
100
AcDbPolyline
 90
       12
 70
     0
 43
0.0
 10
2.681228720828051
 20
-3.238808106817703
 10
2.693935655770475
 20
-3.216473633894367
 10
2.707173239164445
 20
-3.183168665346456
 10
2.717407001545289
 20
-3.145203721245763
 10
2.724960959032849
 20
-3.102695583472499
 10
2.729479145003129
 20
-3.059270955432257
 10
2.731369139940556
 20
-3.014171897729926
 10
2.730650295463365
 20
-2.970730913816495
 10
2.72750381548772
 20
-2.928265204321848
 10
2.721999919048788
 20
-2.888243704076126
 10
2.714243316317262
 20
-2.851364794538956
 10
2.698058719417773
 20
-2.802529807230673
  0
LWPOLYLINE
  5
DB
330
C2
100
AcDbEntity
  8
AM_9
100
AcDbPolyline
 90
        3
 70
     0
 43
0.0
 10
2.67513737687715
 20
-3.247075907003969
 10
2.678300209471636
 20
-3.242954209206103
 10
2.681228720828051
 20
-3.238808106817703
  0
LINE
  5
DC
330
C2
100
AcDbEntity
  8
AM_9
100
AcDbLine
 10
2.630588562133444
 20
-3.2683
 30
0.0
 11
3.325741739920339
 21
-3.2683
 31
0.0
  0
LINE
  5
DD
330
C2
100
AcDbEntity
  8
AM_9
100
AcDbLine
 10
3.325741739920339
 20
-2.7417
 30
0.0
 11
2.630588562133444
 21
-2.7417
 31
0.0
  0
ELLIPSE
  5
DE
330
C2
100
AcDbEntity
  8
AM_9
100
AcDbEllipse
 10
3.325741739920337
 20
-3.004999999999999
 30
0.0
 11
-4.836742533232481E-17
 21
-0.2633000000000005
 31
0.0
210
0.0
220
0.0
230
1.0
 40
0.4226182617406921
 41
3.465008696793362
 42
5.947759424805247
  0
LINE
  5
DF
330
C2
100
AcDbEntity
  8
AM_9
100
AcDbLine
 10
3.273853174184264
 20
-3.23792113407955
 30
0.0
 11
3.306390752609845
 21
-3.27850481918085
 31
0.0
  0
LINE
  5
E0
330
C2
100
AcDbEntity
  8
AM_9
100
AcDbLine
 10
3.306593051599735
 20
-2.731242856002758
 30
0.0
 11
3.273853174184264
 21
-2.772078865920449
 31
0.0
  0
LWPOLYLINE
  5
E1
330
C2
100
AcDbEntity
  8
AM_9
100
AcDbPolyline
 90
       38
 70
     0
 43
0.0
 10
-0.1992725408589318
 20
-2.811589506127452
 10
-0.2269590423429331
 20
-2.841457918583465
 10
-0.2503676924922654
 20
-2.875927983491366
 10
-0.2694459927169147
 20
-2.917169329548115
 10
-0.2813511388790437
 20
-2.962537771137256
 10
-0.2848832987710596
 20
-3.005807592076208
 10
-0.2808494944880305
 20
-3.050356558953872
 10
-0.2699493184728802
 20
-3.091425867020965
 10
-0.2519754550730024
 20
-3.131217420264184
 10
-0.2279599555381692
 20
-3.167280065128249
 10
-0.1976993092374417
 20
-3.19986433986198
 10
-0.1619077332773528
 20
-3.227736204182099
 10
-0.121051474919636
 20
-3.250102238252718
 10
-0.0762153274714792
 20
-3.265933789599361
 10
-0.0281060603636279
 20
-3.27450819229304
 10
0.0208593851685192
 20
-3.275104225244679
 10
0.0706218038747605
 20
-3.267355964910269
 10
0.117343889308195
 20
-3.251729548043472
 10
0.1619954934622473
 20
-3.227678465270157
 10
0.2000111049267931
 20
-3.197720212568434
 10
0.2331909640954591
 20
-3.160423992568244
 10
0.2574456620911543
 20
-3.120830734906643
 10
0.2748492205939403
 20
-3.076152755146135
 10
0.2833609404466016
 20
-3.032932153462447
 10
0.2842883909758516
 20
-2.987513504108304
 10
0.2778815057821708
 20
-2.945402320322347
 10
0.2641912581414405
 20
-2.903792744831404
 10
0.2442863718291857
 20
-2.865808606914655
 10
0.2178403312692897
 20
-2.830617058241409
 10
0.1856469948022177
 20
-2.799697858352971
 10
0.1479537098601512
 20
-2.773647608219335
 10
0.1056036071636555
 20
-2.753512551682243
 10
0.0593232506293241
 20
-2.740120624592368
 10
0.0110366904765644
 20
-2.734370582093651
 10
-0.0389090524227609
 20
-2.736711937046944
 10
-0.0870838619123039
 20
-2.747165879077802
 10
-0.134128578385835
 20
-2.766140554507453
 10
-0.1992725408589317
 20
-2.811589506127452
  0
LWPOLYLINE
  5
E2
330
C2
100
AcDbEntity
  8
AM_9
100
AcDbPolyline
 90
        3
 70
     0
 43
0.0
 10
2.698058719417773
 20
-2.802529807230673
 10
2.685819375635166
 20
-2.778403785881555
 10
2.675128410022994
 20
-2.762912910562894
  0
LINE
  5
E3
330
C2
100
AcDbEntity
  8
AM_9
100
AcDbLine
 10
2.895
 20
-3.625
 30
0.0
 11
2.895
 21
-2.385
 31
0.0
  0
LINE
  5
E4
330
C2
100
AcDbEntity
  8
AM_9
100
AcDbLine
 10
-2.895
 20
-2.385
 30
0.0
 11
-2.895
 21
-3.625
 31
0.0
  0
LINE
  5
E5
330
C2
100
AcDbEntity
  8
AM_9
100
AcDbLine
 10
-3.71875
 20
-2.385
 30
0.0
 11
3.71875
 21
-2.385
 31
0.0
  0
LINE
  5
E6
330
C2
100
AcDbEntity
  8
AM_9
100
AcDbLine
 10
3.71875
 20
-2.5625
 30
0.0
 11
3.71875
 21
-2.385
 31
0.0
  0
LINE
  5
E7
330
C2
100
AcDbEntity
  8
AM_9
100
AcDbLine
 10
-3.71875
 20
-2.385
 30
0.0
 11
-3.71875
 21
-2.5625
 31
0.0
  0
ELLIPSE
  5
E8
330
C2
100
AcDbEntity
  8
AM_9
100
AcDbEllipse
 10
2.630588562133444
 20
-3.005
 30
0.0
 11
-4.836742533232465E-17
 21
-0.2632999999999996
 31
0.0
210
0.0
220
0.0
230
1.0
 40
0.4226182617407002
 41
0.0
 42
6.283185307179586
  0
LINE
  5
E9
330
C2
100
AcDbEntity
  8
AM_7
100
AcDbLine
 10
-0.276465
 20
-3.005
 30
0.0
 11
0.276465
 21
-3.005
 31
0.0
  0
ELLIPSE
  5
EA
330
C2
100
AcDbEntity
  8
AM_4
100
AcDbEllipse
 10
3.325741739920339
 20
-3.004999999999999
 30
0.0
 11
-4.836742533232473E-17
 21
-0.2633000000000001
 31
0.0
210
0.0
220
0.0
230
1.0
 40
0.4226182617406995
 41
5.947759424805238
 42
9.748194003972957
  0
LWPOLYLINE
  5
EB
330
C2
100
AcDbEntity
  8
AM_4
100
AcDbPolyline
 90
       15
 70
     0
 43
0.0
 10
3.306742552069884
 20
-3.278943611112602
 10
3.298290259632292
 20
-3.267546119666963
 10
3.280224710805402
 20
-3.236635866841995
 10
3.264420786466338
 20
-3.199909291148427
 10
3.250977859529024
 20
-3.15668806518813
 10
3.240945176155395
 20
-3.109537872522985
 10
3.234553487445841
 20
-3.057887375988935
 10
3.23238755331805
 20
-3.004804507398104
 10
3.234675210705292
 20
-2.950661570918159
 10
3.241355473787617
 20
-2.898050490730989
 10
3.252261342667678
 20
-2.848488121910575
 10
3.266927720905643
 20
-2.803462837718571
 10
3.284483504435269
 20
-2.76518955593742
 10
3.30449659390168
 20
-2.733917226745453
 10
3.306746454859747
 20
-2.731051519759005
  0
LWPOLYLINE
  5
EC
330
C2
100
AcDbEntity
  8
AM_4
100
AcDbPolyline
 90
        8
 70
     0
 43
0.0
 10
3.306746454859747
 20
-2.731051519759005
 10
3.325436400375906
 20
-2.711571596154325
 10
3.347248340130174
 20
-2.697558489047446
 10
3.368348814631124
 20
-2.692571711027186
 10
3.388926203708798
 20
-2.695964604645163
 10
3.408038308382867
 20
-2.707454673236684
 10
3.425631548359242
 20
-2.726517380716324
 10
3.447903168463285
 20
-2.766908164532528
  0
LWPOLYLINE
  5
ED
330
C2
100
AcDbEntity
  8
AM_4
100
AcDbPolyline
 90
       19
 70
     0
 43
0.0
 10
3.447903168463285
 20
-2.766908164532528
 10
3.459709921661722
 20
-2.799592615436441
 10
3.469426904841191
 20
-2.836582010629103
 10
3.477855994966037
 20
-2.883086055084843
 10
3.483405949624636
 20
-2.932803020705212
 10
3.486052623121462
 20
-2.985972748879065
 10
3.485606582321915
 20
-3.03966493515152
 10
3.481964927859521
 20
-3.093130579647841
 10
3.475160557369148
 20
-3.144085630984269
 10
3.465264443468015
 20
-3.190715570236493
 10
3.452370729383584
 20
-3.231933772503581
 10
3.437039169344999
 20
-3.265489360106696
 10
3.419262992005492
 20
-3.291475421617707
 10
3.400191944219993
 20
-3.30829614418052
 10
3.379660851196308
 20
-3.316642785559036
 10
3.358955041514628
 20
-3.316228060040425
 10
3.338010609695627
 20
-3.30762409116023
 10
3.31764024980573
 20
-3.291190755604176
 10
3.306742552069884
 20
-3.278943611112602
  0
LINE
  5
EE
330
C2
100
AcDbEntity
  8
AM_4
100
AcDbLine
 10
3.71875
 20
-3.418333333333333
 30
0.0
 11
3.71875
 21
-2.5625
 31
0.0
  0
LINE
  5
EF
330
C2
100
AcDbEntity
  8
AM_4
100
AcDbLine
 10
-3.71875
 20
-2.5625
 30
0.0
 11
-3.71875
 21
-3.418333333333333
 31
0.0
  0
LWPOLYLINE
  5
F0
330
C2
100
AcDbEntity
  8
AM_4
100
AcDbPolyline
 90
       39
 70
     0
 43
0.0
 10
-0.2163079633506472
 20
-2.78827075195235
 10
-0.1834503734665728
 20
-2.757627978454835
 10
-0.1455224059362858
 20
-2.731673546221306
 10
-0.0999945452928467
 20
-2.710349779305251
 10
-0.0499320028532539
 20
-2.696854522972219
 10
-0.001554142823035
 20
-2.692504189358063
 10
0.0483114818647841
 20
-2.696574633762688
 10
0.094605592470735
 20
-2.708427513770628
 10
0.1395297227153568
 20
-2.728308881641792
 10
0.1800232171906521
 20
-2.754916190456762
 10
0.2166313073243374
 20
-2.788620627686077
 10
0.2475522256087374
 20
-2.828119494759423
 10
0.2723373821158059
 20
-2.873290636624804
 10
0.2896543326953117
 20
-2.922397686718015
 10
0.2989711872089724
 20
-2.975100801047603
 10
0.2995012981953692
 20
-3.028473184891009
 10
0.2909074751947533
 20
-3.082695034179159
 10
0.2737361723977468
 20
-3.133534894411965
 10
0.2474059272526441
 20
-3.182101841722443
 10
0.2146131702113496
 20
-3.223545498986922
 10
0.1738913198659963
 20
-3.259739457840696
 10
0.1303564702953338
 20
-3.286496461486706
 10
0.08130572142774
 20
-3.30581695288194
 10
0.0331923846208135
 20
-3.315583246458646
 10
-0.0173879639672998
 20
-3.316975164703138
 10
-0.0647782949574301
 20
-3.31013552719689
 10
-0.1116689175013123
 20
-3.295070653764479
 10
-0.1543997895867242
 20
-3.272998267692158
 10
-0.1940160489656723
 20
-3.243483343148807
 10
-0.2284251776384111
 20
-3.207826635871118
 10
-0.2573855194880968
 20
-3.165980711941309
 10
-0.2794552627059949
 20
-3.119453728341878
 10
-0.2940581777870078
 20
-3.068591140423817
 10
-0.3001684690991346
 20
-3.015885073808554
 10
-0.2974084130005952
 20
-2.961393454194155
 10
-0.2858005746410437
 20
-2.908973667131355
 10
-0.2649123318713943
 20
-2.857819466841465
 10
-0.2432044300075826
 20
-2.821709364214355
 10
-0.2163079633998517
 20
-2.788270751921688
  0
CIRCLE
  5
F1
330
C2
100
AcDbEntity
  8
AM_4
100
AcDbCircle
 10
0.0
 20
-3.005
 30
0.0
 40
0.2633
  0
LINE
  5
F2
330
C2
100
AcDbEntity
  8
AM_4
100
AcDbLine
 10
-3.512083333333333
 20
-3.625
 30
0.0
 11
3.512083333316808
 21
-3.625
 31
0.0
  0
LINE
  5
F3
330
C2
100
AcDbEntity
  8
AM_4
100
AcDbLine
 10
-3.71875
 20
-3.418333333333333
 30
0.0
 11
3.71875
 21
-3.418333333333333
 31
0.0
  0
ARC
  5
F4
330
C2
100
AcDbEntity
  8
AM_4
100
AcDbCircle
 10
3.512083333333333
 20
-3.418333333333333
 30
0.0
 40
0.2066666666666661
100
AcDbArc
 50
270.0
 51
0.0
  0
ARC
  5
F5
330
C2
100
AcDbEntity
  8
AM_4
100
AcDbCircle
 10
-3.512083333333333
 20
-3.418333333333333
 30
0.0
 40
0.2066666666666661
100
AcDbArc
 50
180.0
 51
270.0
  0
CIRCLE
  5
F6
330
C2
100
AcDbEntity
  8
AM_5
100
AcDbCircle
 10
0.0000000000000001
 20
-3.005
 30
0.0
 40
0.3124999999999999
  0
ENDBLK
  5
C5
330
C2
100
AcDbEntity
  8
0
100
AcDbBlockEnd
  0
BLOCK
  5
F9
330
F7
100
AcDbEntity
  8
0
100
AcDbBlockBegin
  2
4_405015E_Inch_0_in_037648_4
 70
     2
 10
0.0
 20
0.0
 30
0.0
  3
4_405015E_Inch_0_in_037648_4
  1

  0
ATTDEF
  5
FB
330
F7
100
AcDbEntity
  8
AM_6
100
AcDbText
 10
5.21875
 20
0.2525907427704616
 30
0.0
 40
0.5
  1
405015E -Inch
100
AcDbAttributeDefinition
  3

  2
NN
 70
     8
280
     0
  0
ATTDEF
  5
FC
330
F7
100
AcDbEntity
  8
AM_6
100
AcDbText
 10
5.21875
 20
-0.2474092572295384
 30
0.0
 40
0.5
  1
Grease Fitting
100
AcDbAttributeDefinition
  3

  2
NT
 70
     8
280
     0
  0
ATTDEF
  5
FD
330
F7
100
AcDbEntity
  8
AM_6
100
AcDbText
 10
5.21875
 20
-0.7474092572295384
 30
0.0
 40
0.5
  1
405015E-Inch
100
AcDbAttributeDefinition
  3

  2
NB
 70
     8
280
     0
  0
ATTDEF
  5
FE
330
F7
100
AcDbEntity
  8
AM_6
100
AcDbText
 10
5.21875
 20
-1.247409257229538
 30
0.0
 40
0.5
  1
$MN.-Inch
100
AcDbAttributeDefinition
  3

  2
NBSYN
 70
     8
280
     0
  0
ATTDEF
  5
FF
330
F7
100
AcDbEntity
  8
AM_6
100
AcDbText
 10
5.21875
 20
-1.747409257229538
 30
0.0
 40
0.5
  1
405015E
100
AcDbAttributeDefinition
  3

  2
LINA
 70
     8
280
     0
  0
ATTDEF
  5
100
330
F7
100
AcDbEntity
  8
AM_6
100
AcDbText
 10
5.21875
 20
-2.247409257229538
 30
0.0
 40
0.5
  1
405015E
100
AcDbAttributeDefinition
  3

  2
MN
 70
     8
280
     0
  0
ATTDEF
  5
101
330
F7
100
AcDbEntity
  8
AM_6
100
AcDbText
 10
5.21875
 20
-2.747409257229538
 30
0.0
 40
0.5
  1
1/8 x 27PTF
100
AcDbAttributeDefinition
  3

  2
T
 70
     8
280
     0
  0
ATTDEF
  5
102
330
F7
100
AcDbEntity
  8
AM_6
100
AcDbText
 10
5.21875
 20
-3.247409257229538
 30
0.0
 40
0.5
  1
baldor
100
AcDbAttributeDefinition
  3

  2
COMPANY
 70
     8
280
     0
  0
CIRCLE
  5
103
330
F7
100
AcDbEntity
  8
AM_9
100
AcDbCircle
 10
0.0
 20
0.0000000000000003
 30
0.0
 40
0.161902872472269
  0
CIRCLE
  5
104
330
F7
100
AcDbEntity
  8
AM_9
100
AcDbCircle
 10
0.0
 20
0.0000000000000003
 30
0.0
 40
0.1986176267812154
  0
CIRCLE
  5
105
330
F7
100
AcDbEntity
  8
AM_9
100
AcDbCircle
 10
0.0
 20
0.0000000000000004
 30
0.0
 40
0.2057518972230696
  0
CIRCLE
  5
106
330
F7
100
AcDbEntity
  8
AM_9
100
AcDbCircle
 10
0.0
 20
0.0000000000000004
 30
0.0
 40
0.1188200907348975
  0
CIRCLE
  5
107
330
F7
100
AcDbEntity
  8
AM_9
100
AcDbCircle
 10
0.0
 20
0.0000000000000004
 30
0.0
 40
0.105
  0
LINE
  5
108
330
F7
100
AcDbEntity
  8
AM_4
100
AcDbLine
 10
0.21875
 20
0.126295371385231
 30
0.0
 11
0.0
 21
0.2525907427704616
 31
0.0
  0
LINE
  5
109
330
F7
100
AcDbEntity
  8
AM_4
100
AcDbLine
 10
0.21875
 20
-0.1262953713852303
 30
0.0
 11
0.21875
 21
0.126295371385231
 31
0.0
  0
LINE
  5
10A
330
F7
100
AcDbEntity
  8
AM_4
100
AcDbLine
 10
0.0
 20
-0.2525907427704608
 30
0.0
 11
0.21875
 21
-0.1262953713852303
 31
0.0
  0
LINE
  5
10B
330
F7
100
AcDbEntity
  8
AM_4
100
AcDbLine
 10
0.0
 20
0.2525907427704616
 30
0.0
 11
-0.21875
 21
0.126295371385231
 31
0.0
  0
LINE
  5
10C
330
F7
100
AcDbEntity
  8
AM_4
100
AcDbLine
 10
-0.21875
 20
0.126295371385231
 30
0.0
 11
-0.21875
 21
-0.1262953713852303
 31
0.0
  0
LINE
  5
10D
330
F7
100
AcDbEntity
  8
AM_4
100
AcDbLine
 10
-0.21875
 20
-0.1262953713852303
 30
0.0
 11
0.0
 21
-0.2525907427704608
 31
0.0
  0
CIRCLE
  5
10E
330
F7
100
AcDbEntity
  8
AM_4
100
AcDbCircle
 10
0.0
 20
0.0000000000000004
 30
0.0
 40
0.1725340532830154
  0
CIRCLE
  5
10F
330
F7
100
AcDbEntity
  8
AM_4
100
AcDbCircle
 10
0.0
 20
0.0000000000000004
 30
0.0
 40
0.135
  0
CIRCLE
  5
110
330
F7
100
AcDbEntity
  8
AM_4
100
AcDbCircle
 10
0.0
 20
0.0000000000000004
 30
0.0
 40
0.1026779019331875
  0
ARC
  5
111
330
F7
100
AcDbEntity
  8
AM_5
100
AcDbCircle
 10
0.0
 20
0.0000000000000003
 30
0.0
 40
0.202500005
100
AcDbArc
 50
75.00000000000001
 51
15.0
  0
CIRCLE
  5
112
330
F7
100
AcDbEntity
  8
AM_4
100
AcDbCircle
 10
0.0
 20
0.0000000000000003
 30
0.0
 40
0.21875
  0
CIRCLE
  5
113
330
F7
100
AcDbEntity
  8
AM_4
100
AcDbCircle
 10
0.0
 20
0.0000000000000004
 30
0.0
 40
0.21375
  0
ENDBLK
  5
FA
330
F7
100
AcDbEntity
  8
0
100
AcDbBlockEnd
  0
BLOCK
  5
116
330
114
100
AcDbEntity
  8
0
100
AcDbBlockBegin
  2
5_S1U_TAF_415_Ins_0_in_037648_4
 70
     2
 10
0.0
 20
0.0
 30
0.0
  3
5_S1U_TAF_415_Ins_0_in_037648_4
  1

  0
ATTDEF
  5
118
330
114
100
AcDbEntity
  8
AM_6
100
AcDbText
 10
10.0925
 20
3.987499999999999
 30
0.0
 40
0.5
  1
S-1 Unit Taf -Insert -Inch
100
AcDbAttributeDefinition
  3

  2
NN
 70
     8
280
     0
  0
ATTDEF
  5
119
330
114
100
AcDbEntity
  8
AM_6
100
AcDbText
 10
10.0925
 20
3.487499999999999
 30
0.0
 40
0.5
  1
Taf Bearings
100
AcDbAttributeDefinition
  3

  2
NT
 70
     8
280
     0
  0
ATTDEF
  5
11A
330
114
100
AcDbEntity
  8
AM_6
100
AcDbText
 10
10.0925
 20
2.987499999999999
 30
0.0
 40
0.5
  1
S1U-TAF-415-Ins
100
AcDbAttributeDefinition
  3

  2
NB
 70
     8
280
     0
  0
ATTDEF
  5
11B
330
114
100
AcDbEntity
  8
AM_6
100
AcDbText
 10
10.0925
 20
2.487499999999999
 30
0.0
 40
0.5
  1
$PN.-Ins
100
AcDbAttributeDefinition
  3

  2
NBSYN
 70
     8
280
     0
  0
ATTDEF
  5
11C
330
114
100
AcDbEntity
  8
AM_6
100
AcDbText
 10
10.0925
 20
1.987499999999999
 30
0.0
 40
0.5
  1
S1U-TAF-415-Ins
100
AcDbAttributeDefinition
  3

  2
LINA
 70
     8
280
     0
  0
ATTDEF
  5
11D
330
114
100
AcDbEntity
  8
AM_6
100
AcDbText
 10
10.0925
 20
1.487499999999999
 30
0.0
 40
0.5
  1
4-15/16
100
AcDbAttributeDefinition
  3

  2
SS
 70
     8
280
     0
  0
ATTDEF
  5
11E
330
114
100
AcDbEntity
  8
AM_6
100
AcDbText
 10
10.0925
 20
0.9874999999999994
 30
0.0
 40
0.5
  1
S1U-TAF-415
100
AcDbAttributeDefinition
  3

  2
PN
 70
     8
280
     0
  0
ATTDEF
  5
11F
330
114
100
AcDbEntity
  8
AM_6
100
AcDbText
 10
10.0925
 20
0.4874999999999994
 30
0.0
 40
0.5
  1
S1U-TAF-415
100
AcDbAttributeDefinition
  3

  2
DESCRIPTION
 70
     8
280
     0
  0
ATTDEF
  5
120
330
114
100
AcDbEntity
  8
AM_6
100
AcDbText
 10
10.0925
 20
-0.0125000000000006
 30
0.0
 40
0.5
  1
7-1/4
100
AcDbAttributeDefinition
  3

  2
A
 70
     8
280
     0
  0
ATTDEF
  5
121
330
114
100
AcDbEntity
  8
AM_6
100
AcDbText
 10
10.0925
 20
-0.5125000000000006
 30
0.0
 40
0.5
  1
5-1/8
100
AcDbAttributeDefinition
  3

  2
B
 70
     8
280
     0
  0
ATTDEF
  5
122
330
114
100
AcDbEntity
  8
AM_6
100
AcDbText
 10
10.0925
 20
-1.012500000000001
 30
0.0
 40
0.5
  1
3-1/8
100
AcDbAttributeDefinition
  3

  2
C
 70
     8
280
     0
  0
ATTDEF
  5
123
330
114
100
AcDbEntity
  8
AM_6
100
AcDbText
 10
10.0925
 20
-1.512500000000001
 30
0.0
 40
0.5
  1
9.563
100
AcDbAttributeDefinition
  3

  2
EM
 70
     8
280
     0
  0
ATTDEF
  5
124
330
114
100
AcDbEntity
  8
AM_6
100
AcDbText
 10
10.0925
 20
-2.012500000000001
 30
0.0
 40
0.5
  1
9-11/16
100
AcDbAttributeDefinition
  3

  2
EC
 70
     8
280
     0
  0
ATTDEF
  5
125
330
114
100
AcDbEntity
  8
AM_6
100
AcDbText
 10
10.0925
 20
-2.512500000000001
 30
0.0
 40
0.5
  1
15/16
100
AcDbAttributeDefinition
  3

  2
H
 70
     8
280
     0
  0
ATTDEF
  5
126
330
114
100
AcDbEntity
  8
AM_6
100
AcDbText
 10
10.0925
 20
-3.012500000000001
 30
0.0
 40
0.5
  1
10.185
100
AcDbAttributeDefinition
  3

  2
K
 70
     8
280
     0
  0
ATTDEF
  5
127
330
114
100
AcDbEntity
  8
AM_6
100
AcDbText
 10
10.0925
 20
-3.512500000000001
 30
0.0
 40
0.5
  1
+0.000 to -0.003
100
AcDbAttributeDefinition
  3

  2
TOL
 70
     8
280
     0
  0
ATTDEF
  5
128
330
114
100
AcDbEntity
  8
AM_6
100
AcDbText
 10
10.0925
 20
-4.012500000000001
 30
0.0
 40
0.5
  1
7-13/32
100
AcDbAttributeDefinition
  3

  2
L
 70
     8
280
     0
  0
ATTDEF
  5
129
330
114
100
AcDbEntity
  8
AM_6
100
AcDbText
 10
10.0925
 20
-4.512500000000001
 30
0.0
 40
0.5
  1
6-3/16
100
AcDbAttributeDefinition
  3

  2
M
 70
     8
280
     0
  0
ATTDEF
  5
12A
330
114
100
AcDbEntity
  8
AM_6
100
AcDbText
 10
10.0925
 20
-5.012500000000001
 30
0.0
 40
0.5
  1
baldor
100
AcDbAttributeDefinition
  3

  2
COMPANY
 70
     8
280
     0
  0
LINE
  5
12B
330
114
100
AcDbEntity
  8
AM_9
100
AcDbLine
 10
2.623747347103618
 20
3.395
 30
0.0
 11
2.23726157198011
 21
3.395
 31
0.0
  0
LINE
  5
12C
330
114
100
AcDbEntity
  8
AM_9
100
AcDbLine
 10
2.23740932034567
 20
2.615
 30
0.0
 11
2.623604548795612
 21
2.615
 31
0.0
  0
LWPOLYLINE
  5
12D
330
114
100
AcDbEntity
  8
AM_9
100
AcDbPolyline
 90
       21
 70
     0
 43
0.0
 10
2.237460967340796
 20
3.394999998668768
 10
2.219010109456271
 20
3.392641120733236
 10
2.190744424141147
 20
3.380415052322481
 10
2.161620196495911
 20
3.357313502497613
 10
2.13417629161994
 20
3.325119647880053
 10
2.108081875316906
 20
3.283012353826969
 10
2.085617622446502
 20
3.233883052483505
 10
2.066840126302143
 20
3.176710692192817
 10
2.053673704476165
 20
3.116220921249399
 10
2.046052443495137
 20
3.05066692667107
 10
2.044783885095976
 20
2.986361039359152
 10
2.049744975650141
 20
2.920724867482921
 10
2.060333052152155
 20
2.859633018852323
 10
2.07661883823625
 20
2.800943614391209
 10
2.097132612381973
 20
2.749058052855223
 10
2.121958893568518
 20
2.702988186804003
 10
2.148929009531444
 20
2.666224760933203
 10
2.178242396318432
 20
2.638185032631279
 10
2.207007954028694
 20
2.621315792145398
 10
2.235991225560353
 20
2.615015174589229
 10
2.237439029336771
 20
2.615000000496865
  0
LWPOLYLINE
  5
12E
330
114
100
AcDbEntity
  8
AM_9
100
AcDbPolyline
 90
       10
 70
     0
 43
0.0
 10
2.237439029336771
 20
2.615000000496865
 10
2.262359139582549
 20
2.619727225786744
 10
2.287260216070265
 20
2.63544520101764
 10
2.308770162589072
 20
2.660809125822012
 10
2.327817767386685
 20
2.696522200401865
 10
2.343333978893983
 20
2.740132682046919
 10
2.355949740608433
 20
2.792570113407331
 10
2.365038408832414
 20
2.849840927281701
 10
2.371118663453133
 20
2.913354909185103
 10
2.374173208762785
 20
3.005
  0
LWPOLYLINE
  5
12F
330
114
100
AcDbEntity
  8
AM_9
100
AcDbPolyline
 90
       21
 70
     0
 43
0.0
 10
2.623775405193401
 20
2.615000001480583
 10
2.605097745030939
 20
2.617429231912395
 10
2.576580989164249
 20
2.630105061937746
 10
2.548232289346538
 20
2.653147575065862
 10
2.520972397957761
 20
2.686149121590127
 10
2.495914525709426
 20
2.72799489309477
 10
2.4739474460874
 20
2.778063326827421
 10
2.456180485033097
 20
2.834560410495051
 10
2.443490418200296
 20
2.896019607628577
 10
2.436405380231502
 20
2.960605466190448
 10
2.435357163122406
 20
3.025971352584247
 10
2.44021644280488
 20
3.09074217849231
 10
2.450792273363028
 20
3.152809125893964
 10
2.466504162800167
 20
3.210748786004746
 10
2.486850185378366
 20
3.263196811689342
 10
2.51079889585966
 20
3.308425557447633
 10
2.537581591889305
 20
3.345289008947014
 10
2.565960378235313
 20
3.372532242737245
 10
2.5947911808993
 20
3.389183260516758
 10
2.623184121099995
 20
3.394997613254403
 10
2.623757200372463
 20
3.394999999893984
  0
LWPOLYLINE
  5
130
330
114
100
AcDbEntity
  8
AM_9
100
AcDbPolyline
 90
       10
 70
     0
 43
0.0
 10
2.623757200372463
 20
3.394999999893984
 10
2.650023421609557
 20
3.389728741994526
 10
2.674868800737516
 20
3.373777416403823
 10
2.697119149478867
 20
3.347480017103363
 10
2.716463215197795
 20
3.311719417908399
 10
2.732735478414559
 20
3.266999592175388
 10
2.745704704151188
 20
3.214915782457231
 10
2.755323804179767
 20
3.15657149589314
 10
2.76157489168428
 20
3.093886187849758
 10
2.764664966527978
 20
3.005
  0
LINE
  5
131
330
114
100
AcDbEntity
  8
AM_9
100
AcDbLine
 10
2.623747347103618
 20
-2.615
 30
0.0
 11
2.23726157198011
 21
-2.615
 31
0.0
  0
LINE
  5
132
330
114
100
AcDbEntity
  8
AM_9
100
AcDbLine
 10
2.23740932034567
 20
-3.395
 30
0.0
 11
2.623604548795613
 21
-3.395
 31
0.0
  0
LWPOLYLINE
  5
133
330
114
100
AcDbEntity
  8
AM_9
100
AcDbPolyline
 90
       21
 70
     0
 43
0.0
 10
2.237460967340796
 20
-2.615000001331231
 10
2.219010109456271
 20
-2.617358879266764
 10
2.190744424141147
 20
-2.629584947677519
 10
2.161620196495911
 20
-2.652686497502386
 10
2.13417629161994
 20
-2.684880352119947
 10
2.108081875316906
 20
-2.72698764617303
 10
2.085617622446502
 20
-2.776116947516495
 10
2.066840126302143
 20
-2.833289307807182
 10
2.053673704476165
 20
-2.893779078750601
 10
2.046052443495137
 20
-2.95933307332893
 10
2.044783885095976
 20
-3.023638960640847
 10
2.049744975650141
 20
-3.089275132517078
 10
2.060333052152155
 20
-3.150366981147677
 10
2.07661883823625
 20
-3.209056385608791
 10
2.097132612381973
 20
-3.260941947144776
 10
2.121958893568518
 20
-3.307011813195996
 10
2.148929009531444
 20
-3.343775239066797
 10
2.178242396318432
 20
-3.37181496736872
 10
2.207007954028694
 20
-3.388684207854601
 10
2.235991225560353
 20
-3.394984825410771
 10
2.237439029336771
 20
-3.394999999503134
  0
LWPOLYLINE
  5
134
330
114
100
AcDbEntity
  8
AM_9
100
AcDbPolyline
 90
       10
 70
     0
 43
0.0
 10
2.237439029336771
 20
-3.394999999503134
 10
2.262359139582549
 20
-3.390272774213256
 10
2.287260216070265
 20
-3.37455479898236
 10
2.308770162589072
 20
-3.349190874177987
 10
2.327817767386685
 20
-3.313477799598135
 10
2.343333978893983
 20
-3.269867317953081
 10
2.355949740608433
 20
-3.217429886592669
 10
2.365038408832414
 20
-3.160159072718298
 10
2.371118663453133
 20
-3.096645090814897
 10
2.374173208762785
 20
-3.005
  0
LWPOLYLINE
  5
135
330
114
100
AcDbEntity
  8
AM_9
100
AcDbPolyline
 90
       21
 70
     0
 43
0.0
 10
2.623775405193402
 20
-3.394999998519416
 10
2.60509774503094
 20
-3.392570768087604
 10
2.576580989164249
 20
-3.379894938062253
 10
2.548232289346538
 20
-3.356852424934138
 10
2.520972397957761
 20
-3.323850878409873
 10
2.495914525709426
 20
-3.28200510690523
 10
2.473947446087401
 20
-3.231936673172578
 10
2.456180485033098
 20
-3.175439589504948
 10
2.443490418200297
 20
-3.113980392371422
 10
2.436405380231502
 20
-3.049394533809551
 10
2.435357163122407
 20
-2.984028647415752
 10
2.44021644280488
 20
-2.919257821507689
 10
2.450792273363029
 20
-2.857190874106035
 10
2.466504162800168
 20
-2.799251213995254
 10
2.486850185378368
 20
-2.746803188310658
 10
2.510798895859661
 20
-2.701574442552366
 10
2.537581591889305
 20
-2.664710991052985
 10
2.565960378235313
 20
-2.637467757262755
 10
2.594791180899301
 20
-2.620816739483242
 10
2.623184121099995
 20
-2.615002386745596
 10
2.623757200372464
 20
-2.615000000106015
  0
LWPOLYLINE
  5
136
330
114
100
AcDbEntity
  8
AM_9
100
AcDbPolyline
 90
       10
 70
     0
 43
0.0
 10
2.623757200372464
 20
-2.615000000106015
 10
2.650023421609558
 20
-2.620271258005474
 10
2.674868800737517
 20
-2.636222583596177
 10
2.697119149478867
 20
-2.662519982896637
 10
2.716463215197795
 20
-2.698280582091601
 10
2.732735478414559
 20
-2.743000407824613
 10
2.745704704151189
 20
-2.795084217542768
 10
2.755323804179767
 20
-2.85342850410686
 10
2.76157489168428
 20
-2.916113812150242
 10
2.764664966527978
 20
-3.005
  0
LWPOLYLINE
  5
137
330
114
100
AcDbEntity
  8
AM_9
100
AcDbPolyline
 90
       11
 70
     0
 43
0.0
 10
2.374173208762785
 20
-3.005
 10
2.372695941457396
 20
-2.940911737628311
 10
2.368069168460447
 20
-2.876823475256622
 10
2.360503302416086
 20
-2.818134751843185
 10
2.349491170122636
 20
-2.763111064205806
 10
2.335469171630947
 20
-2.715922108673662
 10
2.317704184740606
 20
-2.675659737724869
 10
2.297180470171664
 20
-2.645540799042715
 10
2.273040636470714
 20
-2.624954223847113
 10
2.247337124241891
 20
-2.615717377001337
 10
2.237460967340796
 20
-2.615000001331231
  0
LWPOLYLINE
  5
138
330
114
100
AcDbEntity
  8
AM_9
100
AcDbPolyline
 90
       11
 70
     0
 43
0.0
 10
2.374173208762785
 20
3.005
 10
2.372695941457396
 20
3.069088262371689
 10
2.368069168460447
 20
3.133176524743378
 10
2.360503302416086
 20
3.191865248156814
 10
2.349491170122636
 20
3.246888935794194
 10
2.335469171630947
 20
3.294077891326337
 10
2.317704184740606
 20
3.334340262275131
 10
2.297180470171664
 20
3.364459200957285
 10
2.273040636470714
 20
3.385045776152886
 10
2.247337124241891
 20
3.394282622998662
 10
2.237460967340796
 20
3.394999998668768
  0
LINE
  5
139
330
114
100
AcDbEntity
  8
AM_9
100
AcDbLine
 10
2.46875
 20
-3.625
 30
0.0
 11
2.46875
 21
3.625
 31
0.0
  0
LINE
  5
13A
330
114
100
AcDbEntity
  8
AM_9
100
AcDbLine
 10
-2.46875
 20
3.625
 30
0.0
 11
-2.46875
 21
-3.625
 31
0.0
  0
LWPOLYLINE
  5
13B
330
114
100
AcDbEntity
  8
AM_9
100
AcDbPolyline
 90
       38
 70
     0
 43
0.0
 10
0.0
 20
3.395
 10
0.0642166251526941
 20
3.389676779977682
 10
0.1284332503053881
 20
3.373245706310329
 10
0.1872452659661292
 20
3.347109939015623
 10
0.2423776608931988
 20
3.310537345507782
 10
0.2895232328367101
 20
3.266297335707389
 10
0.3297182252233321
 20
3.213292803417631
 10
0.3597085301159759
 20
3.15569762228318
 10
0.3801693878613215
 20
3.092012852689404
 10
0.3893188770960677
 20
3.028039356255264
 10
0.3875694699423296
 20
2.961526951238477
 10
0.37518565641874
 20
2.898530646580158
 10
0.3518560471384783
 20
2.836781921030809
 10
0.3194173583612865
 20
2.781231031692289
 10
0.2770161543959686
 20
2.730478506845695
 10
0.2277343352304118
 20
2.688397611257965
 10
0.1704451328823306
 20
2.654217365485797
 10
0.1099223870035242
 20
2.63081145282699
 10
0.0444070222814227
 20
2.617536432200268
 10
-0.0200192002234271
 20
2.6155141445156
 10
-0.0857342525657981
 20
2.624540228227761
 10
-0.14697245411008
 20
2.643753411458516
 10
-0.2057597258963726
 20
2.673695102361813
 10
-0.2575367707296272
 20
2.712126628519841
 10
-0.3034324487170498
 20
2.759992348965231
 10
-0.339861717842189
 20
2.813704383883592
 10
-0.3675339859500774
 20
2.874543995264118
 10
-0.384059025084983
 20
2.937186540784499
 10
-0.3899976586567063
 20
3.003648614678479
 10
-0.3849181173852584
 20
3.067753827840128
 10
-0.3687775569147875
 20
3.131898043783033
 10
-0.3429554341569618
 20
3.190692138180941
 10
-0.3067297541668673
 20
3.245866888361047
 10
-0.2627252236878115
 20
3.293228133321835
 10
-0.2099229473075807
 20
3.333682759197526
 10
-0.1524770545468265
 20
3.363957863595052
 10
-0.0888951037647969
 20
3.384733670520071
 10
0.0000000000000001
 20
3.395
  0
LWPOLYLINE
  5
13C
330
114
100
AcDbEntity
  8
AM_9
100
AcDbPolyline
 90
       11
 70
     0
 43
0.0
 10
2.764664966527978
 20
3.005
 10
2.763012332545419
 20
2.93986447632903
 10
2.75807629933146
 20
2.876573028234332
 10
2.749810842859682
 20
2.816972001642216
 10
2.738236368167089
 20
2.762634400587551
 10
2.723235760941777
 20
2.714888248205023
 10
2.704991508351798
 20
2.675285525493937
 10
2.683548742751697
 20
2.644962098271192
 10
2.65935194354479
 20
2.624832390482709
 10
2.633012779055317
 20
2.615666732880234
 10
2.623775405193401
 20
2.615000001480583
  0
LINE
  5
13D
330
114
100
AcDbEntity
  8
AM_9
100
AcDbLine
 10
2.895
 20
2.323
 30
0.0
 11
2.895
 21
3.625
 31
0.0
  0
LINE
  5
13E
330
114
100
AcDbEntity
  8
AM_9
100
AcDbLine
 10
-2.895
 20
3.625
 30
0.0
 11
-2.895
 21
2.323
 31
0.0
  0
LWPOLYLINE
  5
13F
330
114
100
AcDbEntity
  8
AM_9
100
AcDbPolyline
 90
       38
 70
     0
 43
0.0
 10
0.0
 20
-2.615
 10
0.0642166251526941
 20
-2.620323220022317
 10
0.1284332503053881
 20
-2.63675429368967
 10
0.1872452659661293
 20
-2.662890060984376
 10
0.2423776608931988
 20
-2.699462654492218
 10
0.2895232328367104
 20
-2.743702664292611
 10
0.3297182252233324
 20
-2.796707196582369
 10
0.359708530115976
 20
-2.85430237771682
 10
0.3801693878613215
 20
-2.917987147310595
 10
0.3893188770960677
 20
-2.981960643744736
 10
0.3875694699423296
 20
-3.048473048761522
 10
0.3751856564187398
 20
-3.111469353419842
 10
0.3518560471384781
 20
-3.173218078969191
 10
0.3194173583612862
 20
-3.228768968307711
 10
0.2770161543959686
 20
-3.279521493154304
 10
0.2277343352304118
 20
-3.321602388742035
 10
0.1704451328823306
 20
-3.355782634514202
 10
0.1099223870035242
 20
-3.379188547173009
 10
0.0444070222814226
 20
-3.392463567799731
 10
-0.0200192002234273
 20
-3.394485855484399
 10
-0.0857342525657983
 20
-3.385459771772239
 10
-0.1469724541100801
 20
-3.366246588541484
 10
-0.2057597258963727
 20
-3.336304897638187
 10
-0.2575367707296273
 20
-3.297873371480159
 10
-0.3034324487170498
 20
-3.250007651034768
 10
-0.3398617178421892
 20
-3.196295616116408
 10
-0.3675339859500776
 20
-3.135456004735881
 10
-0.3840590250849831
 20
-3.0728134592155
 10
-0.3899976586567063
 20
-3.00635138532152
 10
-0.3849181173852584
 20
-2.942246172159872
 10
-0.3687775569147873
 20
-2.878101956216966
 10
-0.3429554341569614
 20
-2.819307861819058
 10
-0.3067297541668673
 20
-2.764133111638952
 10
-0.2627252236878115
 20
-2.716771866678165
 10
-0.2099229473075807
 20
-2.676317240802474
 10
-0.1524770545468259
 20
-2.646042136404947
 10
-0.0888951037647967
 20
-2.625266329479928
 10
0.0000000000000001
 20
-2.615
  0
LWPOLYLINE
  5
140
330
114
100
AcDbEntity
  8
AM_9
100
AcDbPolyline
 90
       11
 70
     0
 43
0.0
 10
2.764664966527978
 20
-3.005
 10
2.763012332545419
 20
-3.07013552367097
 10
2.75807629933146
 20
-3.133426971765668
 10
2.749810842859683
 20
-3.193027998357785
 10
2.73823636816709
 20
-3.247365599412448
 10
2.723235760941777
 20
-3.295111751794976
 10
2.704991508351798
 20
-3.334714474506062
 10
2.683548742751697
 20
-3.365037901728808
 10
2.659351943544791
 20
-3.385167609517291
 10
2.633012779055318
 20
-3.394333267119766
 10
2.623775405193402
 20
-3.394999998519416
  0
LINE
  5
141
330
114
100
AcDbEntity
  8
AM_9
100
AcDbLine
 10
2.895
 20
-3.625
 30
0.0
 11
2.895
 21
-2.323
 31
0.0
  0
LINE
  5
142
330
114
100
AcDbEntity
  8
AM_9
100
AcDbLine
 10
-2.895
 20
-2.323
 30
0.0
 11
-2.895
 21
-3.625
 31
0.0
  0
LINE
  5
143
330
114
100
AcDbEntity
  8
AM_9
100
AcDbLine
 10
3.798076923076923
 20
2.323
 30
0.0
 11
3.840307234956601
 21
2.5625
 31
0.0
  0
LINE
  5
144
330
114
100
AcDbEntity
  8
AM_9
100
AcDbLine
 10
-3.840307234956601
 20
2.5625
 30
0.0
 11
-3.798076923076923
 21
2.323
 31
0.0
  0
LINE
  5
145
330
114
100
AcDbEntity
  8
AM_9
100
AcDbLine
 10
3.798076923076923
 20
2.323
 30
0.0
 11
-3.798076923076923
 21
2.323
 31
0.0
  0
LINE
  5
146
330
114
100
AcDbEntity
  8
AM_9
100
AcDbLine
 10
-3.798076923076923
 20
-2.323
 30
0.0
 11
3.798076923076923
 21
-2.323
 31
0.0
  0
LINE
  5
147
330
114
100
AcDbEntity
  8
AM_9
100
AcDbLine
 10
-3.798076923076923
 20
-2.323
 30
0.0
 11
-3.840307234956601
 21
-2.5625
 31
0.0
  0
LINE
  5
148
330
114
100
AcDbEntity
  8
AM_9
100
AcDbLine
 10
3.840307234956601
 20
-2.5625
 30
0.0
 11
3.798076923076923
 21
-2.323
 31
0.0
  0
LINE
  5
149
330
114
100
AcDbEntity
  8
AM_7
100
AcDbLine
 10
-0.6175940620820354
 20
0.0000000000000002
 30
0.0
 11
0.6175940620820354
 21
0.0000000000000002
 31
0.0
  0
LINE
  5
14A
330
114
100
AcDbEntity
  8
AM_7
100
AcDbLine
 10
0.0
 20
-3.987499999999999
 30
0.0
 11
0.0
 21
3.987499999999999
 31
0.0
  0
LINE
  5
14B
330
114
100
AcDbEntity
  8
AM_4
100
AcDbLine
 10
-4.7815
 20
-2.5625
 30
0.0
 11
4.7815
 21
-2.5625
 31
0.0
  0
LINE
  5
14C
330
114
100
AcDbEntity
  8
AM_4
100
AcDbLine
 10
4.7815
 20
-2.5625
 30
0.0
 11
4.7815
 21
-1.562500000000001
 31
0.0
  0
LINE
  5
14D
330
114
100
AcDbEntity
  8
AM_4
100
AcDbLine
 10
-4.7815
 20
-1.562500000000001
 30
0.0
 11
-4.7815
 21
-2.5625
 31
0.0
  0
LINE
  5
14E
330
114
100
AcDbEntity
  8
AM_4
100
AcDbLine
 10
-4.7815
 20
2.5625
 30
0.0
 11
4.7815
 21
2.5625
 31
0.0
  0
LINE
  5
14F
330
114
100
AcDbEntity
  8
AM_4
100
AcDbLine
 10
4.7815
 20
1.5625
 30
0.0
 11
4.7815
 21
2.5625
 31
0.0
  0
LINE
  5
150
330
114
100
AcDbEntity
  8
AM_4
100
AcDbLine
 10
-4.7815
 20
2.5625
 30
0.0
 11
-4.7815
 21
1.5625
 31
0.0
  0
LINE
  5
151
330
114
100
AcDbEntity
  8
AM_4
100
AcDbLine
 10
-4.846870124111024
 20
-1.562499999999998
 30
0.0
 11
4.846870124111022
 21
-1.562499999999998
 31
0.0
  0
LINE
  5
152
330
114
100
AcDbEntity
  8
AM_4
100
AcDbLine
 10
-4.846870124111023
 20
1.5625
 30
0.0
 11
4.846870124111021
 21
1.5625
 31
0.0
  0
ARC
  5
153
330
114
100
AcDbEntity
  8
AM_4
100
AcDbCircle
 10
-0.00000000000004
 20
-0.0000000000000008
 30
0.0
 40
5.092500000000037
100
AcDbArc
 50
342.1320806000013
 51
17.86791939999877
  0
ARC
  5
154
330
114
100
AcDbEntity
  8
AM_4
100
AcDbCircle
 10
0.00000000000004
 20
-0.0000000000000006
 30
0.0
 40
5.092500000000037
100
AcDbArc
 50
162.1320806000012
 51
197.8679193999987
  0
CIRCLE
  5
155
330
114
100
AcDbEntity
  8
AM_4
100
AcDbCircle
 10
0.0
 20
0.0000000000000002
 30
0.0
 40
0.5881848210305098
  0
CIRCLE
  5
156
330
114
100
AcDbEntity
  8
AM_4
100
AcDbCircle
 10
0.0
 20
0.0000000000000004
 30
0.0
 40
0.4791713971002707
  0
CIRCLE
  5
157
330
114
100
AcDbEntity
  8
AM_4
100
AcDbCircle
 10
0.0
 20
0.0000000000000004
 30
0.0
 40
0.4021317065338497
  0
ENDBLK
  5
117
330
114
100
AcDbEntity
  8
0
100
AcDbBlockEnd
  0
ENDSEC
  0
SECTION
  2
ENTITIES
  0
INSERT
  5
6F
330
1F
100
AcDbEntity
  8
0
100
AcDbBlockReference
  2
1_037648_4
 10
0.0
 20
0.0
 30
0.0
  0
POINT
  5
159
330
1F
100
AcDbEntity
  8
ConnectionPoints
100
AcDbPoint
 10
0.0
 20
-3.625
 30
0.0000000000000002
  0
POINT
  5
15A
330
1F
100
AcDbEntity
  8
ConnectionPoints
100
AcDbPoint
 10
0.0
 20
0.0000000000000004
 30
5.8125
  0
POINT
  5
15B
330
1F
100
AcDbEntity
  8
ConnectionPoints
100
AcDbPoint
 10
0.0
 20
0.0
 30
0.0
  0
POINT
  5
15C
330
1F
100
AcDbEntity
  8
ConnectionPoints
100
AcDbPoint
 10
0.0
 20
-3.625
 30
0.0000000000000002
  0
POINT
  5
15D
330
1F
100
AcDbEntity
  8
ConnectionPoints
100
AcDbPoint
 10
0.0
 20
3.625
 30
-0.0000000000000002
  0
POINT
  5
15E
330
1F
100
AcDbEntity
  8
ConnectionPoints
100
AcDbPoint
 10
0.0
 20
0.0000000000000004
 30
5.8125
  0
POINT
  5
15F
330
1F
100
AcDbEntity
  8
ConnectionPoints
100
AcDbPoint
 10
0.0
 20
0.0000000000000004
 30
5.8125
  0
ENDSEC
  0
SECTION
  2
OBJECTS
  0
DICTIONARY
  5
C
330
0
100
AcDbDictionary
281
     1
  3
ACAD_DETAILVIEWSTYLE
350
167
  3
ACAD_GROUP
350
D
  3
ACAD_LAYOUT
350
1A
  3
ACAD_MATERIAL
350
43
  3
ACAD_MLEADERSTYLE
350
6B
  3
ACAD_MLINESTYLE
350
17
  3
ACAD_PLOTSETTINGS
350
19
  3
ACAD_PLOTSTYLENAME
350
E
  3
ACAD_SCALELIST
350
47
  3
ACAD_SECTIONVIEWSTYLE
350
168
  3
ACAD_TABLESTYLE
350
69
  3
ACAD_VISUALSTYLE
350
2A
  3
ACDB_RECOMPOSE_DATA
350
164
  3
AcDbVariableDictionary
350
160
  0
SUN
  5
6D
330
29
100
AcDbSun
 90
        1
290
     0
 63
     7
421
 16777215
 40
1.0
291
     1
 91
  2455826
 92
 54000000
292
     0
 70
     2
 71
   256
280
     1
  0
DICTIONARY
  5
167
102
{ACAD_REACTORS
330
C
102
}
330
C
100
AcDbDictionary
281
     1
  0
DICTIONARY
  5
D
102
{ACAD_REACTORS
330
C
102
}
330
C
100
AcDbDictionary
281
     1
  0
DICTIONARY
  5
1A
102
{ACAD_REACTORS
330
C
102
}
330
C
100
AcDbDictionary
281
     1
  3
Layout1
350
1E
  3
Layout2
350
26
  3
Model
350
22
  0
DICTIONARY
  5
43
102
{ACAD_REACTORS
330
C
102
}
330
C
100
AcDbDictionary
281
     1
  3
ByBlock
350
45
  3
ByLayer
350
44
  3
Global
350
46
  0
DICTIONARY
  5
6B
102
{ACAD_REACTORS
330
C
102
}
330
C
100
AcDbDictionary
281
     1
  3
Standard
350
6C
  0
DICTIONARY
  5
17
102
{ACAD_REACTORS
330
C
102
}
330
C
100
AcDbDictionary
281
     1
  3
Standard
350
18
  0
DICTIONARY
  5
19
102
{ACAD_REACTORS
330
C
102
}
330
C
100
AcDbDictionary
281
     1
  0
ACDBDICTIONARYWDFLT
  5
E
102
{ACAD_REACTORS
330
C
102
}
330
C
100
AcDbDictionary
281
     1
  3
Normal
350
F
100
AcDbDictionaryWithDefault
340
F
  0
DICTIONARY
  5
47
102
{ACAD_REACTORS
330
C
102
}
330
C
100
AcDbDictionary
281
     1
  3
A0
350
48
  3
A1
350
49
  3
A2
350
4A
  3
A3
350
4B
  3
A4
350
4C
  3
A5
350
4D
  3
A6
350
4E
  3
A7
350
4F
  3
A8
350
50
  3
A9
350
51
  3
B0
350
52
  3
B1
350
53
  3
B2
350
54
  3
B3
350
55
  3
B4
350
56
  3
B5
350
57
  3
B6
350
58
  3
B7
350
59
  3
B8
350
5A
  3
B9
350
5B
  3
C0
350
5C
  3
C1
350
5D
  3
C2
350
5E
  3
C3
350
5F
  3
C4
350
60
  3
C5
350
61
  3
C6
350
62
  3
C7
350
63
  3
C8
350
64
  3
C9
350
65
  3
D0
350
66
  3
D1
350
67
  3
D2
350
68
  0
DICTIONARY
  5
168
102
{ACAD_REACTORS
330
C
102
}
330
C
100
AcDbDictionary
281
     1
  0
DICTIONARY
  5
69
102
{ACAD_REACTORS
330
C
102
}
330
C
100
AcDbDictionary
281
     1
  3
Standard
350
6A
  0
DICTIONARY
  5
2A
102
{ACAD_REACTORS
330
C
102
}
330
C
100
AcDbDictionary
281
     1
  3
2dWireframe
350
2F
  3
Basic
350
32
  3
Brighten
350
36
  3
ColorChange
350
3A
  3
Conceptual
350
34
  3
Dim
350
35
  3
EdgeColorOff
350
3D
  3
Facepattern
350
39
  3
Flat
350
2B
  3
FlatWithEdges
350
2C
  3
Gouraud
350
2D
  3
GouraudWithEdges
350
2E
  3
Hidden
350
31
  3
JitterOff
350
3B
  3
Linepattern
350
38
  3
OverhangOff
350
3C
  3
Realistic
350
33
  3
Shaded
350
42
  3
Shaded with edges
350
41
  3
Shades of Gray
350
3E
  3
Sketchy
350
3F
  3
Thicken
350
37
  3
Wireframe
350
30
  3
X-Ray
350
40
  0
XRECORD
  5
164
102
{ACAD_REACTORS
330
C
102
}
330
C
100
AcDbXrecord
280
     1
 90
        1
330
6A
  0
DICTIONARY
  5
160
102
{ACAD_REACTORS
330
C
102
}
330
C
100
AcDbDictionary
281
     1
  3
CANNOSCALE
350
161
  3
CMLEADERSTYLE
350
166
  3
CTABLESTYLE
350
165
  0
LAYOUT
  5
1E
102
{ACAD_REACTORS
330
1A
102
}
330
1A
100
AcDbPlotSettings
  1

  2
none_device
  4

  6

 40
0.0
 41
0.0
 42
0.0
 43
0.0
 44
0.0
 45
0.0
 46
0.0
 47
0.0
 48
0.0
 49
0.0
140
0.0
141
0.0
142
1.0
143
1.0
 70
   688
 72
     0
 73
     0
 74
     5
  7

 75
    16
 76
     0
 77
     2
 78
   300
147
1.0
148
0.0
149
0.0
100
AcDbLayout
  1
Layout1
 70
     1
 71
     1
 10
0.0
 20
0.0
 11
12.0
 21
9.0
 12
0.0
 22
0.0
 32
0.0
 14
1.000000000000000E+20
 24
1.000000000000000E+20
 34
1.000000000000000E+20
 15
-1.000000000000000E+20
 25
-1.000000000000000E+20
 35
-1.000000000000000E+20
146
0.0
 13
0.0
 23
0.0
 33
0.0
 16
1.0
 26
0.0
 36
0.0
 17
0.0
 27
1.0
 37
0.0
 76
     0
330
1B
  0
LAYOUT
  5
26
102
{ACAD_REACTORS
330
1A
102
}
330
1A
100
AcDbPlotSettings
  1

  2
none_device
  4

  6

 40
0.0
 41
0.0
 42
0.0
 43
0.0
 44
0.0
 45
0.0
 46
0.0
 47
0.0
 48
0.0
 49
0.0
140
0.0
141
0.0
142
1.0
143
1.0
 70
   688
 72
     0
 73
     0
 74
     5
  7

 75
    16
 76
     0
 77
     2
 78
   300
147
1.0
148
0.0
149
0.0
100
AcDbLayout
  1
Layout2
 70
     1
 71
     2
 10
0.0
 20
0.0
 11
0.0
 21
0.0
 12
0.0
 22
0.0
 32
0.0
 14
0.0
 24
0.0
 34
0.0
 15
0.0
 25
0.0
 35
0.0
146
0.0
 13
0.0
 23
0.0
 33
0.0
 16
1.0
 26
0.0
 36
0.0
 17
0.0
 27
1.0
 37
0.0
 76
     0
330
23
  0
LAYOUT
  5
22
102
{ACAD_REACTORS
330
1A
102
}
330
1A
100
AcDbPlotSettings
  1

  2
none_device
  4
Letter_(8.50_x_11.00_Inches)
  6

 40
6.35
 41
6.35
 42
6.35000508
 43
6.35000508
 44
215.9
 45
279.4
 46
0.0
 47
0.0
 48
0.0
 49
0.0
140
0.0
141
0.0
142
1.0
143
1.0
 70
  1712
 72
     0
 73
     0
 74
     0
  7

 75
     0
 76
     0
 77
     2
 78
   300
147
1.0
148
0.0
149
0.0
100
AcDbLayout
  1
Model
 70
     1
 71
     0
 10
0.0
 20
0.0
 11
12.0
 21
9.0
 12
0.0
 22
0.0
 32
0.0
 14
1.000000000000000E+20
 24
1.000000000000000E+20
 34
1.000000000000000E+20
 15
-1.000000000000000E+20
 25
-1.000000000000000E+20
 35
-1.000000000000000E+20
146
0.0
 13
0.0
 23
0.0
 33
0.0
 16
1.0
 26
0.0
 36
0.0
 17
0.0
 27
1.0
 37
0.0
 76
     0
330
1F
331
29
  0
MATERIAL
  5
45
102
{ACAD_REACTORS
330
43
102
}
330
43
100
AcDbMaterial
  1
ByBlock
 72
     1
 94
      127
  0
MATERIAL
  5
44
102
{ACAD_REACTORS
330
43
102
}
330
43
100
AcDbMaterial
  1
ByLayer
 72
     1
 94
      127
  0
MATERIAL
  5
46
102
{ACAD_REACTORS
330
43
102
}
330
43
100
AcDbMaterial
  1
Global
 72
     1
 94
      127
  0
MLEADERSTYLE
  5
6C
102
{ACAD_REACTORS
330
6B
102
}
330
6B
100
AcDbMLeaderStyle
179
     2
170
     2
171
     1
172
     0
 90
        2
 40
0.0
 41
0.0
173
     1
 91
-1056964608
340
14
 92
       -2
290
     1
 42
0.09
291
     1
 43
0.36
  3
Standard
341
0
 44
0.18
300

342
11
174
     1
178
     6
175
     1
176
     0
 93
-1056964608
 45
0.18
292
     0
297
     0
 46
0.18
343
0
 94
-1056964608
 47
1.0
 49
1.0
140
1.0
293
     1
141
0.0
294
     1
177
     0
142
1.0
295
     0
296
     0
143
0.125
271
     0
272
     9
273
     9
298
     0
  0
MLINESTYLE
  5
18
102
{ACAD_REACTORS
330
17
102
}
330
17
100
AcDbMlineStyle
  2
Standard
 70
     0
  3

 62
   256
 51
90.0
 52
90.0
 71
     2
 49
0.5
 62
   256
  6
BYLAYER
 49
-0.5
 62
   256
  6
BYLAYER
  0
ACDBPLACEHOLDER
  5
F
102
{ACAD_REACTORS
330
E
102
}
330
E
  0
SCALE
  5
48
102
{ACAD_REACTORS
330
47
102
}
330
47
100
AcDbScale
 70
     0
300
1:1
140
1.0
141
1.0
290
     1
  0
SCALE
  5
49
102
{ACAD_REACTORS
330
47
102
}
330
47
100
AcDbScale
 70
     0
300
1:2
140
1.0
141
2.0
290
     0
  0
SCALE
  5
4A
102
{ACAD_REACTORS
330
47
102
}
330
47
100
AcDbScale
 70
     0
300
1:4
140
1.0
141
4.0
290
     0
  0
SCALE
  5
4B
102
{ACAD_REACTORS
330
47
102
}
330
47
100
AcDbScale
 70
     0
300
1:5
140
1.0
141
5.0
290
     0
  0
SCALE
  5
4C
102
{ACAD_REACTORS
330
47
102
}
330
47
100
AcDbScale
 70
     0
300
1:8
140
1.0
141
8.0
290
     0
  0
SCALE
  5
4D
102
{ACAD_REACTORS
330
47
102
}
330
47
100
AcDbScale
 70
     0
300
1:10
140
1.0
141
10.0
290
     0
  0
SCALE
  5
4E
102
{ACAD_REACTORS
330
47
102
}
330
47
100
AcDbScale
 70
     0
300
1:16
140
1.0
141
16.0
290
     0
  0
SCALE
  5
4F
102
{ACAD_REACTORS
330
47
102
}
330
47
100
AcDbScale
 70
     0
300
1:20
140
1.0
141
20.0
290
     0
  0
SCALE
  5
50
102
{ACAD_REACTORS
330
47
102
}
330
47
100
AcDbScale
 70
     0
300
1:30
140
1.0
141
30.0
290
     0
  0
SCALE
  5
51
102
{ACAD_REACTORS
330
47
102
}
330
47
100
AcDbScale
 70
     0
300
1:40
140
1.0
141
40.0
290
     0
  0
SCALE
  5
52
102
{ACAD_REACTORS
330
47
102
}
330
47
100
AcDbScale
 70
     0
300
1:50
140
1.0
141
50.0
290
     0
  0
SCALE
  5
53
102
{ACAD_REACTORS
330
47
102
}
330
47
100
AcDbScale
 70
     0
300
1:100
140
1.0
141
100.0
290
     0
  0
SCALE
  5
54
102
{ACAD_REACTORS
330
47
102
}
330
47
100
AcDbScale
 70
     0
300
2:1
140
2.0
141
1.0
290
     0
  0
SCALE
  5
55
102
{ACAD_REACTORS
330
47
102
}
330
47
100
AcDbScale
 70
     0
300
4:1
140
4.0
141
1.0
290
     0
  0
SCALE
  5
56
102
{ACAD_REACTORS
330
47
102
}
330
47
100
AcDbScale
 70
     0
300
8:1
140
8.0
141
1.0
290
     0
  0
SCALE
  5
57
102
{ACAD_REACTORS
330
47
102
}
330
47
100
AcDbScale
 70
     0
300
10:1
140
10.0
141
1.0
290
     0
  0
SCALE
  5
58
102
{ACAD_REACTORS
330
47
102
}
330
47
100
AcDbScale
 70
     0
300
100:1
140
100.0
141
1.0
290
     0
  0
SCALE
  5
59
102
{ACAD_REACTORS
330
47
102
}
330
47
100
AcDbScale
 70
     0
300
1/128" = 1'-0"
140
0.0078125
141
12.0
290
     0
  0
SCALE
  5
5A
102
{ACAD_REACTORS
330
47
102
}
330
47
100
AcDbScale
 70
     0
300
1/64" = 1'-0"
140
0.015625
141
12.0
290
     0
  0
SCALE
  5
5B
102
{ACAD_REACTORS
330
47
102
}
330
47
100
AcDbScale
 70
     0
300
1/32" = 1'-0"
140
0.03125
141
12.0
290
     0
  0
SCALE
  5
5C
102
{ACAD_REACTORS
330
47
102
}
330
47
100
AcDbScale
 70
     0
300
1/16" = 1'-0"
140
0.0625
141
12.0
290
     0
  0
SCALE
  5
5D
102
{ACAD_REACTORS
330
47
102
}
330
47
100
AcDbScale
 70
     0
300
3/32" = 1'-0"
140
0.09375
141
12.0
290
     0
  0
SCALE
  5
5E
102
{ACAD_REACTORS
330
47
102
}
330
47
100
AcDbScale
 70
     0
300
1/8" = 1'-0"
140
0.125
141
12.0
290
     0
  0
SCALE
  5
5F
102
{ACAD_REACTORS
330
47
102
}
330
47
100
AcDbScale
 70
     0
300
3/16" = 1'-0"
140
0.1875
141
12.0
290
     0
  0
SCALE
  5
60
102
{ACAD_REACTORS
330
47
102
}
330
47
100
AcDbScale
 70
     0
300
1/4" = 1'-0"
140
0.25
141
12.0
290
     0
  0
SCALE
  5
61
102
{ACAD_REACTORS
330
47
102
}
330
47
100
AcDbScale
 70
     0
300
3/8" = 1'-0"
140
0.375
141
12.0
290
     0
  0
SCALE
  5
62
102
{ACAD_REACTORS
330
47
102
}
330
47
100
AcDbScale
 70
     0
300
1/2" = 1'-0"
140
0.5
141
12.0
290
     0
  0
SCALE
  5
63
102
{ACAD_REACTORS
330
47
102
}
330
47
100
AcDbScale
 70
     0
300
3/4" = 1'-0"
140
0.75
141
12.0
290
     0
  0
SCALE
  5
64
102
{ACAD_REACTORS
330
47
102
}
330
47
100
AcDbScale
 70
     0
300
1" = 1'-0"
140
1.0
141
12.0
290
     0
  0
SCALE
  5
65
102
{ACAD_REACTORS
330
47
102
}
330
47
100
AcDbScale
 70
     0
300
1-1/2" = 1'-0"
140
1.5
141
12.0
290
     0
  0
SCALE
  5
66
102
{ACAD_REACTORS
330
47
102
}
330
47
100
AcDbScale
 70
     0
300
3" = 1'-0"
140
3.0
141
12.0
290
     0
  0
SCALE
  5
67
102
{ACAD_REACTORS
330
47
102
}
330
47
100
AcDbScale
 70
     0
300
6" = 1'-0"
140
6.0
141
12.0
290
     0
  0
SCALE
  5
68
102
{ACAD_REACTORS
330
47
102
}
330
47
100
AcDbScale
 70
     0
300
1'-0" = 1'-0"
140
12.0
141
12.0
290
     0
  0
TABLESTYLE
  5
6A
102
{ACAD_REACTORS
330
69
102
}
102
{ACAD_XDICTIONARY
360
162
102
}
330
69
100
AcDbTableStyle
  3
Standard
 70
     0
 71
     0
 40
0.06
 41
0.06
280
     0
281
     0
  7
Standard
140
0.18
170
     2
 62
     0
 63
   257
283
     0
 90
        4
 91
        0
  1

274
    -2
284
     1
 64
     0
275
    -2
285
     1
 65
     0
276
    -2
286
     1
 66
     0
277
    -2
287
     1
 67
     0
278
    -2
288
     1
 68
     0
279
    -2
289
     1
 69
     0
  7
Standard
140
0.25
170
     5
 62
     0
 63
   257
283
     0
 90
        4
 91
        0
  1

274
    -2
284
     1
 64
     0
275
    -2
285
     1
 65
     0
276
    -2
286
     1
 66
     0
277
    -2
287
     1
 67
     0
278
    -2
288
     1
 68
     0
279
    -2
289
     1
 69
     0
  7
Standard
140
0.18
170
     5
 62
     0
 63
   257
283
     0
 90
        4
 91
        0
  1

274
    -2
284
     1
 64
     0
275
    -2
285
     1
 65
     0
276
    -2
286
     1
 66
     0
277
    -2
287
     1
 67
     0
278
    -2
288
     1
 68
     0
279
    -2
289
     1
 69
     0
  0
VISUALSTYLE
  5
2F
102
{ACAD_REACTORS
330
2A
102
}
330
2A
100
AcDbVisualStyle
  2
2dWireframe
 70
     4
177
     3
291
     0
 70
    58
 90
        0
176
     1
 90
        2
176
     1
 90
        0
176
     1
 90
        0
176
     1
 40
0.6
176
     1
 40
30.0
176
     1
 62
     7
420
 16777215
176
     1
 90
        1
176
     1
 90
        4
176
     1
 62
     7
176
     1
 62
   257
176
     1
 90
        1
176
     1
 90
        1
176
     1
 40
1.0
176
     1
 90
        0
176
     1
 62
   257
176
     1
 40
1.0
176
     1
 90
        1
176
     1
 90
        6
176
     1
 90
        2
176
     1
 62
     7
176
     1
 90
        5
176
     1
 90
        0
176
     1
 90
        0
176
     1
290
     0
176
     1
 90
        1
176
     1
 40
0.0
176
     1
 90
        0
176
     1
290
     1
176
     1
290
     1
176
     1
290
     0
176
     1
290
     0
176
     1
290
     0
176
     1
290
     0
176
     1
290
     0
176
     1
290
     0
176
     1
290
     0
176
     1
 90
       50
176
     1
 40
0.0
176
     1
 40
1.0
176
     1
 90
        0
176
     1
 62
    18
420
        0
176
     1
 90
       50
176
     1
 90
        3
176
     1
 62
     5
420
      255
176
     1
290
     0
176
     1
 90
       50
176
     1
 90
       50
176
     1
 90
       50
176
     1
290
     0
176
     1
 90
       50
176
     1
 62
   256
176
     0
 40
1.0
176
     0
 90
        2
176
     1
  1
strokes_ogs.tif
176
     1
290
     0
176
     1
 40
1.0
176
     1
 40
1.0
176
     1
  0
VISUALSTYLE
  5
32
102
{ACAD_REACTORS
330
2A
102
}
330
2A
100
AcDbVisualStyle
  2
Basic
 70
     7
177
     3
291
     1
 70
    58
 90
        1
176
     1
 90
        0
176
     1
 90
        1
176
     1
 90
        0
176
     1
 40
0.6
176
     1
 40
30.0
176
     1
 62
     7
420
 16777215
176
     1
 90
        0
176
     1
 90
        4
176
     1
 62
     7
176
     1
 62
   257
176
     1
 90
        1
176
     1
 90
        1
176
     1
 40
1.0
176
     1
 90
        8
176
     1
 62
     7
176
     1
 40
1.0
176
     1
 90
        1
176
     1
 90
        6
176
     1
 90
        2
176
     1
 62
     7
176
     1
 90
        5
176
     1
 90
        0
176
     1
 90
        0
176
     1
290
     0
176
     1
 90
        1
176
     1
 40
0.0
176
     1
 90
        0
176
     1
290
     0
176
     1
290
     1
176
     1
290
     1
176
     1
290
     0
176
     1
290
     0
176
     1
290
     0
176
     1
290
     0
176
     1
290
     0
176
     1
290
     0
176
     1
 90
       50
176
     1
 40
0.0
176
     1
 40
1.0
176
     1
 90
        0
176
     1
 62
    18
420
        0
176
     1
 90
       50
176
     1
 90
        3
176
     1
 62
     5
420
      255
176
     1
290
     0
176
     1
 90
       50
176
     1
 90
       50
176
     1
 90
       50
176
     1
290
     0
176
     1
 90
       50
176
     1
 62
   256
176
     0
 40
1.0
176
     0
 90
        2
176
     1
  1
strokes_ogs.tif
176
     1
290
     0
176
     1
 40
1.0
176
     1
 40
1.0
176
     1
  0
VISUALSTYLE
  5
36
102
{ACAD_REACTORS
330
2A
102
}
330
2A
100
AcDbVisualStyle
  2
Brighten
 70
    12
177
     3
291
     1
 70
    58
 90
        2
176
     1
 90
        2
176
     1
 90
        0
176
     1
 90
        0
176
     1
 40
0.6
176
     1
 40
30.0
176
     1
 62
     7
420
 16777215
176
     1
 90
        1
176
     1
 90
        4
176
     1
 62
     7
176
     1
 62
   257
176
     1
 90
        1
176
     1
 90
        1
176
     1
 40
1.0
176
     1
 90
        8
176
     1
 62
     7
176
     1
 40
1.0
176
     1
 90
        1
176
     1
 90
        6
176
     1
 90
        2
176
     1
 62
     7
176
     1
 90
        5
176
     1
 90
        0
176
     1
 90
        0
176
     1
290
     0
176
     1
 90
        1
176
     1
 40
50.0
176
     1
 90
        0
176
     1
290
     0
176
     1
290
     1
176
     1
290
     1
176
     1
290
     0
176
     1
290
     0
176
     1
290
     0
176
     1
290
     0
176
     1
290
     0
176
     1
290
     0
176
     1
 90
       50
176
     1
 40
0.0
176
     1
 40
1.0
176
     1
 90
        0
176
     1
 62
    18
420
        0
176
     1
 90
       50
176
     1
 90
        3
176
     1
 62
     5
420
      255
176
     1
290
     0
176
     1
 90
       50
176
     1
 90
       50
176
     1
 90
       50
176
     1
290
     0
176
     1
 90
       50
176
     1
 62
   256
176
     0
 40
1.0
176
     0
 90
        2
176
     1
  1
strokes_ogs.tif
176
     1
290
     0
176
     1
 40
1.0
176
     1
 40
1.0
176
     1
  0
VISUALSTYLE
  5
3A
102
{ACAD_REACTORS
330
2A
102
}
330
2A
100
AcDbVisualStyle
  2
ColorChange
 70
    16
177
     3
291
     1
 70
    58
 90
        2
176
     1
 90
        2
176
     1
 90
        3
176
     1
 90
        0
176
     1
 40
0.6
176
     1
 40
30.0
176
     1
 62
     8
420
  8421504
176
     1
 90
        1
176
     1
 90
        4
176
     1
 62
     7
176
     1
 62
   257
176
     1
 90
        1
176
     1
 90
        1
176
     1
 40
1.0
176
     1
 90
        8
176
     1
 62
     8
420
  8421504
176
     1
 40
1.0
176
     1
 90
        1
176
     1
 90
        6
176
     1
 90
        2
176
     1
 62
     7
176
     1
 90
        5
176
     1
 90
        0
176
     1
 90
        0
176
     1
290
     0
176
     1
 90
        1
176
     1
 40
0.0
176
     1
 90
        0
176
     1
290
     0
176
     1
290
     1
176
     1
290
     1
176
     1
290
     0
176
     1
290
     0
176
     1
290
     0
176
     1
290
     0
176
     1
290
     0
176
     1
290
     0
176
     1
 90
       50
176
     1
 40
0.0
176
     1
 40
1.0
176
     1
 90
        0
176
     1
 62
    18
420
        0
176
     1
 90
       50
176
     1
 90
        3
176
     1
 62
     5
420
      255
176
     1
290
     0
176
     1
 90
       50
176
     1
 90
       50
176
     1
 90
       50
176
     1
290
     0
176
     1
 90
       50
176
     1
 62
   256
176
     0
 40
1.0
176
     0
 90
        2
176
     1
  1
strokes_ogs.tif
176
     1
290
     0
176
     1
 40
1.0
176
     1
 40
1.0
176
     1
  0
VISUALSTYLE
  5
34
102
{ACAD_REACTORS
330
2A
102
}
330
2A
100
AcDbVisualStyle
  2
Conceptual
 70
     9
177
     3
291
     0
 70
    58
 90
        3
176
     1
 90
        2
176
     1
 90
        0
176
     1
 90
        0
176
     1
 40
0.6
176
     1
 40
30.0
176
     1
 62
     7
420
 16777215
176
     1
 90
        2
176
     1
 90
        2
176
     1
 62
     7
176
     1
 62
   257
176
     1
 90
        1
176
     1
 90
        1
176
     1
 40
179.0
176
     1
 90
        8
176
     1
 62
     7
176
     1
 40
1.0
176
     1
 90
        1
176
     1
 90
        6
176
     1
 90
        2
176
     1
 62
     7
176
     1
 90
        3
176
     1
 90
        0
176
     1
 90
        0
176
     1
290
     0
176
     1
 90
        1
176
     1
 40
0.0
176
     1
 90
        0
176
     1
290
     0
176
     1
290
     1
176
     1
290
     1
176
     1
290
     0
176
     1
290
     0
176
     1
290
     0
176
     1
290
     0
176
     1
290
     0
176
     1
290
     0
176
     1
 90
       50
176
     1
 40
0.0
176
     1
 40
1.0
176
     1
 90
        0
176
     1
 62
    18
420
        0
176
     1
 90
       50
176
     1
 90
        3
176
     1
 62
     5
420
      255
176
     1
290
     0
176
     1
 90
       50
176
     1
 90
       50
176
     1
 90
       50
176
     1
290
     0
176
     1
 90
       50
176
     1
 62
   256
176
     0
 40
1.0
176
     0
 90
        2
176
     1
  1
strokes_ogs.tif
176
     1
290
     0
176
     1
 40
1.0
176
     1
 40
1.0
176
     1
  0
VISUALSTYLE
  5
35
102
{ACAD_REACTORS
330
2A
102
}
330
2A
100
AcDbVisualStyle
  2
Dim
 70
    11
177
     3
291
     1
 70
    58
 90
        2
176
     1
 90
        2
176
     1
 90
        0
176
     1
 90
        0
176
     1
 40
0.6
176
     1
 40
30.0
176
     1
 62
     7
420
 16777215
176
     1
 90
        1
176
     1
 90
        4
176
     1
 62
     7
176
     1
 62
   257
176
     1
 90
        1
176
     1
 90
        1
176
     1
 40
1.0
176
     1
 90
        8
176
     1
 62
     7
176
     1
 40
1.0
176
     1
 90
        1
176
     1
 90
        6
176
     1
 90
        2
176
     1
 62
     7
176
     1
 90
        5
176
     1
 90
        0
176
     1
 90
        0
176
     1
290
     0
176
     1
 90
        1
176
     1
 40
-50.0
176
     1
 90
        0
176
     1
290
     0
176
     1
290
     1
176
     1
290
     1
176
     1
290
     0
176
     1
290
     0
176
     1
290
     0
176
     1
290
     0
176
     1
290
     0
176
     1
290
     0
176
     1
 90
       50
176
     1
 40
0.0
176
     1
 40
1.0
176
     1
 90
        0
176
     1
 62
    18
420
        0
176
     1
 90
       50
176
     1
 90
        3
176
     1
 62
     5
420
      255
176
     1
290
     0
176
     1
 90
       50
176
     1
 90
       50
176
     1
 90
       50
176
     1
290
     0
176
     1
 90
       50
176
     1
 62
   256
176
     0
 40
1.0
176
     0
 90
        2
176
     1
  1
strokes_ogs.tif
176
     1
290
     0
176
     1
 40
1.0
176
     1
 40
1.0
176
     1
  0
VISUALSTYLE
  5
3D
102
{ACAD_REACTORS
330
2A
102
}
330
2A
100
AcDbVisualStyle
  2
EdgeColorOff
 70
    22
177
     3
291
     1
 70
    58
 90
        2
176
     0
 90
        2
176
     0
 90
        0
176
     0
 90
        0
176
     0
 40
0.6
176
     0
 40
30.0
176
     0
 62
     7
420
 16777215
176
     0
 90
        1
176
     0
 90
        4
176
     0
 62
     7
176
     0
 62
   257
176
     0
 90
        1
176
     0
 90
        1
176
     0
 40
1.0
176
     0
 90
        8
176
     2
 62
     7
176
     0
 40
1.0
176
     0
 90
        1
176
     0
 90
        6
176
     0
 90
        2
176
     0
 62
     7
176
     0
 90
        5
176
     0
 90
        0
176
     0
 90
        0
176
     0
290
     0
176
     0
 90
        1
176
     0
 40
0.0
176
     0
 90
        0
176
     0
290
     0
176
     0
290
     1
176
     0
290
     1
176
     0
290
     0
176
     0
290
     0
176
     0
290
     0
176
     0
290
     0
176
     0
290
     0
176
     0
290
     0
176
     0
 90
       50
176
     0
 40
0.0
176
     0
 40
1.0
176
     0
 90
        0
176
     0
 62
    18
420
        0
176
     0
 90
       50
176
     0
 90
        3
176
     0
 62
     5
420
      255
176
     0
290
     0
176
     0
 90
       50
176
     0
 90
       50
176
     0
 90
       50
176
     0
290
     0
176
     0
 90
       50
176
     0
 62
   256
176
     0
 40
1.0
176
     0
 90
        2
176
     0
  1
strokes_ogs.tif
176
     0
290
     0
176
     0
 40
1.0
176
     0
 40
1.0
176
     0
  0
VISUALSTYLE
  5
39
102
{ACAD_REACTORS
330
2A
102
}
330
2A
100
AcDbVisualStyle
  2
Facepattern
 70
    15
177
     3
291
     1
 70
    58
 90
        2
176
     1
 90
        2
176
     1
 90
        0
176
     1
 90
        0
176
     1
 40
0.6
176
     1
 40
30.0
176
     1
 62
     7
420
 16777215
176
     1
 90
        1
176
     1
 90
        4
176
     1
 62
     7
176
     1
 62
   257
176
     1
 90
        1
176
     1
 90
        1
176
     1
 40
1.0
176
     1
 90
        8
176
     1
 62
     7
176
     1
 40
1.0
176
     1
 90
        1
176
     1
 90
        6
176
     1
 90
        2
176
     1
 62
     7
176
     1
 90
        5
176
     1
 90
        0
176
     1
 90
        0
176
     1
290
     0
176
     1
 90
        1
176
     1
 40
0.0
176
     1
 90
        0
176
     1
290
     0
176
     1
290
     1
176
     1
290
     1
176
     1
290
     0
176
     1
290
     0
176
     1
290
     0
176
     1
290
     0
176
     1
290
     0
176
     1
290
     0
176
     1
 90
       50
176
     1
 40
0.0
176
     1
 40
1.0
176
     1
 90
        0
176
     1
 62
    18
420
        0
176
     1
 90
       50
176
     1
 90
        3
176
     1
 62
     5
420
      255
176
     1
290
     0
176
     1
 90
       50
176
     1
 90
       50
176
     1
 90
       50
176
     1
290
     0
176
     1
 90
       50
176
     1
 62
   256
176
     0
 40
1.0
176
     0
 90
        2
176
     1
  1
strokes_ogs.tif
176
     1
290
     0
176
     1
 40
1.0
176
     1
 40
1.0
176
     1
  0
VISUALSTYLE
  5
2B
102
{ACAD_REACTORS
330
2A
102
}
330
2A
100
AcDbVisualStyle
  2
Flat
 70
     0
177
     3
291
     1
 70
    58
 90
        2
176
     1
 90
        1
176
     1
 90
        1
176
     1
 90
        2
176
     1
 40
0.6
176
     1
 40
30.0
176
     1
 62
     7
420
 16777215
176
     1
 90
        0
176
     1
 90
        0
176
     1
 62
     7
176
     1
 62
   257
176
     1
 90
        1
176
     1
 90
        1
176
     1
 40
1.0
176
     1
 90
        8
176
     1
 62
     7
176
     1
 40
1.0
176
     1
 90
        1
176
     1
 90
        6
176
     1
 90
        2
176
     1
 62
     7
176
     1
 90
        5
176
     1
 90
        0
176
     1
 90
        0
176
     1
290
     0
176
     1
 90
       13
176
     1
 40
0.0
176
     1
 90
        0
176
     1
290
     0
176
     1
290
     1
176
     1
290
     1
176
     1
290
     0
176
     1
290
     0
176
     1
290
     0
176
     1
290
     0
176
     1
290
     0
176
     1
290
     0
176
     1
 90
       50
176
     1
 40
0.0
176
     1
 40
1.0
176
     1
 90
        0
176
     1
 62
    18
420
        0
176
     1
 90
       50
176
     1
 90
        3
176
     1
 62
     5
420
      255
176
     1
290
     0
176
     1
 90
       50
176
     1
 90
       50
176
     1
 90
       50
176
     1
290
     0
176
     1
 90
       50
176
     1
 62
   256
176
     0
 40
1.0
176
     0
 90
        2
176
     1
  1
strokes_ogs.tif
176
     1
290
     0
176
     1
 40
1.0
176
     1
 40
1.0
176
     1
  0
VISUALSTYLE
  5
2C
102
{ACAD_REACTORS
330
2A
102
}
330
2A
100
AcDbVisualStyle
  2
FlatWithEdges
 70
     1
177
     3
291
     1
 70
    58
 90
        2
176
     1
 90
        1
176
     1
 90
        1
176
     1
 90
        2
176
     1
 40
0.6
176
     1
 40
30.0
176
     1
 62
     7
420
 16777215
176
     1
 90
        1
176
     1
 90
        0
176
     1
 62
     7
176
     1
 62
   257
176
     1
 90
        1
176
     1
 90
        1
176
     1
 40
1.0
176
     1
 90
        0
176
     1
 62
   257
176
     1
 40
1.0
176
     1
 90
        1
176
     1
 90
        6
176
     1
 90
        2
176
     1
 62
     7
176
     1
 90
        5
176
     1
 90
        0
176
     1
 90
        0
176
     1
290
     0
176
     1
 90
       13
176
     1
 40
0.0
176
     1
 90
        0
176
     1
290
     0
176
     1
290
     1
176
     1
290
     1
176
     1
290
     0
176
     1
290
     0
176
     1
290
     0
176
     1
290
     0
176
     1
290
     0
176
     1
290
     0
176
     1
 90
       50
176
     1
 40
0.0
176
     1
 40
1.0
176
     1
 90
        0
176
     1
 62
    18
420
        0
176
     1
 90
       50
176
     1
 90
        3
176
     1
 62
     5
420
      255
176
     1
290
     0
176
     1
 90
       50
176
     1
 90
       50
176
     1
 90
       50
176
     1
290
     0
176
     1
 90
       50
176
     1
 62
   256
176
     0
 40
1.0
176
     0
 90
        2
176
     1
  1
strokes_ogs.tif
176
     1
290
     0
176
     1
 40
1.0
176
     1
 40
1.0
176
     1
  0
VISUALSTYLE
  5
2D
102
{ACAD_REACTORS
330
2A
102
}
330
2A
100
AcDbVisualStyle
  2
Gouraud
 70
     2
177
     3
291
     1
 70
    58
 90
        2
176
     1
 90
        2
176
     1
 90
        1
176
     1
 90
        2
176
     1
 40
0.6
176
     1
 40
30.0
176
     1
 62
     7
420
 16777215
176
     1
 90
        0
176
     1
 90
        0
176
     1
 62
     7
176
     1
 62
   257
176
     1
 90
        1
176
     1
 90
        1
176
     1
 40
1.0
176
     1
 90
        0
176
     1
 62
     7
176
     1
 40
1.0
176
     1
 90
        1
176
     1
 90
        6
176
     1
 90
        2
176
     1
 62
     7
176
     1
 90
        5
176
     1
 90
        0
176
     1
 90
        0
176
     1
290
     0
176
     1
 90
       13
176
     1
 40
0.0
176
     1
 90
        0
176
     1
290
     0
176
     1
290
     1
176
     1
290
     1
176
     1
290
     0
176
     1
290
     0
176
     1
290
     0
176
     1
290
     0
176
     1
290
     0
176
     1
290
     0
176
     1
 90
       50
176
     1
 40
0.0
176
     1
 40
1.0
176
     1
 90
        0
176
     1
 62
    18
420
        0
176
     1
 90
       50
176
     1
 90
        3
176
     1
 62
     5
420
      255
176
     1
290
     0
176
     1
 90
       50
176
     1
 90
       50
176
     1
 90
       50
176
     1
290
     0
176
     1
 90
       50
176
     1
 62
   256
176
     0
 40
1.0
176
     0
 90
        2
176
     1
  1
strokes_ogs.tif
176
     1
290
     0
176
     1
 40
1.0
176
     1
 40
1.0
176
     1
  0
VISUALSTYLE
  5
2E
102
{ACAD_REACTORS
330
2A
102
}
330
2A
100
AcDbVisualStyle
  2
GouraudWithEdges
 70
     3
177
     3
291
     1
 70
    58
 90
        2
176
     1
 90
        2
176
     1
 90
        1
176
     1
 90
        2
176
     1
 40
0.6
176
     1
 40
30.0
176
     1
 62
     7
420
 16777215
176
     1
 90
        1
176
     1
 90
        0
176
     1
 62
     7
176
     1
 62
   257
176
     1
 90
        1
176
     1
 90
        1
176
     1
 40
1.0
176
     1
 90
        0
176
     1
 62
   257
176
     1
 40
1.0
176
     1
 90
        1
176
     1
 90
        6
176
     1
 90
        2
176
     1
 62
     7
176
     1
 90
        5
176
     1
 90
        0
176
     1
 90
        0
176
     1
290
     0
176
     1
 90
       13
176
     1
 40
0.0
176
     1
 90
        0
176
     1
290
     0
176
     1
290
     1
176
     1
290
     1
176
     1
290
     0
176
     1
290
     0
176
     1
290
     0
176
     1
290
     0
176
     1
290
     0
176
     1
290
     0
176
     1
 90
       50
176
     1
 40
0.0
176
     1
 40
1.0
176
     1
 90
        0
176
     1
 62
    18
420
        0
176
     1
 90
       50
176
     1
 90
        3
176
     1
 62
     5
420
      255
176
     1
290
     0
176
     1
 90
       50
176
     1
 90
       50
176
     1
 90
       50
176
     1
290
     0
176
     1
 90
       50
176
     1
 62
   256
176
     0
 40
1.0
176
     0
 90
        2
176
     1
  1
strokes_ogs.tif
176
     1
290
     0
176
     1
 40
1.0
176
     1
 40
1.0
176
     1
  0
VISUALSTYLE
  5
31
102
{ACAD_REACTORS
330
2A
102
}
330
2A
100
AcDbVisualStyle
  2
Hidden
 70
     6
177
     3
291
     0
 70
    58
 90
        1
176
     1
 90
        2
176
     1
 90
        2
176
     1
 90
        0
176
     1
 40
0.6
176
     1
 40
30.0
176
     1
 62
     7
420
 16777215
176
     1
 90
        2
176
     1
 90
        2
176
     1
 62
     7
176
     1
 62
   257
176
     1
 90
        2
176
     1
 90
        1
176
     1
 40
40.0
176
     1
 90
        0
176
     1
 62
   257
176
     1
 40
1.0
176
     1
 90
        1
176
     1
 90
        6
176
     1
 90
        2
176
     1
 62
     7
176
     1
 90
        3
176
     1
 90
        0
176
     1
 90
        0
176
     1
290
     0
176
     1
 90
        1
176
     1
 40
0.0
176
     1
 90
        0
176
     1
290
     0
176
     1
290
     1
176
     1
290
     1
176
     1
290
     0
176
     1
290
     0
176
     1
290
     0
176
     1
290
     0
176
     1
290
     0
176
     1
290
     0
176
     1
 90
       50
176
     1
 40
0.0
176
     1
 40
1.0
176
     1
 90
        0
176
     1
 62
    18
420
        0
176
     1
 90
       50
176
     1
 90
        3
176
     1
 62
     5
420
      255
176
     1
290
     0
176
     1
 90
       50
176
     1
 90
       50
176
     1
 90
       50
176
     1
290
     0
176
     1
 90
       50
176
     1
 62
   256
176
     0
 40
1.0
176
     0
 90
        2
176
     1
  1
strokes_ogs.tif
176
     1
290
     0
176
     1
 40
1.0
176
     1
 40
1.0
176
     1
  0
VISUALSTYLE
  5
3B
102
{ACAD_REACTORS
330
2A
102
}
330
2A
100
AcDbVisualStyle
  2
JitterOff
 70
    20
177
     3
291
     1
 70
    58
 90
        2
176
     0
 90
        2
176
     0
 90
        0
176
     0
 90
        0
176
     0
 40
0.6
176
     0
 40
30.0
176
     0
 62
     7
420
 16777215
176
     0
 90
        1
176
     0
 90
        4
176
     0
 62
     7
176
     0
 62
   257
176
     0
 90
        1
176
     0
 90
        1
176
     0
 40
1.0
176
     0
 90
       10
176
     2
 62
     7
176
     0
 40
1.0
176
     0
 90
        1
176
     0
 90
        6
176
     0
 90
        2
176
     0
 62
     7
176
     0
 90
        5
176
     0
 90
        0
176
     0
 90
        0
176
     0
290
     0
176
     0
 90
        1
176
     0
 40
0.0
176
     0
 90
        0
176
     0
290
     0
176
     0
290
     1
176
     0
290
     1
176
     0
290
     0
176
     0
290
     0
176
     0
290
     0
176
     0
290
     0
176
     0
290
     0
176
     0
290
     0
176
     0
 90
       50
176
     0
 40
0.0
176
     0
 40
1.0
176
     0
 90
        0
176
     0
 62
    18
420
        0
176
     0
 90
       50
176
     0
 90
        3
176
     0
 62
     5
420
      255
176
     0
290
     0
176
     0
 90
       50
176
     0
 90
       50
176
     0
 90
       50
176
     0
290
     0
176
     0
 90
       50
176
     0
 62
   256
176
     0
 40
1.0
176
     0
 90
        2
176
     0
  1
strokes_ogs.tif
176
     0
290
     0
176
     0
 40
1.0
176
     0
 40
1.0
176
     0
  0
VISUALSTYLE
  5
38
102
{ACAD_REACTORS
330
2A
102
}
330
2A
100
AcDbVisualStyle
  2
Linepattern
 70
    14
177
     3
291
     1
 70
    58
 90
        2
176
     1
 90
        2
176
     1
 90
        0
176
     1
 90
        0
176
     1
 40
0.6
176
     1
 40
30.0
176
     1
 62
     7
420
 16777215
176
     1
 90
        1
176
     1
 90
        4
176
     1
 62
     7
176
     1
 62
   257
176
     1
 90
        7
176
     1
 90
        7
176
     1
 40
1.0
176
     1
 90
        8
176
     1
 62
     7
176
     1
 40
1.0
176
     1
 90
        1
176
     1
 90
        6
176
     1
 90
        2
176
     1
 62
     7
176
     1
 90
        5
176
     1
 90
        0
176
     1
 90
        0
176
     1
290
     0
176
     1
 90
        1
176
     1
 40
0.0
176
     1
 90
        0
176
     1
290
     0
176
     1
290
     1
176
     1
290
     1
176
     1
290
     0
176
     1
290
     0
176
     1
290
     0
176
     1
290
     0
176
     1
290
     0
176
     1
290
     0
176
     1
 90
       50
176
     1
 40
0.0
176
     1
 40
1.0
176
     1
 90
        0
176
     1
 62
    18
420
        0
176
     1
 90
       50
176
     1
 90
        3
176
     1
 62
     5
420
      255
176
     1
290
     0
176
     1
 90
       50
176
     1
 90
       50
176
     1
 90
       50
176
     1
290
     0
176
     1
 90
       50
176
     1
 62
   256
176
     0
 40
1.0
176
     0
 90
        2
176
     1
  1
strokes_ogs.tif
176
     1
290
     0
176
     1
 40
1.0
176
     1
 40
1.0
176
     1
  0
VISUALSTYLE
  5
3C
102
{ACAD_REACTORS
330
2A
102
}
330
2A
100
AcDbVisualStyle
  2
OverhangOff
 70
    21
177
     3
291
     1
 70
    58
 90
        2
176
     0
 90
        2
176
     0
 90
        0
176
     0
 90
        0
176
     0
 40
0.6
176
     0
 40
30.0
176
     0
 62
     7
420
 16777215
176
     0
 90
        1
176
     0
 90
        4
176
     0
 62
     7
176
     0
 62
   257
176
     0
 90
        1
176
     0
 90
        1
176
     0
 40
1.0
176
     0
 90
        9
176
     2
 62
     7
176
     0
 40
1.0
176
     0
 90
        1
176
     0
 90
        6
176
     0
 90
        2
176
     0
 62
     7
176
     0
 90
        5
176
     0
 90
        0
176
     0
 90
        0
176
     0
290
     0
176
     0
 90
        1
176
     0
 40
0.0
176
     0
 90
        0
176
     0
290
     0
176
     0
290
     1
176
     0
290
     1
176
     0
290
     0
176
     0
290
     0
176
     0
290
     0
176
     0
290
     0
176
     0
290
     0
176
     0
290
     0
176
     0
 90
       50
176
     0
 40
0.0
176
     0
 40
1.0
176
     0
 90
        0
176
     0
 62
    18
420
        0
176
     0
 90
       50
176
     0
 90
        3
176
     0
 62
     5
420
      255
176
     0
290
     0
176
     0
 90
       50
176
     0
 90
       50
176
     0
 90
       50
176
     0
290
     0
176
     0
 90
       50
176
     0
 62
   256
176
     0
 40
1.0
176
     0
 90
        2
176
     0
  1
strokes_ogs.tif
176
     0
290
     0
176
     0
 40
1.0
176
     0
 40
1.0
176
     0
  0
VISUALSTYLE
  5
33
102
{ACAD_REACTORS
330
2A
102
}
330
2A
100
AcDbVisualStyle
  2
Realistic
 70
     8
177
     3
291
     0
 70
    58
 90
        2
176
     1
 90
        3
176
     1
 90
        0
176
     1
 90
        2
176
     1
 40
0.6
176
     1
 40
30.0
176
     1
 62
     7
420
 16777215
176
     1
 90
        0
176
     1
 90
        0
176
     1
 62
     7
176
     1
 62
   257
176
     1
 90
        1
176
     1
 90
        1
176
     1
 40
1.0
176
     1
 90
        8
176
     1
 62
   257
176
     1
 40
1.0
176
     1
 90
        1
176
     1
 90
        6
176
     1
 90
        2
176
     1
 62
     7
176
     1
 90
        3
176
     1
 90
        0
176
     1
 90
        0
176
     1
290
     0
176
     1
 90
       13
176
     1
 40
0.0
176
     1
 90
        0
176
     1
290
     0
176
     1
290
     1
176
     1
290
     1
176
     1
290
     0
176
     1
290
     0
176
     1
290
     0
176
     1
290
     0
176
     1
290
     0
176
     1
290
     0
176
     1
 90
       50
176
     1
 40
0.0
176
     1
 40
1.0
176
     1
 90
        0
176
     1
 62
    18
420
        0
176
     1
 90
       50
176
     1
 90
        3
176
     1
 62
     5
420
      255
176
     1
290
     0
176
     1
 90
       50
176
     1
 90
       50
176
     1
 90
       50
176
     1
290
     0
176
     1
 90
       50
176
     1
 62
   256
176
     0
 40
1.0
176
     0
 90
        2
176
     1
  1
strokes_ogs.tif
176
     1
290
     0
176
     1
 40
1.0
176
     1
 40
1.0
176
     1
  0
VISUALSTYLE
  5
42
102
{ACAD_REACTORS
330
2A
102
}
330
2A
100
AcDbVisualStyle
  2
Shaded
 70
    27
177
     3
291
     0
 70
    58
 90
        2
176
     1
 90
        2
176
     1
 90
        1
176
     1
 90
        2
176
     1
 40
0.6
176
     1
 40
30.0
176
     1
 62
     7
420
 16777215
176
     1
 90
        0
176
     1
 90
        4
176
     1
 62
     7
176
     1
 62
   257
176
     1
 90
        1
176
     1
 90
        1
176
     1
 40
1.0
176
     1
 90
        8
176
     1
 62
   257
176
     1
 40
1.0
176
     1
 90
        1
176
     1
 90
        6
176
     1
 90
        2
176
     1
 62
     8
420
  7895160
176
     1
 90
        3
176
     1
 90
        0
176
     1
 90
        0
176
     1
290
     0
176
     1
 90
        5
176
     1
 40
0.0
176
     1
 90
        0
176
     1
290
     0
176
     1
290
     1
176
     1
290
     1
176
     1
290
     0
176
     1
290
     0
176
     1
290
     0
176
     1
290
     0
176
     1
290
     0
176
     1
290
     0
176
     1
 90
       50
176
     1
 40
0.0
176
     1
 40
1.0
176
     1
 90
        0
176
     1
 62
    18
420
        0
176
     1
 90
       50
176
     1
 90
        3
176
     1
 62
     5
420
      255
176
     1
290
     0
176
     1
 90
       50
176
     1
 90
       50
176
     1
 90
       50
176
     1
290
     0
176
     1
 90
       50
176
     1
 62
   256
176
     0
 40
1.0
176
     0
 90
        2
176
     1
  1
strokes_ogs.tif
176
     1
290
     0
176
     1
 40
1.0
176
     1
 40
1.0
176
     1
  0
VISUALSTYLE
  5
41
102
{ACAD_REACTORS
330
2A
102
}
330
2A
100
AcDbVisualStyle
  2
Shaded with edges
 70
    26
177
     3
291
     0
 70
    58
 90
        2
176
     1
 90
        2
176
     1
 90
        1
176
     1
 90
        2
176
     1
 40
0.6
176
     1
 40
30.0
176
     1
 62
     7
420
 16777215
176
     1
 90
        1
176
     1
 90
       10
176
     1
 62
     7
176
     1
 62
   257
176
     1
 90
        2
176
     1
 90
        1
176
     1
 40
1.0
176
     1
 90
        8
176
     1
 62
   257
176
     1
 40
1.0
176
     1
 90
        1
176
     1
 90
        6
176
     1
 90
        2
176
     1
 62
     7
176
     1
 90
        3
176
     1
 90
        0
176
     1
 90
        0
176
     1
290
     0
176
     1
 90
        5
176
     1
 40
0.0
176
     1
 90
        0
176
     1
290
     0
176
     1
290
     1
176
     1
290
     1
176
     1
290
     0
176
     1
290
     0
176
     1
290
     0
176
     1
290
     0
176
     1
290
     0
176
     1
290
     0
176
     1
 90
       50
176
     1
 40
0.0
176
     1
 40
1.0
176
     1
 90
        0
176
     1
 62
    18
420
        0
176
     1
 90
       50
176
     1
 90
        3
176
     1
 62
     5
420
      255
176
     1
290
     0
176
     1
 90
       50
176
     1
 90
       50
176
     1
 90
       50
176
     1
290
     0
176
     1
 90
       50
176
     1
 62
   256
176
     0
 40
1.0
176
     0
 90
        2
176
     1
  1
strokes_ogs.tif
176
     1
290
     0
176
     1
 40
1.0
176
     1
 40
1.0
176
     1
  0
VISUALSTYLE
  5
3E
102
{ACAD_REACTORS
330
2A
102
}
330
2A
100
AcDbVisualStyle
  2
Shades of Gray
 70
    23
177
     3
291
     0
 70
    58
 90
        2
176
     1
 90
        2
176
     1
 90
        3
176
     1
 90
        0
176
     1
 40
0.6
176
     1
 40
30.0
176
     1
 62
     7
420
 16777215
176
     1
 90
        2
176
     1
 90
        2
176
     1
 62
     7
176
     1
 62
     7
176
     1
 90
        1
176
     1
 90
        1
176
     1
 40
40.0
176
     1
 90
        8
176
     1
 62
     7
176
     1
 40
1.0
176
     1
 90
        1
176
     1
 90
        6
176
     1
 90
        2
176
     1
 62
     7
176
     1
 90
        3
176
     1
 90
        0
176
     1
 90
        0
176
     1
290
     0
176
     1
 90
        1
176
     1
 40
0.0
176
     1
 90
        0
176
     1
290
     0
176
     1
290
     1
176
     1
290
     1
176
     1
290
     0
176
     1
290
     0
176
     1
290
     0
176
     1
290
     0
176
     1
290
     0
176
     1
290
     0
176
     1
 90
       50
176
     1
 40
0.0
176
     1
 40
1.0
176
     1
 90
        0
176
     1
 62
    18
420
        0
176
     1
 90
       50
176
     1
 90
        3
176
     1
 62
     5
420
      255
176
     1
290
     0
176
     1
 90
       50
176
     1
 90
       50
176
     1
 90
       50
176
     1
290
     0
176
     1
 90
       50
176
     1
 62
   256
176
     0
 40
1.0
176
     0
 90
        2
176
     1
  1
strokes_ogs.tif
176
     1
290
     0
176
     1
 40
1.0
176
     1
 40
1.0
176
     1
  0
VISUALSTYLE
  5
3F
102
{ACAD_REACTORS
330
2A
102
}
330
2A
100
AcDbVisualStyle
  2
Sketchy
 70
    24
177
     3
291
     0
 70
    58
 90
        1
176
     1
 90
        2
176
     1
 90
        2
176
     1
 90
        0
176
     1
 40
0.6
176
     1
 40
30.0
176
     1
 62
     7
420
 16777215
176
     1
 90
        2
176
     1
 90
        2
176
     1
 62
     7
176
     1
 62
     7
176
     1
 90
        1
176
     1
 90
        1
176
     1
 40
40.0
176
     1
 90
       11
176
     1
 62
     7
176
     1
 40
1.0
176
     1
 90
        1
176
     1
 90
        6
176
     1
 90
        2
176
     1
 62
     7
176
     1
 90
        6
176
     1
 90
        0
176
     1
 90
        0
176
     1
290
     0
176
     1
 90
        1
176
     1
 40
0.0
176
     1
 90
        0
176
     1
290
     0
176
     1
290
     1
176
     1
290
     1
176
     1
290
     0
176
     1
290
     0
176
     1
290
     0
176
     1
290
     0
176
     1
290
     0
176
     1
290
     0
176
     1
 90
       50
176
     1
 40
0.0
176
     1
 40
1.0
176
     1
 90
        0
176
     1
 62
    18
420
        0
176
     1
 90
       50
176
     1
 90
        3
176
     1
 62
     5
420
      255
176
     1
290
     0
176
     1
 90
       50
176
     1
 90
       50
176
     1
 90
       50
176
     1
290
     0
176
     1
 90
       50
176
     1
 62
   256
176
     0
 40
1.0
176
     0
 90
        2
176
     1
  1
strokes_ogs.tif
176
     1
290
     0
176
     1
 40
1.0
176
     1
 40
1.0
176
     1
  0
VISUALSTYLE
  5
37
102
{ACAD_REACTORS
330
2A
102
}
330
2A
100
AcDbVisualStyle
  2
Thicken
 70
    13
177
     3
291
     1
 70
    58
 90
        2
176
     1
 90
        2
176
     1
 90
        0
176
     1
 90
        0
176
     1
 40
0.6
176
     1
 40
30.0
176
     1
 62
     7
420
 16777215
176
     1
 90
        1
176
     1
 90
        4
176
     1
 62
     7
176
     1
 62
   257
176
     1
 90
        1
176
     1
 90
        1
176
     1
 40
1.0
176
     1
 90
       12
176
     1
 62
     7
176
     1
 40
1.0
176
     1
 90
        1
176
     1
 90
        6
176
     1
 90
        2
176
     1
 62
     7
176
     1
 90
        5
176
     1
 90
        0
176
     1
 90
        0
176
     1
290
     0
176
     1
 90
        1
176
     1
 40
0.0
176
     1
 90
        0
176
     1
290
     0
176
     1
290
     1
176
     1
290
     1
176
     1
290
     0
176
     1
290
     0
176
     1
290
     0
176
     1
290
     0
176
     1
290
     0
176
     1
290
     0
176
     1
 90
       50
176
     1
 40
0.0
176
     1
 40
1.0
176
     1
 90
        0
176
     1
 62
    18
420
        0
176
     1
 90
       50
176
     1
 90
        3
176
     1
 62
     5
420
      255
176
     1
290
     0
176
     1
 90
       50
176
     1
 90
       50
176
     1
 90
       50
176
     1
290
     0
176
     1
 90
       50
176
     1
 62
   256
176
     0
 40
1.0
176
     0
 90
        2
176
     1
  1
strokes_ogs.tif
176
     1
290
     0
176
     1
 40
1.0
176
     1
 40
1.0
176
     1
  0
VISUALSTYLE
  5
30
102
{ACAD_REACTORS
330
2A
102
}
330
2A
100
AcDbVisualStyle
  2
Wireframe
 70
     5
177
     3
291
     0
 70
    58
 90
        0
176
     1
 90
        2
176
     1
 90
        0
176
     1
 90
        0
176
     1
 40
0.6
176
     1
 40
30.0
176
     1
 62
     7
420
 16777215
176
     1
 90
        1
176
     1
 90
        4
176
     1
 62
     7
176
     1
 62
   257
176
     1
 90
        1
176
     1
 90
        1
176
     1
 40
1.0
176
     1
 90
        0
176
     1
 62
   257
176
     1
 40
1.0
176
     1
 90
        1
176
     1
 90
        6
176
     1
 90
        2
176
     1
 62
     7
176
     1
 90
        3
176
     1
 90
        0
176
     1
 90
        0
176
     1
290
     0
176
     1
 90
        1
176
     1
 40
0.0
176
     1
 90
        0
176
     1
290
     0
176
     1
290
     1
176
     1
290
     1
176
     1
290
     0
176
     1
290
     0
176
     1
290
     0
176
     1
290
     0
176
     1
290
     0
176
     1
290
     0
176
     1
 90
       50
176
     1
 40
0.0
176
     1
 40
1.0
176
     1
 90
        0
176
     1
 62
    18
420
        0
176
     1
 90
       50
176
     1
 90
        3
176
     1
 62
     5
420
      255
176
     1
290
     0
176
     1
 90
       50
176
     1
 90
       50
176
     1
 90
       50
176
     1
290
     0
176
     1
 90
       50
176
     1
 62
   256
176
     0
 40
1.0
176
     0
 90
        2
176
     1
  1
strokes_ogs.tif
176
     1
290
     0
176
     1
 40
1.0
176
     1
 40
1.0
176
     1
  0
VISUALSTYLE
  5
40
102
{ACAD_REACTORS
330
2A
102
}
330
2A
100
AcDbVisualStyle
  2
X-Ray
 70
    25
177
     3
291
     0
 70
    58
 90
        2
176
     1
 90
        2
176
     1
 90
        1
176
     1
 90
        1
176
     1
 40
0.5
176
     1
 40
30.0
176
     1
 62
     7
420
 16777215
176
     1
 90
        1
176
     1
 90
        0
176
     1
 62
     7
176
     1
 62
   257
176
     1
 90
        1
176
     1
 90
        1
176
     1
 40
1.0
176
     1
 90
        8
176
     1
 62
     7
176
     1
 40
1.0
176
     1
 90
        1
176
     1
 90
        6
176
     1
 90
        2
176
     1
 62
     7
176
     1
 90
        3
176
     1
 90
        0
176
     1
 90
        0
176
     1
290
     0
176
     1
 90
       13
176
     1
 40
0.0
176
     1
 90
        0
176
     1
290
     0
176
     1
290
     1
176
     1
290
     1
176
     1
290
     0
176
     1
290
     0
176
     1
290
     0
176
     1
290
     0
176
     1
290
     0
176
     1
290
     0
176
     1
 90
       50
176
     1
 40
0.0
176
     1
 40
1.0
176
     1
 90
        0
176
     1
 62
    18
420
        0
176
     1
 90
       50
176
     1
 90
        3
176
     1
 62
     5
420
      255
176
     1
290
     0
176
     1
 90
       50
176
     1
 90
       50
176
     1
 90
       50
176
     1
290
     0
176
     1
 90
       50
176
     1
 62
   256
176
     0
 40
1.0
176
     0
 90
        2
176
     1
  1
strokes_ogs.tif
176
     1
290
     0
176
     1
 40
1.0
176
     1
 40
1.0
176
     1
  0
DICTIONARYVAR
  5
161
102
{ACAD_REACTORS
330
160
102
}
330
160
100
DictionaryVariables
280
     0
  1
1:1
  0
DICTIONARYVAR
  5
166
102
{ACAD_REACTORS
330
160
102
}
330
160
100
DictionaryVariables
280
     0
  1
Standard
  0
DICTIONARYVAR
  5
165
102
{ACAD_REACTORS
330
160
102
}
330
160
100
DictionaryVariables
280
     0
  1
Standard
  0
DICTIONARY
  5
162
330
6A
100
AcDbDictionary
280
     1
281
     1
  3
ACAD_ROUNDTRIP_2008_TABLESTYLE_CELLSTYLEMAP
360
163
  0
CELLSTYLEMAP
  5
163
102
{ACAD_REACTORS
330
162
102
}
330
162
100
AcDbCellStyleMap
 90
        3
300
CELLSTYLE
  1
TABLEFORMAT_BEGIN
 90
        5
170
     1
 91
        0
 92
    32768
 62
   257
 93
        1
300
CONTENTFORMAT
  1
CONTENTFORMAT_BEGIN
 90
        0
 91
        0
 92
        4
 93
        0
300

 40
0.0
140
1.0
 94
        5
 62
     0
340
11
144
0.25
309
CONTENTFORMAT_END
171
     1
301
MARGIN
  1
CELLMARGIN_BEGIN
 40
0.06
 40
0.06
 40
0.06
 40
0.06
 40
0.06
 40
0.06
309
CELLMARGIN_END
 94
        6
 95
        1
302
GRIDFORMAT
  1
GRIDFORMAT_BEGIN
 90
        0
 91
        1
 62
     0
 92
       -2
340
14
 93
        0
 40
0.045
309
GRIDFORMAT_END
 95
        2
302
GRIDFORMAT
  1
GRIDFORMAT_BEGIN
 90
        0
 91
        1
 62
     0
 92
       -2
340
14
 93
        0
 40
0.045
309
GRIDFORMAT_END
 95
        4
302
GRIDFORMAT
  1
GRIDFORMAT_BEGIN
 90
        0
 91
        1
 62
     0
 92
       -2
340
14
 93
        0
 40
0.045
309
GRIDFORMAT_END
 95
        8
302
GRIDFORMAT
  1
GRIDFORMAT_BEGIN
 90
        0
 91
        1
 62
     0
 92
       -2
340
14
 93
        0
 40
0.045
309
GRIDFORMAT_END
 95
       16
302
GRIDFORMAT
  1
GRIDFORMAT_BEGIN
 90
        0
 91
        1
 62
     0
 92
       -2
340
14
 93
        0
 40
0.045
309
GRIDFORMAT_END
 95
       32
302
GRIDFORMAT
  1
GRIDFORMAT_BEGIN
 90
        0
 91
        1
 62
     0
 92
       -2
340
14
 93
        0
 40
0.045
309
GRIDFORMAT_END
309
TABLEFORMAT_END
  1
CELLSTYLE_BEGIN
 90
        1
 91
        1
300
_TITLE
309
CELLSTYLE_END
300
CELLSTYLE
  1
TABLEFORMAT_BEGIN
 90
        5
170
     1
 91
        0
 92
        0
 62
   257
 93
        1
300
CONTENTFORMAT
  1
CONTENTFORMAT_BEGIN
 90
        0
 91
        0
 92
        4
 93
        0
300

 40
0.0
140
1.0
 94
        5
 62
     0
340
11
144
0.18
309
CONTENTFORMAT_END
171
     1
301
MARGIN
  1
CELLMARGIN_BEGIN
 40
0.06
 40
0.06
 40
0.06
 40
0.06
 40
0.06
 40
0.06
309
CELLMARGIN_END
 94
        6
 95
        1
302
GRIDFORMAT
  1
GRIDFORMAT_BEGIN
 90
        0
 91
        1
 62
     0
 92
       -2
340
14
 93
        0
 40
0.045
309
GRIDFORMAT_END
 95
        2
302
GRIDFORMAT
  1
GRIDFORMAT_BEGIN
 90
        0
 91
        1
 62
     0
 92
       -2
340
14
 93
        0
 40
0.045
309
GRIDFORMAT_END
 95
        4
302
GRIDFORMAT
  1
GRIDFORMAT_BEGIN
 90
        0
 91
        1
 62
     0
 92
       -2
340
14
 93
        0
 40
0.045
309
GRIDFORMAT_END
 95
        8
302
GRIDFORMAT
  1
GRIDFORMAT_BEGIN
 90
        0
 91
        1
 62
     0
 92
       -2
340
14
 93
        0
 40
0.045
309
GRIDFORMAT_END
 95
       16
302
GRIDFORMAT
  1
GRIDFORMAT_BEGIN
 90
        0
 91
        1
 62
     0
 92
       -2
340
14
 93
        0
 40
0.045
309
GRIDFORMAT_END
 95
       32
302
GRIDFORMAT
  1
GRIDFORMAT_BEGIN
 90
        0
 91
        1
 62
     0
 92
       -2
340
14
 93
        0
 40
0.045
309
GRIDFORMAT_END
309
TABLEFORMAT_END
  1
CELLSTYLE_BEGIN
 90
        2
 91
        1
300
_HEADER
309
CELLSTYLE_END
300
CELLSTYLE
  1
TABLEFORMAT_BEGIN
 90
        5
170
     1
 91
        0
 92
        0
 62
   257
 93
        1
300
CONTENTFORMAT
  1
CONTENTFORMAT_BEGIN
 90
        0
 91
        0
 92
        4
 93
        0
300

 40
0.0
140
1.0
 94
        2
 62
     0
340
11
144
0.18
309
CONTENTFORMAT_END
171
     1
301
MARGIN
  1
CELLMARGIN_BEGIN
 40
0.06
 40
0.06
 40
0.06
 40
0.06
 40
0.06
 40
0.06
309
CELLMARGIN_END
 94
        6
 95
        1
302
GRIDFORMAT
  1
GRIDFORMAT_BEGIN
 90
        0
 91
        1
 62
     0
 92
       -2
340
14
 93
        0
 40
0.045
309
GRIDFORMAT_END
 95
        2
302
GRIDFORMAT
  1
GRIDFORMAT_BEGIN
 90
        0
 91
        1
 62
     0
 92
       -2
340
14
 93
        0
 40
0.045
309
GRIDFORMAT_END
 95
        4
302
GRIDFORMAT
  1
GRIDFORMAT_BEGIN
 90
        0
 91
        1
 62
     0
 92
       -2
340
14
 93
        0
 40
0.045
309
GRIDFORMAT_END
 95
        8
302
GRIDFORMAT
  1
GRIDFORMAT_BEGIN
 90
        0
 91
        1
 62
     0
 92
       -2
340
14
 93
        0
 40
0.045
309
GRIDFORMAT_END
 95
       16
302
GRIDFORMAT
  1
GRIDFORMAT_BEGIN
 90
        0
 91
        1
 62
     0
 92
       -2
340
14
 93
        0
 40
0.045
309
GRIDFORMAT_END
 95
       32
302
GRIDFORMAT
  1
GRIDFORMAT_BEGIN
 90
        0
 91
        1
 62
     0
 92
       -2
340
14
 93
        0
 40
0.045
309
GRIDFORMAT_END
309
TABLEFORMAT_END
  1
CELLSTYLE_BEGIN
 90
        3
 91
        2
300
_DATA
309
CELLSTYLE_END
  0
ENDSEC
  0
EOF