0
SECTION
  2
HEADER
  9
$ACADVER
  1
AC1027
  9
$ACADMAINTVER
 70
     8
  9
$DWGCODEPAGE
  3
ANSI_1252
  9
$REQUIREDVERSIONS
160
                 0
  9
$COMMENTS
  1
File was created by Cadenas
  9
$CUSTOMPROPERTYTAG
  1
NN
  9
$CUSTOMPROPERTY
  1
TAF Pillow Block - Inch 2-Bolt Base Non-Expansion Type
  9
$CUSTOMPROPERTYTAG
  1
NT
  9
$CUSTOMPROPERTY
  1
Taf Bearings
  9
$CUSTOMPROPERTYTAG
  1
NB
  9
$CUSTOMPROPERTY
  1
037590
  9
$CUSTOMPROPERTYTAG
  1
NBSYN
  9
$CUSTOMPROPERTY
  1
$PN.
  9
$CUSTOMPROPERTYTAG
  1
LINA
  9
$CUSTOMPROPERTY
  1
037590
  9
$CUSTOMPROPERTYTAG
  1
SS
  9
$CUSTOMPROPERTY
  1
3-7/16
  9
$CUSTOMPROPERTYTAG
  1
SERIES
  9
$CUSTOMPROPERTY
  1
520
  9
$CUSTOMPROPERTYTAG
  1
PN
  9
$CUSTOMPROPERTY
  1
037590
  9
$CUSTOMPROPERTYTAG
  1
DESCRIPTION
  9
$CUSTOMPROPERTY
  1
P2b-taf-307r
  9
$CUSTOMPROPERTYTAG
  1
HF
  9
$CUSTOMPROPERTY
  1
2
  9
$CUSTOMPROPERTYTAG
  1
EF
  9
$CUSTOMPROPERTY
  1
Non Expansion Type
  9
$CUSTOMPROPERTYTAG
  1
A
  9
$CUSTOMPROPERTY
  1
5
  9
$CUSTOMPROPERTYTAG
  1
B
  9
$CUSTOMPROPERTY
  1
15.38
  9
$CUSTOMPROPERTYTAG
  1
C
  9
$CUSTOMPROPERTY
  1
4.34
  9
$CUSTOMPROPERTYTAG
  1
DMIN
  9
$CUSTOMPROPERTY
  1
11.82
  9
$CUSTOMPROPERTYTAG
  1
DMAX
  9
$CUSTOMPROPERTY
  1
13.12
  9
$CUSTOMPROPERTYTAG
  1
E
  9
$CUSTOMPROPERTY
  1
2.38
  9
$CUSTOMPROPERTYTAG
  1
F
  9
$CUSTOMPROPERTY
  1
7/8
  9
$CUSTOMPROPERTYTAG
  1
G
  9
$CUSTOMPROPERTY
  1
1.65
  9
$CUSTOMPROPERTYTAG
  1
H
  9
$CUSTOMPROPERTY
  1
1.66
  9
$CUSTOMPROPERTYTAG
  1
J
  9
$CUSTOMPROPERTY
  1
9.42
  9
$CUSTOMPROPERTYTAG
  1
K
  9
$CUSTOMPROPERTY
  1
2.50
  9
$CUSTOMPROPERTYTAG
  1
L
  9
$CUSTOMPROPERTY
  1
5.50
  9
$CUSTOMPROPERTYTAG
  1
M
  9
$CUSTOMPROPERTY
  1
4.50
  9
$CUSTOMPROPERTYTAG
  1
P
  9
$CUSTOMPROPERTY
  1
10.10
  9
$CUSTOMPROPERTYTAG
  1
T
  9
$CUSTOMPROPERTY
  1
0.28
  9
$CUSTOMPROPERTYTAG
  1
SC
  9
$CUSTOMPROPERTY
  1
108600
  9
$CUSTOMPROPERTYTAG
  1
DC
  9
$CUSTOMPROPERTY
  1
15300
  9
$CUSTOMPROPERTYTAG
  1
RN
  9
$CUSTOMPROPERTY
  1
26
  9
$CUSTOMPROPERTYTAG
  1
RMD
  9
$CUSTOMPROPERTY
  1
0.46
  9
$CUSTOMPROPERTYTAG
  1
PD
  9
$CUSTOMPROPERTY
  1
4.780
  9
$CUSTOMPROPERTYTAG
  1
EP
  9
$CUSTOMPROPERTY
  1
0.008/0.012
  9
$CUSTOMPROPERTYTAG
  1
CSS
  9
$CUSTOMPROPERTY
  1
1/2-13x1
  9
$CUSTOMPROPERTYTAG
  1
CST
  9
$CUSTOMPROPERTY
  1
620
  9
$CUSTOMPROPERTYTAG
  1
HM
  9
$CUSTOMPROPERTY
  1
A48 CLASS 30
  9
$CUSTOMPROPERTYTAG
  1
CM
  9
$CUSTOMPROPERTY
  1
4118 CASE CARB.
  9
$CUSTOMPROPERTYTAG
  1
CUM
  9
$CUSTOMPROPERTY
  1
4118 CASE CARB.
  9
$CUSTOMPROPERTYTAG
  1
RM
  9
$CUSTOMPROPERTY
  1
STEEL
  9
$CUSTOMPROPERTYTAG
  1
ROM
  9
$CUSTOMPROPERTY
  1
4118 CASE CARB.
  9
$CUSTOMPROPERTYTAG
  1
SM
  9
$CUSTOMPROPERTY
  1
4.05
  9
$CUSTOMPROPERTYTAG
  1
COMPANY
  9
$CUSTOMPROPERTY
  1
baldor
  9
$INSBASE
 10
0.0
 20
0.0
 30
0.0
  9
$EXTMIN
 10
1.000000000000000E+20
 20
1.000000000000000E+20
 30
1.000000000000000E+20
  9
$EXTMAX
 10
-1.000000000000000E+20
 20
-1.000000000000000E+20
 30
-1.000000000000000E+20
  9
$LIMMIN
 10
0.0
 20
0.0
  9
$LIMMAX
 10
12.0
 20
9.0
  9
$ORTHOMODE
 70
     0
  9
$REGENMODE
 70
     1
  9
$FILLMODE
 70
     1
  9
$QTEXTMODE
 70
     0
  9
$MIRRTEXT
 70
     1
  9
$LTSCALE
 40
1.0
  9
$ATTMODE
 70
     1
  9
$TEXTSIZE
 40
0.2
  9
$TRACEWID
 40
0.05
  9
$TEXTSTYLE
  7
Standard
  9
$CLAYER
  8
0
  9
$CELTYPE
  6
ByLayer
  9
$CECOLOR
 62
   256
  9
$CELTSCALE
 40
1.0
  9
$DISPSILH
 70
     0
  9
$DIMSCALE
 40
1.0
  9
$DIMASZ
 40
0.18
  9
$DIMEXO
 40
0.0625
  9
$DIMDLI
 40
0.38
  9
$DIMRND
 40
0.0
  9
$DIMDLE
 40
0.0
  9
$DIMEXE
 40
0.18
  9
$DIMTP
 40
0.0
  9
$DIMTM
 40
0.0
  9
$DIMTXT
 40
0.18
  9
$DIMCEN
 40
0.09
  9
$DIMTSZ
 40
0.0
  9
$DIMTOL
 70
     0
  9
$DIMLIM
 70
     0
  9
$DIMTIH
 70
     1
  9
$DIMTOH
 70
     1
  9
$DIMSE1
 70
     0
  9
$DIMSE2
 70
     0
  9
$DIMTAD
 70
     0
  9
$DIMZIN
 70
     0
  9
$DIMBLK
  1

  9
$DIMASO
 70
     1
  9
$DIMSHO
 70
     1
  9
$DIMPOST
  1

  9
$DIMAPOST
  1

  9
$DIMALT
 70
     0
  9
$DIMALTD
 70
     2
  9
$DIMALTF
 40
25.4
  9
$DIMLFAC
 40
1.0
  9
$DIMTOFL
 70
     0
  9
$DIMTVP
 40
0.0
  9
$DIMTIX
 70
     0
  9
$DIMSOXD
 70
     0
  9
$DIMSAH
 70
     0
  9
$DIMBLK1
  1

  9
$DIMBLK2
  1

  9
$DIMSTYLE
  2
Standard
  9
$DIMCLRD
 70
     0
  9
$DIMCLRE
 70
     0
  9
$DIMCLRT
 70
     0
  9
$DIMTFAC
 40
1.0
  9
$DIMGAP
 40
0.09
  9
$DIMJUST
 70
     0
  9
$DIMSD1
 70
     0
  9
$DIMSD2
 70
     0
  9
$DIMTOLJ
 70
     1
  9
$DIMTZIN
 70
     0
  9
$DIMALTZ
 70
     0
  9
$DIMALTTZ
 70
     0
  9
$DIMUPT
 70
     0
  9
$DIMDEC
 70
     4
  9
$DIMTDEC
 70
     4
  9
$DIMALTU
 70
     2
  9
$DIMALTTD
 70
     2
  9
$DIMTXSTY
  7
Standard
  9
$DIMAUNIT
 70
     0
  9
$DIMADEC
 70
     0
  9
$DIMALTRND
 40
0.0
  9
$DIMAZIN
 70
     0
  9
$DIMDSEP
 70
    46
  9
$DIMATFIT
 70
     3
  9
$DIMFRAC
 70
     0
  9
$DIMLDRBLK
  1

  9
$DIMLUNIT
 70
     2
  9
$DIMLWD
 70
    -2
  9
$DIMLWE
 70
    -2
  9
$DIMTMOVE
 70
     0
  9
$DIMFXL
 40
1.0
  9
$DIMFXLON
 70
     0
  9
$DIMJOGANG
 40
0.7853981633974483
  9
$DIMTFILL
 70
     0
  9
$DIMTFILLCLR
 70
     0
  9
$DIMARCSYM
 70
     0
  9
$DIMLTYPE
  6

  9
$DIMLTEX1
  6

  9
$DIMLTEX2
  6

  9
$DIMTXTDIRECTION
 70
     0
  9
$LUNITS
 70
     2
  9
$LUPREC
 70
     4
  9
$SKETCHINC
 40
0.1
  9
$FILLETRAD
 40
0.5
  9
$AUNITS
 70
     0
  9
$AUPREC
 70
     0
  9
$MENU
  1
.
  9
$ELEVATION
 40
0.0
  9
$PELEVATION
 40
0.0
  9
$THICKNESS
 40
0.0
  9
$LIMCHECK
 70
     0
  9
$CHAMFERA
 40
0.0
  9
$CHAMFERB
 40
0.0
  9
$CHAMFERC
 40
0.0
  9
$CHAMFERD
 40
0.0
  9
$SKPOLY
 70
     0
  9
$TDCREATE
 40
2458168.977985243
  9
$TDUCREATE
 40
2458168.936318576
  9
$TDUPDATE
 40
2458168.977985428
  9
$TDUUPDATE
 40
2458168.936318762
  9
$TDINDWG
 40
0.0000000116
  9
$TDUSRTIMER
 40
0.0000000116
  9
$USRTIMER
 70
     1
  9
$ANGBASE
 50
0.0
  9
$ANGDIR
 70
     0
  9
$PDMODE
 70
     0
  9
$PDSIZE
 40
0.0
  9
$PLINEWID
 40
0.0
  9
$SPLFRAME
 70
     0
  9
$SPLINETYPE
 70
     6
  9
$SPLINESEGS
 70
     8
  9
$HANDSEED
  5
26B
  9
$SURFTAB1
 70
     6
  9
$SURFTAB2
 70
     6
  9
$SURFTYPE
 70
     6
  9
$SURFU
 70
     6
  9
$SURFV
 70
     6
  9
$UCSBASE
  2

  9
$UCSNAME
  2

  9
$UCSORG
 10
0.0
 20
0.0
 30
0.0
  9
$UCSXDIR
 10
1.0
 20
0.0
 30
0.0
  9
$UCSYDIR
 10
0.0
 20
1.0
 30
0.0
  9
$UCSORTHOREF
  2

  9
$UCSORTHOVIEW
 70
     0
  9
$UCSORGTOP
 10
0.0
 20
0.0
 30
0.0
  9
$UCSORGBOTTOM
 10
0.0
 20
0.0
 30
0.0
  9
$UCSORGLEFT
 10
0.0
 20
0.0
 30
0.0
  9
$UCSORGRIGHT
 10
0.0
 20
0.0
 30
0.0
  9
$UCSORGFRONT
 10
0.0
 20
0.0
 30
0.0
  9
$UCSORGBACK
 10
0.0
 20
0.0
 30
0.0
  9
$PUCSBASE
  2

  9
$PUCSNAME
  2

  9
$PUCSORG
 10
0.0
 20
0.0
 30
0.0
  9
$PUCSXDIR
 10
1.0
 20
0.0
 30
0.0
  9
$PUCSYDIR
 10
0.0
 20
1.0
 30
0.0
  9
$PUCSORTHOREF
  2

  9
$PUCSORTHOVIEW
 70
     0
  9
$PUCSORGTOP
 10
0.0
 20
0.0
 30
0.0
  9
$PUCSORGBOTTOM
 10
0.0
 20
0.0
 30
0.0
  9
$PUCSORGLEFT
 10
0.0
 20
0.0
 30
0.0
  9
$PUCSORGRIGHT
 10
0.0
 20
0.0
 30
0.0
  9
$PUCSORGFRONT
 10
0.0
 20
0.0
 30
0.0
  9
$PUCSORGBACK
 10
0.0
 20
0.0
 30
0.0
  9
$USERI1
 70
     0
  9
$USERI2
 70
     0
  9
$USERI3
 70
     0
  9
$USERI4
 70
     0
  9
$USERI5
 70
     0
  9
$USERR1
 40
0.0
  9
$USERR2
 40
0.0
  9
$USERR3
 40
0.0
  9
$USERR4
 40
0.0
  9
$USERR5
 40
0.0
  9
$WORLDVIEW
 70
     1
  9
$SHADEDGE
 70
     3
  9
$SHADEDIF
 70
    70
  9
$TILEMODE
 70
     1
  9
$MAXACTVP
 70
    64
  9
$PINSBASE
 10
0.0
 20
0.0
 30
0.0
  9
$PLIMCHECK
 70
     0
  9
$PEXTMIN
 10
1.000000000000000E+20
 20
1.000000000000000E+20
 30
1.000000000000000E+20
  9
$PEXTMAX
 10
-1.000000000000000E+20
 20
-1.000000000000000E+20
 30
-1.000000000000000E+20
  9
$PLIMMIN
 10
0.0
 20
0.0
  9
$PLIMMAX
 10
12.0
 20
9.0
  9
$UNITMODE
 70
     0
  9
$VISRETAIN
 70
     1
  9
$PLINEGEN
 70
     0
  9
$PSLTSCALE
 70
     1
  9
$TREEDEPTH
 70
  3020
  9
$CMLSTYLE
  2
Standard
  9
$CMLJUST
 70
     0
  9
$CMLSCALE
 40
1.0
  9
$PROXYGRAPHICS
 70
     1
  9
$MEASUREMENT
 70
     0
  9
$CELWEIGHT
370
    -1
  9
$ENDCAPS
280
     0
  9
$JOINSTYLE
280
     0
  9
$LWDISPLAY
290
     0
  9
$INSUNITS
 70
     1
  9
$HYPERLINKBASE
  1

  9
$STYLESHEET
  1

  9
$XEDIT
290
     1
  9
$CEPSNTYPE
380
     0
  9
$PSTYLEMODE
290
     1
  9
$FINGERPRINTGUID
  2
{04D178CC-EFD9-4F24-A365-05DFC0AD4713}
  9
$VERSIONGUID
  2
{FAEB1C32-E019-11D5-929B-00C0DF256EC4}
  9
$EXTNAMES
290
     1
  9
$PSVPSCALE
 40
0.0
  9
$OLESTARTUP
290
     0
  9
$SORTENTS
280
   127
  9
$INDEXCTL
280
     0
  9
$HIDETEXT
280
     1
  9
$XCLIPFRAME
280
     2
  9
$HALOGAP
280
     0
  9
$OBSCOLOR
 70
   257
  9
$OBSLTYPE
280
     0
  9
$INTERSECTIONDISPLAY
280
     0
  9
$INTERSECTIONCOLOR
 70
   257
  9
$DIMASSOC
280
     2
  9
$PROJECTNAME
  1

  9
$CAMERADISPLAY
290
     0
  9
$LENSLENGTH
 40
50.0
  9
$CAMERAHEIGHT
 40
0.0
  9
$STEPSPERSEC
 40
2.0
  9
$STEPSIZE
 40
6.0
  9
$3DDWFPREC
 40
2.0
  9
$PSOLWIDTH
 40
0.25
  9
$PSOLHEIGHT
 40
4.0
  9
$LOFTANG1
 40
1.570796326794897
  9
$LOFTANG2
 40
1.570796326794897
  9
$LOFTMAG1
 40
0.0
  9
$LOFTMAG2
 40
0.0
  9
$LOFTPARAM
 70
     7
  9
$LOFTNORMALS
280
     1
  9
$LATITUDE
 40
37.795
  9
$LONGITUDE
 40
-122.394
  9
$NORTHDIRECTION
 40
0.0
  9
$TIMEZONE
 70
 -8000
  9
$LIGHTGLYPHDISPLAY
280
     1
  9
$TILEMODELIGHTSYNCH
280
     1
  9
$CMATERIAL
347
44
  9
$SOLIDHIST
280
     0
  9
$SHOWHIST
280
     1
  9
$DWFFRAME
280
     2
  9
$DGNFRAME
280
     2
  9
$REALWORLDSCALE
290
     1
  9
$INTERFERECOLOR
 62
   256
  9
$CSHADOW
280
     0
  9
$SHADOWPLANELOCATION
 40
0.0
  0
ENDSEC
  0
SECTION
  2
CLASSES
  0
CLASS
  1
ACDBDICTIONARYWDFLT
  2
AcDbDictionaryWithDefault
  3
ObjectDBX Classes
 90
        0
 91
        4
280
     0
281
     0
  0
CLASS
  1
VISUALSTYLE
  2
AcDbVisualStyle
  3
ObjectDBX Classes
 90
     4095
 91
        4
280
     0
281
     0
  0
CLASS
  1
MATERIAL
  2
AcDbMaterial
  3
ObjectDBX Classes
 90
     1153
 91
        4
280
     0
281
     0
  0
CLASS
  1
SCALE
  2
AcDbScale
  3
ObjectDBX Classes
 90
     1153
 91
        4
280
     0
281
     0
  0
CLASS
  1
TABLESTYLE
  2
AcDbTableStyle
  3
ObjectDBX Classes
 90
     4095
 91
        4
280
     0
281
     0
  0
CLASS
  1
MLEADERSTYLE
  2
AcDbMLeaderStyle
  3
ACDB_MLEADERSTYLE_CLASS
 90
     4095
 91
        4
280
     0
281
     0
  0
CLASS
  1
SUN
  2
AcDbSun
  3
SCENEOE
 90
     1153
 91
        4
280
     0
281
     0
  0
CLASS
  1
DICTIONARYVAR
  2
AcDbDictionaryVar
  3
ObjectDBX Classes
 90
        0
 91
        4
280
     0
281
     0
  0
CLASS
  1
CELLSTYLEMAP
  2
AcDbCellStyleMap
  3
ObjectDBX Classes
 90
     1152
 91
        4
280
     0
281
     0
  0
ENDSEC
  0
SECTION
  2
TABLES
  0
TABLE
  2
VPORT
  5
8
330
0
100
AcDbSymbolTable
 70
     1
  0
VPORT
  5
29
330
8
100
AcDbSymbolTableRecord
100
AcDbViewportTableRecord
  2
*Active
 70
     0
 10
0.0
 20
0.0
 11
1.0
 21
1.0
 12
0.0
 22
0.0
 13
0.0
 23
0.0
 14
0.5
 24
0.5
 15
0.5
 25
0.5
 16
0.0
 26
0.0
 36
1.0
 17
0.0
 27
0.0
 37
0.0
 40
5.61
 41
2.796363636363637
 42
50.0
 43
0.0
 44
0.0
 50
0.0
 51
0.0
 71
     0
 72
   100
 73
     1
 74
     3
 75
     0
 76
     0
 77
     0
 78
     0
281
     0
 65
     1
110
0.0
120
0.0
130
0.0
111
1.0
121
0.0
131
0.0
112
0.0
122
1.0
132
0.0
 79
     0
146
0.0
348
2F
 60
     3
 61
     5
292
     1
282
     1
141
0.0
142
0.0
 63
   250
361
6D
  0
ENDTAB
  0
TABLE
  2
LTYPE
  5
5
330
0
100
AcDbSymbolTable
 70
     3
  0
LTYPE
  5
14
330
5
100
AcDbSymbolTableRecord
100
AcDbLinetypeTableRecord
  2
ByBlock
 70
     0
  3

 72
    65
 73
     0
 40
0.0
  0
LTYPE
  5
15
330
5
100
AcDbSymbolTableRecord
100
AcDbLinetypeTableRecord
  2
ByLayer
 70
     0
  3

 72
    65
 73
     0
 40
0.0
  0
LTYPE
  5
16
330
5
100
AcDbSymbolTableRecord
100
AcDbLinetypeTableRecord
  2
Continuous
 70
     0
  3
Solid line
 72
    65
 73
     0
 40
0.0
  0
LTYPE
  5
B1
330
5
100
AcDbSymbolTableRecord
100
AcDbLinetypeTableRecord
  2
Dashed
 70
     0
  3

 72
    65
 73
     2
 40
2.0
 49
1.0
 74
     0
 49
-1.0
 74
     0
  0
LTYPE
  5
CD
330
5
100
AcDbSymbolTableRecord
100
AcDbLinetypeTableRecord
  2
Center
 70
     0
  3

 72
    65
 73
     4
 40
1.5
 49
0.45
 74
     0
 49
-0.5
 74
     0
 49
0.05
 74
     0
 49
-0.5
 74
     0
  0
ENDTAB
  0
TABLE
  2
LAYER
  5
2
330
0
100
AcDbSymbolTable
 70
     7
  0
LAYER
  5
10
330
2
100
AcDbSymbolTableRecord
100
AcDbLayerTableRecord
  2
0
 70
     0
 62
     7
  6
Continuous
370
    -3
390
F
347
46
348
0
  0
LAYER
  5
72
330
2
100
AcDbSymbolTableRecord
100
AcDbLayerTableRecord
  2
AM_6
 70
     0
 62
    -2
  6
Continuous
370
    35
390
F
347
46
348
0
  0
LAYER
  5
B2
330
2
100
AcDbSymbolTableRecord
100
AcDbLayerTableRecord
  2
AM_9
 70
     0
 62
     6
  6
Dashed
370
    25
390
F
347
46
348
0
  0
LAYER
  5
CE
330
2
100
AcDbSymbolTableRecord
100
AcDbLayerTableRecord
  2
AM_7
 70
     0
 62
     7
  6
Center
370
    25
390
F
347
46
348
0
  0
LAYER
  5
D0
330
2
100
AcDbSymbolTableRecord
100
AcDbLayerTableRecord
  2
AM_4
 70
     0
 62
     7
  6
Continuous
370
    50
390
F
347
46
348
0
  0
LAYER
  5
DC
330
2
100
AcDbSymbolTableRecord
100
AcDbLayerTableRecord
  2
AM_5
 70
     0
 62
     3
  6
Continuous
370
    25
390
F
347
46
348
0
  0
LAYER
  5
259
330
2
100
AcDbSymbolTableRecord
100
AcDbLayerTableRecord
  2
ConnectionPoints
 70
     0
 62
     7
  6
Continuous
370
    50
390
F
347
46
348
0
  0
ENDTAB
  0
TABLE
  2
STYLE
  5
3
330
0
100
AcDbSymbolTable
 70
     1
  0
STYLE
  5
11
330
3
100
AcDbSymbolTableRecord
100
AcDbTextStyleTableRecord
  2
Standard
 70
     0
 40
0.0
 41
1.0
 50
0.0
 71
     0
 42
0.2
  3
txt
  4

  0
ENDTAB
  0
TABLE
  2
VIEW
  5
6
330
0
100
AcDbSymbolTable
 70
     0
  0
ENDTAB
  0
TABLE
  2
UCS
  5
7
330
0
100
AcDbSymbolTable
 70
     0
  0
ENDTAB
  0
TABLE
  2
APPID
  5
9
330
0
100
AcDbSymbolTable
 70
     1
  0
APPID
  5
12
330
9
100
AcDbSymbolTableRecord
100
AcDbRegAppTableRecord
  2
ACAD
 70
     0
  0
ENDTAB
  0
TABLE
  2
DIMSTYLE
  5
A
330
0
100
AcDbSymbolTable
 70
     1
100
AcDbDimStyleTable
  0
DIMSTYLE
105
27
330
A
100
AcDbSymbolTableRecord
100
AcDbDimStyleTableRecord
  2
Standard
 70
     0
178
     0
340
11
  0
ENDTAB
  0
TABLE
  2
BLOCK_RECORD
  5
1
330
0
100
AcDbSymbolTable
 70
     7
  0
BLOCK_RECORD
  5
1F
330
1
100
AcDbSymbolTableRecord
100
AcDbBlockTableRecord
  2
*Model_Space
340
22
 70
     0
280
     1
281
     0
  0
BLOCK_RECORD
  5
1B
330
1
100
AcDbSymbolTableRecord
100
AcDbBlockTableRecord
  2
*Paper_Space
340
1E
 70
     0
280
     1
281
     0
  0
BLOCK_RECORD
  5
23
330
1
100
AcDbSymbolTableRecord
100
AcDbBlockTableRecord
  2
*Paper_Space0
340
26
 70
     0
280
     1
281
     0
  0
BLOCK_RECORD
  5
6E
330
1
100
AcDbSymbolTableRecord
100
AcDbBlockTableRecord
  2
1_037590_4
340
0
102
{BLKREFS
331
6F
102
}
 70
     0
280
     1
281
     0
  0
BLOCK_RECORD
  5
9C
330
1
100
AcDbSymbolTableRecord
100
AcDbBlockTableRecord
  2
2_3_7_16C_1_0_in_037590_4
340
0
102
{BLKREFS
331
9D
102
}
 70
     0
280
     1
281
     0
  0
BLOCK_RECORD
  5
DF
330
1
100
AcDbSymbolTableRecord
100
AcDbBlockTableRecord
  2
3_3_7_16C_2_0_in_037590_4
340
0
102
{BLKREFS
331
E0
102
}
 70
     0
280
     1
281
     0
  0
BLOCK_RECORD
  5
11D
330
1
100
AcDbSymbolTableRecord
100
AcDbBlockTableRecord
  2
4_405015E_Inch_0_in_037590_4
340
0
102
{BLKREFS
331
11E
102
}
 70
     0
280
     1
281
     0
  0
BLOCK_RECORD
  5
13A
330
1
100
AcDbSymbolTableRecord
100
AcDbBlockTableRecord
  2
5_S1U_TAF_307_Ins_0_in_037590_4
340
0
102
{BLKREFS
331
13B
102
}
 70
     0
280
     1
281
     0
  0
BLOCK_RECORD
  5
187
330
1
100
AcDbSymbolTableRecord
100
AcDbBlockTableRecord
  2
6_P2b_taf_307r_0_in_037590_4
340
0
102
{BLKREFS
331
188
102
}
 70
     0
280
     1
281
     0
  0
ENDTAB
  0
ENDSEC
  0
SECTION
  2
BLOCKS
  0
BLOCK
  5
20
330
1F
100
AcDbEntity
  8
0
100
AcDbBlockBegin
  2
*Model_Space
 70
     0
 10
0.0
 20
0.0
 30
0.0
  3
*Model_Space
  1

  0
ENDBLK
  5
21
330
1F
100
AcDbEntity
  8
0
100
AcDbBlockEnd
  0
BLOCK
  5
1C
330
1B
100
AcDbEntity
 67
     1
  8
0
100
AcDbBlockBegin
  2
*Paper_Space
 70
     0
 10
0.0
 20
0.0
 30
0.0
  3
*Paper_Space
  1

  0
ENDBLK
  5
1D
330
1B
100
AcDbEntity
 67
     1
  8
0
100
AcDbBlockEnd
  0
BLOCK
  5
24
330
23
100
AcDbEntity
  8
0
100
AcDbBlockBegin
  2
*Paper_Space0
 70
     0
 10
0.0
 20
0.0
 30
0.0
  3
*Paper_Space0
  1

  0
ENDBLK
  5
25
330
23
100
AcDbEntity
  8
0
100
AcDbBlockEnd
  0
BLOCK
  5
70
330
6E
100
AcDbEntity
  8
0
100
AcDbBlockBegin
  2
1_037590_4
 70
     2
 10
0.0
 20
0.0
 30
0.0
  3
1_037590_4
  1

  0
ATTDEF
  5
73
330
6E
100
AcDbEntity
  8
AM_6
100
AcDbText
 10
12.69
 20
2.75
 30
0.0
 40
0.5
  1
TAF Pillow Block - Inch 2-Bolt Base Non-Expansion Type
100
AcDbAttributeDefinition
  3

  2
NN
 70
     8
280
     0
  0
ATTDEF
  5
74
330
6E
100
AcDbEntity
  8
AM_6
100
AcDbText
 10
12.69
 20
2.25
 30
0.0
 40
0.5
  1
Taf Bearings
100
AcDbAttributeDefinition
  3

  2
NT
 70
     8
280
     0
  0
ATTDEF
  5
75
330
6E
100
AcDbEntity
  8
AM_6
100
AcDbText
 10
12.69
 20
1.75
 30
0.0
 40
0.5
  1
037590
100
AcDbAttributeDefinition
  3

  2
NB
 70
     8
280
     0
  0
ATTDEF
  5
76
330
6E
100
AcDbEntity
  8
AM_6
100
AcDbText
 10
12.69
 20
1.25
 30
0.0
 40
0.5
  1
$PN.
100
AcDbAttributeDefinition
  3

  2
NBSYN
 70
     8
280
     0
  0
ATTDEF
  5
77
330
6E
100
AcDbEntity
  8
AM_6
100
AcDbText
 10
12.69
 20
0.75
 30
0.0
 40
0.5
  1
037590
100
AcDbAttributeDefinition
  3

  2
LINA
 70
     8
280
     0
  0
ATTDEF
  5
78
330
6E
100
AcDbEntity
  8
AM_6
100
AcDbText
 10
12.69
 20
0.25
 30
0.0
 40
0.5
  1
3-7/16
100
AcDbAttributeDefinition
  3

  2
SS
 70
     8
280
     0
  0
ATTDEF
  5
79
330
6E
100
AcDbEntity
  8
AM_6
100
AcDbText
 10
12.69
 20
-0.25
 30
0.0
 40
0.5
  1
520
100
AcDbAttributeDefinition
  3

  2
SERIES
 70
     8
280
     0
  0
ATTDEF
  5
7A
330
6E
100
AcDbEntity
  8
AM_6
100
AcDbText
 10
12.69
 20
-0.75
 30
0.0
 40
0.5
  1
037590
100
AcDbAttributeDefinition
  3

  2
PN
 70
     8
280
     0
  0
ATTDEF
  5
7B
330
6E
100
AcDbEntity
  8
AM_6
100
AcDbText
 10
12.69
 20
-1.25
 30
0.0
 40
0.5
  1
P2b-taf-307r
100
AcDbAttributeDefinition
  3

  2
DESCRIPTION
 70
     8
280
     0
  0
ATTDEF
  5
7C
330
6E
100
AcDbEntity
  8
AM_6
100
AcDbText
 10
12.69
 20
-1.75
 30
0.0
 40
0.5
  1
2
100
AcDbAttributeDefinition
  3

  2
HF
 70
     8
280
     0
  0
ATTDEF
  5
7D
330
6E
100
AcDbEntity
  8
AM_6
100
AcDbText
 10
12.69
 20
-2.25
 30
0.0
 40
0.5
  1
Non Expansion Type
100
AcDbAttributeDefinition
  3

  2
EF
 70
     8
280
     0
  0
ATTDEF
  5
7E
330
6E
100
AcDbEntity
  8
AM_6
100
AcDbText
 10
12.69
 20
-2.75
 30
0.0
 40
0.5
  1
5
100
AcDbAttributeDefinition
  3

  2
A
 70
     8
280
     0
  0
ATTDEF
  5
7F
330
6E
100
AcDbEntity
  8
AM_6
100
AcDbText
 10
12.69
 20
-3.25
 30
0.0
 40
0.5
  1
15.38
100
AcDbAttributeDefinition
  3

  2
B
 70
     8
280
     0
  0
ATTDEF
  5
80
330
6E
100
AcDbEntity
  8
AM_6
100
AcDbText
 10
12.69
 20
-3.75
 30
0.0
 40
0.5
  1
4.34
100
AcDbAttributeDefinition
  3

  2
C
 70
     8
280
     0
  0
ATTDEF
  5
81
330
6E
100
AcDbEntity
  8
AM_6
100
AcDbText
 10
12.69
 20
-4.25
 30
0.0
 40
0.5
  1
11.82
100
AcDbAttributeDefinition
  3

  2
DMIN
 70
     8
280
     0
  0
ATTDEF
  5
82
330
6E
100
AcDbEntity
  8
AM_6
100
AcDbText
 10
12.69
 20
-4.75
 30
0.0
 40
0.5
  1
13.12
100
AcDbAttributeDefinition
  3

  2
DMAX
 70
     8
280
     0
  0
ATTDEF
  5
83
330
6E
100
AcDbEntity
  8
AM_6
100
AcDbText
 10
12.69
 20
-5.25
 30
0.0
 40
0.5
  1
2.38
100
AcDbAttributeDefinition
  3

  2
E
 70
     8
280
     0
  0
ATTDEF
  5
84
330
6E
100
AcDbEntity
  8
AM_6
100
AcDbText
 10
12.69
 20
-5.75
 30
0.0
 40
0.5
  1
7/8
100
AcDbAttributeDefinition
  3

  2
F
 70
     8
280
     0
  0
ATTDEF
  5
85
330
6E
100
AcDbEntity
  8
AM_6
100
AcDbText
 10
12.69
 20
-6.25
 30
0.0
 40
0.5
  1
1.65
100
AcDbAttributeDefinition
  3

  2
G
 70
     8
280
     0
  0
ATTDEF
  5
86
330
6E
100
AcDbEntity
  8
AM_6
100
AcDbText
 10
12.69
 20
-6.75
 30
0.0
 40
0.5
  1
1.66
100
AcDbAttributeDefinition
  3

  2
H
 70
     8
280
     0
  0
ATTDEF
  5
87
330
6E
100
AcDbEntity
  8
AM_6
100
AcDbText
 10
12.69
 20
-7.25
 30
0.0
 40
0.5
  1
9.42
100
AcDbAttributeDefinition
  3

  2
J
 70
     8
280
     0
  0
ATTDEF
  5
88
330
6E
100
AcDbEntity
  8
AM_6
100
AcDbText
 10
12.69
 20
-7.75
 30
0.0
 40
0.5
  1
2.50
100
AcDbAttributeDefinition
  3

  2
K
 70
     8
280
     0
  0
ATTDEF
  5
89
330
6E
100
AcDbEntity
  8
AM_6
100
AcDbText
 10
12.69
 20
-8.25
 30
0.0
 40
0.5
  1
5.50
100
AcDbAttributeDefinition
  3

  2
L
 70
     8
280
     0
  0
ATTDEF
  5
8A
330
6E
100
AcDbEntity
  8
AM_6
100
AcDbText
 10
12.69
 20
-8.75
 30
0.0
 40
0.5
  1
4.50
100
AcDbAttributeDefinition
  3

  2
M
 70
     8
280
     0
  0
ATTDEF
  5
8B
330
6E
100
AcDbEntity
  8
AM_6
100
AcDbText
 10
12.69
 20
-9.25
 30
0.0
 40
0.5
  1
10.10
100
AcDbAttributeDefinition
  3

  2
P
 70
     8
280
     0
  0
ATTDEF
  5
8C
330
6E
100
AcDbEntity
  8
AM_6
100
AcDbText
 10
12.69
 20
-9.75
 30
0.0
 40
0.5
  1
0.28
100
AcDbAttributeDefinition
  3

  2
T
 70
     8
280
     0
  0
ATTDEF
  5
8D
330
6E
100
AcDbEntity
  8
AM_6
100
AcDbText
 10
12.69
 20
-10.25
 30
0.0
 40
0.5
  1
108600
100
AcDbAttributeDefinition
  3

  2
SC
 70
     8
280
     0
  0
ATTDEF
  5
8E
330
6E
100
AcDbEntity
  8
AM_6
100
AcDbText
 10
12.69
 20
-10.75
 30
0.0
 40
0.5
  1
15300
100
AcDbAttributeDefinition
  3

  2
DC
 70
     8
280
     0
  0
ATTDEF
  5
8F
330
6E
100
AcDbEntity
  8
AM_6
100
AcDbText
 10
12.69
 20
-11.25
 30
0.0
 40
0.5
  1
26
100
AcDbAttributeDefinition
  3

  2
RN
 70
     8
280
     0
  0
ATTDEF
  5
90
330
6E
100
AcDbEntity
  8
AM_6
100
AcDbText
 10
12.69
 20
-11.75
 30
0.0
 40
0.5
  1
0.46
100
AcDbAttributeDefinition
  3

  2
RMD
 70
     8
280
     0
  0
ATTDEF
  5
91
330
6E
100
AcDbEntity
  8
AM_6
100
AcDbText
 10
12.69
 20
-12.25
 30
0.0
 40
0.5
  1
4.780
100
AcDbAttributeDefinition
  3

  2
PD
 70
     8
280
     0
  0
ATTDEF
  5
92
330
6E
100
AcDbEntity
  8
AM_6
100
AcDbText
 10
12.69
 20
-12.75
 30
0.0
 40
0.5
  1
0.008/0.012
100
AcDbAttributeDefinition
  3

  2
EP
 70
     8
280
     0
  0
ATTDEF
  5
93
330
6E
100
AcDbEntity
  8
AM_6
100
AcDbText
 10
12.69
 20
-13.25
 30
0.0
 40
0.5
  1
1/2-13x1
100
AcDbAttributeDefinition
  3

  2
CSS
 70
     8
280
     0
  0
ATTDEF
  5
94
330
6E
100
AcDbEntity
  8
AM_6
100
AcDbText
 10
12.69
 20
-13.75
 30
0.0
 40
0.5
  1
620
100
AcDbAttributeDefinition
  3

  2
CST
 70
     8
280
     0
  0
ATTDEF
  5
95
330
6E
100
AcDbEntity
  8
AM_6
100
AcDbText
 10
12.69
 20
-14.25
 30
0.0
 40
0.5
  1
A48 CLASS 30
100
AcDbAttributeDefinition
  3

  2
HM
 70
     8
280
     0
  0
ATTDEF
  5
96
330
6E
100
AcDbEntity
  8
AM_6
100
AcDbText
 10
12.69
 20
-14.75
 30
0.0
 40
0.5
  1
4118 CASE CARB.
100
AcDbAttributeDefinition
  3

  2
CM
 70
     8
280
     0
  0
ATTDEF
  5
97
330
6E
100
AcDbEntity
  8
AM_6
100
AcDbText
 10
12.69
 20
-15.25
 30
0.0
 40
0.5
  1
4118 CASE CARB.
100
AcDbAttributeDefinition
  3

  2
CUM
 70
     8
280
     0
  0
ATTDEF
  5
98
330
6E
100
AcDbEntity
  8
AM_6
100
AcDbText
 10
12.69
 20
-15.75
 30
0.0
 40
0.5
  1
STEEL
100
AcDbAttributeDefinition
  3

  2
RM
 70
     8
280
     0
  0
ATTDEF
  5
99
330
6E
100
AcDbEntity
  8
AM_6
100
AcDbText
 10
12.69
 20
-16.25
 30
0.0
 40
0.5
  1
4118 CASE CARB.
100
AcDbAttributeDefinition
  3

  2
ROM
 70
     8
280
     0
  0
ATTDEF
  5
9A
330
6E
100
AcDbEntity
  8
AM_6
100
AcDbText
 10
12.69
 20
-16.75
 30
0.0
 40
0.5
  1
4.05
100
AcDbAttributeDefinition
  3

  2
SM
 70
     8
280
     0
  0
ATTDEF
  5
9B
330
6E
100
AcDbEntity
  8
AM_6
100
AcDbText
 10
12.69
 20
-17.25
 30
0.0
 40
0.5
  1
baldor
100
AcDbAttributeDefinition
  3

  2
COMPANY
 70
     8
280
     0
  0
INSERT
  5
9D
330
6E
100
AcDbEntity
  8
0
100
AcDbBlockReference
  2
2_3_7_16C_1_0_in_037590_4
 10
0.0
 20
0.0
 30
0.0
  0
INSERT
  5
E0
330
6E
100
AcDbEntity
  8
0
100
AcDbBlockReference
  2
3_3_7_16C_2_0_in_037590_4
 10
0.0
 20
0.0
 30
0.0
  0
INSERT
  5
11E
330
6E
100
AcDbEntity
  8
0
100
AcDbBlockReference
  2
4_405015E_Inch_0_in_037590_4
 10
0.0
 20
0.0
 30
0.0
  0
INSERT
  5
13B
330
6E
100
AcDbEntity
  8
0
100
AcDbBlockReference
  2
5_S1U_TAF_307_Ins_0_in_037590_4
 10
0.0
 20
0.0
 30
0.0
  0
INSERT
  5
188
330
6E
100
AcDbEntity
  8
0
100
AcDbBlockReference
  2
6_P2b_taf_307r_0_in_037590_4
 10
0.0
 20
0.0
 30
0.0
  0
ENDBLK
  5
71
330
6E
100
AcDbEntity
  8
0
100
AcDbBlockEnd
  0
BLOCK
  5
9E
330
9C
100
AcDbEntity
  8
0
100
AcDbBlockBegin
  2
2_3_7_16C_1_0_in_037590_4
 70
     2
 10
0.0
 20
0.0
 30
0.0
  3
2_3_7_16C_1_0_in_037590_4
  1

  0
ATTDEF
  5
A0
330
9C
100
AcDbEntity
  8
AM_6
100
AcDbText
 10
7.765625
 20
2.5
 30
0.0
 40
0.5
  1
E-Type Collar -Inch
100
AcDbAttributeDefinition
  3

  2
NN
 70
     8
280
     0
  0
ATTDEF
  5
A1
330
9C
100
AcDbEntity
  8
AM_6
100
AcDbText
 10
7.765625
 20
2.0
 30
0.0
 40
0.5
  1
E-Type Bearings
100
AcDbAttributeDefinition
  3

  2
NT
 70
     8
280
     0
  0
ATTDEF
  5
A2
330
9C
100
AcDbEntity
  8
AM_6
100
AcDbText
 10
7.765625
 20
1.5
 30
0.0
 40
0.5
  1
3-7/16C
100
AcDbAttributeDefinition
  3

  2
NB
 70
     8
280
     0
  0
ATTDEF
  5
A3
330
9C
100
AcDbEntity
  8
AM_6
100
AcDbText
 10
7.765625
 20
1.0
 30
0.0
 40
0.5
  1
$BORE.C
100
AcDbAttributeDefinition
  3

  2
NBSYN
 70
     8
280
     0
  0
ATTDEF
  5
A4
330
9C
100
AcDbEntity
  8
AM_6
100
AcDbText
 10
7.765625
 20
0.5
 30
0.0
 40
0.5
  1
3-7/16C
100
AcDbAttributeDefinition
  3

  2
LINA
 70
     8
280
     0
  0
ATTDEF
  5
A5
330
9C
100
AcDbEntity
  8
AM_6
100
AcDbText
 10
7.765625
 20
0.0
 30
0.0
 40
0.5
  1
3-7/16
100
AcDbAttributeDefinition
  3

  2
BORE
 70
     8
280
     0
  0
ATTDEF
  5
A6
330
9C
100
AcDbEntity
  8
AM_6
100
AcDbText
 10
7.765625
 20
-0.5
 30
0.0
 40
0.5
  1
5.53125
100
AcDbAttributeDefinition
  3

  2
L
 70
     8
280
     0
  0
ATTDEF
  5
A7
330
9C
100
AcDbEntity
  8
AM_6
100
AcDbText
 10
7.765625
 20
-1.0
 30
0.0
 40
0.5
  1
5.00
100
AcDbAttributeDefinition
  3

  2
A
 70
     8
280
     0
  0
ATTDEF
  5
A8
330
9C
100
AcDbEntity
  8
AM_6
100
AcDbText
 10
7.765625
 20
-1.5
 30
0.0
 40
0.5
  1
2.25
100
AcDbAttributeDefinition
  3

  2
B
 70
     8
280
     0
  0
ATTDEF
  5
A9
330
9C
100
AcDbEntity
  8
AM_6
100
AcDbText
 10
7.765625
 20
-2.0
 30
0.0
 40
0.5
  1
4.24
100
AcDbAttributeDefinition
  3

  2
C
 70
     8
280
     0
  0
ATTDEF
  5
AA
330
9C
100
AcDbEntity
  8
AM_6
100
AcDbText
 10
7.765625
 20
-2.5
 30
0.0
 40
0.5
  1
5.84
100
AcDbAttributeDefinition
  3

  2
D
 70
     8
280
     0
  0
ATTDEF
  5
AB
330
9C
100
AcDbEntity
  8
AM_6
100
AcDbText
 10
7.765625
 20
-3.0
 30
0.0
 40
0.5
  1
0.54
100
AcDbAttributeDefinition
  3

  2
E
 70
     8
280
     0
  0
ATTDEF
  5
AC
330
9C
100
AcDbEntity
  8
AM_6
100
AcDbText
 10
7.765625
 20
-3.5
 30
0.0
 40
0.5
  1
0.44
100
AcDbAttributeDefinition
  3

  2
F
 70
     8
280
     0
  0
ATTDEF
  5
AD
330
9C
100
AcDbEntity
  8
AM_6
100
AcDbText
 10
7.765625
 20
-4.0
 30
0.0
 40
0.5
  1
1/2-13
100
AcDbAttributeDefinition
  3

  2
CS
 70
     8
280
     0
  0
ATTDEF
  5
AE
330
9C
100
AcDbEntity
  8
AM_6
100
AcDbText
 10
7.765625
 20
-4.5
 30
0.0
 40
0.5
  1
0.5000
100
AcDbAttributeDefinition
  3

  2
NDM
 70
     8
280
     0
  0
ATTDEF
  5
AF
330
9C
100
AcDbEntity
  8
AM_6
100
AcDbText
 10
7.765625
 20
-5.0
 30
0.0
 40
0.5
  1
0.4170
100
AcDbAttributeDefinition
  3

  2
KDM
 70
     8
280
     0
  0
ATTDEF
  5
B0
330
9C
100
AcDbEntity
  8
AM_6
100
AcDbText
 10
7.765625
 20
-5.5
 30
0.0
 40
0.5
  1
baldor
100
AcDbAttributeDefinition
  3

  2
COMPANY
 70
     8
280
     0
  0
LINE
  5
B3
330
9C
100
AcDbEntity
  8
AM_9
100
AcDbLine
 10
1.969969530266636
 20
2.244311121479204
 30
0.0
 11
1.962411952222413
 21
2.253737587194122
 31
0.0
  0
LINE
  5
B4
330
9C
100
AcDbEntity
  8
AM_9
100
AcDbLine
 10
1.962447331171141
 20
1.866306540494042
 30
0.0
 11
1.969969530266636
 21
1.875688878520796
 31
0.0
  0
LWPOLYLINE
  5
B5
330
9C
100
AcDbEntity
  8
AM_9
100
AcDbPolyline
 90
       26
 70
     0
 43
0.0
 10
1.962316483007135
 20
2.253856663589652
 10
1.961051546707628
 20
2.255399301159092
 10
1.947087664439576
 20
2.268325513416767
 10
1.931475014306416
 20
2.275449863970397
 10
1.91486873961592
 20
2.276182956173145
 10
1.897290567707818
 20
2.27020631638895
 10
1.88012310275642
 20
2.257861595767471
 10
1.863121344995305
 20
2.23871033895681
 10
1.848188856513799
 20
2.214763064002313
 10
1.834798403295656
 20
2.184851475392249
 10
1.824829471455856
 20
2.153136256702723
 10
1.817555612532122
 20
2.117273549354084
 10
1.813972334005233
 20
2.082772149730406
 10
1.813542404827318
 20
2.046484095318383
 10
1.816155997567254
 20
2.01299329392418
 10
1.821738777799565
 20
1.979890231451798
 10
1.829782609905177
 20
1.949636014858393
 10
1.84030586948407
 20
1.921581632183136
 10
1.852925318190557
 20
1.896772845840065
 10
1.867346265822438
 20
1.875816305205841
 10
1.883182164726888
 20
1.85945351547205
 10
1.899937273545567
 20
1.848466031346462
 10
1.916864534348004
 20
1.843566681920978
 10
1.933712070633785
 20
1.84516139722598
 10
1.949344828139693
 20
1.853299965631898
 10
1.96232321849182
 20
1.866151736415577
  0
LWPOLYLINE
  5
B6
330
9C
100
AcDbEntity
  8
AM_9
100
AcDbPolyline
 90
        3
 70
     0
 43
0.0
 10
1.96654709130311
 20
1.871826978678226
 10
1.974288227812514
 20
1.884615013553354
 10
1.983506809367209
 20
1.905064722724611
  0
LWPOLYLINE
  5
B7
330
9C
100
AcDbEntity
  8
AM_9
100
AcDbPolyline
 90
        3
 70
     0
 43
0.0
 10
1.96232321849182
 20
1.866151736415577
 10
1.964004495680674
 20
1.868311707043658
 10
1.96654709130311
 20
1.871826978678226
  0
LINE
  5
B8
330
9C
100
AcDbEntity
  8
AM_9
100
AcDbLine
 10
1.928909968279886
 20
1.85165
 30
0.0
 11
2.468759754193159
 21
1.85165
 31
0.0
  0
LINE
  5
B9
330
9C
100
AcDbEntity
  8
AM_9
100
AcDbLine
 10
2.468759754193159
 20
2.26835
 30
0.0
 11
1.928909968279886
 21
2.26835
 31
0.0
  0
LINE
  5
BA
330
9C
100
AcDbEntity
  8
AM_9
100
AcDbLine
 10
2.42770019220641
 20
1.875688878520796
 30
0.0
 11
2.455389621381952
 21
1.841152224944528
 31
0.0
  0
LINE
  5
BB
330
9C
100
AcDbEntity
  8
AM_9
100
AcDbLine
 10
2.455252783728223
 20
2.278677099285559
 30
0.0
 11
2.42770019220641
 21
2.244311121479205
 31
0.0
  0
LWPOLYLINE
  5
BC
330
9C
100
AcDbEntity
  8
AM_9
100
AcDbPolyline
 90
       11
 70
     0
 43
0.0
 10
2.455528415399669
 20
1.840979109066673
 10
2.442744060941904
 20
1.859423890105266
 10
2.428897931990052
 20
1.886174387082822
 10
2.416935027063982
 20
1.917620076383417
 10
2.407178668307283
 20
1.953592237731818
 10
2.400235279663299
 20
1.992825692305774
 10
2.396428395554313
 20
2.034954074112151
 10
2.396125775901384
 20
2.077718291680144
 10
2.399474668434289
 20
2.12119329861714
 10
2.406222707003061
 20
2.16201189771363
 10
2.408058131489062
 20
2.170269518989256
  0
LWPOLYLINE
  5
BD
330
9C
100
AcDbEntity
  8
AM_9
100
AcDbPolyline
 90
        9
 70
     0
 43
0.0
 10
2.589771220898837
 20
2.170355331593151
 10
2.592415720444672
 20
2.152687282490253
 10
2.596528336496101
 20
2.11208246672326
 10
2.59827855068709
 20
2.069889342403728
 10
2.597586446219106
 20
2.026236460859731
 10
2.594435491155946
 20
1.98417059397395
 10
2.588638914485878
 20
1.943084660893379
 10
2.582457428707677
 20
1.913905885719618
 10
2.574634428376005
 20
1.886876531429714
  0
ELLIPSE
  5
BE
330
9C
100
AcDbEntity
  8
AM_9
100
AcDbEllipse
 10
2.468759754193167
 20
2.059999999999988
 30
0.0
 11
-3.827327409035030E-17
 21
-0.2083499999999872
 31
0.0
210
0.0
220
0.0
230
1.0
 40
0.4226182617407185
 41
3.467665160595708
 42
8.410175702157442
  0
LINE
  5
BF
330
9C
100
AcDbEntity
  8
AM_9
100
AcDbLine
 10
1.965846609986492
 20
2.249172368009738
 30
0.0
 11
1.962316483007135
 21
2.253856663589652
 31
0.0
  0
LWPOLYLINE
  5
C0
330
9C
100
AcDbEntity
  8
AM_9
100
AcDbPolyline
 90
        5
 70
     0
 43
0.0
 10
1.996335239658299
 20
2.170332508807265
 10
1.991886481077463
 20
2.188905203869766
 10
1.983511289409567
 20
2.214923585882261
 10
1.973225510264481
 20
2.237346179249616
 10
1.965846609986492
 20
2.249172368009738
  0
LWPOLYLINE
  5
C1
330
9C
100
AcDbEntity
  8
AM_9
100
AcDbPolyline
 90
       10
 70
     0
 43
0.0
 10
1.983506809367209
 20
1.905064722724611
 10
1.991292722534424
 20
1.928921760141795
 10
1.997717451009552
 20
1.95648482574691
 10
2.002846214304052
 20
1.989487237530668
 10
2.00600214839496
 20
2.025842931974717
 10
2.006935615896045
 20
2.060328885050799
 10
2.005906439132565
 20
2.09585032082609
 10
2.003084461019511
 20
2.128499192500931
 10
1.99835699884462
 20
2.16014053645612
 10
1.996335239658299
 20
2.170332508807265
  0
LWPOLYLINE
  5
C2
330
9C
100
AcDbEntity
  8
AM_9
100
AcDbPolyline
 90
       38
 70
     0
 43
0.0
 10
-0.1525908869650602
 20
1.898527269720325
 10
-0.1259886918648295
 20
1.879156530532244
 10
-0.096901199352794
 20
1.863735721553158
 10
-0.06014831226732
 20
1.850981308949331
 10
-0.0217997415978724
 20
1.844320148061696
 10
0.0182626021219693
 20
1.844046838535621
 10
0.0578161857670828
 20
1.850371643799554
 10
0.0960006208654289
 20
1.86336464503481
 10
0.1314057857517338
 20
1.882630222958654
 10
0.1623648628248063
 20
1.907329963640262
 10
0.1885173308554272
 20
1.937054845632422
 10
0.2080380210344369
 20
1.969493259689729
 10
0.2215168359027613
 20
2.004880521281623
 10
0.2280663418873065
 20
2.039950344360223
 10
0.2284809118833045
 20
2.075628263858183
 10
0.2229743388492992
 20
2.109512587883563
 10
0.2119749822590035
 20
2.142022607819821
 10
0.1956507245277146
 20
2.172517053153457
 10
0.1746840101079706
 20
2.200020869556716
 10
0.1484135812781062
 20
2.224898641905716
 10
0.1185296680442601
 20
2.245319014011169
 10
0.0839243140038648
 20
2.261534341330013
 10
0.0471486636507387
 20
2.27201166016802
 10
0.0076440140060868
 20
2.276524871196479
 10
-0.0320702946762942
 20
2.274525336237965
 10
-0.0714687990552738
 20
2.26579246465159
 10
-0.1088211003883738
 20
2.250581458022958
 10
-0.1426765930549339
 20
2.229361093349508
 10
-0.1723269765095777
 20
2.20260832287007
 10
-0.1958875223408997
 20
2.172130238998791
 10
-0.2136857886482337
 20
2.137961439144591
 10
-0.2244295143053156
 20
2.103226657961343
 10
-0.2289548148614198
 20
2.067142861238748
 10
-0.2272077606935474
 20
2.032581780542767
 10
-0.2197199621199233
 20
1.998801935484985
 10
-0.2068102465120319
 20
1.966994881265923
 10
-0.1889701101834043
 20
1.937677427931419
 10
-0.1525908869650602
 20
1.898527269720325
  0
LINE
  5
C3
330
9C
100
AcDbEntity
  8
AM_9
100
AcDbLine
 10
-2.120000000000001
 20
2.5
 30
0.0
 11
-2.120000000000001
 21
1.62
 31
0.0
  0
LINE
  5
C4
330
9C
100
AcDbEntity
  8
AM_9
100
AcDbLine
 10
2.120000000000001
 20
1.62
 30
0.0
 11
2.120000000000001
 21
2.5
 31
0.0
  0
ARC
  5
C5
330
9C
100
AcDbEntity
  8
AM_9
100
AcDbCircle
 10
0.0000000000000005
 20
2.06
 30
0.0
 40
0.2083500000000002
100
AcDbArc
 50
148.1324273029115
 51
31.86757269708853
  0
LWPOLYLINE
  5
C6
330
9C
100
AcDbEntity
  8
AM_9
100
AcDbPolyline
 90
       10
 70
     0
 43
0.0
 10
2.574634428376005
 20
1.886876531429714
 10
2.56494505123857
 20
1.86232696986577
 10
2.553471202190536
 20
1.841511939567762
 10
2.539295232172682
 20
1.824392854716466
 10
2.523194073991689
 20
1.813532865482273
 10
2.507179483164244
 20
1.810005520892252
 10
2.49015731691977
 20
1.813189910085175
 10
2.473914274374252
 20
1.822562414249223
 10
2.457722266895499
 20
1.838310804003542
 10
2.455528415399669
 20
1.840979109066673
  0
LWPOLYLINE
  5
C7
330
9C
100
AcDbEntity
  8
AM_9
100
AcDbPolyline
 90
       17
 70
     0
 43
0.0
 10
0.2149841276004703
 20
2.170306898321822
 10
0.2257070417688269
 20
2.143837169016963
 10
0.2360887131145667
 20
2.102483553050221
 10
0.2396014485355036
 20
2.059981881092285
 10
0.2359299609920623
 20
2.01658008263652
 10
0.2250985051697151
 20
1.974402289691657
 10
0.207242872160257
 20
1.934662822324092
 10
0.1828871966169611
 20
1.898562444813533
 10
0.1532409406112075
 20
1.867915814673119
 10
0.1187243559288511
 20
1.842891104021224
 10
0.0818203024063756
 20
1.825081310450273
 10
0.0423797867683307
 20
1.813947779689951
 10
0.0032742311847097
 20
1.810050537462284
 10
-0.0359269305884861
 20
1.812830771049183
 10
-0.0733384723060908
 20
1.822041235355647
 10
-0.1087287459231565
 20
1.837258966098945
 10
-0.1550399173891136
 20
1.86945614888546
  0
LWPOLYLINE
  5
C8
330
9C
100
AcDbEntity
  8
AM_9
100
AcDbPolyline
 90
        9
 70
     0
 43
0.0
 10
-0.1550399173891136
 20
1.86945614888546
 10
-0.1804239789493055
 20
1.895595106237953
 10
-0.2017211716926923
 20
1.925168227803888
 10
-0.220523646694478
 20
1.962363309203199
 10
-0.2330818434599951
 20
2.002120924653908
 10
-0.2391296750601518
 20
2.044714561147385
 10
-0.2381209174520321
 20
2.087727338148771
 10
-0.2298110092450277
 20
2.130591772637654
 10
-0.2151029630506351
 20
2.170054637911593
  0
LINE
  5
C9
330
9C
100
AcDbEntity
  8
AM_9
100
AcDbLine
 10
-2.765625
 20
2.169999999999999
 30
0.0
 11
-2.765625
 21
1.62
 31
0.0
  0
LINE
  5
CA
330
9C
100
AcDbEntity
  8
AM_9
100
AcDbLine
 10
2.765625
 20
1.62
 30
0.0
 11
2.765625
 21
2.169999999999999
 31
0.0
  0
LINE
  5
CB
330
9C
100
AcDbEntity
  8
AM_9
100
AcDbLine
 10
2.765625
 20
1.62
 30
0.0
 11
-2.765625
 21
1.62
 31
0.0
  0
ELLIPSE
  5
CC
330
9C
100
AcDbEntity
  8
AM_9
100
AcDbEllipse
 10
1.928909968279886
 20
2.06
 30
0.0
 11
-3.827327409035266E-17
 21
-0.20835
 31
0.0
210
0.0
220
0.0
230
1.0
 40
0.4226182617406988
 41
0.0
 42
6.283185307179586
  0
LINE
  5
CF
330
9C
100
AcDbEntity
  8
AM_7
100
AcDbLine
 10
-0.2187674999999999
 20
2.06
 30
0.0
 11
0.2187675000000007
 21
2.06
 31
0.0
  0
ELLIPSE
  5
D1
330
9C
100
AcDbEntity
  8
AM_4
100
AcDbEllipse
 10
2.468759754193159
 20
2.06
 30
0.0
 11
-3.827327409035270E-17
 21
-0.2083500000000003
 31
0.0
210
0.0
220
0.0
230
1.0
 40
0.4226182617407005
 41
2.12699039497774
 42
3.467665160595653
  0
LWPOLYLINE
  5
D2
330
9C
100
AcDbEntity
  8
AM_4
100
AcDbPolyline
 90
        5
 70
     0
 43
0.0
 10
2.408058131489062
 20
2.170269518989256
 10
2.416503758248804
 20
2.201039362641246
 10
2.429133664926417
 20
2.234354545975526
 10
2.444535310360981
 20
2.263480912538765
 10
2.455523304004533
 20
2.279014514944927
  0
LWPOLYLINE
  5
D3
330
9C
100
AcDbEntity
  8
AM_4
100
AcDbPolyline
 90
       12
 70
     0
 43
0.0
 10
2.455523304004533
 20
2.279014514944927
 10
2.460603027171996
 20
2.284990278917518
 10
2.478252578833261
 20
2.300549553365496
 10
2.495030385246984
 20
2.30841968821041
 10
2.512158678369924
 20
2.309605652863203
 10
2.527690946785376
 20
2.304230782875942
 10
2.542605225082472
 20
2.292317720695634
 10
2.555806718441057
 20
2.274830081559216
 10
2.567713094425966
 20
2.251433278534374
 10
2.577822575591164
 20
2.223087997504319
 10
2.586151308852412
 20
2.189811943954918
 10
2.589771220898837
 20
2.170355331593151
  0
ARC
  5
D4
330
9C
100
AcDbEntity
  8
AM_4
100
AcDbCircle
 10
0.0000000000000005
 20
2.06
 30
0.0
 40
0.2083500000000001
100
AcDbArc
 50
31.86757269708851
 51
148.1324273029115
  0
LINE
  5
D5
330
9C
100
AcDbEntity
  8
AM_4
100
AcDbLine
 10
2.618958333333334
 20
2.5
 30
0.0
 11
-2.618958333333334
 21
2.5
 31
0.0
  0
ARC
  5
D6
330
9C
100
AcDbEntity
  8
AM_4
100
AcDbCircle
 10
-2.618958333333334
 20
2.353333333333334
 30
0.0
 40
0.1466666666666661
100
AcDbArc
 50
90.0
 51
180.0
  0
ARC
  5
D7
330
9C
100
AcDbEntity
  8
AM_4
100
AcDbCircle
 10
2.618958333333334
 20
2.353333333333334
 30
0.0
 40
0.1466666666666661
100
AcDbArc
 50
0.0
 51
90.0
  0
LWPOLYLINE
  5
D8
330
9C
100
AcDbEntity
  8
AM_4
100
AcDbPolyline
 90
       16
 70
     0
 43
0.0
 10
-0.2151029630506351
 20
2.170054637911593
 10
-0.2144441719139542
 20
2.171444182224608
 10
-0.1924392089482641
 20
2.208817166659082
 10
-0.1643545253342436
 20
2.241844775217019
 10
-0.1318266620266811
 20
2.268674417529129
 10
-0.0951223794872421
 20
2.289425905261162
 10
-0.0569998582220305
 20
2.30278192417686
 10
-0.0171394613874375
 20
2.309358550585322
 10
0.0217786826970357
 20
2.308937410158271
 10
0.0600739975072313
 20
2.302002634740324
 10
0.0963204823367935
 20
2.288855825897105
 10
0.1299429946821771
 20
2.269992761535576
 10
0.1607140797076784
 20
2.24532565185167
 10
0.1871394913565957
 20
2.216043588687772
 10
0.2093364764556085
 20
2.181505497673463
 10
0.2149841276004703
 20
2.170306898321822
  0
LINE
  5
D9
330
9C
100
AcDbEntity
  8
AM_4
100
AcDbLine
 10
-2.765625
 20
2.353333333333333
 30
0.0
 11
-2.765625
 21
2.169999999999999
 31
0.0
  0
LINE
  5
DA
330
9C
100
AcDbEntity
  8
AM_4
100
AcDbLine
 10
2.765625
 20
2.169999999999999
 30
0.0
 11
2.765625
 21
2.353333333333333
 31
0.0
  0
LINE
  5
DB
330
9C
100
AcDbEntity
  8
AM_4
100
AcDbLine
 10
2.765625
 20
2.353333333333333
 30
0.0
 11
-2.765625
 21
2.353333333333333
 31
0.0
  0
ARC
  5
DD
330
9C
100
AcDbEntity
  8
AM_5
100
AcDbCircle
 10
0.0000000000000005
 20
2.06
 30
0.0
 40
0.2499999999999999
100
AcDbArc
 50
63.85157066748192
 51
3.851570667481837
  0
ARC
  5
DE
330
9C
100
AcDbEntity
  8
AM_5
100
AcDbCircle
 10
0.0000000000001212
 20
2.060000000000012
 30
0.0
 40
0.2499999999998788
100
AcDbArc
 50
3.85157066748108
 51
15.00000000000464
  0
ENDBLK
  5
9F
330
9C
100
AcDbEntity
  8
0
100
AcDbBlockEnd
  0
BLOCK
  5
E1
330
DF
100
AcDbEntity
  8
0
100
AcDbBlockBegin
  2
3_3_7_16C_2_0_in_037590_4
 70
     2
 10
0.0
 20
0.0
 30
0.0
  3
3_3_7_16C_2_0_in_037590_4
  1

  0
ATTDEF
  5
E3
330
DF
100
AcDbEntity
  8
AM_6
100
AcDbText
 10
7.765625
 20
-1.62
 30
0.0
 40
0.5
  1
E-Type Collar -Inch
100
AcDbAttributeDefinition
  3

  2
NN
 70
     8
280
     0
  0
ATTDEF
  5
E4
330
DF
100
AcDbEntity
  8
AM_6
100
AcDbText
 10
7.765625
 20
-2.12
 30
0.0
 40
0.5
  1
E-Type Bearings
100
AcDbAttributeDefinition
  3

  2
NT
 70
     8
280
     0
  0
ATTDEF
  5
E5
330
DF
100
AcDbEntity
  8
AM_6
100
AcDbText
 10
7.765625
 20
-2.62
 30
0.0
 40
0.5
  1
3-7/16C
100
AcDbAttributeDefinition
  3

  2
NB
 70
     8
280
     0
  0
ATTDEF
  5
E6
330
DF
100
AcDbEntity
  8
AM_6
100
AcDbText
 10
7.765625
 20
-3.12
 30
0.0
 40
0.5
  1
$BORE.C
100
AcDbAttributeDefinition
  3

  2
NBSYN
 70
     8
280
     0
  0
ATTDEF
  5
E7
330
DF
100
AcDbEntity
  8
AM_6
100
AcDbText
 10
7.765625
 20
-3.62
 30
0.0
 40
0.5
  1
3-7/16C
100
AcDbAttributeDefinition
  3

  2
LINA
 70
     8
280
     0
  0
ATTDEF
  5
E8
330
DF
100
AcDbEntity
  8
AM_6
100
AcDbText
 10
7.765625
 20
-4.12
 30
0.0
 40
0.5
  1
3-7/16
100
AcDbAttributeDefinition
  3

  2
BORE
 70
     8
280
     0
  0
ATTDEF
  5
E9
330
DF
100
AcDbEntity
  8
AM_6
100
AcDbText
 10
7.765625
 20
-4.62
 30
0.0
 40
0.5
  1
5.53125
100
AcDbAttributeDefinition
  3

  2
L
 70
     8
280
     0
  0
ATTDEF
  5
EA
330
DF
100
AcDbEntity
  8
AM_6
100
AcDbText
 10
7.765625
 20
-5.12
 30
0.0
 40
0.5
  1
5.00
100
AcDbAttributeDefinition
  3

  2
A
 70
     8
280
     0
  0
ATTDEF
  5
EB
330
DF
100
AcDbEntity
  8
AM_6
100
AcDbText
 10
7.765625
 20
-5.62
 30
0.0
 40
0.5
  1
2.25
100
AcDbAttributeDefinition
  3

  2
B
 70
     8
280
     0
  0
ATTDEF
  5
EC
330
DF
100
AcDbEntity
  8
AM_6
100
AcDbText
 10
7.765625
 20
-6.12
 30
0.0
 40
0.5
  1
4.24
100
AcDbAttributeDefinition
  3

  2
C
 70
     8
280
     0
  0
ATTDEF
  5
ED
330
DF
100
AcDbEntity
  8
AM_6
100
AcDbText
 10
7.765625
 20
-6.62
 30
0.0
 40
0.5
  1
5.84
100
AcDbAttributeDefinition
  3

  2
D
 70
     8
280
     0
  0
ATTDEF
  5
EE
330
DF
100
AcDbEntity
  8
AM_6
100
AcDbText
 10
7.765625
 20
-7.12
 30
0.0
 40
0.5
  1
0.54
100
AcDbAttributeDefinition
  3

  2
E
 70
     8
280
     0
  0
ATTDEF
  5
EF
330
DF
100
AcDbEntity
  8
AM_6
100
AcDbText
 10
7.765625
 20
-7.62
 30
0.0
 40
0.5
  1
0.44
100
AcDbAttributeDefinition
  3

  2
F
 70
     8
280
     0
  0
ATTDEF
  5
F0
330
DF
100
AcDbEntity
  8
AM_6
100
AcDbText
 10
7.765625
 20
-8.120000000000001
 30
0.0
 40
0.5
  1
1/2-13
100
AcDbAttributeDefinition
  3

  2
CS
 70
     8
280
     0
  0
ATTDEF
  5
F1
330
DF
100
AcDbEntity
  8
AM_6
100
AcDbText
 10
7.765625
 20
-8.620000000000001
 30
0.0
 40
0.5
  1
0.5000
100
AcDbAttributeDefinition
  3

  2
NDM
 70
     8
280
     0
  0
ATTDEF
  5
F2
330
DF
100
AcDbEntity
  8
AM_6
100
AcDbText
 10
7.765625
 20
-9.120000000000001
 30
0.0
 40
0.5
  1
0.4170
100
AcDbAttributeDefinition
  3

  2
KDM
 70
     8
280
     0
  0
ATTDEF
  5
F3
330
DF
100
AcDbEntity
  8
AM_6
100
AcDbText
 10
7.765625
 20
-9.620000000000001
 30
0.0
 40
0.5
  1
baldor
100
AcDbAttributeDefinition
  3

  2
COMPANY
 70
     8
280
     0
  0
LINE
  5
F4
330
DF
100
AcDbEntity
  8
AM_9
100
AcDbLine
 10
1.969969530266636
 20
-1.875688878520796
 30
0.0
 11
1.962436053441967
 21
-1.866292473933726
 31
0.0
  0
LINE
  5
F5
330
DF
100
AcDbEntity
  8
AM_9
100
AcDbLine
 10
1.96249472472746
 20
-2.253634346158913
 30
0.0
 11
1.969969530266636
 21
-2.244311121479204
 31
0.0
  0
LWPOLYLINE
  5
F6
330
DF
100
AcDbEntity
  8
AM_9
100
AcDbPolyline
 90
       26
 70
     0
 43
0.0
 10
1.962315731194076
 20
-1.866142398927413
 10
1.96031657946436
 20
-1.863735721553158
 10
1.946014882870694
 20
-1.850981308949331
 10
1.930483893718179
 20
-1.844320148061696
 10
1.913578400786142
 20
-1.844046838535621
 10
1.896223688997207
 20
-1.850371643799554
 10
1.878825935204822
 20
-1.86336464503481
 10
1.862143516095993
 20
-1.882630222958654
 10
1.84710905846286
 20
-1.907329963640261
 10
1.83409008481678
 20
-1.937054845632422
 10
1.824179144847845
 20
-1.969493259689729
 10
1.817237921763321
 20
-2.004880521281622
 10
1.813839003546537
 20
-2.039950344360223
 10
1.813621110897539
 20
-2.075628263858183
 10
1.816484086818899
 20
-2.109512587883563
 10
1.822159288106486
 20
-2.14202260781982
 10
1.830487206545547
 20
-2.172517053153456
 10
1.841014215827946
 20
-2.200020869556716
 10
1.853934568965852
 20
-2.224898641905716
 10
1.868274295838921
 20
-2.245319014011168
 10
1.884395058555988
 20
-2.261534341330013
 10
1.900971393890077
 20
-2.27201166016802
 10
1.918124926796097
 20
-2.276524871196479
 10
1.934706143552195
 20
-2.274525336237965
 10
1.950480021138408
 20
-2.26579246465159
 10
1.96232196053999
 20
-2.253849832561349
  0
LWPOLYLINE
  5
F7
330
DF
100
AcDbEntity
  8
AM_9
100
AcDbPolyline
 90
        9
 70
     0
 43
0.0
 10
1.996379670073935
 20
-2.170122567937856
 10
2.001894853762626
 20
-2.137961439144591
 10
2.005425651105265
 20
-2.103226657961343
 10
2.006895193392169
 20
-2.067142861238747
 10
2.006329904540799
 20
-2.032581780542767
 10
2.00388304802168
 20
-1.998801935484985
 10
1.999610670500976
 20
-1.966994881265923
 10
1.993586491174249
 20
-1.937677427931419
 10
1.980876747911817
 20
-1.898527269720325
  0
LWPOLYLINE
  5
F8
330
DF
100
AcDbEntity
  8
AM_9
100
AcDbPolyline
 90
        5
 70
     0
 43
0.0
 10
1.969527503708527
 20
-2.243643384337563
 10
1.97731140244859
 20
-2.229361093349508
 10
1.987842815470787
 20
-2.20260832287007
 10
1.99593854063961
 20
-2.172130238998791
 10
1.996379670073935
 20
-2.170122567937856
  0
LWPOLYLINE
  5
F9
330
DF
100
AcDbEntity
  8
AM_9
100
AcDbPolyline
 90
        3
 70
     0
 43
0.0
 10
1.96232196053999
 20
-2.253849832561349
 10
1.964829367174535
 20
-2.250581458022958
 10
1.969527503708527
 20
-2.243643384337563
  0
LINE
  5
FA
330
DF
100
AcDbEntity
  8
AM_9
100
AcDbLine
 10
1.928909968279886
 20
-2.26835
 30
0.0
 11
2.468759754193158
 21
-2.26835
 31
0.0
  0
LINE
  5
FB
330
DF
100
AcDbEntity
  8
AM_9
100
AcDbLine
 10
2.468759754193158
 20
-1.85165
 30
0.0
 11
1.928909968279886
 21
-1.85165
 31
0.0
  0
ELLIPSE
  5
FC
330
DF
100
AcDbEntity
  8
AM_9
100
AcDbEllipse
 10
2.468759754193159
 20
-2.060000000000001
 30
0.0
 11
-3.827327409035254E-17
 21
-0.2083499999999994
 31
0.0
210
0.0
220
0.0
230
1.0
 40
0.4226182617407065
 41
1.014602258612044
 42
5.945514046955634
  0
LINE
  5
FD
330
DF
100
AcDbEntity
  8
AM_9
100
AcDbLine
 10
2.42770019220641
 20
-2.244311121479205
 30
0.0
 11
2.455238400430553
 21
-2.278659159191317
 31
0.0
  0
LINE
  5
FE
330
DF
100
AcDbEntity
  8
AM_9
100
AcDbLine
 10
2.455417582961736
 20
-1.841117348841147
 30
0.0
 11
2.42770019220641
 21
-1.875688878520796
 31
0.0
  0
LWPOLYLINE
  5
FF
330
DF
100
AcDbEntity
  8
AM_9
100
AcDbPolyline
 90
       11
 70
     0
 43
0.0
 10
2.40806682814846
 20
-2.170306898321822
 10
2.402758375290724
 20
-2.143837169016963
 10
2.397584453112596
 20
-2.10248355305022
 10
2.39582323828733
 20
-2.059981881092285
 10
2.397664023572559
 20
-2.01658008263652
 10
2.403060653872013
 20
-1.974402289691657
 10
2.411876320240033
 20
-1.934662822324092
 10
2.423729514258
 20
-1.898562444813533
 10
2.437892931360194
 20
-1.867915814673118
 10
2.454021752565456
 20
-1.842891104021224
 10
2.455521581612547
 20
-1.840987633746642
  0
LWPOLYLINE
  5
100
330
DF
100
AcDbEntity
  8
AM_9
100
AcDbPolyline
 90
        8
 70
     0
 43
0.0
 10
2.455521581612547
 20
-1.840987633746642
 10
2.470828216591896
 20
-1.825081310450273
 10
2.488302698187129
 20
-1.81394777968995
 10
2.505118275031466
 20
-1.810050537462284
 10
2.521479350183621
 20
-1.812830771049182
 10
2.536617447875447
 20
-1.822041235355647
 10
2.550520426500118
 20
-1.837258966098944
 10
2.568088496355109
 20
-1.869456148857068
  0
LWPOLYLINE
  5
101
330
DF
100
AcDbEntity
  8
AM_9
100
AcDbPolyline
 90
       39
 70
     0
 43
0.0
 10
-0.159986555811746
 20
-1.905064722724611
 10
-0.182281888037872
 20
-1.928921760141794
 10
-0.2011604523234221
 20
-1.956484825746909
 10
-0.2165671828156271
 20
-1.989487237530668
 10
-0.2262049663605153
 20
-2.025842931974717
 10
-0.2290795232288547
 20
-2.060328885050799
 10
-0.2259108595954708
 20
-2.09585032082609
 10
-0.2172904772749014
 20
-2.128499192500931
 10
-0.203064894497397
 20
-2.16014053645612
 10
-0.1840077830173843
 20
-2.188905203869766
 10
-0.1599992104012865
 20
-2.214923585882261
 10
-0.1314413405763095
 20
-2.237346179249616
 10
-0.0988315880532858
 20
-2.255399301159092
 10
-0.0628452739432501
 20
-2.268325513416767
 10
-0.0242007993715099
 20
-2.275449863970397
 10
0.0152712729049052
 20
-2.276182956173145
 10
0.0554285413922742
 20
-2.270206316388949
 10
0.0932081860078283
 20
-2.257861595767471
 10
0.1293621007158061
 20
-2.238710338956809
 10
0.1601727600496683
 20
-2.214763064002312
 10
0.187109775992516
 20
-2.184851475392248
 10
0.2067655250673396
 20
-2.153136256702722
 10
0.220903184276739
 20
-2.117273549354084
 10
0.2278064170443369
 20
-2.082772149730406
 10
0.2286320082509655
 20
-2.046484095318382
 10
0.2236043142561953
 20
-2.01299329392418
 10
0.21279329893227
 20
-1.979890231451797
 10
0.1970406545663652
 20
-1.949636014858393
 10
0.1761067969000716
 20
-1.921581632183136
 10
0.150490749802942
 20
-1.896772845840065
 10
0.1204884042803835
 20
-1.875816305205841
 10
0.0865736510791597
 20
-1.85945351547205
 10
0.0494815543811856
 20
-1.848466031346461
 10
0.0106098402656726
 20
-1.843566681920977
 10
-0.029642325508354
 20
-1.845161397225979
 10
-0.0685666345133421
 20
-1.853299965631897
 10
-0.1066302390272933
 20
-1.868311707043657
 10
-0.1343473742913629
 20
-1.884615013553354
 10
-0.159986555811746
 20
-1.905064722724611
  0
LINE
  5
102
330
DF
100
AcDbEntity
  8
AM_9
100
AcDbLine
 10
1.969792449546971
 20
-1.87678195363352
 30
0.0
 11
1.962315731194076
 21
-1.866142398927413
 31
0.0
  0
LWPOLYLINE
  5
103
330
DF
100
AcDbEntity
  8
AM_9
100
AcDbPolyline
 90
        3
 70
     0
 43
0.0
 10
1.980876747911817
 20
-1.898527269720325
 10
1.971220258317906
 20
-1.879156530532244
 10
1.969792449546971
 20
-1.87678195363352
  0
LINE
  5
104
330
DF
100
AcDbEntity
  8
AM_9
100
AcDbLine
 10
2.12
 20
-2.5
 30
0.0
 11
2.12
 21
-1.62
 31
0.0
  0
LINE
  5
105
330
DF
100
AcDbEntity
  8
AM_9
100
AcDbLine
 10
-2.12
 20
-1.62
 30
0.0
 11
-2.12
 21
-2.5
 31
0.0
  0
ARC
  5
106
330
DF
100
AcDbEntity
  8
AM_9
100
AcDbCircle
 10
0.0
 20
-2.06
 30
0.0
 40
0.2083500000000003
100
AcDbArc
 50
328.1324273029114
 51
211.8675726970886
  0
LWPOLYLINE
  5
107
330
DF
100
AcDbEntity
  8
AM_9
100
AcDbPolyline
 90
        9
 70
     0
 43
0.0
 10
-0.2149612729121687
 20
-2.17035533159315
 10
-0.2225016106036312
 20
-2.152687282490252
 10
-0.2343362195250159
 20
-2.112082466723259
 10
-0.2394136169842785
 20
-2.069889342403728
 10
-0.2374028479375772
 20
-2.026236460859731
 10
-0.2282971011500161
 20
-1.98417059397395
 10
-0.2117489816435712
 20
-1.943084660893379
 10
-0.1943800210082332
 20
-1.913905885719618
 10
-0.1727888099394485
 20
-1.886876531480668
  0
LWPOLYLINE
  5
108
330
DF
100
AcDbEntity
  8
AM_9
100
AcDbPolyline
 90
       19
 70
     0
 43
0.0
 10
-0.1727888099394485
 20
-1.886876531480668
 10
-0.1466151085990734
 20
-1.86232696986577
 10
-0.1163791247903692
 20
-1.841511939567762
 10
-0.0800685494273319
 20
-1.824392854716465
 10
-0.0401075660036862
 20
-1.813532865482273
 10
-0.0015910917863086
 20
-1.810005520892252
 10
0.0381242237546716
 20
-1.813189910085175
 10
0.0749440761204486
 20
-1.822562414249223
 10
0.1106839500356834
 20
-1.838310804003541
 10
0.1429491919906712
 20
-1.859423890105265
 10
0.1721400476344461
 20
-1.886174387082822
 10
0.196896618873888
 20
-1.917620076383417
 10
0.2167835486013565
 20
-1.953592237731818
 10
0.2307768560049755
 20
-1.992825692305774
 10
0.2383941113182138
 20
-2.034954074112151
 10
0.2389979822378551
 20
-2.077718291680144
 10
0.2323018541289049
 20
-2.121193298617139
 10
0.2187179161544784
 20
-2.16201189771363
 10
0.2150017576459864
 20
-2.170269518989255
  0
LINE
  5
109
330
DF
100
AcDbEntity
  8
AM_9
100
AcDbLine
 10
-2.765625
 20
-1.62
 30
0.0
 11
2.765625
 21
-1.62
 31
0.0
  0
LWPOLYLINE
  5
10A
330
DF
100
AcDbEntity
  8
AM_9
100
AcDbPolyline
 90
        9
 70
     0
 43
0.0
 10
2.568088496355109
 20
-1.869456148857068
 10
2.577418204676445
 20
-1.895595106237953
 10
2.585082250319259
 20
-1.925168227803887
 10
2.591724972279837
 20
-1.962363309203199
 10
2.596094628666732
 20
-2.002120924653908
 10
2.598182949068788
 20
-2.044714561147385
 10
2.597833758752223
 20
-2.087727338148771
 10
2.594963032873581
 20
-2.130591772637654
 10
2.58982108694332
 20
-2.170054637911592
  0
LINE
  5
10B
330
DF
100
AcDbEntity
  8
AM_9
100
AcDbLine
 10
2.765625
 20
-2.17
 30
0.0
 11
2.765625
 21
-1.62
 31
0.0
  0
LINE
  5
10C
330
DF
100
AcDbEntity
  8
AM_9
100
AcDbLine
 10
-2.765625
 20
-1.62
 30
0.0
 11
-2.765625
 21
-2.17
 31
0.0
  0
ARC
  5
10D
330
DF
100
AcDbEntity
  8
AM_5
100
AcDbCircle
 10
-0.0000000000000001
 20
-2.06
 30
0.0
 40
0.2500000000000001
100
AcDbArc
 50
75.00000000000004
 51
14.99999999999992
  0
ELLIPSE
  5
10E
330
DF
100
AcDbEntity
  8
AM_9
100
AcDbEllipse
 10
1.928909968279886
 20
-2.06
 30
0.0
 11
-3.827327409035270E-17
 21
-0.2083500000000003
 31
0.0
210
0.0
220
0.0
230
1.0
 40
0.4226182617406972
 41
0.0
 42
6.283185307179586
  0
LINE
  5
10F
330
DF
100
AcDbEntity
  8
AM_7
100
AcDbLine
 10
-0.2187675000000006
 20
-2.059999999999999
 30
0.0
 11
0.2187675000000019
 21
-2.059999999999999
 31
0.0
  0
ELLIPSE
  5
110
330
DF
100
AcDbEntity
  8
AM_4
100
AcDbEllipse
 10
2.468759754193156
 20
-2.059999999999999
 30
0.0
 11
-3.827327409035287E-17
 21
-0.2083500000000011
 31
0.0
210
0.0
220
0.0
230
1.0
 40
0.4226182617407072
 41
5.945514046955677
 42
7.297787565791642
  0
LWPOLYLINE
  5
111
330
DF
100
AcDbEntity
  8
AM_4
100
AcDbPolyline
 90
        6
 70
     0
 43
0.0
 10
2.455516714671396
 20
-2.279006294264277
 10
2.448822987244066
 20
-2.269992761535575
 10
2.434350196667221
 20
-2.24532565185167
 10
2.421674022543416
 20
-2.216043588687772
 10
2.410848127008145
 20
-2.181505497673463
 10
2.40806682814846
 20
-2.170306898321822
  0
ARC
  5
112
330
DF
100
AcDbEntity
  8
AM_4
100
AcDbCircle
 10
0.0
 20
-2.06
 30
0.0
 40
0.2083500000000002
100
AcDbArc
 50
211.8675726970886
 51
328.1324273029114
  0
LINE
  5
113
330
DF
100
AcDbEntity
  8
AM_4
100
AcDbLine
 10
-2.618958333333333
 20
-2.5
 30
0.0
 11
2.618958333314419
 21
-2.5
 31
0.0
  0
ARC
  5
114
330
DF
100
AcDbEntity
  8
AM_4
100
AcDbCircle
 10
2.618958333333333
 20
-2.353333333333333
 30
0.0
 40
0.1466666666666665
100
AcDbArc
 50
270.0
 51
0.0000008537736463
  0
ARC
  5
115
330
DF
100
AcDbEntity
  8
AM_4
100
AcDbCircle
 10
-2.618958333333333
 20
-2.353333333333333
 30
0.0
 40
0.1466666666666665
100
AcDbArc
 50
179.9999991462263
 51
270.0
  0
LINE
  5
116
330
DF
100
AcDbEntity
  8
AM_4
100
AcDbLine
 10
-2.765625
 20
-2.353333333333333
 30
0.0
 11
2.765625
 21
-2.353333333333333
 31
0.0
  0
LWPOLYLINE
  5
117
330
DF
100
AcDbEntity
  8
AM_4
100
AcDbPolyline
 90
       15
 70
     0
 43
0.0
 10
0.2150017576459864
 20
-2.170269518989255
 10
0.1977813592424338
 20
-2.201039362641246
 10
0.1716479714717849
 20
-2.234354545975526
 10
0.1391290631863576
 20
-2.263480912538765
 10
0.1043925105882328
 20
-2.284990278917517
 10
0.0652079837590481
 20
-2.300549553365496
 10
0.0268770278015247
 20
-2.308419688210409
 10
-0.0134419435199896
 20
-2.309605652863203
 10
-0.0511383608301642
 20
-2.304230782875941
 10
-0.0884484157510986
 20
-2.292317720695634
 10
-0.1224699899371711
 20
-2.274830081559216
 10
-0.1540304933083627
 20
-2.251433278534374
 10
-0.1815368421344609
 20
-2.223087997504319
 10
-0.2047254909735529
 20
-2.189811943954918
 10
-0.2149612729121687
 20
-2.17035533159315
  0
LWPOLYLINE
  5
118
330
DF
100
AcDbEntity
  8
AM_4
100
AcDbPolyline
 90
       12
 70
     0
 43
0.0
 10
2.58982108694332
 20
-2.170054637911592
 10
2.589589177443513
 20
-2.171444182224608
 10
2.581760634177392
 20
-2.208817166659082
 10
2.571536738313013
 20
-2.241844775217019
 10
2.559368565260038
 20
-2.268674417529128
 10
2.545224910501124
 20
-2.289425905261161
 10
2.530060604781306
 20
-2.302781924176859
 10
2.51370278901504
 20
-2.309358550585322
 10
2.497222195244605
 20
-2.308937410158271
 10
2.480527711377978
 20
-2.302002634740324
 10
2.464277718773783
 20
-2.288855825897105
 10
2.455516714671396
 20
-2.279006294264277
  0
LINE
  5
119
330
DF
100
AcDbEntity
  8
AM_4
100
AcDbLine
 10
2.765625
 20
-2.353333333333333
 30
0.0
 11
2.765625
 21
-2.17
 31
0.0
  0
LINE
  5
11A
330
DF
100
AcDbEntity
  8
AM_4
100
AcDbLine
 10
-2.765625
 20
-2.17
 30
0.0
 11
-2.765625
 21
-2.353333333333333
 31
0.0
  0
ARC
  5
11B
330
DF
100
AcDbEntity
  8
AM_5
100
AcDbCircle
 10
-0.0000000000000002
 20
-2.06
 30
0.0
 40
0.2499999999999998
100
AcDbArc
 50
165.0000000000001
 51
105.0
  0
ARC
  5
11C
330
DF
100
AcDbEntity
  8
AM_5
100
AcDbCircle
 10
-0.0000000000000002
 20
-2.06
 30
0.0
 40
0.2499999999999998
100
AcDbArc
 50
105.0
 51
285.0
  0
ENDBLK
  5
E2
330
DF
100
AcDbEntity
  8
0
100
AcDbBlockEnd
  0
BLOCK
  5
11F
330
11D
100
AcDbEntity
  8
0
100
AcDbBlockBegin
  2
4_405015E_Inch_0_in_037590_4
 70
     2
 10
0.0
 20
0.0
 30
0.0
  3
4_405015E_Inch_0_in_037590_4
  1

  0
ATTDEF
  5
121
330
11D
100
AcDbEntity
  8
AM_6
100
AcDbText
 10
5.21875
 20
0.2525907427704615
 30
0.0
 40
0.5
  1
405015E -Inch
100
AcDbAttributeDefinition
  3

  2
NN
 70
     8
280
     0
  0
ATTDEF
  5
122
330
11D
100
AcDbEntity
  8
AM_6
100
AcDbText
 10
5.21875
 20
-0.2474092572295385
 30
0.0
 40
0.5
  1
Grease Fitting
100
AcDbAttributeDefinition
  3

  2
NT
 70
     8
280
     0
  0
ATTDEF
  5
123
330
11D
100
AcDbEntity
  8
AM_6
100
AcDbText
 10
5.21875
 20
-0.7474092572295385
 30
0.0
 40
0.5
  1
405015E-Inch
100
AcDbAttributeDefinition
  3

  2
NB
 70
     8
280
     0
  0
ATTDEF
  5
124
330
11D
100
AcDbEntity
  8
AM_6
100
AcDbText
 10
5.21875
 20
-1.247409257229539
 30
0.0
 40
0.5
  1
$MN.-Inch
100
AcDbAttributeDefinition
  3

  2
NBSYN
 70
     8
280
     0
  0
ATTDEF
  5
125
330
11D
100
AcDbEntity
  8
AM_6
100
AcDbText
 10
5.21875
 20
-1.747409257229539
 30
0.0
 40
0.5
  1
405015E
100
AcDbAttributeDefinition
  3

  2
LINA
 70
     8
280
     0
  0
ATTDEF
  5
126
330
11D
100
AcDbEntity
  8
AM_6
100
AcDbText
 10
5.21875
 20
-2.247409257229538
 30
0.0
 40
0.5
  1
405015E
100
AcDbAttributeDefinition
  3

  2
MN
 70
     8
280
     0
  0
ATTDEF
  5
127
330
11D
100
AcDbEntity
  8
AM_6
100
AcDbText
 10
5.21875
 20
-2.747409257229538
 30
0.0
 40
0.5
  1
1/8 x 27PTF
100
AcDbAttributeDefinition
  3

  2
T
 70
     8
280
     0
  0
ATTDEF
  5
128
330
11D
100
AcDbEntity
  8
AM_6
100
AcDbText
 10
5.21875
 20
-3.247409257229538
 30
0.0
 40
0.5
  1
baldor
100
AcDbAttributeDefinition
  3

  2
COMPANY
 70
     8
280
     0
  0
CIRCLE
  5
129
330
11D
100
AcDbEntity
  8
AM_9
100
AcDbCircle
 10
0.0
 20
0.0000000000000002
 30
0.0
 40
0.161902872472269
  0
CIRCLE
  5
12A
330
11D
100
AcDbEntity
  8
AM_9
100
AcDbCircle
 10
0.0
 20
0.0000000000000002
 30
0.0
 40
0.1986176267812154
  0
CIRCLE
  5
12B
330
11D
100
AcDbEntity
  8
AM_9
100
AcDbCircle
 10
0.0
 20
0.0000000000000003
 30
0.0
 40
0.2057518972230696
  0
LINE
  5
12C
330
11D
100
AcDbEntity
  8
AM_9
100
AcDbLine
 10
-0.21875
 20
-0.1262953713852304
 30
0.0
 11
0.0
 21
-0.252590742770461
 31
0.0
  0
LINE
  5
12D
330
11D
100
AcDbEntity
  8
AM_9
100
AcDbLine
 10
0.0
 20
-0.252590742770461
 30
0.0
 11
0.21875
 21
-0.1262953713852304
 31
0.0
  0
LINE
  5
12E
330
11D
100
AcDbEntity
  8
AM_9
100
AcDbLine
 10
-0.21875
 20
0.1262953713852309
 30
0.0
 11
-0.21875
 21
-0.1262953713852304
 31
0.0
  0
LINE
  5
12F
330
11D
100
AcDbEntity
  8
AM_9
100
AcDbLine
 10
0.21875
 20
0.1262953713852309
 30
0.0
 11
0.0
 21
0.2525907427704615
 31
0.0
  0
LINE
  5
130
330
11D
100
AcDbEntity
  8
AM_9
100
AcDbLine
 10
0.0
 20
0.2525907427704615
 30
0.0
 11
-0.21875
 21
0.1262953713852309
 31
0.0
  0
LINE
  5
131
330
11D
100
AcDbEntity
  8
AM_9
100
AcDbLine
 10
0.21875
 20
-0.1262953713852304
 30
0.0
 11
0.21875
 21
0.1262953713852309
 31
0.0
  0
CIRCLE
  5
132
330
11D
100
AcDbEntity
  8
AM_9
100
AcDbCircle
 10
0.0
 20
0.0000000000000003
 30
0.0
 40
0.21375
  0
CIRCLE
  5
133
330
11D
100
AcDbEntity
  8
AM_9
100
AcDbCircle
 10
0.0
 20
0.0000000000000003
 30
0.0
 40
0.1725340532830154
  0
CIRCLE
  5
134
330
11D
100
AcDbEntity
  8
AM_9
100
AcDbCircle
 10
0.0
 20
0.0000000000000003
 30
0.0
 40
0.1188200907348975
  0
CIRCLE
  5
135
330
11D
100
AcDbEntity
  8
AM_9
100
AcDbCircle
 10
0.0
 20
0.0000000000000003
 30
0.0
 40
0.105
  0
CIRCLE
  5
136
330
11D
100
AcDbEntity
  8
AM_9
100
AcDbCircle
 10
0.0
 20
0.0000000000000003
 30
0.0
 40
0.135
  0
CIRCLE
  5
137
330
11D
100
AcDbEntity
  8
AM_9
100
AcDbCircle
 10
0.0
 20
0.0000000000000003
 30
0.0
 40
0.1026779019331875
  0
CIRCLE
  5
138
330
11D
100
AcDbEntity
  8
AM_9
100
AcDbCircle
 10
0.0
 20
0.0000000000000002
 30
0.0
 40
0.21875
  0
ARC
  5
139
330
11D
100
AcDbEntity
  8
AM_5
100
AcDbCircle
 10
0.0
 20
0.0000000000000002
 30
0.0
 40
0.202500005
100
AcDbArc
 50
75.00000000000001
 51
15.0
  0
ENDBLK
  5
120
330
11D
100
AcDbEntity
  8
0
100
AcDbBlockEnd
  0
BLOCK
  5
13C
330
13A
100
AcDbEntity
  8
0
100
AcDbBlockBegin
  2
5_S1U_TAF_307_Ins_0_in_037590_4
 70
     2
 10
0.0
 20
0.0
 30
0.0
  3
5_S1U_TAF_307_Ins_0_in_037590_4
  1

  0
ATTDEF
  5
13E
330
13A
100
AcDbEntity
  8
AM_6
100
AcDbText
 10
8.683587743514028
 20
2.75
 30
0.0
 40
0.5
  1
S-1 Unit Taf -Insert -Inch
100
AcDbAttributeDefinition
  3

  2
NN
 70
     8
280
     0
  0
ATTDEF
  5
13F
330
13A
100
AcDbEntity
  8
AM_6
100
AcDbText
 10
8.683587743514028
 20
2.25
 30
0.0
 40
0.5
  1
Taf Bearings
100
AcDbAttributeDefinition
  3

  2
NT
 70
     8
280
     0
  0
ATTDEF
  5
140
330
13A
100
AcDbEntity
  8
AM_6
100
AcDbText
 10
8.683587743514028
 20
1.75
 30
0.0
 40
0.5
  1
S1U-TAF-307-Ins
100
AcDbAttributeDefinition
  3

  2
NB
 70
     8
280
     0
  0
ATTDEF
  5
141
330
13A
100
AcDbEntity
  8
AM_6
100
AcDbText
 10
8.683587743514028
 20
1.25
 30
0.0
 40
0.5
  1
$PN.-Ins
100
AcDbAttributeDefinition
  3

  2
NBSYN
 70
     8
280
     0
  0
ATTDEF
  5
142
330
13A
100
AcDbEntity
  8
AM_6
100
AcDbText
 10
8.683587743514028
 20
0.75
 30
0.0
 40
0.5
  1
S1U-TAF-307-Ins
100
AcDbAttributeDefinition
  3

  2
LINA
 70
     8
280
     0
  0
ATTDEF
  5
143
330
13A
100
AcDbEntity
  8
AM_6
100
AcDbText
 10
8.683587743514028
 20
0.25
 30
0.0
 40
0.5
  1
3-7/16
100
AcDbAttributeDefinition
  3

  2
SS
 70
     8
280
     0
  0
ATTDEF
  5
144
330
13A
100
AcDbEntity
  8
AM_6
100
AcDbText
 10
8.683587743514028
 20
-0.25
 30
0.0
 40
0.5
  1
S1U-TAF-307
100
AcDbAttributeDefinition
  3

  2
PN
 70
     8
280
     0
  0
ATTDEF
  5
145
330
13A
100
AcDbEntity
  8
AM_6
100
AcDbText
 10
8.683587743514028
 20
-0.75
 30
0.0
 40
0.5
  1
S1U-TAF-307
100
AcDbAttributeDefinition
  3

  2
DESCRIPTION
 70
     8
280
     0
  0
ATTDEF
  5
146
330
13A
100
AcDbEntity
  8
AM_6
100
AcDbText
 10
8.683587743514028
 20
-1.25
 30
0.0
 40
0.5
  1
5
100
AcDbAttributeDefinition
  3

  2
A
 70
     8
280
     0
  0
ATTDEF
  5
147
330
13A
100
AcDbEntity
  8
AM_6
100
AcDbText
 10
8.683587743514028
 20
-1.75
 30
0.0
 40
0.5
  1
3-1/2
100
AcDbAttributeDefinition
  3

  2
B
 70
     8
280
     0
  0
ATTDEF
  5
148
330
13A
100
AcDbEntity
  8
AM_6
100
AcDbText
 10
8.683587743514028
 20
-2.25
 30
0.0
 40
0.5
  1
2-3/16
100
AcDbAttributeDefinition
  3

  2
C
 70
     8
280
     0
  0
ATTDEF
  5
149
330
13A
100
AcDbEntity
  8
AM_6
100
AcDbText
 10
8.683587743514028
 20
-2.75
 30
0.0
 40
0.5
  1
6.813
100
AcDbAttributeDefinition
  3

  2
EM
 70
     8
280
     0
  0
ATTDEF
  5
14A
330
13A
100
AcDbEntity
  8
AM_6
100
AcDbText
 10
8.683587743514028
 20
-3.25
 30
0.0
 40
0.5
  1
6-15/16
100
AcDbAttributeDefinition
  3

  2
EC
 70
     8
280
     0
  0
ATTDEF
  5
14B
330
13A
100
AcDbEntity
  8
AM_6
100
AcDbText
 10
8.683587743514028
 20
-3.75
 30
0.0
 40
0.5
  1
3/4
100
AcDbAttributeDefinition
  3

  2
H
 70
     8
280
     0
  0
ATTDEF
  5
14C
330
13A
100
AcDbEntity
  8
AM_6
100
AcDbText
 10
8.683587743514028
 20
-4.25
 30
0.0
 40
0.5
  1
7.374
100
AcDbAttributeDefinition
  3

  2
K
 70
     8
280
     0
  0
ATTDEF
  5
14D
330
13A
100
AcDbEntity
  8
AM_6
100
AcDbText
 10
8.683587743514028
 20
-4.75
 30
0.0
 40
0.5
  1
+0.000 to -0.003
100
AcDbAttributeDefinition
  3

  2
TOL
 70
     8
280
     0
  0
ATTDEF
  5
14E
330
13A
100
AcDbEntity
  8
AM_6
100
AcDbText
 10
8.683587743514028
 20
-5.25
 30
0.0
 40
0.5
  1
5-7/16
100
AcDbAttributeDefinition
  3

  2
L
 70
     8
280
     0
  0
ATTDEF
  5
14F
330
13A
100
AcDbEntity
  8
AM_6
100
AcDbText
 10
8.683587743514028
 20
-5.75
 30
0.0
 40
0.5
  1
4-1/2
100
AcDbAttributeDefinition
  3

  2
M
 70
     8
280
     0
  0
ATTDEF
  5
150
330
13A
100
AcDbEntity
  8
AM_6
100
AcDbText
 10
8.683587743514028
 20
-6.25
 30
0.0
 40
0.5
  1
baldor
100
AcDbAttributeDefinition
  3

  2
COMPANY
 70
     8
280
     0
  0
LINE
  5
151
330
13A
100
AcDbEntity
  8
AM_9
100
AcDbLine
 10
1.921367366337284
 20
2.33
 30
0.0
 11
1.557588668625732
 21
2.33
 31
0.0
  0
LINE
  5
152
330
13A
100
AcDbEntity
  8
AM_9
100
AcDbLine
 10
1.55769093656613
 20
1.79
 30
0.0
 11
1.921270411568945
 21
1.79
 31
0.0
  0
LWPOLYLINE
  5
153
330
13A
100
AcDbEntity
  8
AM_9
100
AcDbPolyline
 90
       21
 70
     0
 43
0.0
 10
1.557725957469534
 20
2.329999999074349
 10
1.544945740533535
 20
2.32836495518906
 10
1.52538111519889
 20
2.319896291847546
 10
1.505227526039552
 20
2.303896375818992
 10
1.486242176587734
 20
2.281601311927634
 10
1.468194366368572
 20
2.252441677173815
 10
1.452662607793911
 20
2.218424776525314
 10
1.439682582695368
 20
2.178840650616721
 10
1.430583501921445
 20
2.136962117161315
 10
1.425318592546727
 20
2.091579594746215
 10
1.424445106819978
 20
2.047056834207977
 10
1.427878821558029
 20
2.00161428766491
 10
1.435203669306123
 20
1.959316018327775
 10
1.446469320079889
 20
1.918682334246905
 10
1.460658505848022
 20
1.882764491332042
 10
1.477831802455926
 20
1.850874739761377
 10
1.496487894068218
 20
1.825432494920502
 10
1.516767683505636
 20
1.806030700213075
 10
1.536672947886885
 20
1.794361749140656
 10
1.55673330952497
 20
1.79000999408639
 10
1.557710865410641
 20
1.790000000330224
  0
LWPOLYLINE
  5
154
330
13A
100
AcDbEntity
  8
AM_9
100
AcDbPolyline
 90
       10
 70
     0
 43
0.0
 10
1.557710865410641
 20
1.790000000330224
 10
1.574990735084851
 20
1.793282509010391
 10
1.592237694109185
 20
1.804176104965456
 10
1.60714103414375
 20
1.821748772456463
 10
1.620342807994618
 20
1.846487860201534
 10
1.631099284076223
 20
1.876690945452128
 10
1.63984761762199
 20
1.91300416841598
 10
1.646150827980966
 20
1.952658228661832
 10
1.650367509876702
 20
1.996631457613687
 10
1.652483059561181
 20
2.06
  0
LWPOLYLINE
  5
155
330
13A
100
AcDbEntity
  8
AM_9
100
AcDbPolyline
 90
        9
 70
     0
 43
0.0
 10
1.80418134040131
 20
2.170241143354854
 10
1.813265788330868
 20
2.202773836892609
 10
1.827237384996506
 20
2.239062404981112
 10
1.843694583072413
 20
2.270339835912528
 10
1.86210503734216
 20
2.295794250661976
 10
1.881638688557673
 20
2.314584493986311
 10
1.901523426037831
 20
2.326043687786772
 10
1.921145598526901
 20
2.329999466442034
 10
1.921370952344301
 20
2.329999999974892
  0
LWPOLYLINE
  5
156
330
13A
100
AcDbEntity
  8
AM_9
100
AcDbPolyline
 90
       14
 70
     0
 43
0.0
 10
1.921382582731437
 20
1.790000001052307
 10
1.908408853136595
 20
1.791695732560156
 10
1.888705165233194
 20
1.800503316690021
 10
1.869161220988258
 20
1.816501039310451
 10
1.850412780442793
 20
1.839398549565755
 10
1.833211381563518
 20
1.868425704694225
 10
1.818171405420391
 20
1.903118139761372
 10
1.806027281029057
 20
1.942252664268236
 10
1.797369544004657
 20
1.984807399015732
 10
1.792549265017203
 20
2.029515345233332
 10
1.791855836318895
 20
2.074791870714373
 10
1.795205401854182
 20
2.11964899722793
 10
1.802472940812715
 20
2.162645922811061
 10
1.80418134040131
 20
2.170241143354854
  0
LWPOLYLINE
  5
157
330
13A
100
AcDbEntity
  8
AM_9
100
AcDbPolyline
 90
        4
 70
     0
 43
0.0
 10
2.012511769726639
 20
2.170199024174932
 10
2.013296822494756
 20
2.164406084803953
 10
2.017685015697574
 20
2.120995086612005
 10
2.019833224793706
 20
2.06
  0
LWPOLYLINE
  5
158
330
13A
100
AcDbEntity
  8
AM_9
100
AcDbPolyline
 90
        8
 70
     0
 43
0.0
 10
1.921370952344301
 20
2.329999999974892
 10
1.939753899720896
 20
2.326278395609493
 10
1.957023126893279
 20
2.315152437476752
 10
1.972532328764316
 20
2.296853523188738
 10
1.986051306723487
 20
2.271995975984996
 10
1.997443495907411
 20
2.240958083473564
 10
2.006542578227059
 20
2.204831793678195
 10
2.012511769726639
 20
2.170199024174932
  0
LINE
  5
159
330
13A
100
AcDbEntity
  8
AM_9
100
AcDbLine
 10
1.921367366337285
 20
-1.79
 30
0.0
 11
1.557588668625732
 21
-1.79
 31
0.0
  0
LINE
  5
15A
330
13A
100
AcDbEntity
  8
AM_9
100
AcDbLine
 10
1.55769093656613
 20
-2.33
 30
0.0
 11
1.921270411568945
 21
-2.33
 31
0.0
  0
LWPOLYLINE
  5
15B
330
13A
100
AcDbEntity
  8
AM_9
100
AcDbPolyline
 90
       21
 70
     0
 43
0.0
 10
1.557725957469534
 20
-1.790000000925652
 10
1.544945740533535
 20
-1.791635044810941
 10
1.52538111519889
 20
-1.800103708152455
 10
1.505227526039552
 20
-1.816103624181008
 10
1.486242176587734
 20
-1.838398688072367
 10
1.468194366368572
 20
-1.867558322826185
 10
1.452662607793911
 20
-1.901575223474687
 10
1.439682582695368
 20
-1.941159349383279
 10
1.430583501921445
 20
-1.983037882838685
 10
1.425318592546727
 20
-2.028420405253785
 10
1.424445106819978
 20
-2.072943165792023
 10
1.427878821558029
 20
-2.11838571233509
 10
1.435203669306123
 20
-2.160683981672225
 10
1.446469320079889
 20
-2.201317665753095
 10
1.460658505848022
 20
-2.237235508667959
 10
1.477831802455926
 20
-2.269125260238623
 10
1.496487894068218
 20
-2.294567505079498
 10
1.516767683505636
 20
-2.313969299786926
 10
1.536672947886885
 20
-2.325638250859344
 10
1.55673330952497
 20
-2.32999000591361
 10
1.557710865410641
 20
-2.329999999669776
  0
LWPOLYLINE
  5
15C
330
13A
100
AcDbEntity
  8
AM_9
100
AcDbPolyline
 90
        4
 70
     0
 43
0.0
 10
1.645798218408225
 20
-2.170096876739032
 10
1.646150827980966
 20
-2.167341771338168
 10
1.650367509876702
 20
-2.123368542386313
 10
1.652483059561181
 20
-2.06
  0
LWPOLYLINE
  5
15D
330
13A
100
AcDbEntity
  8
AM_9
100
AcDbPolyline
 90
        8
 70
     0
 43
0.0
 10
1.557710865410641
 20
-2.329999999669776
 10
1.574990735084851
 20
-2.32671749098961
 10
1.592237694109185
 20
-2.315823895034544
 10
1.60714103414375
 20
-2.298251227543538
 10
1.620342807994618
 20
-2.273512139798467
 10
1.631099284076223
 20
-2.243309054547872
 10
1.63984761762199
 20
-2.20699583158402
 10
1.645798218408225
 20
-2.170096876739032
  0
LWPOLYLINE
  5
15E
330
13A
100
AcDbEntity
  8
AM_9
100
AcDbPolyline
 90
       14
 70
     0
 43
0.0
 10
1.804180712027108
 20
-2.170238486118656
 10
1.797369544004658
 20
-2.135192600984268
 10
1.792549265017203
 20
-2.090484654766668
 10
1.791855836318897
 20
-2.045208129285626
 10
1.795205401854183
 20
-2.00035100277207
 10
1.802472940812716
 20
-1.95735407718894
 10
1.813265788330869
 20
-1.917226163107392
 10
1.827237384996507
 20
-1.880937595018888
 10
1.843694583072414
 20
-1.849660164087473
 10
1.862105037342161
 20
-1.824205749338025
 10
1.881638688557674
 20
-1.805415506013689
 10
1.901523426037832
 20
-1.793956312213228
 10
1.921145598526902
 20
-1.790000533557966
 10
1.921370952344302
 20
-1.790000000025109
  0
LWPOLYLINE
  5
15F
330
13A
100
AcDbEntity
  8
AM_9
100
AcDbPolyline
 90
        9
 70
     0
 43
0.0
 10
1.921382582731438
 20
-2.329999998947693
 10
1.908408853136596
 20
-2.328304267439845
 10
1.888705165233194
 20
-2.319496683309979
 10
1.869161220988259
 20
-2.303498960689549
 10
1.850412780442795
 20
-2.280601450434246
 10
1.833211381563518
 20
-2.251574295305775
 10
1.818171405420393
 20
-2.216881860238628
 10
1.806027281029058
 20
-2.177747335731764
 10
1.804180712027108
 20
-2.170238486118656
  0
LWPOLYLINE
  5
160
330
13A
100
AcDbEntity
  8
AM_9
100
AcDbPolyline
 90
       10
 70
     0
 43
0.0
 10
1.921370952344302
 20
-1.790000000025109
 10
1.939753899720897
 20
-1.793721604390507
 10
1.95702312689328
 20
-1.804847562523248
 10
1.972532328764317
 20
-1.823146476811262
 10
1.986051306723487
 20
-1.848004024015004
 10
1.997443495907411
 20
-1.879041916526437
 10
2.00654257822706
 20
-1.915168206321805
 10
2.013296822494757
 20
-1.955593915196048
 10
2.017685015697575
 20
-1.999004913387996
 10
2.019833224793707
 20
-2.06
  0
LWPOLYLINE
  5
161
330
13A
100
AcDbEntity
  8
AM_9
100
AcDbPolyline
 90
       11
 70
     0
 43
0.0
 10
1.652483059561181
 20
-2.06
 10
1.651457139625054
 20
-2.015627653760554
 10
1.64824437378405
 20
-1.971255307521107
 10
1.642991912815408
 20
-1.930621247818062
 10
1.635349301241538
 20
-1.892524914870444
 10
1.625622430299323
 20
-1.859856741346014
 10
1.613304321604056
 20
-1.831984575255688
 10
1.599080414791517
 20
-1.811136627625451
 10
1.582357595172916
 20
-1.796887921678716
 10
1.564556697464752
 20
-1.790495622643142
 10
1.557725957469534
 20
-1.790000000925652
  0
LWPOLYLINE
  5
162
330
13A
100
AcDbEntity
  8
AM_9
100
AcDbPolyline
 90
        9
 70
     0
 43
0.0
 10
1.645761467839023
 20
2.170378951042952
 10
1.642991912815408
 20
2.189378752181939
 10
1.635349301241538
 20
2.227475085129556
 10
1.625622430299323
 20
2.260143258653987
 10
1.613304321604056
 20
2.288015424744312
 10
1.599080414791517
 20
2.308863372374549
 10
1.582357595172916
 20
2.323112078321284
 10
1.564556697464752
 20
2.329504377356859
 10
1.557725957469534
 20
2.329999999074349
  0
LWPOLYLINE
  5
163
330
13A
100
AcDbEntity
  8
AM_9
100
AcDbPolyline
 90
        4
 70
     0
 43
0.0
 10
1.652483059561181
 20
2.06
 10
1.651457139625054
 20
2.104372346239447
 10
1.64824437378405
 20
2.148744692478893
 10
1.645761467839023
 20
2.170378951042952
  0
LINE
  5
164
330
13A
100
AcDbEntity
  8
AM_9
100
AcDbLine
 10
1.71875
 20
-2.5
 30
0.0
 11
1.71875
 21
2.5
 31
0.0
  0
LINE
  5
165
330
13A
100
AcDbEntity
  8
AM_9
100
AcDbLine
 10
-1.71875
 20
2.5
 30
0.0
 11
-1.71875
 21
-2.5
 31
0.0
  0
LWPOLYLINE
  5
166
330
13A
100
AcDbEntity
  8
AM_9
100
AcDbPolyline
 90
        8
 70
     0
 43
0.0
 10
-0.2464079625561598
 20
2.170377153382945
 10
-0.2371840962270541
 20
2.189010482120468
 10
-0.2120017118666289
 20
2.227198307902978
 10
-0.1814606271614624
 20
2.259930089756817
 10
-0.1448357367012086
 20
2.287865331663723
 10
-0.1050313813697408
 20
2.308733610369737
 10
-0.0610000587591638
 20
2.323018997092185
 10
0.0
 20
2.33
  0
LWPOLYLINE
  5
167
330
13A
100
AcDbEntity
  8
AM_9
100
AcDbPolyline
 90
       26
 70
     0
 43
0.0
 10
0.2464912164597131
 20
2.170191107663962
 10
0.2490766952286931
 20
2.164215161535895
 10
0.2632177003109251
 20
2.120136862597146
 10
0.2695352622155867
 20
2.075834848353393
 10
0.2683035466693729
 20
2.029780687555213
 10
0.2596987510703176
 20
1.986131476984326
 10
0.2435009747565911
 20
1.943349773713936
 10
0.2209941712523696
 20
1.904882056897088
 10
0.1915804047499357
 20
1.869745043386905
 10
0.157433236114845
 20
1.840649193832328
 10
0.1177504048201728
 20
1.817029133094757
 10
0.0758423965256101
 20
1.800870822003287
 10
0.0304915798892359
 20
1.791727259014528
 10
-0.0141344439541585
 20
1.790370221425551
 10
-0.0596446400921854
 20
1.796670326570906
 10
-0.1020654208945858
 20
1.810034702693332
 10
-0.1427799036809183
 20
1.830840886925988
 10
-0.1786039483230423
 20
1.8575138778992
 10
-0.2103436233455278
 20
1.890720467516375
 10
-0.2354990863556514
 20
1.927938725109692
 10
-0.2545854610136226
 20
1.970076460031418
 10
-0.2659586030831026
 20
2.013459464484337
 10
-0.2699994806983935
 20
2.05947045057092
 10
-0.2664107436800996
 20
2.103878418975806
 10
-0.2551525344570452
 20
2.148301665670283
 10
-0.2464079625561598
 20
2.170377153382945
  0
LWPOLYLINE
  5
168
330
13A
100
AcDbEntity
  8
AM_9
100
AcDbPolyline
 90
        8
 70
     0
 43
0.0
 10
0.0
 20
2.33
 10
0.044481746918521
 20
2.326310672319148
 10
0.088963493837042
 20
2.314922530907542
 10
0.1297025597720304
 20
2.296806347019211
 10
0.1678915369942222
 20
2.271453143286445
 10
0.2005235879283188
 20
2.240804564888041
 10
0.2283390145712461
 20
2.204087801095833
 10
0.2464912164597131
 20
2.170191107663962
  0
LWPOLYLINE
  5
169
330
13A
100
AcDbEntity
  8
AM_9
100
AcDbPolyline
 90
       11
 70
     0
 43
0.0
 10
2.019833224793706
 20
2.06
 10
2.018661709371264
 20
2.014881609168771
 10
2.015166456648582
 20
1.971039980071375
 10
2.009322276205808
 20
1.929753229493176
 10
2.001156972054795
 20
1.892115134634748
 10
1.990610920400661
 20
1.859067735546931
 10
1.977824928048348
 20
1.831663057710494
 10
1.962854239202777
 20
1.81069556198666
 10
1.946015979040577
 20
1.796783284591927
 10
1.927732549816527
 20
1.790454953389078
 10
1.921382582731437
 20
1.790000001052307
  0
LINE
  5
16A
330
13A
100
AcDbEntity
  8
AM_9
100
AcDbLine
 10
2.12
 20
1.576
 30
0.0
 11
2.12
 21
2.5
 31
0.0
  0
LINE
  5
16B
330
13A
100
AcDbEntity
  8
AM_9
100
AcDbLine
 10
-2.12
 20
2.5
 30
0.0
 11
-2.12
 21
1.576
 31
0.0
  0
LWPOLYLINE
  5
16C
330
13A
100
AcDbEntity
  8
AM_9
100
AcDbPolyline
 90
       13
 70
     0
 43
0.0
 10
-0.246393873267767
 20
-2.17040860118717
 10
-0.2545854610136226
 20
-2.149923539968583
 10
-0.2659586030831025
 20
-2.106540535515664
 10
-0.2699994806983935
 20
-2.06052954942908
 10
-0.2664107436800996
 20
-2.016121581024195
 10
-0.2551525344570452
 20
-1.971698334329717
 10
-0.2371840962270541
 20
-1.930989517879532
 10
-0.2120017118666289
 20
-1.892801692097023
 10
-0.1814606271614624
 20
-1.860069910243183
 10
-0.1448357367012086
 20
-1.832134668336278
 10
-0.1050313813697408
 20
-1.811266389630263
 10
-0.0610000587591638
 20
-1.796981002907816
 10
0.0
 20
-1.79
  0
LWPOLYLINE
  5
16D
330
13A
100
AcDbEntity
  8
AM_9
100
AcDbPolyline
 90
       16
 70
     0
 43
0.0
 10
0.2464828297490498
 20
-2.170209866341001
 10
0.2435009747565911
 20
-2.176650226286065
 10
0.2209941712523696
 20
-2.215117943102912
 10
0.1915804047499357
 20
-2.250254956613095
 10
0.1574332361148449
 20
-2.279350806167672
 10
0.1177504048201728
 20
-2.302970866905243
 10
0.07584239652561
 20
-2.319129177996713
 10
0.0304915798892359
 20
-2.328272740985473
 10
-0.0141344439541585
 20
-2.32962977857445
 10
-0.0596446400921854
 20
-2.323329673429095
 10
-0.1020654208945858
 20
-2.309965297306668
 10
-0.1427799036809183
 20
-2.289159113074012
 10
-0.1786039483230423
 20
-2.2624861221008
 10
-0.2103436233455277
 20
-2.229279532483626
 10
-0.2354990863556514
 20
-2.192061274890308
 10
-0.246393873267767
 20
-2.17040860118717
  0
LWPOLYLINE
  5
16E
330
13A
100
AcDbEntity
  8
AM_9
100
AcDbPolyline
 90
       13
 70
     0
 43
0.0
 10
0.0
 20
-1.79
 10
0.044481746918521
 20
-1.793689327680852
 10
0.088963493837042
 20
-1.805077469092458
 10
0.1297025597720304
 20
-1.823193652980789
 10
0.1678915369942222
 20
-1.848546856713555
 10
0.2005235879283188
 20
-1.879195435111959
 10
0.2283390145712461
 20
-1.915912198904167
 10
0.2490766952286931
 20
-1.955784838464105
 10
0.2632177003109251
 20
-1.999863137402854
 10
0.2695352622155867
 20
-2.044165151646608
 10
0.2683035466693729
 20
-2.090219312444787
 10
0.2596987510703176
 20
-2.133868523015674
 10
0.2464828297490498
 20
-2.170209866341001
  0
LWPOLYLINE
  5
16F
330
13A
100
AcDbEntity
  8
AM_9
100
AcDbPolyline
 90
        9
 70
     0
 43
0.0
 10
2.012483762236419
 20
-2.170396716921253
 10
2.009322276205808
 20
-2.190246770506825
 10
2.001156972054795
 20
-2.227884865365252
 10
1.990610920400662
 20
-2.26093226445307
 10
1.977824928048349
 20
-2.288336942289506
 10
1.962854239202778
 20
-2.30930443801334
 10
1.946015979040578
 20
-2.323216715408073
 10
1.927732549816527
 20
-2.329545046610922
 10
1.921382582731438
 20
-2.329999998947693
  0
LWPOLYLINE
  5
170
330
13A
100
AcDbEntity
  8
AM_9
100
AcDbPolyline
 90
        4
 70
     0
 43
0.0
 10
2.019833224793707
 20
-2.06
 10
2.018661709371265
 20
-2.105118390831229
 10
2.015166456648583
 20
-2.148960019928626
 10
2.012483762236419
 20
-2.170396716921253
  0
LINE
  5
171
330
13A
100
AcDbEntity
  8
AM_9
100
AcDbLine
 10
2.120000000000001
 20
-2.5
 30
0.0
 11
2.120000000000001
 21
-1.576
 31
0.0
  0
LINE
  5
172
330
13A
100
AcDbEntity
  8
AM_9
100
AcDbLine
 10
-2.120000000000001
 20
-1.576
 30
0.0
 11
-2.120000000000001
 21
-2.5
 31
0.0
  0
LINE
  5
173
330
13A
100
AcDbEntity
  8
AM_9
100
AcDbLine
 10
-2.788461538461538
 20
-1.576
 30
0.0
 11
2.788461538461538
 21
-1.576
 31
0.0
  0
LINE
  5
174
330
13A
100
AcDbEntity
  8
AM_9
100
AcDbLine
 10
-2.788461538461538
 20
-1.576
 30
0.0
 11
-2.819142433104811
 21
-1.75
 31
0.0
  0
LINE
  5
175
330
13A
100
AcDbEntity
  8
AM_9
100
AcDbLine
 10
2.819142433104811
 20
-1.75
 30
0.0
 11
2.788461538461538
 21
-1.576
 31
0.0
  0
LINE
  5
176
330
13A
100
AcDbEntity
  8
AM_9
100
AcDbLine
 10
2.788461538461538
 20
1.576
 30
0.0
 11
2.819142433104811
 21
1.75
 31
0.0
  0
LINE
  5
177
330
13A
100
AcDbEntity
  8
AM_9
100
AcDbLine
 10
-2.819142433104811
 20
1.75
 30
0.0
 11
-2.788461538461538
 21
1.576
 31
0.0
  0
LINE
  5
178
330
13A
100
AcDbEntity
  8
AM_9
100
AcDbLine
 10
2.788461538461538
 20
1.576
 30
0.0
 11
-2.788461538461538
 21
1.576
 31
0.0
  0
LINE
  5
179
330
13A
100
AcDbEntity
  8
AM_9
100
AcDbLine
 10
-3.4065
 20
-1.75
 30
0.0
 11
3.4065
 21
-1.75
 31
0.0
  0
LINE
  5
17A
330
13A
100
AcDbEntity
  8
AM_9
100
AcDbLine
 10
3.4065
 20
-1.75
 30
0.0
 11
3.4065
 21
-1.09375
 31
0.0
  0
LINE
  5
17B
330
13A
100
AcDbEntity
  8
AM_9
100
AcDbLine
 10
-3.4065
 20
-1.09375
 30
0.0
 11
-3.4065
 21
-1.75
 31
0.0
  0
LINE
  5
17C
330
13A
100
AcDbEntity
  8
AM_9
100
AcDbLine
 10
-3.4065
 20
1.75
 30
0.0
 11
3.4065
 21
1.75
 31
0.0
  0
LINE
  5
17D
330
13A
100
AcDbEntity
  8
AM_9
100
AcDbLine
 10
3.4065
 20
1.09375
 30
0.0
 11
3.4065
 21
1.75
 31
0.0
  0
LINE
  5
17E
330
13A
100
AcDbEntity
  8
AM_9
100
AcDbLine
 10
-3.4065
 20
1.75
 30
0.0
 11
-3.4065
 21
1.09375
 31
0.0
  0
LINE
  5
17F
330
13A
100
AcDbEntity
  8
AM_9
100
AcDbLine
 10
-3.521033930183008
 20
-1.09375
 30
0.0
 11
3.521033930183005
 21
-1.09375
 31
0.0
  0
LINE
  5
180
330
13A
100
AcDbEntity
  8
AM_9
100
AcDbLine
 10
-3.521033930183008
 20
1.09375
 30
0.0
 11
3.521033930183005
 21
1.09375
 31
0.0
  0
ARC
  5
181
330
13A
100
AcDbEntity
  8
AM_9
100
AcDbCircle
 10
0.0000000000000622
 20
-0.0000000000000002
 30
0.0
 40
3.686999999999938
100
AcDbArc
 50
342.7434714038552
 51
17.2565285961448
  0
ARC
  5
182
330
13A
100
AcDbEntity
  8
AM_9
100
AcDbCircle
 10
-0.0000000000000626
 20
0.0000000000000001
 30
0.0
 40
3.686999999999937
100
AcDbArc
 50
162.7434714038552
 51
197.2565285961448
  0
CIRCLE
  5
183
330
13A
100
AcDbEntity
  8
AM_9
100
AcDbCircle
 10
0.0
 20
0.0000000000000002
 30
0.0
 40
0.4487131276007714
  0
CIRCLE
  5
184
330
13A
100
AcDbEntity
  8
AM_9
100
AcDbCircle
 10
0.0
 20
0.0000000000000002
 30
0.0
 40
0.3822148133771103
  0
CIRCLE
  5
185
330
13A
100
AcDbEntity
  8
AM_9
100
AcDbCircle
 10
0.0
 20
0.0000000000000003
 30
0.0
 40
0.3288796429849726
  0
LINE
  5
186
330
13A
100
AcDbEntity
  8
AM_7
100
AcDbLine
 10
0.0
 20
-2.75
 30
0.0
 11
0.0
 21
2.75
 31
0.0
  0
ENDBLK
  5
13D
330
13A
100
AcDbEntity
  8
0
100
AcDbBlockEnd
  0
BLOCK
  5
189
330
187
100
AcDbEntity
  8
0
100
AcDbBlockBegin
  2
6_P2b_taf_307r_0_in_037590_4
 70
     2
 10
0.0
 20
0.0
 30
0.0
  3
6_P2b_taf_307r_0_in_037590_4
  1

  0
ATTDEF
  5
18B
330
187
100
AcDbEntity
  8
AM_6
100
AcDbText
 10
12.69
 20
2.27
 30
0.0
 40
0.5
  1
2B TAF PILLOW BLOCK NON-EXPANSION TYPE-BODY
100
AcDbAttributeDefinition
  3

  2
NN
 70
     8
280
     0
  0
ATTDEF
  5
18C
330
187
100
AcDbEntity
  8
AM_6
100
AcDbText
 10
12.69
 20
1.77
 30
0.0
 40
0.5
  1
Taf Bearings
100
AcDbAttributeDefinition
  3

  2
NT
 70
     8
280
     0
  0
ATTDEF
  5
18D
330
187
100
AcDbEntity
  8
AM_6
100
AcDbText
 10
12.69
 20
1.27
 30
0.0
 40
0.5
  1
P2b-taf-307r
100
AcDbAttributeDefinition
  3

  2
NB
 70
     8
280
     0
  0
ATTDEF
  5
18E
330
187
100
AcDbEntity
  8
AM_6
100
AcDbText
 10
12.69
 20
0.77
 30
0.0
 40
0.5
  1
$PN.
100
AcDbAttributeDefinition
  3

  2
NBSYN
 70
     8
280
     0
  0
ATTDEF
  5
18F
330
187
100
AcDbEntity
  8
AM_6
100
AcDbText
 10
12.69
 20
0.27
 30
0.0
 40
0.5
  1
P2b-taf-307r
100
AcDbAttributeDefinition
  3

  2
LINA
 70
     8
280
     0
  0
ATTDEF
  5
190
330
187
100
AcDbEntity
  8
AM_6
100
AcDbText
 10
12.69
 20
-0.23
 30
0.0
 40
0.5
  1
3-7/16
100
AcDbAttributeDefinition
  3

  2
SS
 70
     8
280
     0
  0
ATTDEF
  5
191
330
187
100
AcDbEntity
  8
AM_6
100
AcDbText
 10
12.69
 20
-0.73
 30
0.0
 40
0.5
  1
520
100
AcDbAttributeDefinition
  3

  2
SERIES
 70
     8
280
     0
  0
ATTDEF
  5
192
330
187
100
AcDbEntity
  8
AM_6
100
AcDbText
 10
12.69
 20
-1.23
 30
0.0
 40
0.5
  1
P2b-taf-307r
100
AcDbAttributeDefinition
  3

  2
PN
 70
     8
280
     0
  0
ATTDEF
  5
193
330
187
100
AcDbEntity
  8
AM_6
100
AcDbText
 10
12.69
 20
-1.73
 30
0.0
 40
0.5
  1
P2b-taf-307r
100
AcDbAttributeDefinition
  3

  2
DESCRIPTION
 70
     8
280
     0
  0
ATTDEF
  5
194
330
187
100
AcDbEntity
  8
AM_6
100
AcDbText
 10
12.69
 20
-2.23
 30
0.0
 40
0.5
  1
2
100
AcDbAttributeDefinition
  3

  2
HF
 70
     8
280
     0
  0
ATTDEF
  5
195
330
187
100
AcDbEntity
  8
AM_6
100
AcDbText
 10
12.69
 20
-2.73
 30
0.0
 40
0.5
  1
Non Expansion Type
100
AcDbAttributeDefinition
  3

  2
EF
 70
     8
280
     0
  0
ATTDEF
  5
196
330
187
100
AcDbEntity
  8
AM_6
100
AcDbText
 10
12.69
 20
-3.23
 30
0.0
 40
0.5
  1
5
100
AcDbAttributeDefinition
  3

  2
A
 70
     8
280
     0
  0
ATTDEF
  5
197
330
187
100
AcDbEntity
  8
AM_6
100
AcDbText
 10
12.69
 20
-3.73
 30
0.0
 40
0.5
  1
15.38
100
AcDbAttributeDefinition
  3

  2
B
 70
     8
280
     0
  0
ATTDEF
  5
198
330
187
100
AcDbEntity
  8
AM_6
100
AcDbText
 10
12.69
 20
-4.23
 30
0.0
 40
0.5
  1
4.34
100
AcDbAttributeDefinition
  3

  2
C
 70
     8
280
     0
  0
ATTDEF
  5
199
330
187
100
AcDbEntity
  8
AM_6
100
AcDbText
 10
12.69
 20
-4.73
 30
0.0
 40
0.5
  1
11.82
100
AcDbAttributeDefinition
  3

  2
DMIN
 70
     8
280
     0
  0
ATTDEF
  5
19A
330
187
100
AcDbEntity
  8
AM_6
100
AcDbText
 10
12.69
 20
-5.23
 30
0.0
 40
0.5
  1
13.12
100
AcDbAttributeDefinition
  3

  2
DMAX
 70
     8
280
     0
  0
ATTDEF
  5
19B
330
187
100
AcDbEntity
  8
AM_6
100
AcDbText
 10
12.69
 20
-5.73
 30
0.0
 40
0.5
  1
2.38
100
AcDbAttributeDefinition
  3

  2
E
 70
     8
280
     0
  0
ATTDEF
  5
19C
330
187
100
AcDbEntity
  8
AM_6
100
AcDbText
 10
12.69
 20
-6.23
 30
0.0
 40
0.5
  1
7/8
100
AcDbAttributeDefinition
  3

  2
F
 70
     8
280
     0
  0
ATTDEF
  5
19D
330
187
100
AcDbEntity
  8
AM_6
100
AcDbText
 10
12.69
 20
-6.73
 30
0.0
 40
0.5
  1
1.65
100
AcDbAttributeDefinition
  3

  2
G
 70
     8
280
     0
  0
ATTDEF
  5
19E
330
187
100
AcDbEntity
  8
AM_6
100
AcDbText
 10
12.69
 20
-7.23
 30
0.0
 40
0.5
  1
1.66
100
AcDbAttributeDefinition
  3

  2
H
 70
     8
280
     0
  0
ATTDEF
  5
19F
330
187
100
AcDbEntity
  8
AM_6
100
AcDbText
 10
12.69
 20
-7.73
 30
0.0
 40
0.5
  1
9.42
100
AcDbAttributeDefinition
  3

  2
J
 70
     8
280
     0
  0
ATTDEF
  5
1A0
330
187
100
AcDbEntity
  8
AM_6
100
AcDbText
 10
12.69
 20
-8.23
 30
0.0
 40
0.5
  1
2.50
100
AcDbAttributeDefinition
  3

  2
K
 70
     8
280
     0
  0
ATTDEF
  5
1A1
330
187
100
AcDbEntity
  8
AM_6
100
AcDbText
 10
12.69
 20
-8.73
 30
0.0
 40
0.5
  1
2.500000
100
AcDbAttributeDefinition
  3

  2
K1
 70
     8
280
     0
  0
ATTDEF
  5
1A2
330
187
100
AcDbEntity
  8
AM_6
100
AcDbText
 10
12.69
 20
-9.23
 30
0.0
 40
0.5
  1
5.50
100
AcDbAttributeDefinition
  3

  2
L
 70
     8
280
     0
  0
ATTDEF
  5
1A3
330
187
100
AcDbEntity
  8
AM_6
100
AcDbText
 10
12.69
 20
-9.73
 30
0.0
 40
0.5
  1
4.50
100
AcDbAttributeDefinition
  3

  2
M
 70
     8
280
     0
  0
ATTDEF
  5
1A4
330
187
100
AcDbEntity
  8
AM_6
100
AcDbText
 10
12.69
 20
-10.23
 30
0.0
 40
0.5
  1
10.10
100
AcDbAttributeDefinition
  3

  2
P
 70
     8
280
     0
  0
ATTDEF
  5
1A5
330
187
100
AcDbEntity
  8
AM_6
100
AcDbText
 10
12.69
 20
-10.73
 30
0.0
 40
0.5
  1
0.28
100
AcDbAttributeDefinition
  3

  2
T
 70
     8
280
     0
  0
ATTDEF
  5
1A6
330
187
100
AcDbEntity
  8
AM_6
100
AcDbText
 10
12.69
 20
-11.23
 30
0.0
 40
0.5
  1
108600
100
AcDbAttributeDefinition
  3

  2
SC
 70
     8
280
     0
  0
ATTDEF
  5
1A7
330
187
100
AcDbEntity
  8
AM_6
100
AcDbText
 10
12.69
 20
-11.73
 30
0.0
 40
0.5
  1
15300
100
AcDbAttributeDefinition
  3

  2
DC
 70
     8
280
     0
  0
ATTDEF
  5
1A8
330
187
100
AcDbEntity
  8
AM_6
100
AcDbText
 10
12.69
 20
-12.23
 30
0.0
 40
0.5
  1
26
100
AcDbAttributeDefinition
  3

  2
RN
 70
     8
280
     0
  0
ATTDEF
  5
1A9
330
187
100
AcDbEntity
  8
AM_6
100
AcDbText
 10
12.69
 20
-12.73
 30
0.0
 40
0.5
  1
0.46
100
AcDbAttributeDefinition
  3

  2
RMD
 70
     8
280
     0
  0
ATTDEF
  5
1AA
330
187
100
AcDbEntity
  8
AM_6
100
AcDbText
 10
12.69
 20
-13.23
 30
0.0
 40
0.5
  1
4.780
100
AcDbAttributeDefinition
  3

  2
PD
 70
     8
280
     0
  0
ATTDEF
  5
1AB
330
187
100
AcDbEntity
  8
AM_6
100
AcDbText
 10
12.69
 20
-13.73
 30
0.0
 40
0.5
  1
0.008/0.012
100
AcDbAttributeDefinition
  3

  2
EP
 70
     8
280
     0
  0
ATTDEF
  5
1AC
330
187
100
AcDbEntity
  8
AM_6
100
AcDbText
 10
12.69
 20
-14.23
 30
0.0
 40
0.5
  1
1/2-13x1
100
AcDbAttributeDefinition
  3

  2
CSS
 70
     8
280
     0
  0
ATTDEF
  5
1AD
330
187
100
AcDbEntity
  8
AM_6
100
AcDbText
 10
12.69
 20
-14.73
 30
0.0
 40
0.5
  1
620
100
AcDbAttributeDefinition
  3

  2
CST
 70
     8
280
     0
  0
ATTDEF
  5
1AE
330
187
100
AcDbEntity
  8
AM_6
100
AcDbText
 10
12.69
 20
-15.23
 30
0.0
 40
0.5
  1
A48 CLASS 30
100
AcDbAttributeDefinition
  3

  2
HM
 70
     8
280
     0
  0
ATTDEF
  5
1AF
330
187
100
AcDbEntity
  8
AM_6
100
AcDbText
 10
12.69
 20
-15.73
 30
0.0
 40
0.5
  1
4118 CASE CARB.
100
AcDbAttributeDefinition
  3

  2
CM
 70
     8
280
     0
  0
ATTDEF
  5
1B0
330
187
100
AcDbEntity
  8
AM_6
100
AcDbText
 10
12.69
 20
-16.23
 30
0.0
 40
0.5
  1
4118 CASE CARB.
100
AcDbAttributeDefinition
  3

  2
CUM
 70
     8
280
     0
  0
ATTDEF
  5
1B1
330
187
100
AcDbEntity
  8
AM_6
100
AcDbText
 10
12.69
 20
-16.73
 30
0.0
 40
0.5
  1
STEEL
100
AcDbAttributeDefinition
  3

  2
RM
 70
     8
280
     0
  0
ATTDEF
  5
1B2
330
187
100
AcDbEntity
  8
AM_6
100
AcDbText
 10
12.69
 20
-17.23
 30
0.0
 40
0.5
  1
4118 CASE CARB.
100
AcDbAttributeDefinition
  3

  2
ROM
 70
     8
280
     0
  0
ATTDEF
  5
1B3
330
187
100
AcDbEntity
  8
AM_6
100
AcDbText
 10
12.69
 20
-17.73
 30
0.0
 40
0.5
  1
4.05
100
AcDbAttributeDefinition
  3

  2
SM
 70
     8
280
     0
  0
ATTDEF
  5
1B4
330
187
100
AcDbEntity
  8
AM_6
100
AcDbText
 10
12.69
 20
-18.23
 30
0.0
 40
0.5
  1
baldor
100
AcDbAttributeDefinition
  3

  2
COMPANY
 70
     8
280
     0
  0
LINE
  5
1B5
330
187
100
AcDbEntity
  8
AM_9
100
AcDbLine
 10
-4.507500000000001
 20
-2.17
 30
0.0
 11
-4.921347096529504
 21
-2.17
 31
0.0
  0
LINE
  5
1B6
330
187
100
AcDbEntity
  8
AM_9
100
AcDbLine
 10
-4.507500000000001
 20
2.169999999999999
 30
0.0
 11
-4.921347096529505
 21
2.169999999999999
 31
0.0
  0
LINE
  5
1B7
330
187
100
AcDbEntity
  8
AM_9
100
AcDbLine
 10
4.921347096529504
 20
-2.17
 30
0.0
 11
4.507500000000001
 21
-2.17
 31
0.0
  0
LINE
  5
1B8
330
187
100
AcDbEntity
  8
AM_9
100
AcDbLine
 10
4.921347096529505
 20
2.169999999999999
 30
0.0
 11
4.507500000000001
 21
2.169999999999999
 31
0.0
  0
LINE
  5
1B9
330
187
100
AcDbEntity
  8
AM_9
100
AcDbLine
 10
3.687
 20
-2.066666666666666
 30
0.0
 11
3.687
 21
2.066666666666666
 31
0.0
  0
LINE
  5
1BA
330
187
100
AcDbEntity
  8
AM_9
100
AcDbLine
 10
-3.687
 20
2.066666666666666
 30
0.0
 11
-3.687
 21
-2.066666666666666
 31
0.0
  0
LINE
  5
1BB
330
187
100
AcDbEntity
  8
AM_9
100
AcDbLine
 10
-3.919545945945945
 20
2.066666666666666
 30
0.0
 11
3.919545945937947
 21
2.066666666666666
 31
0.0
  0
ARC
  5
1BC
330
187
100
AcDbEntity
  8
AM_9
100
AcDbCircle
 10
3.919545945945948
 20
2.133066666666664
 30
0.0
 40
0.066399999999998
100
AcDbArc
 50
270.0
 51
0.0
  0
ARC
  5
1BD
330
187
100
AcDbEntity
  8
AM_9
100
AcDbCircle
 10
-3.919545945945947
 20
2.133066666666664
 30
0.0
 40
0.0663999999999985
100
AcDbArc
 50
180.0
 51
270.0
  0
LINE
  5
1BE
330
187
100
AcDbEntity
  8
AM_9
100
AcDbLine
 10
3.985945945945946
 20
2.27
 30
0.0
 11
3.985945945945946
 21
2.133066666666665
 31
0.0
  0
LINE
  5
1BF
330
187
100
AcDbEntity
  8
AM_9
100
AcDbLine
 10
-3.985945945945946
 20
2.133066666666665
 30
0.0
 11
-3.985945945945946
 21
2.27
 31
0.0
  0
LINE
  5
1C0
330
187
100
AcDbEntity
  8
AM_9
100
AcDbLine
 10
-3.985945945945946
 20
2.133066666666665
 30
0.0
 11
3.985945945945946
 21
2.133066666666665
 31
0.0
  0
LINE
  5
1C1
330
187
100
AcDbEntity
  8
AM_9
100
AcDbLine
 10
-3.985945945945946
 20
-2.27
 30
0.0
 11
-3.985945945945946
 21
-2.133066666666666
 31
0.0
  0
LINE
  5
1C2
330
187
100
AcDbEntity
  8
AM_9
100
AcDbLine
 10
3.985945945945946
 20
-2.133066666666666
 30
0.0
 11
3.985945945945946
 21
-2.27
 31
0.0
  0
LINE
  5
1C3
330
187
100
AcDbEntity
  8
AM_9
100
AcDbLine
 10
-3.985945945945946
 20
-2.133066666666666
 30
0.0
 11
3.985945945945946
 21
-2.133066666666666
 31
0.0
  0
LINE
  5
1C4
330
187
100
AcDbEntity
  8
AM_9
100
AcDbLine
 10
-3.919545945945947
 20
-2.066666666666667
 30
0.0
 11
3.919545945937948
 21
-2.066666666666667
 31
0.0
  0
ARC
  5
1C5
330
187
100
AcDbEntity
  8
AM_9
100
AcDbCircle
 10
3.919545945945948
 20
-2.133066666666665
 30
0.0
 40
0.066399999999998
100
AcDbArc
 50
0.0
 51
90.0
  0
ARC
  5
1C6
330
187
100
AcDbEntity
  8
AM_9
100
AcDbCircle
 10
-3.919545945945948
 20
-2.133066666666665
 30
0.0
 40
0.066399999999998
100
AcDbArc
 50
90.0
 51
180.0
  0
CIRCLE
  5
1C7
330
187
100
AcDbEntity
  8
AM_9
100
AcDbCircle
 10
0.0
 20
0.0000000000000003
 30
0.0
 40
1.085
  0
LINE
  5
1C8
330
187
100
AcDbEntity
  8
AM_7
100
AcDbLine
 10
3.66203125
 20
1.35625
 30
0.0
 11
4.81046875
 21
1.35625
 31
0.0
  0
LINE
  5
1C9
330
187
100
AcDbEntity
  8
AM_7
100
AcDbLine
 10
4.23625
 20
0.7820312500000004
 30
0.0
 11
4.23625
 21
1.93046875
 31
0.0
  0
LINE
  5
1CA
330
187
100
AcDbEntity
  8
AM_7
100
AcDbLine
 10
-4.81046875
 20
-1.35625
 30
0.0
 11
-3.66203125
 21
-1.35625
 31
0.0
  0
LINE
  5
1CB
330
187
100
AcDbEntity
  8
AM_7
100
AcDbLine
 10
-4.23625
 20
-1.93046875
 30
0.0
 11
-4.23625
 21
-0.7820312499999997
 31
0.0
  0
LINE
  5
1CC
330
187
100
AcDbEntity
  8
AM_7
100
AcDbLine
 10
-4.81046875
 20
1.356250000000001
 30
0.0
 11
-3.66203125
 21
1.356250000000001
 31
0.0
  0
LINE
  5
1CD
330
187
100
AcDbEntity
  8
AM_7
100
AcDbLine
 10
-4.23625
 20
0.7820312500000008
 30
0.0
 11
-4.23625
 21
1.930468750000001
 31
0.0
  0
LINE
  5
1CE
330
187
100
AcDbEntity
  8
AM_7
100
AcDbLine
 10
3.66203125
 20
-1.35625
 30
0.0
 11
4.81046875
 21
-1.35625
 31
0.0
  0
LINE
  5
1CF
330
187
100
AcDbEntity
  8
AM_7
100
AcDbLine
 10
4.23625
 20
-1.93046875
 30
0.0
 11
4.23625
 21
-0.7820312499999997
 31
0.0
  0
LINE
  5
1D0
330
187
100
AcDbEntity
  8
AM_7
100
AcDbLine
 10
-1.13925
 20
0.0000000000000003
 30
0.0
 11
1.13925
 21
0.0000000000000003
 31
0.0
  0
LINE
  5
1D1
330
187
100
AcDbEntity
  8
AM_7
100
AcDbLine
 10
-7.085
 20
0.0000000000000006
 30
0.0
 11
-5.385
 21
0.0000000000000004
 31
0.0
  0
LINE
  5
1D2
330
187
100
AcDbEntity
  8
AM_7
100
AcDbLine
 10
-5.91
 20
-0.5249999999999996
 30
0.0
 11
-5.91
 21
0.5250000000000005
 31
0.0
  0
LINE
  5
1D3
330
187
100
AcDbEntity
  8
AM_7
100
AcDbLine
 10
-6.559999999999999
 20
-0.5250000000000004
 30
0.0
 11
-6.559999999999999
 21
0.5250000000000015
 31
0.0
  0
LINE
  5
1D4
330
187
100
AcDbEntity
  8
AM_7
100
AcDbLine
 10
5.385
 20
-0.0000000000000004
 30
0.0
 11
7.085000000000001
 21
-0.0000000000000001
 31
0.0
  0
LINE
  5
1D5
330
187
100
AcDbEntity
  8
AM_7
100
AcDbLine
 10
6.56
 20
-0.5250000000000001
 30
0.0
 11
6.56
 21
0.5249999999999999
 31
0.0
  0
LINE
  5
1D6
330
187
100
AcDbEntity
  8
AM_7
100
AcDbLine
 10
5.91
 20
-0.5250000000000004
 30
0.0
 11
5.91
 21
0.5249999999999997
 31
0.0
  0
LINE
  5
1D7
330
187
100
AcDbEntity
  8
AM_4
100
AcDbLine
 10
-7.69
 20
-1.736
 30
0.0
 11
-7.256
 21
-2.17
 31
0.0
  0
LINE
  5
1D8
330
187
100
AcDbEntity
  8
AM_4
100
AcDbLine
 10
-7.256
 20
2.169999999999999
 30
0.0
 11
-7.69
 21
1.736
 31
0.0
  0
LINE
  5
1D9
330
187
100
AcDbEntity
  8
AM_4
100
AcDbLine
 10
-7.69
 20
-1.736
 30
0.0
 11
-7.69
 21
1.736
 31
0.0
  0
LINE
  5
1DA
330
187
100
AcDbEntity
  8
AM_4
100
AcDbLine
 10
-4.921347096529504
 20
-2.17
 30
0.0
 11
-7.256
 21
-2.17
 31
0.0
  0
LINE
  5
1DB
330
187
100
AcDbEntity
  8
AM_4
100
AcDbLine
 10
-4.921347096529505
 20
2.169999999999999
 30
0.0
 11
-7.256
 21
2.169999999999999
 31
0.0
  0
LINE
  5
1DC
330
187
100
AcDbEntity
  8
AM_4
100
AcDbLine
 10
-5.910000000000001
 20
0.5000000000000012
 30
0.0
 11
-6.559999999999999
 21
0.5000000000000008
 31
0.0
  0
ARC
  5
1DD
330
187
100
AcDbEntity
  8
AM_4
100
AcDbCircle
 10
-5.91
 20
0.0000000000000005
 30
0.0
 40
0.5000000000000002
100
AcDbArc
 50
270.0
 51
90.0
  0
LINE
  5
1DE
330
187
100
AcDbEntity
  8
AM_4
100
AcDbLine
 10
-6.559999999999999
 20
-0.4999999999999996
 30
0.0
 11
-5.91
 21
-0.4999999999999997
 31
0.0
  0
ARC
  5
1DF
330
187
100
AcDbEntity
  8
AM_4
100
AcDbCircle
 10
-6.559999999999999
 20
0.0000000000000006
 30
0.0
 40
0.5000000000000002
100
AcDbArc
 50
90.0
 51
270.0
  0
LINE
  5
1E0
330
187
100
AcDbEntity
  8
AM_4
100
AcDbLine
 10
-7.358
 20
-2.068
 30
0.0
 11
-7.358
 21
2.068
 31
0.0
  0
LINE
  5
1E1
330
187
100
AcDbEntity
  8
AM_4
100
AcDbLine
 10
7.69
 20
1.736
 30
0.0
 11
7.256
 21
2.169999999999999
 31
0.0
  0
LINE
  5
1E2
330
187
100
AcDbEntity
  8
AM_4
100
AcDbLine
 10
7.256
 20
-2.17
 30
0.0
 11
7.69
 21
-1.736
 31
0.0
  0
LINE
  5
1E3
330
187
100
AcDbEntity
  8
AM_4
100
AcDbLine
 10
7.69
 20
-1.736
 30
0.0
 11
7.69
 21
1.736
 31
0.0
  0
LINE
  5
1E4
330
187
100
AcDbEntity
  8
AM_4
100
AcDbLine
 10
7.256
 20
-2.17
 30
0.0
 11
4.921347096529504
 21
-2.17
 31
0.0
  0
LINE
  5
1E5
330
187
100
AcDbEntity
  8
AM_4
100
AcDbLine
 10
7.256
 20
2.169999999999999
 30
0.0
 11
4.921347096529505
 21
2.169999999999999
 31
0.0
  0
LINE
  5
1E6
330
187
100
AcDbEntity
  8
AM_4
100
AcDbLine
 10
6.56
 20
0.5000000000000003
 30
0.0
 11
5.910000000000001
 21
0.5
 31
0.0
  0
ARC
  5
1E7
330
187
100
AcDbEntity
  8
AM_4
100
AcDbCircle
 10
6.56
 20
0.0000000000000001
 30
0.0
 40
0.5000000000000006
100
AcDbArc
 50
270.0
 51
90.0
  0
LINE
  5
1E8
330
187
100
AcDbEntity
  8
AM_4
100
AcDbLine
 10
5.910000000000001
 20
-0.5000000000000008
 30
0.0
 11
6.56
 21
-0.5000000000000004
 31
0.0
  0
ARC
  5
1E9
330
187
100
AcDbEntity
  8
AM_4
100
AcDbCircle
 10
5.91
 20
-0.0000000000000004
 30
0.0
 40
0.5000000000000004
100
AcDbArc
 50
90.0
 51
270.0
  0
LINE
  5
1EA
330
187
100
AcDbEntity
  8
AM_4
100
AcDbLine
 10
7.358000000000003
 20
-2.067999999999997
 30
0.0
 11
7.358000000000003
 21
2.067999999999997
 31
0.0
  0
LINE
  5
1EB
330
187
100
AcDbEntity
  8
AM_4
100
AcDbLine
 10
3.964283047917104
 20
-2.27
 30
0.0
 11
4.6075
 21
-2.27
 31
0.0
  0
ARC
  5
1EC
330
187
100
AcDbEntity
  8
AM_4
100
AcDbCircle
 10
4.607499999999999
 20
-1.7275
 30
0.0
 40
0.5425
100
AcDbArc
 50
270.0
 51
0.0
  0
LINE
  5
1ED
330
187
100
AcDbEntity
  8
AM_4
100
AcDbLine
 10
5.149999999999999
 20
-1.7275
 30
0.0
 11
5.149999999999999
 21
-1.085
 31
0.0
  0
ARC
  5
1EE
330
187
100
AcDbEntity
  8
AM_4
100
AcDbCircle
 10
4.607500000000003
 20
-1.084999999999998
 30
0.0
 40
0.542499999999996
100
AcDbArc
 50
0.0
 51
65.57836192088433
  0
ARC
  5
1EF
330
187
100
AcDbEntity
  8
AM_4
100
AcDbCircle
 10
4.914485402263411
 20
-0.4089332778510909
 30
0.0
 40
0.2000000000000008
100
AcDbArc
 50
209.3223153475255
 51
245.5783553886085
  0
ARC
  5
1F0
330
187
100
AcDbEntity
  8
AM_4
100
AcDbCircle
 10
5.642531220388317
 20
0.0000000000000009
 30
0.0
 40
1.035031220388318
100
AcDbArc
 50
150.677680756772
 51
209.3223194315966
  0
ARC
  5
1F1
330
187
100
AcDbEntity
  8
AM_4
100
AcDbCircle
 10
4.914485402263409
 20
0.4089332778510848
 30
0.0
 40
0.2000000000000037
100
AcDbArc
 50
114.4216409058675
 51
150.6776856273096
  0
ARC
  5
1F2
330
187
100
AcDbEntity
  8
AM_4
100
AcDbCircle
 10
4.607500000000009
 20
1.084999999999994
 30
0.0
 40
0.5424999999999909
100
AcDbArc
 50
294.4216394452067
 51
0.0
  0
LINE
  5
1F3
330
187
100
AcDbEntity
  8
AM_4
100
AcDbLine
 10
5.149999999999999
 20
1.084999999999998
 30
0.0
 11
5.149999999999999
 21
1.7275
 31
0.0
  0
ARC
  5
1F4
330
187
100
AcDbEntity
  8
AM_4
100
AcDbCircle
 10
4.607500000000001
 20
1.727500000000001
 30
0.0
 40
0.5424999999999986
100
AcDbArc
 50
0.0
 51
90.0
  0
LINE
  5
1F5
330
187
100
AcDbEntity
  8
AM_4
100
AcDbLine
 10
4.607500000000001
 20
2.27
 30
0.0
 11
3.964283047917104
 21
2.27
 31
0.0
  0
ARC
  5
1F6
330
187
100
AcDbEntity
  8
AM_4
100
AcDbCircle
 10
-4.607500000000002
 20
-1.727500000000002
 30
0.0
 40
0.5424999999999978
100
AcDbArc
 50
180.0
 51
270.0
  0
LINE
  5
1F7
330
187
100
AcDbEntity
  8
AM_4
100
AcDbLine
 10
-5.149999999999999
 20
-1.084999999999999
 30
0.0
 11
-5.149999999999999
 21
-1.727500000000001
 31
0.0
  0
LINE
  5
1F8
330
187
100
AcDbEntity
  8
AM_4
100
AcDbLine
 10
-4.607500000000001
 20
-2.27
 30
0.0
 11
-3.964283047917104
 21
-2.27
 31
0.0
  0
LINE
  5
1F9
330
187
100
AcDbEntity
  8
AM_4
100
AcDbLine
 10
-3.964283047917104
 20
2.27
 30
0.0
 11
-4.6075
 21
2.27
 31
0.0
  0
ARC
  5
1FA
330
187
100
AcDbEntity
  8
AM_4
100
AcDbCircle
 10
-4.607500000000002
 20
1.727500000000002
 30
0.0
 40
0.5424999999999982
100
AcDbArc
 50
90.0
 51
180.0
  0
LINE
  5
1FB
330
187
100
AcDbEntity
  8
AM_4
100
AcDbLine
 10
-5.149999999999999
 20
1.727500000000001
 30
0.0
 11
-5.149999999999999
 21
1.085
 31
0.0
  0
ARC
  5
1FC
330
187
100
AcDbEntity
  8
AM_4
100
AcDbCircle
 10
-4.607499999999991
 20
1.085000000000005
 30
0.0
 40
0.5425000000000084
100
AcDbArc
 50
180.0
 51
245.578360161348
  0
ARC
  5
1FD
330
187
100
AcDbEntity
  8
AM_4
100
AcDbCircle
 10
-4.91448540226341
 20
0.4089332778510882
 30
0.0
 40
0.2000000000000008
100
AcDbArc
 50
29.3223204097809
 51
65.57836016134878
  0
ARC
  5
1FE
330
187
100
AcDbEntity
  8
AM_4
100
AcDbCircle
 10
-5.642531220388316
 20
-0.0000000000000007
 30
0.0
 40
1.035031220388317
100
AcDbArc
 50
330.6776807567719
 51
29.32232040978058
  0
ARC
  5
1FF
330
187
100
AcDbEntity
  8
AM_4
100
AcDbCircle
 10
-4.914485402263399
 20
-0.4089332778510981
 30
0.0
 40
0.1999999999999869
100
AcDbArc
 50
294.4216409058664
 51
330.6776856273111
  0
ARC
  5
200
330
187
100
AcDbEntity
  8
AM_4
100
AcDbCircle
 10
-4.607500000000006
 20
-1.084999999999995
 30
0.0
 40
0.542499999999993
100
AcDbArc
 50
114.4216394452069
 51
180.0
  0
LINE
  5
201
330
187
100
AcDbEntity
  8
AM_4
100
AcDbLine
 10
4.507500000000001
 20
2.17
 30
0.0
 11
-4.5075
 21
2.17
 31
0.0
  0
LINE
  5
202
330
187
100
AcDbEntity
  8
AM_4
100
AcDbLine
 10
4.5075
 20
-2.169999999999999
 30
0.0
 11
-4.507500000000001
 21
-2.169999999999999
 31
0.0
  0
ARC
  5
203
330
187
100
AcDbEntity
  8
AM_4
100
AcDbCircle
 10
-4.507500000000002
 20
1.627500000000002
 30
0.0
 40
0.5424999999999982
100
AcDbArc
 50
90.0
 51
180.0
  0
LINE
  5
204
330
187
100
AcDbEntity
  8
AM_4
100
AcDbLine
 10
-5.05
 20
-1.627500000000001
 30
0.0
 11
-5.05
 21
-1.085
 31
0.0
  0
LINE
  5
205
330
187
100
AcDbEntity
  8
AM_4
100
AcDbLine
 10
-5.05
 20
1.085
 30
0.0
 11
-5.05
 21
1.627500000000001
 31
0.0
  0
ARC
  5
206
330
187
100
AcDbEntity
  8
AM_4
100
AcDbCircle
 10
-4.507500000000003
 20
1.084999999999998
 30
0.0
 40
0.5424999999999969
100
AcDbArc
 50
180.0
 51
239.9999999999999
  0
ARC
  5
207
330
187
100
AcDbEntity
  8
AM_4
100
AcDbCircle
 10
-4.507500000000004
 20
-1.084999999999998
 30
0.0
 40
0.5424999999999961
100
AcDbArc
 50
120.0000000000002
 51
180.0
  0
ARC
  5
208
330
187
100
AcDbEntity
  8
AM_4
100
AcDbCircle
 10
-5.340724873787764
 20
0.0
 30
0.0
 40
0.8332248737877647
100
AcDbArc
 50
312.4120462260057
 51
47.58795377399417
  0
ARC
  5
209
330
187
100
AcDbEntity
  8
AM_4
100
AcDbCircle
 10
-4.507500000000004
 20
-1.627500000000002
 30
0.0
 40
0.542499999999996
100
AcDbArc
 50
180.0
 51
270.0
  0
ARC
  5
20A
330
187
100
AcDbEntity
  8
AM_4
100
AcDbCircle
 10
5.340724873787764
 20
0.0
 30
0.0
 40
0.8332248737877647
100
AcDbArc
 50
132.4120462260057
 51
227.5879537739941
  0
ARC
  5
20B
330
187
100
AcDbEntity
  8
AM_4
100
AcDbCircle
 10
4.507500000000006
 20
-1.084999999999997
 30
0.0
 40
0.5424999999999942
100
AcDbArc
 50
0.0
 51
60.00000000000018
  0
LINE
  5
20C
330
187
100
AcDbEntity
  8
AM_4
100
AcDbLine
 10
5.05
 20
1.085
 30
0.0
 11
5.05
 21
1.6275
 31
0.0
  0
ARC
  5
20D
330
187
100
AcDbEntity
  8
AM_4
100
AcDbCircle
 10
4.507500000000002
 20
1.627500000000002
 30
0.0
 40
0.5424999999999978
100
AcDbArc
 50
0.0
 51
90.0
  0
ARC
  5
20E
330
187
100
AcDbEntity
  8
AM_4
100
AcDbCircle
 10
4.507500000000002
 20
-1.627500000000001
 30
0.0
 40
0.5424999999999982
100
AcDbArc
 50
270.0
 51
0.0
  0
LINE
  5
20F
330
187
100
AcDbEntity
  8
AM_4
100
AcDbLine
 10
5.05
 20
-1.627500000000001
 30
0.0
 11
5.05
 21
-1.085
 31
0.0
  0
ARC
  5
210
330
187
100
AcDbEntity
  8
AM_4
100
AcDbCircle
 10
4.507500000000001
 20
1.084999999999999
 30
0.0
 40
0.5424999999999985
100
AcDbArc
 50
300.0000000000004
 51
0.0
  0
CIRCLE
  5
211
330
187
100
AcDbEntity
  8
AM_4
100
AcDbCircle
 10
4.23625
 20
1.35625
 30
0.0
 40
0.546875
  0
CIRCLE
  5
212
330
187
100
AcDbEntity
  8
AM_4
100
AcDbCircle
 10
-4.23625
 20
-1.35625
 30
0.0
 40
0.546875
  0
CIRCLE
  5
213
330
187
100
AcDbEntity
  8
AM_4
100
AcDbCircle
 10
-4.23625
 20
1.356250000000001
 30
0.0
 40
0.546875
  0
CIRCLE
  5
214
330
187
100
AcDbEntity
  8
AM_4
100
AcDbCircle
 10
4.23625
 20
-1.35625
 30
0.0
 40
0.546875
  0
LINE
  5
215
330
187
100
AcDbEntity
  8
AM_4
100
AcDbLine
 10
3.983659257229539
 20
-0.9187499999999998
 30
0.0
 11
3.731068514459077
 21
-1.35625
 31
0.0
  0
LINE
  5
216
330
187
100
AcDbEntity
  8
AM_4
100
AcDbLine
 10
3.731068514459077
 20
-1.35625
 30
0.0
 11
3.983659257229539
 21
-1.79375
 31
0.0
  0
LINE
  5
217
330
187
100
AcDbEntity
  8
AM_4
100
AcDbLine
 10
3.983659257229539
 20
-1.79375
 30
0.0
 11
4.488840742770462
 21
-1.79375
 31
0.0
  0
LINE
  5
218
330
187
100
AcDbEntity
  8
AM_4
100
AcDbLine
 10
4.488840742770462
 20
-1.79375
 30
0.0
 11
4.741431485540923
 21
-1.35625
 31
0.0
  0
LINE
  5
219
330
187
100
AcDbEntity
  8
AM_4
100
AcDbLine
 10
4.741431485540923
 20
-1.35625
 30
0.0
 11
4.488840742770462
 21
-0.9187499999999998
 31
0.0
  0
LINE
  5
21A
330
187
100
AcDbEntity
  8
AM_4
100
AcDbLine
 10
4.488840742770462
 20
-0.9187499999999998
 30
0.0
 11
3.983659257229539
 21
-0.9187499999999998
 31
0.0
  0
LINE
  5
21B
330
187
100
AcDbEntity
  8
AM_4
100
AcDbLine
 10
3.983659257229539
 20
0.9187500000000007
 30
0.0
 11
4.488840742770462
 21
0.9187500000000003
 31
0.0
  0
LINE
  5
21C
330
187
100
AcDbEntity
  8
AM_4
100
AcDbLine
 10
3.731068514459077
 20
1.356250000000001
 30
0.0
 11
3.983659257229539
 21
0.9187500000000007
 31
0.0
  0
LINE
  5
21D
330
187
100
AcDbEntity
  8
AM_4
100
AcDbLine
 10
3.983659257229539
 20
1.79375
 30
0.0
 11
3.731068514459077
 21
1.356250000000001
 31
0.0
  0
LINE
  5
21E
330
187
100
AcDbEntity
  8
AM_4
100
AcDbLine
 10
4.488840742770462
 20
0.9187500000000003
 30
0.0
 11
4.741431485540923
 21
1.35625
 31
0.0
  0
LINE
  5
21F
330
187
100
AcDbEntity
  8
AM_4
100
AcDbLine
 10
4.741431485540923
 20
1.35625
 30
0.0
 11
4.488840742770462
 21
1.79375
 31
0.0
  0
LINE
  5
220
330
187
100
AcDbEntity
  8
AM_4
100
AcDbLine
 10
4.488840742770462
 20
1.79375
 30
0.0
 11
3.983659257229539
 21
1.79375
 31
0.0
  0
LINE
  5
221
330
187
100
AcDbEntity
  8
AM_4
100
AcDbLine
 10
-4.741431485540923
 20
-1.35625
 30
0.0
 11
-4.488840742770461
 21
-1.79375
 31
0.0
  0
LINE
  5
222
330
187
100
AcDbEntity
  8
AM_4
100
AcDbLine
 10
-4.488840742770461
 20
-1.79375
 30
0.0
 11
-3.983659257229538
 21
-1.79375
 31
0.0
  0
LINE
  5
223
330
187
100
AcDbEntity
  8
AM_4
100
AcDbLine
 10
-4.48884074277046
 20
-0.9187499999999998
 30
0.0
 11
-4.741431485540923
 21
-1.35625
 31
0.0
  0
LINE
  5
224
330
187
100
AcDbEntity
  8
AM_4
100
AcDbLine
 10
-3.983659257229538
 20
-1.79375
 30
0.0
 11
-3.731068514459076
 21
-1.35625
 31
0.0
  0
LINE
  5
225
330
187
100
AcDbEntity
  8
AM_4
100
AcDbLine
 10
-3.731068514459076
 20
-1.35625
 30
0.0
 11
-3.983659257229538
 21
-0.9187499999999998
 31
0.0
  0
LINE
  5
226
330
187
100
AcDbEntity
  8
AM_4
100
AcDbLine
 10
-3.983659257229538
 20
-0.9187499999999998
 30
0.0
 11
-4.48884074277046
 21
-0.9187499999999998
 31
0.0
  0
LINE
  5
227
330
187
100
AcDbEntity
  8
AM_4
100
AcDbLine
 10
-3.731068514459076
 20
1.356250000000001
 30
0.0
 11
-3.983659257229538
 21
1.793750000000001
 31
0.0
  0
LINE
  5
228
330
187
100
AcDbEntity
  8
AM_4
100
AcDbLine
 10
-4.488840742770461
 20
0.9187500000000011
 30
0.0
 11
-3.983659257229538
 21
0.9187500000000007
 31
0.0
  0
LINE
  5
229
330
187
100
AcDbEntity
  8
AM_4
100
AcDbLine
 10
-3.983659257229538
 20
0.9187500000000007
 30
0.0
 11
-3.731068514459076
 21
1.356250000000001
 31
0.0
  0
LINE
  5
22A
330
187
100
AcDbEntity
  8
AM_4
100
AcDbLine
 10
-4.741431485540923
 20
1.356250000000001
 30
0.0
 11
-4.488840742770461
 21
0.9187500000000011
 31
0.0
  0
LINE
  5
22B
330
187
100
AcDbEntity
  8
AM_4
100
AcDbLine
 10
-4.48884074277046
 20
1.793750000000001
 30
0.0
 11
-4.741431485540923
 21
1.356250000000001
 31
0.0
  0
LINE
  5
22C
330
187
100
AcDbEntity
  8
AM_4
100
AcDbLine
 10
-3.983659257229538
 20
1.793750000000001
 30
0.0
 11
-4.48884074277046
 21
1.793750000000001
 31
0.0
  0
LINE
  5
22D
330
187
100
AcDbEntity
  8
AM_4
100
AcDbLine
 10
-3.964283047917104
 20
2.169999999999999
 30
0.0
 11
-3.964283047917104
 21
2.27
 31
0.0
  0
LINE
  5
22E
330
187
100
AcDbEntity
  8
AM_4
100
AcDbLine
 10
3.964283047917104
 20
2.27
 30
0.0
 11
3.964283047917104
 21
2.169999999999999
 31
0.0
  0
LINE
  5
22F
330
187
100
AcDbEntity
  8
AM_4
100
AcDbLine
 10
-3.964283047917104
 20
-2.27
 30
0.0
 11
-3.964283047917104
 21
-2.17
 31
0.0
  0
LINE
  5
230
330
187
100
AcDbEntity
  8
AM_4
100
AcDbLine
 10
3.964283047917104
 20
-2.17
 30
0.0
 11
3.964283047917104
 21
-2.27
 31
0.0
  0
LINE
  5
231
330
187
100
AcDbEntity
  8
AM_4
100
AcDbLine
 10
3.383674946329212
 20
-2.169999999999999
 30
0.0
 11
3.66715146843105
 21
-1.395599457429457
 31
0.0
  0
LINE
  5
232
330
187
100
AcDbEntity
  8
AM_4
100
AcDbLine
 10
3.667151468431049
 20
1.39559945742946
 30
0.0
 11
3.383674946329212
 21
2.17
 31
0.0
  0
LINE
  5
233
330
187
100
AcDbEntity
  8
AM_4
100
AcDbLine
 10
1.683333333333333
 20
-1.395599457429457
 30
0.0
 11
3.66715146843105
 21
-1.395599457429457
 31
0.0
  0
LINE
  5
234
330
187
100
AcDbEntity
  8
AM_4
100
AcDbLine
 10
3.66715146843105
 20
-1.395599457429457
 30
0.0
 11
3.667151468431049
 21
1.39559945742946
 31
0.0
  0
LINE
  5
235
330
187
100
AcDbEntity
  8
AM_4
100
AcDbLine
 10
1.683333333333333
 20
1.395599457429458
 30
0.0
 11
3.667151468431049
 21
1.39559945742946
 31
0.0
  0
LINE
  5
236
330
187
100
AcDbEntity
  8
AM_4
100
AcDbLine
 10
-3.383674946329212
 20
2.17
 30
0.0
 11
-3.667151468431049
 21
1.395599457429458
 31
0.0
  0
LINE
  5
237
330
187
100
AcDbEntity
  8
AM_4
100
AcDbLine
 10
-3.667151468431049
 20
1.395599457429458
 30
0.0
 11
-1.683333333333333
 21
1.395599457429458
 31
0.0
  0
LINE
  5
238
330
187
100
AcDbEntity
  8
AM_4
100
AcDbLine
 10
-3.667151468431049
 20
1.395599457429458
 30
0.0
 11
-3.66715146843105
 21
-1.395599457429457
 31
0.0
  0
LINE
  5
239
330
187
100
AcDbEntity
  8
AM_4
100
AcDbLine
 10
-3.66715146843105
 20
-1.395599457429457
 30
0.0
 11
-1.683333333333333
 21
-1.395599457429457
 31
0.0
  0
LINE
  5
23A
330
187
100
AcDbEntity
  8
AM_4
100
AcDbLine
 10
-3.66715146843105
 20
-1.395599457429457
 30
0.0
 11
-3.383674946329212
 21
-2.169999999999999
 31
0.0
  0
LINE
  5
23B
330
187
100
AcDbEntity
  8
AM_4
100
AcDbLine
 10
-1.683333333333333
 20
-2.169999999999999
 30
0.0
 11
-1.683333333333334
 21
2.17
 31
0.0
  0
LINE
  5
23C
330
187
100
AcDbEntity
  8
AM_4
100
AcDbLine
 10
-1.475833333333333
 20
-1.9625
 30
0.0
 11
-1.475833333333335
 21
1.962500000000001
 31
0.0
  0
LINE
  5
23D
330
187
100
AcDbEntity
  8
AM_4
100
AcDbLine
 10
1.475833333333335
 20
-1.9625
 30
0.0
 11
-1.475833333333333
 21
-1.9625
 31
0.0
  0
LINE
  5
23E
330
187
100
AcDbEntity
  8
AM_4
100
AcDbLine
 10
-1.683333333333334
 20
-2.169999999999999
 30
0.0
 11
-1.475833344481667
 21
-1.962500011148332
 31
0.0
  0
LINE
  5
23F
330
187
100
AcDbEntity
  8
AM_4
100
AcDbLine
 10
-1.475833333333335
 20
1.962500000000001
 30
0.0
 11
-1.683333333333334
 21
2.17
 31
0.0
  0
LINE
  5
240
330
187
100
AcDbEntity
  8
AM_4
100
AcDbLine
 10
1.475833333333335
 20
1.962500000000001
 30
0.0
 11
-1.475833333333335
 21
1.962500000000001
 31
0.0
  0
LINE
  5
241
330
187
100
AcDbEntity
  8
AM_4
100
AcDbLine
 10
1.475833333333335
 20
-1.9625
 30
0.0
 11
1.475833333333335
 21
1.962500000000001
 31
0.0
  0
LINE
  5
242
330
187
100
AcDbEntity
  8
AM_4
100
AcDbLine
 10
1.475833333333335
 20
-1.9625
 30
0.0
 11
1.683333333333334
 21
-2.169999999999999
 31
0.0
  0
LINE
  5
243
330
187
100
AcDbEntity
  8
AM_4
100
AcDbLine
 10
1.683333333333333
 20
-2.169999999999999
 30
0.0
 11
1.683333333333333
 21
2.17
 31
0.0
  0
LINE
  5
244
330
187
100
AcDbEntity
  8
AM_4
100
AcDbLine
 10
1.683333333333334
 20
2.17
 30
0.0
 11
1.475833333333336
 21
1.962500000000002
 31
0.0
  0
ARC
  5
245
330
187
100
AcDbEntity
  8
AM_4
100
AcDbCircle
 10
-0.2524999999999991
 20
0.2524999999999995
 30
0.0
 40
1.010000000000001
100
AcDbArc
 50
90.0
 51
180.0
  0
LINE
  5
246
330
187
100
AcDbEntity
  8
AM_4
100
AcDbLine
 10
-1.2625
 20
0.2525000150501724
 30
0.0
 11
-1.2625
 21
-1.0605
 31
0.0
  0
ARC
  5
247
330
187
100
AcDbEntity
  8
AM_4
100
AcDbCircle
 10
-1.0605
 20
-1.0605
 30
0.0
 40
0.202
100
AcDbArc
 50
180.0
 51
270.0
  0
LINE
  5
248
330
187
100
AcDbEntity
  8
AM_4
100
AcDbLine
 10
-1.0605
 20
-1.2625
 30
0.0
 11
0.2525000000000002
 21
-1.2625
 31
0.0
  0
ARC
  5
249
330
187
100
AcDbEntity
  8
AM_4
100
AcDbCircle
 10
0.2525
 20
-0.2524999999999999
 30
0.0
 40
1.01
100
AcDbArc
 50
270.0
 51
0.0
  0
LINE
  5
24A
330
187
100
AcDbEntity
  8
AM_4
100
AcDbLine
 10
1.2625
 20
-0.2524999999999994
 30
0.0
 11
1.2625
 21
1.0605
 31
0.0
  0
ARC
  5
24B
330
187
100
AcDbEntity
  8
AM_4
100
AcDbCircle
 10
1.0605
 20
1.0605
 30
0.0
 40
0.2020000000000004
100
AcDbArc
 50
0.0
 51
90.0
  0
LINE
  5
24C
330
187
100
AcDbEntity
  8
AM_4
100
AcDbLine
 10
1.0605
 20
1.2625
 30
0.0
 11
-0.2525000000000002
 21
1.2625
 31
0.0
  0
LINE
  5
24D
330
187
100
AcDbEntity
  8
AM_4
100
AcDbLine
 10
-1.1625
 20
-1.004764973081037
 30
0.0
 11
-1.1625
 21
-1.120235026918962
 31
0.0
  0
LINE
  5
24E
330
187
100
AcDbEntity
  8
AM_4
100
AcDbLine
 10
-1.1625
 20
-1.120235026918962
 30
0.0
 11
-1.0625
 21
-1.177970053837925
 31
0.0
  0
LINE
  5
24F
330
187
100
AcDbEntity
  8
AM_4
100
AcDbLine
 10
-1.0625
 20
-1.177970053837925
 30
0.0
 11
-0.9625
 21
-1.120235026918962
 31
0.0
  0
LINE
  5
250
330
187
100
AcDbEntity
  8
AM_4
100
AcDbLine
 10
-0.9625
 20
-1.120235026918962
 30
0.0
 11
-0.9625
 21
-1.004764973081037
 31
0.0
  0
LINE
  5
251
330
187
100
AcDbEntity
  8
AM_4
100
AcDbLine
 10
-0.9625
 20
-1.004764973081037
 30
0.0
 11
-1.0625
 21
-0.9470299461620745
 31
0.0
  0
LINE
  5
252
330
187
100
AcDbEntity
  8
AM_4
100
AcDbLine
 10
-1.0625
 20
-0.9470299461620745
 30
0.0
 11
-1.1625
 21
-1.004764973081037
 31
0.0
  0
LINE
  5
253
330
187
100
AcDbEntity
  8
AM_4
100
AcDbLine
 10
0.9625
 20
1.120235026918963
 30
0.0
 11
0.9625
 21
1.004764973081038
 31
0.0
  0
LINE
  5
254
330
187
100
AcDbEntity
  8
AM_4
100
AcDbLine
 10
0.9625
 20
1.004764973081038
 30
0.0
 11
1.0625
 21
0.947029946162075
 31
0.0
  0
LINE
  5
255
330
187
100
AcDbEntity
  8
AM_4
100
AcDbLine
 10
1.0625
 20
0.947029946162075
 30
0.0
 11
1.1625
 21
1.004764973081038
 31
0.0
  0
LINE
  5
256
330
187
100
AcDbEntity
  8
AM_4
100
AcDbLine
 10
1.1625
 20
1.004764973081038
 30
0.0
 11
1.1625
 21
1.120235026918963
 31
0.0
  0
LINE
  5
257
330
187
100
AcDbEntity
  8
AM_4
100
AcDbLine
 10
1.1625
 20
1.120235026918963
 30
0.0
 11
1.0625
 21
1.177970053837925
 31
0.0
  0
LINE
  5
258
330
187
100
AcDbEntity
  8
AM_4
100
AcDbLine
 10
1.0625
 20
1.177970053837925
 30
0.0
 11
0.9625
 21
1.120235026918963
 31
0.0
  0
ENDBLK
  5
18A
330
187
100
AcDbEntity
  8
0
100
AcDbBlockEnd
  0
ENDSEC
  0
SECTION
  2
ENTITIES
  0
INSERT
  5
6F
330
1F
100
AcDbEntity
  8
0
100
AcDbBlockReference
  2
1_037590_4
 10
0.0
 20
0.0
 30
0.0
  0
POINT
  5
25A
330
1F
100
AcDbEntity
  8
ConnectionPoints
100
AcDbPoint
 10
0.0
 20
-2.5
 30
0.0000000000000002
  0
POINT
  5
25B
330
1F
100
AcDbEntity
  8
ConnectionPoints
100
AcDbPoint
 10
0.0
 20
0.0000000000000003
 30
4.125
  0
POINT
  5
25C
330
1F
100
AcDbEntity
  8
ConnectionPoints
100
AcDbPoint
 10
0.0
 20
0.0
 30
0.0
  0
POINT
  5
25D
330
1F
100
AcDbEntity
  8
ConnectionPoints
100
AcDbPoint
 10
0.0
 20
-2.5
 30
0.0000000000000002
  0
POINT
  5
25E
330
1F
100
AcDbEntity
  8
ConnectionPoints
100
AcDbPoint
 10
0.0
 20
2.5
 30
-0.0000000000000002
  0
POINT
  5
25F
330
1F
100
AcDbEntity
  8
ConnectionPoints
100
AcDbPoint
 10
0.0
 20
0.0000000000000003
 30
4.125
  0
POINT
  5
260
330
1F
100
AcDbEntity
  8
ConnectionPoints
100
AcDbPoint
 10
0.0
 20
0.0000000000000003
 30
4.125
  0
POINT
  5
261
330
1F
100
AcDbEntity
  8
ConnectionPoints
100
AcDbPoint
 10
0.0
 20
0.0
 30
0.0
  0
ENDSEC
  0
SECTION
  2
OBJECTS
  0
DICTIONARY
  5
C
330
0
100
AcDbDictionary
281
     1
  3
ACAD_DETAILVIEWSTYLE
350
269
  3
ACAD_GROUP
350
D
  3
ACAD_LAYOUT
350
1A
  3
ACAD_MATERIAL
350
43
  3
ACAD_MLEADERSTYLE
350
6B
  3
ACAD_MLINESTYLE
350
17
  3
ACAD_PLOTSETTINGS
350
19
  3
ACAD_PLOTSTYLENAME
350
E
  3
ACAD_SCALELIST
350
47
  3
ACAD_SECTIONVIEWSTYLE
350
26A
  3
ACAD_TABLESTYLE
350
69
  3
ACAD_VISUALSTYLE
350
2A
  3
ACDB_RECOMPOSE_DATA
350
266
  3
AcDbVariableDictionary
350
262
  0
SUN
  5
6D
330
29
100
AcDbSun
 90
        1
290
     0
 63
     7
421
 16777215
 40
1.0
291
     1
 91
  2455826
 92
 54000000
292
     0
 70
     2
 71
   256
280
     1
  0
DICTIONARY
  5
269
102
{ACAD_REACTORS
330
C
102
}
330
C
100
AcDbDictionary
281
     1
  0
DICTIONARY
  5
D
102
{ACAD_REACTORS
330
C
102
}
330
C
100
AcDbDictionary
281
     1
  0
DICTIONARY
  5
1A
102
{ACAD_REACTORS
330
C
102
}
330
C
100
AcDbDictionary
281
     1
  3
Layout1
350
1E
  3
Layout2
350
26
  3
Model
350
22
  0
DICTIONARY
  5
43
102
{ACAD_REACTORS
330
C
102
}
330
C
100
AcDbDictionary
281
     1
  3
ByBlock
350
45
  3
ByLayer
350
44
  3
Global
350
46
  0
DICTIONARY
  5
6B
102
{ACAD_REACTORS
330
C
102
}
330
C
100
AcDbDictionary
281
     1
  3
Standard
350
6C
  0
DICTIONARY
  5
17
102
{ACAD_REACTORS
330
C
102
}
330
C
100
AcDbDictionary
281
     1
  3
Standard
350
18
  0
DICTIONARY
  5
19
102
{ACAD_REACTORS
330
C
102
}
330
C
100
AcDbDictionary
281
     1
  0
ACDBDICTIONARYWDFLT
  5
E
102
{ACAD_REACTORS
330
C
102
}
330
C
100
AcDbDictionary
281
     1
  3
Normal
350
F
100
AcDbDictionaryWithDefault
340
F
  0
DICTIONARY
  5
47
102
{ACAD_REACTORS
330
C
102
}
330
C
100
AcDbDictionary
281
     1
  3
A0
350
48
  3
A1
350
49
  3
A2
350
4A
  3
A3
350
4B
  3
A4
350
4C
  3
A5
350
4D
  3
A6
350
4E
  3
A7
350
4F
  3
A8
350
50
  3
A9
350
51
  3
B0
350
52
  3
B1
350
53
  3
B2
350
54
  3
B3
350
55
  3
B4
350
56
  3
B5
350
57
  3
B6
350
58
  3
B7
350
59
  3
B8
350
5A
  3
B9
350
5B
  3
C0
350
5C
  3
C1
350
5D
  3
C2
350
5E
  3
C3
350
5F
  3
C4
350
60
  3
C5
350
61
  3
C6
350
62
  3
C7
350
63
  3
C8
350
64
  3
C9
350
65
  3
D0
350
66
  3
D1
350
67
  3
D2
350
68
  0
DICTIONARY
  5
26A
102
{ACAD_REACTORS
330
C
102
}
330
C
100
AcDbDictionary
281
     1
  0
DICTIONARY
  5
69
102
{ACAD_REACTORS
330
C
102
}
330
C
100
AcDbDictionary
281
     1
  3
Standard
350
6A
  0
DICTIONARY
  5
2A
102
{ACAD_REACTORS
330
C
102
}
330
C
100
AcDbDictionary
281
     1
  3
2dWireframe
350
2F
  3
Basic
350
32
  3
Brighten
350
36
  3
ColorChange
350
3A
  3
Conceptual
350
34
  3
Dim
350
35
  3
EdgeColorOff
350
3D
  3
Facepattern
350
39
  3
Flat
350
2B
  3
FlatWithEdges
350
2C
  3
Gouraud
350
2D
  3
GouraudWithEdges
350
2E
  3
Hidden
350
31
  3
JitterOff
350
3B
  3
Linepattern
350
38
  3
OverhangOff
350
3C
  3
Realistic
350
33
  3
Shaded
350
42
  3
Shaded with edges
350
41
  3
Shades of Gray
350
3E
  3
Sketchy
350
3F
  3
Thicken
350
37
  3
Wireframe
350
30
  3
X-Ray
350
40
  0
XRECORD
  5
266
102
{ACAD_REACTORS
330
C
102
}
330
C
100
AcDbXrecord
280
     1
 90
        1
330
6A
  0
DICTIONARY
  5
262
102
{ACAD_REACTORS
330
C
102
}
330
C
100
AcDbDictionary
281
     1
  3
CANNOSCALE
350
263
  3
CMLEADERSTYLE
350
268
  3
CTABLESTYLE
350
267
  0
LAYOUT
  5
1E
102
{ACAD_REACTORS
330
1A
102
}
330
1A
100
AcDbPlotSettings
  1

  2
none_device
  4

  6

 40
0.0
 41
0.0
 42
0.0
 43
0.0
 44
0.0
 45
0.0
 46
0.0
 47
0.0
 48
0.0
 49
0.0
140
0.0
141
0.0
142
1.0
143
1.0
 70
   688
 72
     0
 73
     0
 74
     5
  7

 75
    16
 76
     0
 77
     2
 78
   300
147
1.0
148
0.0
149
0.0
100
AcDbLayout
  1
Layout1
 70
     1
 71
     1
 10
0.0
 20
0.0
 11
12.0
 21
9.0
 12
0.0
 22
0.0
 32
0.0
 14
1.000000000000000E+20
 24
1.000000000000000E+20
 34
1.000000000000000E+20
 15
-1.000000000000000E+20
 25
-1.000000000000000E+20
 35
-1.000000000000000E+20
146
0.0
 13
0.0
 23
0.0
 33
0.0
 16
1.0
 26
0.0
 36
0.0
 17
0.0
 27
1.0
 37
0.0
 76
     0
330
1B
  0
LAYOUT
  5
26
102
{ACAD_REACTORS
330
1A
102
}
330
1A
100
AcDbPlotSettings
  1

  2
none_device
  4

  6

 40
0.0
 41
0.0
 42
0.0
 43
0.0
 44
0.0
 45
0.0
 46
0.0
 47
0.0
 48
0.0
 49
0.0
140
0.0
141
0.0
142
1.0
143
1.0
 70
   688
 72
     0
 73
     0
 74
     5
  7

 75
    16
 76
     0
 77
     2
 78
   300
147
1.0
148
0.0
149
0.0
100
AcDbLayout
  1
Layout2
 70
     1
 71
     2
 10
0.0
 20
0.0
 11
0.0
 21
0.0
 12
0.0
 22
0.0
 32
0.0
 14
0.0
 24
0.0
 34
0.0
 15
0.0
 25
0.0
 35
0.0
146
0.0
 13
0.0
 23
0.0
 33
0.0
 16
1.0
 26
0.0
 36
0.0
 17
0.0
 27
1.0
 37
0.0
 76
     0
330
23
  0
LAYOUT
  5
22
102
{ACAD_REACTORS
330
1A
102
}
330
1A
100
AcDbPlotSettings
  1

  2
none_device
  4
Letter_(8.50_x_11.00_Inches)
  6

 40
6.35
 41
6.35
 42
6.35000508
 43
6.35000508
 44
215.9
 45
279.4
 46
0.0
 47
0.0
 48
0.0
 49
0.0
140
0.0
141
0.0
142
1.0
143
1.0
 70
  1712
 72
     0
 73
     0
 74
     0
  7

 75
     0
 76
     0
 77
     2
 78
   300
147
1.0
148
0.0
149
0.0
100
AcDbLayout
  1
Model
 70
     1
 71
     0
 10
0.0
 20
0.0
 11
12.0
 21
9.0
 12
0.0
 22
0.0
 32
0.0
 14
1.000000000000000E+20
 24
1.000000000000000E+20
 34
1.000000000000000E+20
 15
-1.000000000000000E+20
 25
-1.000000000000000E+20
 35
-1.000000000000000E+20
146
0.0
 13
0.0
 23
0.0
 33
0.0
 16
1.0
 26
0.0
 36
0.0
 17
0.0
 27
1.0
 37
0.0
 76
     0
330
1F
331
29
  0
MATERIAL
  5
45
102
{ACAD_REACTORS
330
43
102
}
330
43
100
AcDbMaterial
  1
ByBlock
 72
     1
 94
      127
  0
MATERIAL
  5
44
102
{ACAD_REACTORS
330
43
102
}
330
43
100
AcDbMaterial
  1
ByLayer
 72
     1
 94
      127
  0
MATERIAL
  5
46
102
{ACAD_REACTORS
330
43
102
}
330
43
100
AcDbMaterial
  1
Global
 72
     1
 94
      127
  0
MLEADERSTYLE
  5
6C
102
{ACAD_REACTORS
330
6B
102
}
330
6B
100
AcDbMLeaderStyle
179
     2
170
     2
171
     1
172
     0
 90
        2
 40
0.0
 41
0.0
173
     1
 91
-1056964608
340
14
 92
       -2
290
     1
 42
0.09
291
     1
 43
0.36
  3
Standard
341
0
 44
0.18
300

342
11
174
     1
178
     6
175
     1
176
     0
 93
-1056964608
 45
0.18
292
     0
297
     0
 46
0.18
343
0
 94
-1056964608
 47
1.0
 49
1.0
140
1.0
293
     1
141
0.0
294
     1
177
     0
142
1.0
295
     0
296
     0
143
0.125
271
     0
272
     9
273
     9
298
     0
  0
MLINESTYLE
  5
18
102
{ACAD_REACTORS
330
17
102
}
330
17
100
AcDbMlineStyle
  2
Standard
 70
     0
  3

 62
   256
 51
90.0
 52
90.0
 71
     2
 49
0.5
 62
   256
  6
BYLAYER
 49
-0.5
 62
   256
  6
BYLAYER
  0
ACDBPLACEHOLDER
  5
F
102
{ACAD_REACTORS
330
E
102
}
330
E
  0
SCALE
  5
48
102
{ACAD_REACTORS
330
47
102
}
330
47
100
AcDbScale
 70
     0
300
1:1
140
1.0
141
1.0
290
     1
  0
SCALE
  5
49
102
{ACAD_REACTORS
330
47
102
}
330
47
100
AcDbScale
 70
     0
300
1:2
140
1.0
141
2.0
290
     0
  0
SCALE
  5
4A
102
{ACAD_REACTORS
330
47
102
}
330
47
100
AcDbScale
 70
     0
300
1:4
140
1.0
141
4.0
290
     0
  0
SCALE
  5
4B
102
{ACAD_REACTORS
330
47
102
}
330
47
100
AcDbScale
 70
     0
300
1:5
140
1.0
141
5.0
290
     0
  0
SCALE
  5
4C
102
{ACAD_REACTORS
330
47
102
}
330
47
100
AcDbScale
 70
     0
300
1:8
140
1.0
141
8.0
290
     0
  0
SCALE
  5
4D
102
{ACAD_REACTORS
330
47
102
}
330
47
100
AcDbScale
 70
     0
300
1:10
140
1.0
141
10.0
290
     0
  0
SCALE
  5
4E
102
{ACAD_REACTORS
330
47
102
}
330
47
100
AcDbScale
 70
     0
300
1:16
140
1.0
141
16.0
290
     0
  0
SCALE
  5
4F
102
{ACAD_REACTORS
330
47
102
}
330
47
100
AcDbScale
 70
     0
300
1:20
140
1.0
141
20.0
290
     0
  0
SCALE
  5
50
102
{ACAD_REACTORS
330
47
102
}
330
47
100
AcDbScale
 70
     0
300
1:30
140
1.0
141
30.0
290
     0
  0
SCALE
  5
51
102
{ACAD_REACTORS
330
47
102
}
330
47
100
AcDbScale
 70
     0
300
1:40
140
1.0
141
40.0
290
     0
  0
SCALE
  5
52
102
{ACAD_REACTORS
330
47
102
}
330
47
100
AcDbScale
 70
     0
300
1:50
140
1.0
141
50.0
290
     0
  0
SCALE
  5
53
102
{ACAD_REACTORS
330
47
102
}
330
47
100
AcDbScale
 70
     0
300
1:100
140
1.0
141
100.0
290
     0
  0
SCALE
  5
54
102
{ACAD_REACTORS
330
47
102
}
330
47
100
AcDbScale
 70
     0
300
2:1
140
2.0
141
1.0
290
     0
  0
SCALE
  5
55
102
{ACAD_REACTORS
330
47
102
}
330
47
100
AcDbScale
 70
     0
300
4:1
140
4.0
141
1.0
290
     0
  0
SCALE
  5
56
102
{ACAD_REACTORS
330
47
102
}
330
47
100
AcDbScale
 70
     0
300
8:1
140
8.0
141
1.0
290
     0
  0
SCALE
  5
57
102
{ACAD_REACTORS
330
47
102
}
330
47
100
AcDbScale
 70
     0
300
10:1
140
10.0
141
1.0
290
     0
  0
SCALE
  5
58
102
{ACAD_REACTORS
330
47
102
}
330
47
100
AcDbScale
 70
     0
300
100:1
140
100.0
141
1.0
290
     0
  0
SCALE
  5
59
102
{ACAD_REACTORS
330
47
102
}
330
47
100
AcDbScale
 70
     0
300
1/128" = 1'-0"
140
0.0078125
141
12.0
290
     0
  0
SCALE
  5
5A
102
{ACAD_REACTORS
330
47
102
}
330
47
100
AcDbScale
 70
     0
300
1/64" = 1'-0"
140
0.015625
141
12.0
290
     0
  0
SCALE
  5
5B
102
{ACAD_REACTORS
330
47
102
}
330
47
100
AcDbScale
 70
     0
300
1/32" = 1'-0"
140
0.03125
141
12.0
290
     0
  0
SCALE
  5
5C
102
{ACAD_REACTORS
330
47
102
}
330
47
100
AcDbScale
 70
     0
300
1/16" = 1'-0"
140
0.0625
141
12.0
290
     0
  0
SCALE
  5
5D
102
{ACAD_REACTORS
330
47
102
}
330
47
100
AcDbScale
 70
     0
300
3/32" = 1'-0"
140
0.09375
141
12.0
290
     0
  0
SCALE
  5
5E
102
{ACAD_REACTORS
330
47
102
}
330
47
100
AcDbScale
 70
     0
300
1/8" = 1'-0"
140
0.125
141
12.0
290
     0
  0
SCALE
  5
5F
102
{ACAD_REACTORS
330
47
102
}
330
47
100
AcDbScale
 70
     0
300
3/16" = 1'-0"
140
0.1875
141
12.0
290
     0
  0
SCALE
  5
60
102
{ACAD_REACTORS
330
47
102
}
330
47
100
AcDbScale
 70
     0
300
1/4" = 1'-0"
140
0.25
141
12.0
290
     0
  0
SCALE
  5
61
102
{ACAD_REACTORS
330
47
102
}
330
47
100
AcDbScale
 70
     0
300
3/8" = 1'-0"
140
0.375
141
12.0
290
     0
  0
SCALE
  5
62
102
{ACAD_REACTORS
330
47
102
}
330
47
100
AcDbScale
 70
     0
300
1/2" = 1'-0"
140
0.5
141
12.0
290
     0
  0
SCALE
  5
63
102
{ACAD_REACTORS
330
47
102
}
330
47
100
AcDbScale
 70
     0
300
3/4" = 1'-0"
140
0.75
141
12.0
290
     0
  0
SCALE
  5
64
102
{ACAD_REACTORS
330
47
102
}
330
47
100
AcDbScale
 70
     0
300
1" = 1'-0"
140
1.0
141
12.0
290
     0
  0
SCALE
  5
65
102
{ACAD_REACTORS
330
47
102
}
330
47
100
AcDbScale
 70
     0
300
1-1/2" = 1'-0"
140
1.5
141
12.0
290
     0
  0
SCALE
  5
66
102
{ACAD_REACTORS
330
47
102
}
330
47
100
AcDbScale
 70
     0
300
3" = 1'-0"
140
3.0
141
12.0
290
     0
  0
SCALE
  5
67
102
{ACAD_REACTORS
330
47
102
}
330
47
100
AcDbScale
 70
     0
300
6" = 1'-0"
140
6.0
141
12.0
290
     0
  0
SCALE
  5
68
102
{ACAD_REACTORS
330
47
102
}
330
47
100
AcDbScale
 70
     0
300
1'-0" = 1'-0"
140
12.0
141
12.0
290
     0
  0
TABLESTYLE
  5
6A
102
{ACAD_REACTORS
330
69
102
}
102
{ACAD_XDICTIONARY
360
264
102
}
330
69
100
AcDbTableStyle
  3
Standard
 70
     0
 71
     0
 40
0.06
 41
0.06
280
     0
281
     0
  7
Standard
140
0.18
170
     2
 62
     0
 63
   257
283
     0
 90
        4
 91
        0
  1

274
    -2
284
     1
 64
     0
275
    -2
285
     1
 65
     0
276
    -2
286
     1
 66
     0
277
    -2
287
     1
 67
     0
278
    -2
288
     1
 68
     0
279
    -2
289
     1
 69
     0
  7
Standard
140
0.25
170
     5
 62
     0
 63
   257
283
     0
 90
        4
 91
        0
  1

274
    -2
284
     1
 64
     0
275
    -2
285
     1
 65
     0
276
    -2
286
     1
 66
     0
277
    -2
287
     1
 67
     0
278
    -2
288
     1
 68
     0
279
    -2
289
     1
 69
     0
  7
Standard
140
0.18
170
     5
 62
     0
 63
   257
283
     0
 90
        4
 91
        0
  1

274
    -2
284
     1
 64
     0
275
    -2
285
     1
 65
     0
276
    -2
286
     1
 66
     0
277
    -2
287
     1
 67
     0
278
    -2
288
     1
 68
     0
279
    -2
289
     1
 69
     0
  0
VISUALSTYLE
  5
2F
102
{ACAD_REACTORS
330
2A
102
}
330
2A
100
AcDbVisualStyle
  2
2dWireframe
 70
     4
177
     3
291
     0
 70
    58
 90
        0
176
     1
 90
        2
176
     1
 90
        0
176
     1
 90
        0
176
     1
 40
0.6
176
     1
 40
30.0
176
     1
 62
     7
420
 16777215
176
     1
 90
        1
176
     1
 90
        4
176
     1
 62
     7
176
     1
 62
   257
176
     1
 90
        1
176
     1
 90
        1
176
     1
 40
1.0
176
     1
 90
        0
176
     1
 62
   257
176
     1
 40
1.0
176
     1
 90
        1
176
     1
 90
        6
176
     1
 90
        2
176
     1
 62
     7
176
     1
 90
        5
176
     1
 90
        0
176
     1
 90
        0
176
     1
290
     0
176
     1
 90
        1
176
     1
 40
0.0
176
     1
 90
        0
176
     1
290
     1
176
     1
290
     1
176
     1
290
     0
176
     1
290
     0
176
     1
290
     0
176
     1
290
     0
176
     1
290
     0
176
     1
290
     0
176
     1
290
     0
176
     1
 90
       50
176
     1
 40
0.0
176
     1
 40
1.0
176
     1
 90
        0
176
     1
 62
    18
420
        0
176
     1
 90
       50
176
     1
 90
        3
176
     1
 62
     5
420
      255
176
     1
290
     0
176
     1
 90
       50
176
     1
 90
       50
176
     1
 90
       50
176
     1
290
     0
176
     1
 90
       50
176
     1
 62
   256
176
     0
 40
1.0
176
     0
 90
        2
176
     1
  1
strokes_ogs.tif
176
     1
290
     0
176
     1
 40
1.0
176
     1
 40
1.0
176
     1
  0
VISUALSTYLE
  5
32
102
{ACAD_REACTORS
330
2A
102
}
330
2A
100
AcDbVisualStyle
  2
Basic
 70
     7
177
     3
291
     1
 70
    58
 90
        1
176
     1
 90
        0
176
     1
 90
        1
176
     1
 90
        0
176
     1
 40
0.6
176
     1
 40
30.0
176
     1
 62
     7
420
 16777215
176
     1
 90
        0
176
     1
 90
        4
176
     1
 62
     7
176
     1
 62
   257
176
     1
 90
        1
176
     1
 90
        1
176
     1
 40
1.0
176
     1
 90
        8
176
     1
 62
     7
176
     1
 40
1.0
176
     1
 90
        1
176
     1
 90
        6
176
     1
 90
        2
176
     1
 62
     7
176
     1
 90
        5
176
     1
 90
        0
176
     1
 90
        0
176
     1
290
     0
176
     1
 90
        1
176
     1
 40
0.0
176
     1
 90
        0
176
     1
290
     0
176
     1
290
     1
176
     1
290
     1
176
     1
290
     0
176
     1
290
     0
176
     1
290
     0
176
     1
290
     0
176
     1
290
     0
176
     1
290
     0
176
     1
 90
       50
176
     1
 40
0.0
176
     1
 40
1.0
176
     1
 90
        0
176
     1
 62
    18
420
        0
176
     1
 90
       50
176
     1
 90
        3
176
     1
 62
     5
420
      255
176
     1
290
     0
176
     1
 90
       50
176
     1
 90
       50
176
     1
 90
       50
176
     1
290
     0
176
     1
 90
       50
176
     1
 62
   256
176
     0
 40
1.0
176
     0
 90
        2
176
     1
  1
strokes_ogs.tif
176
     1
290
     0
176
     1
 40
1.0
176
     1
 40
1.0
176
     1
  0
VISUALSTYLE
  5
36
102
{ACAD_REACTORS
330
2A
102
}
330
2A
100
AcDbVisualStyle
  2
Brighten
 70
    12
177
     3
291
     1
 70
    58
 90
        2
176
     1
 90
        2
176
     1
 90
        0
176
     1
 90
        0
176
     1
 40
0.6
176
     1
 40
30.0
176
     1
 62
     7
420
 16777215
176
     1
 90
        1
176
     1
 90
        4
176
     1
 62
     7
176
     1
 62
   257
176
     1
 90
        1
176
     1
 90
        1
176
     1
 40
1.0
176
     1
 90
        8
176
     1
 62
     7
176
     1
 40
1.0
176
     1
 90
        1
176
     1
 90
        6
176
     1
 90
        2
176
     1
 62
     7
176
     1
 90
        5
176
     1
 90
        0
176
     1
 90
        0
176
     1
290
     0
176
     1
 90
        1
176
     1
 40
50.0
176
     1
 90
        0
176
     1
290
     0
176
     1
290
     1
176
     1
290
     1
176
     1
290
     0
176
     1
290
     0
176
     1
290
     0
176
     1
290
     0
176
     1
290
     0
176
     1
290
     0
176
     1
 90
       50
176
     1
 40
0.0
176
     1
 40
1.0
176
     1
 90
        0
176
     1
 62
    18
420
        0
176
     1
 90
       50
176
     1
 90
        3
176
     1
 62
     5
420
      255
176
     1
290
     0
176
     1
 90
       50
176
     1
 90
       50
176
     1
 90
       50
176
     1
290
     0
176
     1
 90
       50
176
     1
 62
   256
176
     0
 40
1.0
176
     0
 90
        2
176
     1
  1
strokes_ogs.tif
176
     1
290
     0
176
     1
 40
1.0
176
     1
 40
1.0
176
     1
  0
VISUALSTYLE
  5
3A
102
{ACAD_REACTORS
330
2A
102
}
330
2A
100
AcDbVisualStyle
  2
ColorChange
 70
    16
177
     3
291
     1
 70
    58
 90
        2
176
     1
 90
        2
176
     1
 90
        3
176
     1
 90
        0
176
     1
 40
0.6
176
     1
 40
30.0
176
     1
 62
     8
420
  8421504
176
     1
 90
        1
176
     1
 90
        4
176
     1
 62
     7
176
     1
 62
   257
176
     1
 90
        1
176
     1
 90
        1
176
     1
 40
1.0
176
     1
 90
        8
176
     1
 62
     8
420
  8421504
176
     1
 40
1.0
176
     1
 90
        1
176
     1
 90
        6
176
     1
 90
        2
176
     1
 62
     7
176
     1
 90
        5
176
     1
 90
        0
176
     1
 90
        0
176
     1
290
     0
176
     1
 90
        1
176
     1
 40
0.0
176
     1
 90
        0
176
     1
290
     0
176
     1
290
     1
176
     1
290
     1
176
     1
290
     0
176
     1
290
     0
176
     1
290
     0
176
     1
290
     0
176
     1
290
     0
176
     1
290
     0
176
     1
 90
       50
176
     1
 40
0.0
176
     1
 40
1.0
176
     1
 90
        0
176
     1
 62
    18
420
        0
176
     1
 90
       50
176
     1
 90
        3
176
     1
 62
     5
420
      255
176
     1
290
     0
176
     1
 90
       50
176
     1
 90
       50
176
     1
 90
       50
176
     1
290
     0
176
     1
 90
       50
176
     1
 62
   256
176
     0
 40
1.0
176
     0
 90
        2
176
     1
  1
strokes_ogs.tif
176
     1
290
     0
176
     1
 40
1.0
176
     1
 40
1.0
176
     1
  0
VISUALSTYLE
  5
34
102
{ACAD_REACTORS
330
2A
102
}
330
2A
100
AcDbVisualStyle
  2
Conceptual
 70
     9
177
     3
291
     0
 70
    58
 90
        3
176
     1
 90
        2
176
     1
 90
        0
176
     1
 90
        0
176
     1
 40
0.6
176
     1
 40
30.0
176
     1
 62
     7
420
 16777215
176
     1
 90
        2
176
     1
 90
        2
176
     1
 62
     7
176
     1
 62
   257
176
     1
 90
        1
176
     1
 90
        1
176
     1
 40
179.0
176
     1
 90
        8
176
     1
 62
     7
176
     1
 40
1.0
176
     1
 90
        1
176
     1
 90
        6
176
     1
 90
        2
176
     1
 62
     7
176
     1
 90
        3
176
     1
 90
        0
176
     1
 90
        0
176
     1
290
     0
176
     1
 90
        1
176
     1
 40
0.0
176
     1
 90
        0
176
     1
290
     0
176
     1
290
     1
176
     1
290
     1
176
     1
290
     0
176
     1
290
     0
176
     1
290
     0
176
     1
290
     0
176
     1
290
     0
176
     1
290
     0
176
     1
 90
       50
176
     1
 40
0.0
176
     1
 40
1.0
176
     1
 90
        0
176
     1
 62
    18
420
        0
176
     1
 90
       50
176
     1
 90
        3
176
     1
 62
     5
420
      255
176
     1
290
     0
176
     1
 90
       50
176
     1
 90
       50
176
     1
 90
       50
176
     1
290
     0
176
     1
 90
       50
176
     1
 62
   256
176
     0
 40
1.0
176
     0
 90
        2
176
     1
  1
strokes_ogs.tif
176
     1
290
     0
176
     1
 40
1.0
176
     1
 40
1.0
176
     1
  0
VISUALSTYLE
  5
35
102
{ACAD_REACTORS
330
2A
102
}
330
2A
100
AcDbVisualStyle
  2
Dim
 70
    11
177
     3
291
     1
 70
    58
 90
        2
176
     1
 90
        2
176
     1
 90
        0
176
     1
 90
        0
176
     1
 40
0.6
176
     1
 40
30.0
176
     1
 62
     7
420
 16777215
176
     1
 90
        1
176
     1
 90
        4
176
     1
 62
     7
176
     1
 62
   257
176
     1
 90
        1
176
     1
 90
        1
176
     1
 40
1.0
176
     1
 90
        8
176
     1
 62
     7
176
     1
 40
1.0
176
     1
 90
        1
176
     1
 90
        6
176
     1
 90
        2
176
     1
 62
     7
176
     1
 90
        5
176
     1
 90
        0
176
     1
 90
        0
176
     1
290
     0
176
     1
 90
        1
176
     1
 40
-50.0
176
     1
 90
        0
176
     1
290
     0
176
     1
290
     1
176
     1
290
     1
176
     1
290
     0
176
     1
290
     0
176
     1
290
     0
176
     1
290
     0
176
     1
290
     0
176
     1
290
     0
176
     1
 90
       50
176
     1
 40
0.0
176
     1
 40
1.0
176
     1
 90
        0
176
     1
 62
    18
420
        0
176
     1
 90
       50
176
     1
 90
        3
176
     1
 62
     5
420
      255
176
     1
290
     0
176
     1
 90
       50
176
     1
 90
       50
176
     1
 90
       50
176
     1
290
     0
176
     1
 90
       50
176
     1
 62
   256
176
     0
 40
1.0
176
     0
 90
        2
176
     1
  1
strokes_ogs.tif
176
     1
290
     0
176
     1
 40
1.0
176
     1
 40
1.0
176
     1
  0
VISUALSTYLE
  5
3D
102
{ACAD_REACTORS
330
2A
102
}
330
2A
100
AcDbVisualStyle
  2
EdgeColorOff
 70
    22
177
     3
291
     1
 70
    58
 90
        2
176
     0
 90
        2
176
     0
 90
        0
176
     0
 90
        0
176
     0
 40
0.6
176
     0
 40
30.0
176
     0
 62
     7
420
 16777215
176
     0
 90
        1
176
     0
 90
        4
176
     0
 62
     7
176
     0
 62
   257
176
     0
 90
        1
176
     0
 90
        1
176
     0
 40
1.0
176
     0
 90
        8
176
     2
 62
     7
176
     0
 40
1.0
176
     0
 90
        1
176
     0
 90
        6
176
     0
 90
        2
176
     0
 62
     7
176
     0
 90
        5
176
     0
 90
        0
176
     0
 90
        0
176
     0
290
     0
176
     0
 90
        1
176
     0
 40
0.0
176
     0
 90
        0
176
     0
290
     0
176
     0
290
     1
176
     0
290
     1
176
     0
290
     0
176
     0
290
     0
176
     0
290
     0
176
     0
290
     0
176
     0
290
     0
176
     0
290
     0
176
     0
 90
       50
176
     0
 40
0.0
176
     0
 40
1.0
176
     0
 90
        0
176
     0
 62
    18
420
        0
176
     0
 90
       50
176
     0
 90
        3
176
     0
 62
     5
420
      255
176
     0
290
     0
176
     0
 90
       50
176
     0
 90
       50
176
     0
 90
       50
176
     0
290
     0
176
     0
 90
       50
176
     0
 62
   256
176
     0
 40
1.0
176
     0
 90
        2
176
     0
  1
strokes_ogs.tif
176
     0
290
     0
176
     0
 40
1.0
176
     0
 40
1.0
176
     0
  0
VISUALSTYLE
  5
39
102
{ACAD_REACTORS
330
2A
102
}
330
2A
100
AcDbVisualStyle
  2
Facepattern
 70
    15
177
     3
291
     1
 70
    58
 90
        2
176
     1
 90
        2
176
     1
 90
        0
176
     1
 90
        0
176
     1
 40
0.6
176
     1
 40
30.0
176
     1
 62
     7
420
 16777215
176
     1
 90
        1
176
     1
 90
        4
176
     1
 62
     7
176
     1
 62
   257
176
     1
 90
        1
176
     1
 90
        1
176
     1
 40
1.0
176
     1
 90
        8
176
     1
 62
     7
176
     1
 40
1.0
176
     1
 90
        1
176
     1
 90
        6
176
     1
 90
        2
176
     1
 62
     7
176
     1
 90
        5
176
     1
 90
        0
176
     1
 90
        0
176
     1
290
     0
176
     1
 90
        1
176
     1
 40
0.0
176
     1
 90
        0
176
     1
290
     0
176
     1
290
     1
176
     1
290
     1
176
     1
290
     0
176
     1
290
     0
176
     1
290
     0
176
     1
290
     0
176
     1
290
     0
176
     1
290
     0
176
     1
 90
       50
176
     1
 40
0.0
176
     1
 40
1.0
176
     1
 90
        0
176
     1
 62
    18
420
        0
176
     1
 90
       50
176
     1
 90
        3
176
     1
 62
     5
420
      255
176
     1
290
     0
176
     1
 90
       50
176
     1
 90
       50
176
     1
 90
       50
176
     1
290
     0
176
     1
 90
       50
176
     1
 62
   256
176
     0
 40
1.0
176
     0
 90
        2
176
     1
  1
strokes_ogs.tif
176
     1
290
     0
176
     1
 40
1.0
176
     1
 40
1.0
176
     1
  0
VISUALSTYLE
  5
2B
102
{ACAD_REACTORS
330
2A
102
}
330
2A
100
AcDbVisualStyle
  2
Flat
 70
     0
177
     3
291
     1
 70
    58
 90
        2
176
     1
 90
        1
176
     1
 90
        1
176
     1
 90
        2
176
     1
 40
0.6
176
     1
 40
30.0
176
     1
 62
     7
420
 16777215
176
     1
 90
        0
176
     1
 90
        0
176
     1
 62
     7
176
     1
 62
   257
176
     1
 90
        1
176
     1
 90
        1
176
     1
 40
1.0
176
     1
 90
        8
176
     1
 62
     7
176
     1
 40
1.0
176
     1
 90
        1
176
     1
 90
        6
176
     1
 90
        2
176
     1
 62
     7
176
     1
 90
        5
176
     1
 90
        0
176
     1
 90
        0
176
     1
290
     0
176
     1
 90
       13
176
     1
 40
0.0
176
     1
 90
        0
176
     1
290
     0
176
     1
290
     1
176
     1
290
     1
176
     1
290
     0
176
     1
290
     0
176
     1
290
     0
176
     1
290
     0
176
     1
290
     0
176
     1
290
     0
176
     1
 90
       50
176
     1
 40
0.0
176
     1
 40
1.0
176
     1
 90
        0
176
     1
 62
    18
420
        0
176
     1
 90
       50
176
     1
 90
        3
176
     1
 62
     5
420
      255
176
     1
290
     0
176
     1
 90
       50
176
     1
 90
       50
176
     1
 90
       50
176
     1
290
     0
176
     1
 90
       50
176
     1
 62
   256
176
     0
 40
1.0
176
     0
 90
        2
176
     1
  1
strokes_ogs.tif
176
     1
290
     0
176
     1
 40
1.0
176
     1
 40
1.0
176
     1
  0
VISUALSTYLE
  5
2C
102
{ACAD_REACTORS
330
2A
102
}
330
2A
100
AcDbVisualStyle
  2
FlatWithEdges
 70
     1
177
     3
291
     1
 70
    58
 90
        2
176
     1
 90
        1
176
     1
 90
        1
176
     1
 90
        2
176
     1
 40
0.6
176
     1
 40
30.0
176
     1
 62
     7
420
 16777215
176
     1
 90
        1
176
     1
 90
        0
176
     1
 62
     7
176
     1
 62
   257
176
     1
 90
        1
176
     1
 90
        1
176
     1
 40
1.0
176
     1
 90
        0
176
     1
 62
   257
176
     1
 40
1.0
176
     1
 90
        1
176
     1
 90
        6
176
     1
 90
        2
176
     1
 62
     7
176
     1
 90
        5
176
     1
 90
        0
176
     1
 90
        0
176
     1
290
     0
176
     1
 90
       13
176
     1
 40
0.0
176
     1
 90
        0
176
     1
290
     0
176
     1
290
     1
176
     1
290
     1
176
     1
290
     0
176
     1
290
     0
176
     1
290
     0
176
     1
290
     0
176
     1
290
     0
176
     1
290
     0
176
     1
 90
       50
176
     1
 40
0.0
176
     1
 40
1.0
176
     1
 90
        0
176
     1
 62
    18
420
        0
176
     1
 90
       50
176
     1
 90
        3
176
     1
 62
     5
420
      255
176
     1
290
     0
176
     1
 90
       50
176
     1
 90
       50
176
     1
 90
       50
176
     1
290
     0
176
     1
 90
       50
176
     1
 62
   256
176
     0
 40
1.0
176
     0
 90
        2
176
     1
  1
strokes_ogs.tif
176
     1
290
     0
176
     1
 40
1.0
176
     1
 40
1.0
176
     1
  0
VISUALSTYLE
  5
2D
102
{ACAD_REACTORS
330
2A
102
}
330
2A
100
AcDbVisualStyle
  2
Gouraud
 70
     2
177
     3
291
     1
 70
    58
 90
        2
176
     1
 90
        2
176
     1
 90
        1
176
     1
 90
        2
176
     1
 40
0.6
176
     1
 40
30.0
176
     1
 62
     7
420
 16777215
176
     1
 90
        0
176
     1
 90
        0
176
     1
 62
     7
176
     1
 62
   257
176
     1
 90
        1
176
     1
 90
        1
176
     1
 40
1.0
176
     1
 90
        0
176
     1
 62
     7
176
     1
 40
1.0
176
     1
 90
        1
176
     1
 90
        6
176
     1
 90
        2
176
     1
 62
     7
176
     1
 90
        5
176
     1
 90
        0
176
     1
 90
        0
176
     1
290
     0
176
     1
 90
       13
176
     1
 40
0.0
176
     1
 90
        0
176
     1
290
     0
176
     1
290
     1
176
     1
290
     1
176
     1
290
     0
176
     1
290
     0
176
     1
290
     0
176
     1
290
     0
176
     1
290
     0
176
     1
290
     0
176
     1
 90
       50
176
     1
 40
0.0
176
     1
 40
1.0
176
     1
 90
        0
176
     1
 62
    18
420
        0
176
     1
 90
       50
176
     1
 90
        3
176
     1
 62
     5
420
      255
176
     1
290
     0
176
     1
 90
       50
176
     1
 90
       50
176
     1
 90
       50
176
     1
290
     0
176
     1
 90
       50
176
     1
 62
   256
176
     0
 40
1.0
176
     0
 90
        2
176
     1
  1
strokes_ogs.tif
176
     1
290
     0
176
     1
 40
1.0
176
     1
 40
1.0
176
     1
  0
VISUALSTYLE
  5
2E
102
{ACAD_REACTORS
330
2A
102
}
330
2A
100
AcDbVisualStyle
  2
GouraudWithEdges
 70
     3
177
     3
291
     1
 70
    58
 90
        2
176
     1
 90
        2
176
     1
 90
        1
176
     1
 90
        2
176
     1
 40
0.6
176
     1
 40
30.0
176
     1
 62
     7
420
 16777215
176
     1
 90
        1
176
     1
 90
        0
176
     1
 62
     7
176
     1
 62
   257
176
     1
 90
        1
176
     1
 90
        1
176
     1
 40
1.0
176
     1
 90
        0
176
     1
 62
   257
176
     1
 40
1.0
176
     1
 90
        1
176
     1
 90
        6
176
     1
 90
        2
176
     1
 62
     7
176
     1
 90
        5
176
     1
 90
        0
176
     1
 90
        0
176
     1
290
     0
176
     1
 90
       13
176
     1
 40
0.0
176
     1
 90
        0
176
     1
290
     0
176
     1
290
     1
176
     1
290
     1
176
     1
290
     0
176
     1
290
     0
176
     1
290
     0
176
     1
290
     0
176
     1
290
     0
176
     1
290
     0
176
     1
 90
       50
176
     1
 40
0.0
176
     1
 40
1.0
176
     1
 90
        0
176
     1
 62
    18
420
        0
176
     1
 90
       50
176
     1
 90
        3
176
     1
 62
     5
420
      255
176
     1
290
     0
176
     1
 90
       50
176
     1
 90
       50
176
     1
 90
       50
176
     1
290
     0
176
     1
 90
       50
176
     1
 62
   256
176
     0
 40
1.0
176
     0
 90
        2
176
     1
  1
strokes_ogs.tif
176
     1
290
     0
176
     1
 40
1.0
176
     1
 40
1.0
176
     1
  0
VISUALSTYLE
  5
31
102
{ACAD_REACTORS
330
2A
102
}
330
2A
100
AcDbVisualStyle
  2
Hidden
 70
     6
177
     3
291
     0
 70
    58
 90
        1
176
     1
 90
        2
176
     1
 90
        2
176
     1
 90
        0
176
     1
 40
0.6
176
     1
 40
30.0
176
     1
 62
     7
420
 16777215
176
     1
 90
        2
176
     1
 90
        2
176
     1
 62
     7
176
     1
 62
   257
176
     1
 90
        2
176
     1
 90
        1
176
     1
 40
40.0
176
     1
 90
        0
176
     1
 62
   257
176
     1
 40
1.0
176
     1
 90
        1
176
     1
 90
        6
176
     1
 90
        2
176
     1
 62
     7
176
     1
 90
        3
176
     1
 90
        0
176
     1
 90
        0
176
     1
290
     0
176
     1
 90
        1
176
     1
 40
0.0
176
     1
 90
        0
176
     1
290
     0
176
     1
290
     1
176
     1
290
     1
176
     1
290
     0
176
     1
290
     0
176
     1
290
     0
176
     1
290
     0
176
     1
290
     0
176
     1
290
     0
176
     1
 90
       50
176
     1
 40
0.0
176
     1
 40
1.0
176
     1
 90
        0
176
     1
 62
    18
420
        0
176
     1
 90
       50
176
     1
 90
        3
176
     1
 62
     5
420
      255
176
     1
290
     0
176
     1
 90
       50
176
     1
 90
       50
176
     1
 90
       50
176
     1
290
     0
176
     1
 90
       50
176
     1
 62
   256
176
     0
 40
1.0
176
     0
 90
        2
176
     1
  1
strokes_ogs.tif
176
     1
290
     0
176
     1
 40
1.0
176
     1
 40
1.0
176
     1
  0
VISUALSTYLE
  5
3B
102
{ACAD_REACTORS
330
2A
102
}
330
2A
100
AcDbVisualStyle
  2
JitterOff
 70
    20
177
     3
291
     1
 70
    58
 90
        2
176
     0
 90
        2
176
     0
 90
        0
176
     0
 90
        0
176
     0
 40
0.6
176
     0
 40
30.0
176
     0
 62
     7
420
 16777215
176
     0
 90
        1
176
     0
 90
        4
176
     0
 62
     7
176
     0
 62
   257
176
     0
 90
        1
176
     0
 90
        1
176
     0
 40
1.0
176
     0
 90
       10
176
     2
 62
     7
176
     0
 40
1.0
176
     0
 90
        1
176
     0
 90
        6
176
     0
 90
        2
176
     0
 62
     7
176
     0
 90
        5
176
     0
 90
        0
176
     0
 90
        0
176
     0
290
     0
176
     0
 90
        1
176
     0
 40
0.0
176
     0
 90
        0
176
     0
290
     0
176
     0
290
     1
176
     0
290
     1
176
     0
290
     0
176
     0
290
     0
176
     0
290
     0
176
     0
290
     0
176
     0
290
     0
176
     0
290
     0
176
     0
 90
       50
176
     0
 40
0.0
176
     0
 40
1.0
176
     0
 90
        0
176
     0
 62
    18
420
        0
176
     0
 90
       50
176
     0
 90
        3
176
     0
 62
     5
420
      255
176
     0
290
     0
176
     0
 90
       50
176
     0
 90
       50
176
     0
 90
       50
176
     0
290
     0
176
     0
 90
       50
176
     0
 62
   256
176
     0
 40
1.0
176
     0
 90
        2
176
     0
  1
strokes_ogs.tif
176
     0
290
     0
176
     0
 40
1.0
176
     0
 40
1.0
176
     0
  0
VISUALSTYLE
  5
38
102
{ACAD_REACTORS
330
2A
102
}
330
2A
100
AcDbVisualStyle
  2
Linepattern
 70
    14
177
     3
291
     1
 70
    58
 90
        2
176
     1
 90
        2
176
     1
 90
        0
176
     1
 90
        0
176
     1
 40
0.6
176
     1
 40
30.0
176
     1
 62
     7
420
 16777215
176
     1
 90
        1
176
     1
 90
        4
176
     1
 62
     7
176
     1
 62
   257
176
     1
 90
        7
176
     1
 90
        7
176
     1
 40
1.0
176
     1
 90
        8
176
     1
 62
     7
176
     1
 40
1.0
176
     1
 90
        1
176
     1
 90
        6
176
     1
 90
        2
176
     1
 62
     7
176
     1
 90
        5
176
     1
 90
        0
176
     1
 90
        0
176
     1
290
     0
176
     1
 90
        1
176
     1
 40
0.0
176
     1
 90
        0
176
     1
290
     0
176
     1
290
     1
176
     1
290
     1
176
     1
290
     0
176
     1
290
     0
176
     1
290
     0
176
     1
290
     0
176
     1
290
     0
176
     1
290
     0
176
     1
 90
       50
176
     1
 40
0.0
176
     1
 40
1.0
176
     1
 90
        0
176
     1
 62
    18
420
        0
176
     1
 90
       50
176
     1
 90
        3
176
     1
 62
     5
420
      255
176
     1
290
     0
176
     1
 90
       50
176
     1
 90
       50
176
     1
 90
       50
176
     1
290
     0
176
     1
 90
       50
176
     1
 62
   256
176
     0
 40
1.0
176
     0
 90
        2
176
     1
  1
strokes_ogs.tif
176
     1
290
     0
176
     1
 40
1.0
176
     1
 40
1.0
176
     1
  0
VISUALSTYLE
  5
3C
102
{ACAD_REACTORS
330
2A
102
}
330
2A
100
AcDbVisualStyle
  2
OverhangOff
 70
    21
177
     3
291
     1
 70
    58
 90
        2
176
     0
 90
        2
176
     0
 90
        0
176
     0
 90
        0
176
     0
 40
0.6
176
     0
 40
30.0
176
     0
 62
     7
420
 16777215
176
     0
 90
        1
176
     0
 90
        4
176
     0
 62
     7
176
     0
 62
   257
176
     0
 90
        1
176
     0
 90
        1
176
     0
 40
1.0
176
     0
 90
        9
176
     2
 62
     7
176
     0
 40
1.0
176
     0
 90
        1
176
     0
 90
        6
176
     0
 90
        2
176
     0
 62
     7
176
     0
 90
        5
176
     0
 90
        0
176
     0
 90
        0
176
     0
290
     0
176
     0
 90
        1
176
     0
 40
0.0
176
     0
 90
        0
176
     0
290
     0
176
     0
290
     1
176
     0
290
     1
176
     0
290
     0
176
     0
290
     0
176
     0
290
     0
176
     0
290
     0
176
     0
290
     0
176
     0
290
     0
176
     0
 90
       50
176
     0
 40
0.0
176
     0
 40
1.0
176
     0
 90
        0
176
     0
 62
    18
420
        0
176
     0
 90
       50
176
     0
 90
        3
176
     0
 62
     5
420
      255
176
     0
290
     0
176
     0
 90
       50
176
     0
 90
       50
176
     0
 90
       50
176
     0
290
     0
176
     0
 90
       50
176
     0
 62
   256
176
     0
 40
1.0
176
     0
 90
        2
176
     0
  1
strokes_ogs.tif
176
     0
290
     0
176
     0
 40
1.0
176
     0
 40
1.0
176
     0
  0
VISUALSTYLE
  5
33
102
{ACAD_REACTORS
330
2A
102
}
330
2A
100
AcDbVisualStyle
  2
Realistic
 70
     8
177
     3
291
     0
 70
    58
 90
        2
176
     1
 90
        3
176
     1
 90
        0
176
     1
 90
        2
176
     1
 40
0.6
176
     1
 40
30.0
176
     1
 62
     7
420
 16777215
176
     1
 90
        0
176
     1
 90
        0
176
     1
 62
     7
176
     1
 62
   257
176
     1
 90
        1
176
     1
 90
        1
176
     1
 40
1.0
176
     1
 90
        8
176
     1
 62
   257
176
     1
 40
1.0
176
     1
 90
        1
176
     1
 90
        6
176
     1
 90
        2
176
     1
 62
     7
176
     1
 90
        3
176
     1
 90
        0
176
     1
 90
        0
176
     1
290
     0
176
     1
 90
       13
176
     1
 40
0.0
176
     1
 90
        0
176
     1
290
     0
176
     1
290
     1
176
     1
290
     1
176
     1
290
     0
176
     1
290
     0
176
     1
290
     0
176
     1
290
     0
176
     1
290
     0
176
     1
290
     0
176
     1
 90
       50
176
     1
 40
0.0
176
     1
 40
1.0
176
     1
 90
        0
176
     1
 62
    18
420
        0
176
     1
 90
       50
176
     1
 90
        3
176
     1
 62
     5
420
      255
176
     1
290
     0
176
     1
 90
       50
176
     1
 90
       50
176
     1
 90
       50
176
     1
290
     0
176
     1
 90
       50
176
     1
 62
   256
176
     0
 40
1.0
176
     0
 90
        2
176
     1
  1
strokes_ogs.tif
176
     1
290
     0
176
     1
 40
1.0
176
     1
 40
1.0
176
     1
  0
VISUALSTYLE
  5
42
102
{ACAD_REACTORS
330
2A
102
}
330
2A
100
AcDbVisualStyle
  2
Shaded
 70
    27
177
     3
291
     0
 70
    58
 90
        2
176
     1
 90
        2
176
     1
 90
        1
176
     1
 90
        2
176
     1
 40
0.6
176
     1
 40
30.0
176
     1
 62
     7
420
 16777215
176
     1
 90
        0
176
     1
 90
        4
176
     1
 62
     7
176
     1
 62
   257
176
     1
 90
        1
176
     1
 90
        1
176
     1
 40
1.0
176
     1
 90
        8
176
     1
 62
   257
176
     1
 40
1.0
176
     1
 90
        1
176
     1
 90
        6
176
     1
 90
        2
176
     1
 62
     8
420
  7895160
176
     1
 90
        3
176
     1
 90
        0
176
     1
 90
        0
176
     1
290
     0
176
     1
 90
        5
176
     1
 40
0.0
176
     1
 90
        0
176
     1
290
     0
176
     1
290
     1
176
     1
290
     1
176
     1
290
     0
176
     1
290
     0
176
     1
290
     0
176
     1
290
     0
176
     1
290
     0
176
     1
290
     0
176
     1
 90
       50
176
     1
 40
0.0
176
     1
 40
1.0
176
     1
 90
        0
176
     1
 62
    18
420
        0
176
     1
 90
       50
176
     1
 90
        3
176
     1
 62
     5
420
      255
176
     1
290
     0
176
     1
 90
       50
176
     1
 90
       50
176
     1
 90
       50
176
     1
290
     0
176
     1
 90
       50
176
     1
 62
   256
176
     0
 40
1.0
176
     0
 90
        2
176
     1
  1
strokes_ogs.tif
176
     1
290
     0
176
     1
 40
1.0
176
     1
 40
1.0
176
     1
  0
VISUALSTYLE
  5
41
102
{ACAD_REACTORS
330
2A
102
}
330
2A
100
AcDbVisualStyle
  2
Shaded with edges
 70
    26
177
     3
291
     0
 70
    58
 90
        2
176
     1
 90
        2
176
     1
 90
        1
176
     1
 90
        2
176
     1
 40
0.6
176
     1
 40
30.0
176
     1
 62
     7
420
 16777215
176
     1
 90
        1
176
     1
 90
       10
176
     1
 62
     7
176
     1
 62
   257
176
     1
 90
        2
176
     1
 90
        1
176
     1
 40
1.0
176
     1
 90
        8
176
     1
 62
   257
176
     1
 40
1.0
176
     1
 90
        1
176
     1
 90
        6
176
     1
 90
        2
176
     1
 62
     7
176
     1
 90
        3
176
     1
 90
        0
176
     1
 90
        0
176
     1
290
     0
176
     1
 90
        5
176
     1
 40
0.0
176
     1
 90
        0
176
     1
290
     0
176
     1
290
     1
176
     1
290
     1
176
     1
290
     0
176
     1
290
     0
176
     1
290
     0
176
     1
290
     0
176
     1
290
     0
176
     1
290
     0
176
     1
 90
       50
176
     1
 40
0.0
176
     1
 40
1.0
176
     1
 90
        0
176
     1
 62
    18
420
        0
176
     1
 90
       50
176
     1
 90
        3
176
     1
 62
     5
420
      255
176
     1
290
     0
176
     1
 90
       50
176
     1
 90
       50
176
     1
 90
       50
176
     1
290
     0
176
     1
 90
       50
176
     1
 62
   256
176
     0
 40
1.0
176
     0
 90
        2
176
     1
  1
strokes_ogs.tif
176
     1
290
     0
176
     1
 40
1.0
176
     1
 40
1.0
176
     1
  0
VISUALSTYLE
  5
3E
102
{ACAD_REACTORS
330
2A
102
}
330
2A
100
AcDbVisualStyle
  2
Shades of Gray
 70
    23
177
     3
291
     0
 70
    58
 90
        2
176
     1
 90
        2
176
     1
 90
        3
176
     1
 90
        0
176
     1
 40
0.6
176
     1
 40
30.0
176
     1
 62
     7
420
 16777215
176
     1
 90
        2
176
     1
 90
        2
176
     1
 62
     7
176
     1
 62
     7
176
     1
 90
        1
176
     1
 90
        1
176
     1
 40
40.0
176
     1
 90
        8
176
     1
 62
     7
176
     1
 40
1.0
176
     1
 90
        1
176
     1
 90
        6
176
     1
 90
        2
176
     1
 62
     7
176
     1
 90
        3
176
     1
 90
        0
176
     1
 90
        0
176
     1
290
     0
176
     1
 90
        1
176
     1
 40
0.0
176
     1
 90
        0
176
     1
290
     0
176
     1
290
     1
176
     1
290
     1
176
     1
290
     0
176
     1
290
     0
176
     1
290
     0
176
     1
290
     0
176
     1
290
     0
176
     1
290
     0
176
     1
 90
       50
176
     1
 40
0.0
176
     1
 40
1.0
176
     1
 90
        0
176
     1
 62
    18
420
        0
176
     1
 90
       50
176
     1
 90
        3
176
     1
 62
     5
420
      255
176
     1
290
     0
176
     1
 90
       50
176
     1
 90
       50
176
     1
 90
       50
176
     1
290
     0
176
     1
 90
       50
176
     1
 62
   256
176
     0
 40
1.0
176
     0
 90
        2
176
     1
  1
strokes_ogs.tif
176
     1
290
     0
176
     1
 40
1.0
176
     1
 40
1.0
176
     1
  0
VISUALSTYLE
  5
3F
102
{ACAD_REACTORS
330
2A
102
}
330
2A
100
AcDbVisualStyle
  2
Sketchy
 70
    24
177
     3
291
     0
 70
    58
 90
        1
176
     1
 90
        2
176
     1
 90
        2
176
     1
 90
        0
176
     1
 40
0.6
176
     1
 40
30.0
176
     1
 62
     7
420
 16777215
176
     1
 90
        2
176
     1
 90
        2
176
     1
 62
     7
176
     1
 62
     7
176
     1
 90
        1
176
     1
 90
        1
176
     1
 40
40.0
176
     1
 90
       11
176
     1
 62
     7
176
     1
 40
1.0
176
     1
 90
        1
176
     1
 90
        6
176
     1
 90
        2
176
     1
 62
     7
176
     1
 90
        6
176
     1
 90
        0
176
     1
 90
        0
176
     1
290
     0
176
     1
 90
        1
176
     1
 40
0.0
176
     1
 90
        0
176
     1
290
     0
176
     1
290
     1
176
     1
290
     1
176
     1
290
     0
176
     1
290
     0
176
     1
290
     0
176
     1
290
     0
176
     1
290
     0
176
     1
290
     0
176
     1
 90
       50
176
     1
 40
0.0
176
     1
 40
1.0
176
     1
 90
        0
176
     1
 62
    18
420
        0
176
     1
 90
       50
176
     1
 90
        3
176
     1
 62
     5
420
      255
176
     1
290
     0
176
     1
 90
       50
176
     1
 90
       50
176
     1
 90
       50
176
     1
290
     0
176
     1
 90
       50
176
     1
 62
   256
176
     0
 40
1.0
176
     0
 90
        2
176
     1
  1
strokes_ogs.tif
176
     1
290
     0
176
     1
 40
1.0
176
     1
 40
1.0
176
     1
  0
VISUALSTYLE
  5
37
102
{ACAD_REACTORS
330
2A
102
}
330
2A
100
AcDbVisualStyle
  2
Thicken
 70
    13
177
     3
291
     1
 70
    58
 90
        2
176
     1
 90
        2
176
     1
 90
        0
176
     1
 90
        0
176
     1
 40
0.6
176
     1
 40
30.0
176
     1
 62
     7
420
 16777215
176
     1
 90
        1
176
     1
 90
        4
176
     1
 62
     7
176
     1
 62
   257
176
     1
 90
        1
176
     1
 90
        1
176
     1
 40
1.0
176
     1
 90
       12
176
     1
 62
     7
176
     1
 40
1.0
176
     1
 90
        1
176
     1
 90
        6
176
     1
 90
        2
176
     1
 62
     7
176
     1
 90
        5
176
     1
 90
        0
176
     1
 90
        0
176
     1
290
     0
176
     1
 90
        1
176
     1
 40
0.0
176
     1
 90
        0
176
     1
290
     0
176
     1
290
     1
176
     1
290
     1
176
     1
290
     0
176
     1
290
     0
176
     1
290
     0
176
     1
290
     0
176
     1
290
     0
176
     1
290
     0
176
     1
 90
       50
176
     1
 40
0.0
176
     1
 40
1.0
176
     1
 90
        0
176
     1
 62
    18
420
        0
176
     1
 90
       50
176
     1
 90
        3
176
     1
 62
     5
420
      255
176
     1
290
     0
176
     1
 90
       50
176
     1
 90
       50
176
     1
 90
       50
176
     1
290
     0
176
     1
 90
       50
176
     1
 62
   256
176
     0
 40
1.0
176
     0
 90
        2
176
     1
  1
strokes_ogs.tif
176
     1
290
     0
176
     1
 40
1.0
176
     1
 40
1.0
176
     1
  0
VISUALSTYLE
  5
30
102
{ACAD_REACTORS
330
2A
102
}
330
2A
100
AcDbVisualStyle
  2
Wireframe
 70
     5
177
     3
291
     0
 70
    58
 90
        0
176
     1
 90
        2
176
     1
 90
        0
176
     1
 90
        0
176
     1
 40
0.6
176
     1
 40
30.0
176
     1
 62
     7
420
 16777215
176
     1
 90
        1
176
     1
 90
        4
176
     1
 62
     7
176
     1
 62
   257
176
     1
 90
        1
176
     1
 90
        1
176
     1
 40
1.0
176
     1
 90
        0
176
     1
 62
   257
176
     1
 40
1.0
176
     1
 90
        1
176
     1
 90
        6
176
     1
 90
        2
176
     1
 62
     7
176
     1
 90
        3
176
     1
 90
        0
176
     1
 90
        0
176
     1
290
     0
176
     1
 90
        1
176
     1
 40
0.0
176
     1
 90
        0
176
     1
290
     0
176
     1
290
     1
176
     1
290
     1
176
     1
290
     0
176
     1
290
     0
176
     1
290
     0
176
     1
290
     0
176
     1
290
     0
176
     1
290
     0
176
     1
 90
       50
176
     1
 40
0.0
176
     1
 40
1.0
176
     1
 90
        0
176
     1
 62
    18
420
        0
176
     1
 90
       50
176
     1
 90
        3
176
     1
 62
     5
420
      255
176
     1
290
     0
176
     1
 90
       50
176
     1
 90
       50
176
     1
 90
       50
176
     1
290
     0
176
     1
 90
       50
176
     1
 62
   256
176
     0
 40
1.0
176
     0
 90
        2
176
     1
  1
strokes_ogs.tif
176
     1
290
     0
176
     1
 40
1.0
176
     1
 40
1.0
176
     1
  0
VISUALSTYLE
  5
40
102
{ACAD_REACTORS
330
2A
102
}
330
2A
100
AcDbVisualStyle
  2
X-Ray
 70
    25
177
     3
291
     0
 70
    58
 90
        2
176
     1
 90
        2
176
     1
 90
        1
176
     1
 90
        1
176
     1
 40
0.5
176
     1
 40
30.0
176
     1
 62
     7
420
 16777215
176
     1
 90
        1
176
     1
 90
        0
176
     1
 62
     7
176
     1
 62
   257
176
     1
 90
        1
176
     1
 90
        1
176
     1
 40
1.0
176
     1
 90
        8
176
     1
 62
     7
176
     1
 40
1.0
176
     1
 90
        1
176
     1
 90
        6
176
     1
 90
        2
176
     1
 62
     7
176
     1
 90
        3
176
     1
 90
        0
176
     1
 90
        0
176
     1
290
     0
176
     1
 90
       13
176
     1
 40
0.0
176
     1
 90
        0
176
     1
290
     0
176
     1
290
     1
176
     1
290
     1
176
     1
290
     0
176
     1
290
     0
176
     1
290
     0
176
     1
290
     0
176
     1
290
     0
176
     1
290
     0
176
     1
 90
       50
176
     1
 40
0.0
176
     1
 40
1.0
176
     1
 90
        0
176
     1
 62
    18
420
        0
176
     1
 90
       50
176
     1
 90
        3
176
     1
 62
     5
420
      255
176
     1
290
     0
176
     1
 90
       50
176
     1
 90
       50
176
     1
 90
       50
176
     1
290
     0
176
     1
 90
       50
176
     1
 62
   256
176
     0
 40
1.0
176
     0
 90
        2
176
     1
  1
strokes_ogs.tif
176
     1
290
     0
176
     1
 40
1.0
176
     1
 40
1.0
176
     1
  0
DICTIONARYVAR
  5
263
102
{ACAD_REACTORS
330
262
102
}
330
262
100
DictionaryVariables
280
     0
  1
1:1
  0
DICTIONARYVAR
  5
268
102
{ACAD_REACTORS
330
262
102
}
330
262
100
DictionaryVariables
280
     0
  1
Standard
  0
DICTIONARYVAR
  5
267
102
{ACAD_REACTORS
330
262
102
}
330
262
100
DictionaryVariables
280
     0
  1
Standard
  0
DICTIONARY
  5
264
330
6A
100
AcDbDictionary
280
     1
281
     1
  3
ACAD_ROUNDTRIP_2008_TABLESTYLE_CELLSTYLEMAP
360
265
  0
CELLSTYLEMAP
  5
265
102
{ACAD_REACTORS
330
264
102
}
330
264
100
AcDbCellStyleMap
 90
        3
300
CELLSTYLE
  1
TABLEFORMAT_BEGIN
 90
        5
170
     1
 91
        0
 92
    32768
 62
   257
 93
        1
300
CONTENTFORMAT
  1
CONTENTFORMAT_BEGIN
 90
        0
 91
        0
 92
        4
 93
        0
300

 40
0.0
140
1.0
 94
        5
 62
     0
340
11
144
0.25
309
CONTENTFORMAT_END
171
     1
301
MARGIN
  1
CELLMARGIN_BEGIN
 40
0.06
 40
0.06
 40
0.06
 40
0.06
 40
0.06
 40
0.06
309
CELLMARGIN_END
 94
        6
 95
        1
302
GRIDFORMAT
  1
GRIDFORMAT_BEGIN
 90
        0
 91
        1
 62
     0
 92
       -2
340
14
 93
        0
 40
0.045
309
GRIDFORMAT_END
 95
        2
302
GRIDFORMAT
  1
GRIDFORMAT_BEGIN
 90
        0
 91
        1
 62
     0
 92
       -2
340
14
 93
        0
 40
0.045
309
GRIDFORMAT_END
 95
        4
302
GRIDFORMAT
  1
GRIDFORMAT_BEGIN
 90
        0
 91
        1
 62
     0
 92
       -2
340
14
 93
        0
 40
0.045
309
GRIDFORMAT_END
 95
        8
302
GRIDFORMAT
  1
GRIDFORMAT_BEGIN
 90
        0
 91
        1
 62
     0
 92
       -2
340
14
 93
        0
 40
0.045
309
GRIDFORMAT_END
 95
       16
302
GRIDFORMAT
  1
GRIDFORMAT_BEGIN
 90
        0
 91
        1
 62
     0
 92
       -2
340
14
 93
        0
 40
0.045
309
GRIDFORMAT_END
 95
       32
302
GRIDFORMAT
  1
GRIDFORMAT_BEGIN
 90
        0
 91
        1
 62
     0
 92
       -2
340
14
 93
        0
 40
0.045
309
GRIDFORMAT_END
309
TABLEFORMAT_END
  1
CELLSTYLE_BEGIN
 90
        1
 91
        1
300
_TITLE
309
CELLSTYLE_END
300
CELLSTYLE
  1
TABLEFORMAT_BEGIN
 90
        5
170
     1
 91
        0
 92
        0
 62
   257
 93
        1
300
CONTENTFORMAT
  1
CONTENTFORMAT_BEGIN
 90
        0
 91
        0
 92
        4
 93
        0
300

 40
0.0
140
1.0
 94
        5
 62
     0
340
11
144
0.18
309
CONTENTFORMAT_END
171
     1
301
MARGIN
  1
CELLMARGIN_BEGIN
 40
0.06
 40
0.06
 40
0.06
 40
0.06
 40
0.06
 40
0.06
309
CELLMARGIN_END
 94
        6
 95
        1
302
GRIDFORMAT
  1
GRIDFORMAT_BEGIN
 90
        0
 91
        1
 62
     0
 92
       -2
340
14
 93
        0
 40
0.045
309
GRIDFORMAT_END
 95
        2
302
GRIDFORMAT
  1
GRIDFORMAT_BEGIN
 90
        0
 91
        1
 62
     0
 92
       -2
340
14
 93
        0
 40
0.045
309
GRIDFORMAT_END
 95
        4
302
GRIDFORMAT
  1
GRIDFORMAT_BEGIN
 90
        0
 91
        1
 62
     0
 92
       -2
340
14
 93
        0
 40
0.045
309
GRIDFORMAT_END
 95
        8
302
GRIDFORMAT
  1
GRIDFORMAT_BEGIN
 90
        0
 91
        1
 62
     0
 92
       -2
340
14
 93
        0
 40
0.045
309
GRIDFORMAT_END
 95
       16
302
GRIDFORMAT
  1
GRIDFORMAT_BEGIN
 90
        0
 91
        1
 62
     0
 92
       -2
340
14
 93
        0
 40
0.045
309
GRIDFORMAT_END
 95
       32
302
GRIDFORMAT
  1
GRIDFORMAT_BEGIN
 90
        0
 91
        1
 62
     0
 92
       -2
340
14
 93
        0
 40
0.045
309
GRIDFORMAT_END
309
TABLEFORMAT_END
  1
CELLSTYLE_BEGIN
 90
        2
 91
        1
300
_HEADER
309
CELLSTYLE_END
300
CELLSTYLE
  1
TABLEFORMAT_BEGIN
 90
        5
170
     1
 91
        0
 92
        0
 62
   257
 93
        1
300
CONTENTFORMAT
  1
CONTENTFORMAT_BEGIN
 90
        0
 91
        0
 92
        4
 93
        0
300

 40
0.0
140
1.0
 94
        2
 62
     0
340
11
144
0.18
309
CONTENTFORMAT_END
171
     1
301
MARGIN
  1
CELLMARGIN_BEGIN
 40
0.06
 40
0.06
 40
0.06
 40
0.06
 40
0.06
 40
0.06
309
CELLMARGIN_END
 94
        6
 95
        1
302
GRIDFORMAT
  1
GRIDFORMAT_BEGIN
 90
        0
 91
        1
 62
     0
 92
       -2
340
14
 93
        0
 40
0.045
309
GRIDFORMAT_END
 95
        2
302
GRIDFORMAT
  1
GRIDFORMAT_BEGIN
 90
        0
 91
        1
 62
     0
 92
       -2
340
14
 93
        0
 40
0.045
309
GRIDFORMAT_END
 95
        4
302
GRIDFORMAT
  1
GRIDFORMAT_BEGIN
 90
        0
 91
        1
 62
     0
 92
       -2
340
14
 93
        0
 40
0.045
309
GRIDFORMAT_END
 95
        8
302
GRIDFORMAT
  1
GRIDFORMAT_BEGIN
 90
        0
 91
        1
 62
     0
 92
       -2
340
14
 93
        0
 40
0.045
309
GRIDFORMAT_END
 95
       16
302
GRIDFORMAT
  1
GRIDFORMAT_BEGIN
 90
        0
 91
        1
 62
     0
 92
       -2
340
14
 93
        0
 40
0.045
309
GRIDFORMAT_END
 95
       32
302
GRIDFORMAT
  1
GRIDFORMAT_BEGIN
 90
        0
 91
        1
 62
     0
 92
       -2
340
14
 93
        0
 40
0.045
309
GRIDFORMAT_END
309
TABLEFORMAT_END
  1
CELLSTYLE_BEGIN
 90
        3
 91
        2
300
_DATA
309
CELLSTYLE_END
  0
ENDSEC
  0
EOF