0
SECTION
  2
HEADER
  9
$ACADVER
  1
AC1027
  9
$ACADMAINTVER
 70
     8
  9
$DWGCODEPAGE
  3
ANSI_1252
  9
$REQUIREDVERSIONS
160
                 0
  9
$COMMENTS
  1
File was created by Cadenas
  9
$CUSTOMPROPERTYTAG
  1
NN
  9
$CUSTOMPROPERTY
  1
TAF Pillow Block - Inch 2-Bolt Base Non-Expansion Type
  9
$CUSTOMPROPERTYTAG
  1
NT
  9
$CUSTOMPROPERTY
  1
Taf Bearings
  9
$CUSTOMPROPERTYTAG
  1
NB
  9
$CUSTOMPROPERTY
  1
037588
  9
$CUSTOMPROPERTYTAG
  1
NBSYN
  9
$CUSTOMPROPERTY
  1
$PN.
  9
$CUSTOMPROPERTYTAG
  1
LINA
  9
$CUSTOMPROPERTY
  1
037588
  9
$CUSTOMPROPERTYTAG
  1
SS
  9
$CUSTOMPROPERTY
  1
2-15/16
  9
$CUSTOMPROPERTYTAG
  1
SERIES
  9
$CUSTOMPROPERTY
  1
517
  9
$CUSTOMPROPERTYTAG
  1
PN
  9
$CUSTOMPROPERTY
  1
037588
  9
$CUSTOMPROPERTYTAG
  1
DESCRIPTION
  9
$CUSTOMPROPERTY
  1
P2b-taf-215r
  9
$CUSTOMPROPERTYTAG
  1
HF
  9
$CUSTOMPROPERTY
  1
2
  9
$CUSTOMPROPERTYTAG
  1
EF
  9
$CUSTOMPROPERTY
  1
Non Expansion Type
  9
$CUSTOMPROPERTYTAG
  1
A
  9
$CUSTOMPROPERTY
  1
4.50
  9
$CUSTOMPROPERTYTAG
  1
B
  9
$CUSTOMPROPERTY
  1
12.59
  9
$CUSTOMPROPERTYTAG
  1
C
  9
$CUSTOMPROPERTY
  1
3.50
  9
$CUSTOMPROPERTYTAG
  1
DMIN
  9
$CUSTOMPROPERTY
  1
9.88
  9
$CUSTOMPROPERTYTAG
  1
DMAX
  9
$CUSTOMPROPERTY
  1
11.00
  9
$CUSTOMPROPERTYTAG
  1
E
  9
$CUSTOMPROPERTY
  1
2.13
  9
$CUSTOMPROPERTYTAG
  1
F
  9
$CUSTOMPROPERTY
  1
3/4
  9
$CUSTOMPROPERTYTAG
  1
G
  9
$CUSTOMPROPERTY
  1
1.44
  9
$CUSTOMPROPERTYTAG
  1
H
  9
$CUSTOMPROPERTY
  1
1.25
  9
$CUSTOMPROPERTYTAG
  1
J
  9
$CUSTOMPROPERTY
  1
7.92
  9
$CUSTOMPROPERTYTAG
  1
K
  9
$CUSTOMPROPERTY
  1
2.25
  9
$CUSTOMPROPERTYTAG
  1
L
  9
$CUSTOMPROPERTY
  1
4.72
  9
$CUSTOMPROPERTYTAG
  1
M
  9
$CUSTOMPROPERTY
  1
3.75
  9
$CUSTOMPROPERTYTAG
  1
P
  9
$CUSTOMPROPERTY
  1
8.31
  9
$CUSTOMPROPERTYTAG
  1
T
  9
$CUSTOMPROPERTY
  1
0.28
  9
$CUSTOMPROPERTYTAG
  1
SC
  9
$CUSTOMPROPERTY
  1
61200
  9
$CUSTOMPROPERTYTAG
  1
DC
  9
$CUSTOMPROPERTY
  1
9600
  9
$CUSTOMPROPERTYTAG
  1
RN
  9
$CUSTOMPROPERTY
  1
24
  9
$CUSTOMPROPERTYTAG
  1
RMD
  9
$CUSTOMPROPERTY
  1
0.41
  9
$CUSTOMPROPERTYTAG
  1
PD
  9
$CUSTOMPROPERTY
  1
3.900
  9
$CUSTOMPROPERTYTAG
  1
EP
  9
$CUSTOMPROPERTY
  1
0.004/0.012
  9
$CUSTOMPROPERTYTAG
  1
CSS
  9
$CUSTOMPROPERTY
  1
1/2-13x7/8
  9
$CUSTOMPROPERTYTAG
  1
CST
  9
$CUSTOMPROPERTY
  1
620
  9
$CUSTOMPROPERTYTAG
  1
HM
  9
$CUSTOMPROPERTY
  1
A48 CLASS 30
  9
$CUSTOMPROPERTYTAG
  1
CM
  9
$CUSTOMPROPERTY
  1
4118 CASE CARB.
  9
$CUSTOMPROPERTYTAG
  1
CUM
  9
$CUSTOMPROPERTY
  1
4118 CASE CARB.
  9
$CUSTOMPROPERTYTAG
  1
RM
  9
$CUSTOMPROPERTY
  1
STEEL
  9
$CUSTOMPROPERTYTAG
  1
ROM
  9
$CUSTOMPROPERTY
  1
4118 CASE CARB.
  9
$CUSTOMPROPERTYTAG
  1
SM
  9
$CUSTOMPROPERTY
  1
4.80
  9
$CUSTOMPROPERTYTAG
  1
COMPANY
  9
$CUSTOMPROPERTY
  1
baldor
  9
$INSBASE
 10
0.0
 20
0.0
 30
0.0
  9
$EXTMIN
 10
1.000000000000000E+20
 20
1.000000000000000E+20
 30
1.000000000000000E+20
  9
$EXTMAX
 10
-1.000000000000000E+20
 20
-1.000000000000000E+20
 30
-1.000000000000000E+20
  9
$LIMMIN
 10
0.0
 20
0.0
  9
$LIMMAX
 10
12.0
 20
9.0
  9
$ORTHOMODE
 70
     0
  9
$REGENMODE
 70
     1
  9
$FILLMODE
 70
     1
  9
$QTEXTMODE
 70
     0
  9
$MIRRTEXT
 70
     1
  9
$LTSCALE
 40
1.0
  9
$ATTMODE
 70
     1
  9
$TEXTSIZE
 40
0.2
  9
$TRACEWID
 40
0.05
  9
$TEXTSTYLE
  7
Standard
  9
$CLAYER
  8
0
  9
$CELTYPE
  6
ByLayer
  9
$CECOLOR
 62
   256
  9
$CELTSCALE
 40
1.0
  9
$DISPSILH
 70
     0
  9
$DIMSCALE
 40
1.0
  9
$DIMASZ
 40
0.18
  9
$DIMEXO
 40
0.0625
  9
$DIMDLI
 40
0.38
  9
$DIMRND
 40
0.0
  9
$DIMDLE
 40
0.0
  9
$DIMEXE
 40
0.18
  9
$DIMTP
 40
0.0
  9
$DIMTM
 40
0.0
  9
$DIMTXT
 40
0.18
  9
$DIMCEN
 40
0.09
  9
$DIMTSZ
 40
0.0
  9
$DIMTOL
 70
     0
  9
$DIMLIM
 70
     0
  9
$DIMTIH
 70
     1
  9
$DIMTOH
 70
     1
  9
$DIMSE1
 70
     0
  9
$DIMSE2
 70
     0
  9
$DIMTAD
 70
     0
  9
$DIMZIN
 70
     0
  9
$DIMBLK
  1

  9
$DIMASO
 70
     1
  9
$DIMSHO
 70
     1
  9
$DIMPOST
  1

  9
$DIMAPOST
  1

  9
$DIMALT
 70
     0
  9
$DIMALTD
 70
     2
  9
$DIMALTF
 40
25.4
  9
$DIMLFAC
 40
1.0
  9
$DIMTOFL
 70
     0
  9
$DIMTVP
 40
0.0
  9
$DIMTIX
 70
     0
  9
$DIMSOXD
 70
     0
  9
$DIMSAH
 70
     0
  9
$DIMBLK1
  1

  9
$DIMBLK2
  1

  9
$DIMSTYLE
  2
Standard
  9
$DIMCLRD
 70
     0
  9
$DIMCLRE
 70
     0
  9
$DIMCLRT
 70
     0
  9
$DIMTFAC
 40
1.0
  9
$DIMGAP
 40
0.09
  9
$DIMJUST
 70
     0
  9
$DIMSD1
 70
     0
  9
$DIMSD2
 70
     0
  9
$DIMTOLJ
 70
     1
  9
$DIMTZIN
 70
     0
  9
$DIMALTZ
 70
     0
  9
$DIMALTTZ
 70
     0
  9
$DIMUPT
 70
     0
  9
$DIMDEC
 70
     4
  9
$DIMTDEC
 70
     4
  9
$DIMALTU
 70
     2
  9
$DIMALTTD
 70
     2
  9
$DIMTXSTY
  7
Standard
  9
$DIMAUNIT
 70
     0
  9
$DIMADEC
 70
     0
  9
$DIMALTRND
 40
0.0
  9
$DIMAZIN
 70
     0
  9
$DIMDSEP
 70
    46
  9
$DIMATFIT
 70
     3
  9
$DIMFRAC
 70
     0
  9
$DIMLDRBLK
  1

  9
$DIMLUNIT
 70
     2
  9
$DIMLWD
 70
    -2
  9
$DIMLWE
 70
    -2
  9
$DIMTMOVE
 70
     0
  9
$DIMFXL
 40
1.0
  9
$DIMFXLON
 70
     0
  9
$DIMJOGANG
 40
0.7853981633974483
  9
$DIMTFILL
 70
     0
  9
$DIMTFILLCLR
 70
     0
  9
$DIMARCSYM
 70
     0
  9
$DIMLTYPE
  6

  9
$DIMLTEX1
  6

  9
$DIMLTEX2
  6

  9
$DIMTXTDIRECTION
 70
     0
  9
$LUNITS
 70
     2
  9
$LUPREC
 70
     4
  9
$SKETCHINC
 40
0.1
  9
$FILLETRAD
 40
0.5
  9
$AUNITS
 70
     0
  9
$AUPREC
 70
     0
  9
$MENU
  1
.
  9
$ELEVATION
 40
0.0
  9
$PELEVATION
 40
0.0
  9
$THICKNESS
 40
0.0
  9
$LIMCHECK
 70
     0
  9
$CHAMFERA
 40
0.0
  9
$CHAMFERB
 40
0.0
  9
$CHAMFERC
 40
0.0
  9
$CHAMFERD
 40
0.0
  9
$SKPOLY
 70
     0
  9
$TDCREATE
 40
2458169.002671134
  9
$TDUCREATE
 40
2458168.961004468
  9
$TDUPDATE
 40
2458169.00267132
  9
$TDUUPDATE
 40
2458168.961004653
  9
$TDINDWG
 40
0.0000000116
  9
$TDUSRTIMER
 40
0.0000000116
  9
$USRTIMER
 70
     1
  9
$ANGBASE
 50
0.0
  9
$ANGDIR
 70
     0
  9
$PDMODE
 70
     0
  9
$PDSIZE
 40
0.0
  9
$PLINEWID
 40
0.0
  9
$SPLFRAME
 70
     0
  9
$SPLINETYPE
 70
     6
  9
$SPLINESEGS
 70
     8
  9
$HANDSEED
  5
273
  9
$SURFTAB1
 70
     6
  9
$SURFTAB2
 70
     6
  9
$SURFTYPE
 70
     6
  9
$SURFU
 70
     6
  9
$SURFV
 70
     6
  9
$UCSBASE
  2

  9
$UCSNAME
  2

  9
$UCSORG
 10
0.0
 20
0.0
 30
0.0
  9
$UCSXDIR
 10
1.0
 20
0.0
 30
0.0
  9
$UCSYDIR
 10
0.0
 20
1.0
 30
0.0
  9
$UCSORTHOREF
  2

  9
$UCSORTHOVIEW
 70
     0
  9
$UCSORGTOP
 10
0.0
 20
0.0
 30
0.0
  9
$UCSORGBOTTOM
 10
0.0
 20
0.0
 30
0.0
  9
$UCSORGLEFT
 10
0.0
 20
0.0
 30
0.0
  9
$UCSORGRIGHT
 10
0.0
 20
0.0
 30
0.0
  9
$UCSORGFRONT
 10
0.0
 20
0.0
 30
0.0
  9
$UCSORGBACK
 10
0.0
 20
0.0
 30
0.0
  9
$PUCSBASE
  2

  9
$PUCSNAME
  2

  9
$PUCSORG
 10
0.0
 20
0.0
 30
0.0
  9
$PUCSXDIR
 10
1.0
 20
0.0
 30
0.0
  9
$PUCSYDIR
 10
0.0
 20
1.0
 30
0.0
  9
$PUCSORTHOREF
  2

  9
$PUCSORTHOVIEW
 70
     0
  9
$PUCSORGTOP
 10
0.0
 20
0.0
 30
0.0
  9
$PUCSORGBOTTOM
 10
0.0
 20
0.0
 30
0.0
  9
$PUCSORGLEFT
 10
0.0
 20
0.0
 30
0.0
  9
$PUCSORGRIGHT
 10
0.0
 20
0.0
 30
0.0
  9
$PUCSORGFRONT
 10
0.0
 20
0.0
 30
0.0
  9
$PUCSORGBACK
 10
0.0
 20
0.0
 30
0.0
  9
$USERI1
 70
     0
  9
$USERI2
 70
     0
  9
$USERI3
 70
     0
  9
$USERI4
 70
     0
  9
$USERI5
 70
     0
  9
$USERR1
 40
0.0
  9
$USERR2
 40
0.0
  9
$USERR3
 40
0.0
  9
$USERR4
 40
0.0
  9
$USERR5
 40
0.0
  9
$WORLDVIEW
 70
     1
  9
$SHADEDGE
 70
     3
  9
$SHADEDIF
 70
    70
  9
$TILEMODE
 70
     1
  9
$MAXACTVP
 70
    64
  9
$PINSBASE
 10
0.0
 20
0.0
 30
0.0
  9
$PLIMCHECK
 70
     0
  9
$PEXTMIN
 10
1.000000000000000E+20
 20
1.000000000000000E+20
 30
1.000000000000000E+20
  9
$PEXTMAX
 10
-1.000000000000000E+20
 20
-1.000000000000000E+20
 30
-1.000000000000000E+20
  9
$PLIMMIN
 10
0.0
 20
0.0
  9
$PLIMMAX
 10
12.0
 20
9.0
  9
$UNITMODE
 70
     0
  9
$VISRETAIN
 70
     1
  9
$PLINEGEN
 70
     0
  9
$PSLTSCALE
 70
     1
  9
$TREEDEPTH
 70
  3020
  9
$CMLSTYLE
  2
Standard
  9
$CMLJUST
 70
     0
  9
$CMLSCALE
 40
1.0
  9
$PROXYGRAPHICS
 70
     1
  9
$MEASUREMENT
 70
     0
  9
$CELWEIGHT
370
    -1
  9
$ENDCAPS
280
     0
  9
$JOINSTYLE
280
     0
  9
$LWDISPLAY
290
     0
  9
$INSUNITS
 70
     1
  9
$HYPERLINKBASE
  1

  9
$STYLESHEET
  1

  9
$XEDIT
290
     1
  9
$CEPSNTYPE
380
     0
  9
$PSTYLEMODE
290
     1
  9
$FINGERPRINTGUID
  2
{C4F9879F-B23F-453B-8871-66F7CFF82E8A}
  9
$VERSIONGUID
  2
{FAEB1C32-E019-11D5-929B-00C0DF256EC4}
  9
$EXTNAMES
290
     1
  9
$PSVPSCALE
 40
0.0
  9
$OLESTARTUP
290
     0
  9
$SORTENTS
280
   127
  9
$INDEXCTL
280
     0
  9
$HIDETEXT
280
     1
  9
$XCLIPFRAME
280
     2
  9
$HALOGAP
280
     0
  9
$OBSCOLOR
 70
   257
  9
$OBSLTYPE
280
     0
  9
$INTERSECTIONDISPLAY
280
     0
  9
$INTERSECTIONCOLOR
 70
   257
  9
$DIMASSOC
280
     2
  9
$PROJECTNAME
  1

  9
$CAMERADISPLAY
290
     0
  9
$LENSLENGTH
 40
50.0
  9
$CAMERAHEIGHT
 40
0.0
  9
$STEPSPERSEC
 40
2.0
  9
$STEPSIZE
 40
6.0
  9
$3DDWFPREC
 40
2.0
  9
$PSOLWIDTH
 40
0.25
  9
$PSOLHEIGHT
 40
4.0
  9
$LOFTANG1
 40
1.570796326794897
  9
$LOFTANG2
 40
1.570796326794897
  9
$LOFTMAG1
 40
0.0
  9
$LOFTMAG2
 40
0.0
  9
$LOFTPARAM
 70
     7
  9
$LOFTNORMALS
280
     1
  9
$LATITUDE
 40
37.795
  9
$LONGITUDE
 40
-122.394
  9
$NORTHDIRECTION
 40
0.0
  9
$TIMEZONE
 70
 -8000
  9
$LIGHTGLYPHDISPLAY
280
     1
  9
$TILEMODELIGHTSYNCH
280
     1
  9
$CMATERIAL
347
44
  9
$SOLIDHIST
280
     0
  9
$SHOWHIST
280
     1
  9
$DWFFRAME
280
     2
  9
$DGNFRAME
280
     2
  9
$REALWORLDSCALE
290
     1
  9
$INTERFERECOLOR
 62
   256
  9
$CSHADOW
280
     0
  9
$SHADOWPLANELOCATION
 40
0.0
  0
ENDSEC
  0
SECTION
  2
CLASSES
  0
CLASS
  1
ACDBDICTIONARYWDFLT
  2
AcDbDictionaryWithDefault
  3
ObjectDBX Classes
 90
        0
 91
        4
280
     0
281
     0
  0
CLASS
  1
VISUALSTYLE
  2
AcDbVisualStyle
  3
ObjectDBX Classes
 90
     4095
 91
        4
280
     0
281
     0
  0
CLASS
  1
MATERIAL
  2
AcDbMaterial
  3
ObjectDBX Classes
 90
     1153
 91
        4
280
     0
281
     0
  0
CLASS
  1
SCALE
  2
AcDbScale
  3
ObjectDBX Classes
 90
     1153
 91
        4
280
     0
281
     0
  0
CLASS
  1
TABLESTYLE
  2
AcDbTableStyle
  3
ObjectDBX Classes
 90
     4095
 91
        4
280
     0
281
     0
  0
CLASS
  1
MLEADERSTYLE
  2
AcDbMLeaderStyle
  3
ACDB_MLEADERSTYLE_CLASS
 90
     4095
 91
        4
280
     0
281
     0
  0
CLASS
  1
SUN
  2
AcDbSun
  3
SCENEOE
 90
     1153
 91
        4
280
     0
281
     0
  0
CLASS
  1
DICTIONARYVAR
  2
AcDbDictionaryVar
  3
ObjectDBX Classes
 90
        0
 91
        4
280
     0
281
     0
  0
CLASS
  1
CELLSTYLEMAP
  2
AcDbCellStyleMap
  3
ObjectDBX Classes
 90
     1152
 91
        4
280
     0
281
     0
  0
ENDSEC
  0
SECTION
  2
TABLES
  0
TABLE
  2
VPORT
  5
8
330
0
100
AcDbSymbolTable
 70
     1
  0
VPORT
  5
29
330
8
100
AcDbSymbolTableRecord
100
AcDbViewportTableRecord
  2
*Active
 70
     0
 10
0.0
 20
0.0
 11
1.0
 21
1.0
 12
0.0
 22
1.121999931335449
 13
0.0
 23
0.0
 14
0.5
 24
0.5
 15
0.5
 25
0.5
 16
0.0
 26
0.0
 36
1.0
 17
0.0
 27
0.0
 37
0.0
 40
9.938879859924317
 41
0.5080049332680481
 42
50.0
 43
0.0
 44
0.0
 50
0.0
 51
0.0
 71
     0
 72
   100
 73
     1
 74
     3
 75
     0
 76
     0
 77
     0
 78
     0
281
     0
 65
     1
110
0.0
120
0.0
130
0.0
111
1.0
121
0.0
131
0.0
112
0.0
122
1.0
132
0.0
 79
     0
146
0.0
348
2F
 60
     3
 61
     5
292
     1
282
     1
141
0.0
142
0.0
 63
   250
361
6D
  0
ENDTAB
  0
TABLE
  2
LTYPE
  5
5
330
0
100
AcDbSymbolTable
 70
     3
  0
LTYPE
  5
14
330
5
100
AcDbSymbolTableRecord
100
AcDbLinetypeTableRecord
  2
ByBlock
 70
     0
  3

 72
    65
 73
     0
 40
0.0
  0
LTYPE
  5
15
330
5
100
AcDbSymbolTableRecord
100
AcDbLinetypeTableRecord
  2
ByLayer
 70
     0
  3

 72
    65
 73
     0
 40
0.0
  0
LTYPE
  5
16
330
5
100
AcDbSymbolTableRecord
100
AcDbLinetypeTableRecord
  2
Continuous
 70
     0
  3
Solid line
 72
    65
 73
     0
 40
0.0
  0
LTYPE
  5
B1
330
5
100
AcDbSymbolTableRecord
100
AcDbLinetypeTableRecord
  2
Dashed
 70
     0
  3

 72
    65
 73
     2
 40
2.0
 49
1.0
 74
     0
 49
-1.0
 74
     0
  0
LTYPE
  5
1BD
330
5
100
AcDbSymbolTableRecord
100
AcDbLinetypeTableRecord
  2
Center
 70
     0
  3

 72
    65
 73
     4
 40
1.5
 49
0.45
 74
     0
 49
-0.5
 74
     0
 49
0.05
 74
     0
 49
-0.5
 74
     0
  0
ENDTAB
  0
TABLE
  2
LAYER
  5
2
330
0
100
AcDbSymbolTable
 70
     7
  0
LAYER
  5
10
330
2
100
AcDbSymbolTableRecord
100
AcDbLayerTableRecord
  2
0
 70
     0
 62
     7
  6
Continuous
370
    -3
390
F
347
46
348
0
  0
LAYER
  5
72
330
2
100
AcDbSymbolTableRecord
100
AcDbLayerTableRecord
  2
AM_6
 70
     0
 62
    -2
  6
Continuous
370
    35
390
F
347
46
348
0
  0
LAYER
  5
B2
330
2
100
AcDbSymbolTableRecord
100
AcDbLayerTableRecord
  2
AM_9
 70
     0
 62
     6
  6
Dashed
370
    25
390
F
347
46
348
0
  0
LAYER
  5
CE
330
2
100
AcDbSymbolTableRecord
100
AcDbLayerTableRecord
  2
AM_5
 70
     0
 62
     3
  6
Continuous
370
    25
390
F
347
46
348
0
  0
LAYER
  5
D1
330
2
100
AcDbSymbolTableRecord
100
AcDbLayerTableRecord
  2
AM_4
 70
     0
 62
     7
  6
Continuous
370
    50
390
F
347
46
348
0
  0
LAYER
  5
1BE
330
2
100
AcDbSymbolTableRecord
100
AcDbLayerTableRecord
  2
AM_7
 70
     0
 62
     7
  6
Center
370
    25
390
F
347
46
348
0
  0
LAYER
  5
261
330
2
100
AcDbSymbolTableRecord
100
AcDbLayerTableRecord
  2
ConnectionPoints
 70
     0
 62
     7
  6
Continuous
370
    50
390
F
347
46
348
0
  0
ENDTAB
  0
TABLE
  2
STYLE
  5
3
330
0
100
AcDbSymbolTable
 70
     1
  0
STYLE
  5
11
330
3
100
AcDbSymbolTableRecord
100
AcDbTextStyleTableRecord
  2
Standard
 70
     0
 40
0.0
 41
1.0
 50
0.0
 71
     0
 42
0.2
  3
txt
  4

  0
ENDTAB
  0
TABLE
  2
VIEW
  5
6
330
0
100
AcDbSymbolTable
 70
     0
  0
ENDTAB
  0
TABLE
  2
UCS
  5
7
330
0
100
AcDbSymbolTable
 70
     0
  0
ENDTAB
  0
TABLE
  2
APPID
  5
9
330
0
100
AcDbSymbolTable
 70
     1
  0
APPID
  5
12
330
9
100
AcDbSymbolTableRecord
100
AcDbRegAppTableRecord
  2
ACAD
 70
     0
  0
ENDTAB
  0
TABLE
  2
DIMSTYLE
  5
A
330
0
100
AcDbSymbolTable
 70
     1
100
AcDbDimStyleTable
  0
DIMSTYLE
105
27
330
A
100
AcDbSymbolTableRecord
100
AcDbDimStyleTableRecord
  2
Standard
 70
     0
178
     0
340
11
  0
ENDTAB
  0
TABLE
  2
BLOCK_RECORD
  5
1
330
0
100
AcDbSymbolTable
 70
     7
  0
BLOCK_RECORD
  5
1F
330
1
100
AcDbSymbolTableRecord
100
AcDbBlockTableRecord
  2
*Model_Space
340
22
 70
     0
280
     1
281
     0
  0
BLOCK_RECORD
  5
1B
330
1
100
AcDbSymbolTableRecord
100
AcDbBlockTableRecord
  2
*Paper_Space
340
1E
 70
     0
280
     1
281
     0
  0
BLOCK_RECORD
  5
23
330
1
100
AcDbSymbolTableRecord
100
AcDbBlockTableRecord
  2
*Paper_Space0
340
26
 70
     0
280
     1
281
     0
  0
BLOCK_RECORD
  5
6E
330
1
100
AcDbSymbolTableRecord
100
AcDbBlockTableRecord
  2
1_037588_2
340
0
102
{BLKREFS
331
6F
102
}
 70
     0
280
     1
281
     0
  0
BLOCK_RECORD
  5
9C
330
1
100
AcDbSymbolTableRecord
100
AcDbBlockTableRecord
  2
2_2_15_16C_1_0_in_037588_2
340
0
102
{BLKREFS
331
9D
102
}
 70
     0
280
     1
281
     0
  0
BLOCK_RECORD
  5
DC
330
1
100
AcDbSymbolTableRecord
100
AcDbBlockTableRecord
  2
3_2_15_16C_2_0_in_037588_2
340
0
102
{BLKREFS
331
DD
102
}
 70
     0
280
     1
281
     0
  0
BLOCK_RECORD
  5
118
330
1
100
AcDbSymbolTableRecord
100
AcDbBlockTableRecord
  2
4_405015E_Inch_0_in_037588_2
340
0
102
{BLKREFS
331
119
102
}
 70
     0
280
     1
281
     0
  0
BLOCK_RECORD
  5
156
330
1
100
AcDbSymbolTableRecord
100
AcDbBlockTableRecord
  2
5_S1U_TAF_215_Ins_0_in_037588_2
340
0
102
{BLKREFS
331
157
102
}
 70
     0
280
     1
281
     0
  0
BLOCK_RECORD
  5
1C4
330
1
100
AcDbSymbolTableRecord
100
AcDbBlockTableRecord
  2
6_P2b_taf_215r_0_in_037588_2
340
0
102
{BLKREFS
331
1C5
102
}
 70
     0
280
     1
281
     0
  0
ENDTAB
  0
ENDSEC
  0
SECTION
  2
BLOCKS
  0
BLOCK
  5
20
330
1F
100
AcDbEntity
  8
0
100
AcDbBlockBegin
  2
*Model_Space
 70
     0
 10
0.0
 20
0.0
 30
0.0
  3
*Model_Space
  1

  0
ENDBLK
  5
21
330
1F
100
AcDbEntity
  8
0
100
AcDbBlockEnd
  0
BLOCK
  5
1C
330
1B
100
AcDbEntity
 67
     1
  8
0
100
AcDbBlockBegin
  2
*Paper_Space
 70
     0
 10
0.0
 20
0.0
 30
0.0
  3
*Paper_Space
  1

  0
ENDBLK
  5
1D
330
1B
100
AcDbEntity
 67
     1
  8
0
100
AcDbBlockEnd
  0
BLOCK
  5
24
330
23
100
AcDbEntity
  8
0
100
AcDbBlockBegin
  2
*Paper_Space0
 70
     0
 10
0.0
 20
0.0
 30
0.0
  3
*Paper_Space0
  1

  0
ENDBLK
  5
25
330
23
100
AcDbEntity
  8
0
100
AcDbBlockEnd
  0
BLOCK
  5
70
330
6E
100
AcDbEntity
  8
0
100
AcDbBlockBegin
  2
1_037588_2
 70
     2
 10
0.0
 20
0.0
 30
0.0
  3
1_037588_2
  1

  0
ATTDEF
  5
73
330
6E
100
AcDbEntity
  8
AM_6
100
AcDbText
 10
7.475
 20
5.993999862670899
 30
0.0
 40
0.5
  1
TAF Pillow Block - Inch 2-Bolt Base Non-Expansion Type
100
AcDbAttributeDefinition
  3

  2
NN
 70
     8
280
     0
  0
ATTDEF
  5
74
330
6E
100
AcDbEntity
  8
AM_6
100
AcDbText
 10
7.475
 20
5.493999862670899
 30
0.0
 40
0.5
  1
Taf Bearings
100
AcDbAttributeDefinition
  3

  2
NT
 70
     8
280
     0
  0
ATTDEF
  5
75
330
6E
100
AcDbEntity
  8
AM_6
100
AcDbText
 10
7.475
 20
4.993999862670899
 30
0.0
 40
0.5
  1
037588
100
AcDbAttributeDefinition
  3

  2
NB
 70
     8
280
     0
  0
ATTDEF
  5
76
330
6E
100
AcDbEntity
  8
AM_6
100
AcDbText
 10
7.475
 20
4.493999862670899
 30
0.0
 40
0.5
  1
$PN.
100
AcDbAttributeDefinition
  3

  2
NBSYN
 70
     8
280
     0
  0
ATTDEF
  5
77
330
6E
100
AcDbEntity
  8
AM_6
100
AcDbText
 10
7.475
 20
3.993999862670899
 30
0.0
 40
0.5
  1
037588
100
AcDbAttributeDefinition
  3

  2
LINA
 70
     8
280
     0
  0
ATTDEF
  5
78
330
6E
100
AcDbEntity
  8
AM_6
100
AcDbText
 10
7.475
 20
3.493999862670899
 30
0.0
 40
0.5
  1
2-15/16
100
AcDbAttributeDefinition
  3

  2
SS
 70
     8
280
     0
  0
ATTDEF
  5
79
330
6E
100
AcDbEntity
  8
AM_6
100
AcDbText
 10
7.475
 20
2.993999862670899
 30
0.0
 40
0.5
  1
517
100
AcDbAttributeDefinition
  3

  2
SERIES
 70
     8
280
     0
  0
ATTDEF
  5
7A
330
6E
100
AcDbEntity
  8
AM_6
100
AcDbText
 10
7.475
 20
2.493999862670899
 30
0.0
 40
0.5
  1
037588
100
AcDbAttributeDefinition
  3

  2
PN
 70
     8
280
     0
  0
ATTDEF
  5
7B
330
6E
100
AcDbEntity
  8
AM_6
100
AcDbText
 10
7.475
 20
1.993999862670899
 30
0.0
 40
0.5
  1
P2b-taf-215r
100
AcDbAttributeDefinition
  3

  2
DESCRIPTION
 70
     8
280
     0
  0
ATTDEF
  5
7C
330
6E
100
AcDbEntity
  8
AM_6
100
AcDbText
 10
7.475
 20
1.493999862670899
 30
0.0
 40
0.5
  1
2
100
AcDbAttributeDefinition
  3

  2
HF
 70
     8
280
     0
  0
ATTDEF
  5
7D
330
6E
100
AcDbEntity
  8
AM_6
100
AcDbText
 10
7.475
 20
0.9939998626708988
 30
0.0
 40
0.5
  1
Non Expansion Type
100
AcDbAttributeDefinition
  3

  2
EF
 70
     8
280
     0
  0
ATTDEF
  5
7E
330
6E
100
AcDbEntity
  8
AM_6
100
AcDbText
 10
7.475
 20
0.4939998626708988
 30
0.0
 40
0.5
  1
4.50
100
AcDbAttributeDefinition
  3

  2
A
 70
     8
280
     0
  0
ATTDEF
  5
7F
330
6E
100
AcDbEntity
  8
AM_6
100
AcDbText
 10
7.475
 20
-0.0060001373291012
 30
0.0
 40
0.5
  1
12.59
100
AcDbAttributeDefinition
  3

  2
B
 70
     8
280
     0
  0
ATTDEF
  5
80
330
6E
100
AcDbEntity
  8
AM_6
100
AcDbText
 10
7.475
 20
-0.5060001373291012
 30
0.0
 40
0.5
  1
3.50
100
AcDbAttributeDefinition
  3

  2
C
 70
     8
280
     0
  0
ATTDEF
  5
81
330
6E
100
AcDbEntity
  8
AM_6
100
AcDbText
 10
7.475
 20
-1.006000137329101
 30
0.0
 40
0.5
  1
9.88
100
AcDbAttributeDefinition
  3

  2
DMIN
 70
     8
280
     0
  0
ATTDEF
  5
82
330
6E
100
AcDbEntity
  8
AM_6
100
AcDbText
 10
7.475
 20
-1.506000137329101
 30
0.0
 40
0.5
  1
11.00
100
AcDbAttributeDefinition
  3

  2
DMAX
 70
     8
280
     0
  0
ATTDEF
  5
83
330
6E
100
AcDbEntity
  8
AM_6
100
AcDbText
 10
7.475
 20
-2.006000137329101
 30
0.0
 40
0.5
  1
2.13
100
AcDbAttributeDefinition
  3

  2
E
 70
     8
280
     0
  0
ATTDEF
  5
84
330
6E
100
AcDbEntity
  8
AM_6
100
AcDbText
 10
7.475
 20
-2.506000137329101
 30
0.0
 40
0.5
  1
3/4
100
AcDbAttributeDefinition
  3

  2
F
 70
     8
280
     0
  0
ATTDEF
  5
85
330
6E
100
AcDbEntity
  8
AM_6
100
AcDbText
 10
7.475
 20
-3.006000137329101
 30
0.0
 40
0.5
  1
1.44
100
AcDbAttributeDefinition
  3

  2
G
 70
     8
280
     0
  0
ATTDEF
  5
86
330
6E
100
AcDbEntity
  8
AM_6
100
AcDbText
 10
7.475
 20
-3.506000137329101
 30
0.0
 40
0.5
  1
1.25
100
AcDbAttributeDefinition
  3

  2
H
 70
     8
280
     0
  0
ATTDEF
  5
87
330
6E
100
AcDbEntity
  8
AM_6
100
AcDbText
 10
7.475
 20
-4.006000137329101
 30
0.0
 40
0.5
  1
7.92
100
AcDbAttributeDefinition
  3

  2
J
 70
     8
280
     0
  0
ATTDEF
  5
88
330
6E
100
AcDbEntity
  8
AM_6
100
AcDbText
 10
7.475
 20
-4.506000137329101
 30
0.0
 40
0.5
  1
2.25
100
AcDbAttributeDefinition
  3

  2
K
 70
     8
280
     0
  0
ATTDEF
  5
89
330
6E
100
AcDbEntity
  8
AM_6
100
AcDbText
 10
7.475
 20
-5.006000137329101
 30
0.0
 40
0.5
  1
4.72
100
AcDbAttributeDefinition
  3

  2
L
 70
     8
280
     0
  0
ATTDEF
  5
8A
330
6E
100
AcDbEntity
  8
AM_6
100
AcDbText
 10
7.475
 20
-5.506000137329101
 30
0.0
 40
0.5
  1
3.75
100
AcDbAttributeDefinition
  3

  2
M
 70
     8
280
     0
  0
ATTDEF
  5
8B
330
6E
100
AcDbEntity
  8
AM_6
100
AcDbText
 10
7.475
 20
-6.006000137329101
 30
0.0
 40
0.5
  1
8.31
100
AcDbAttributeDefinition
  3

  2
P
 70
     8
280
     0
  0
ATTDEF
  5
8C
330
6E
100
AcDbEntity
  8
AM_6
100
AcDbText
 10
7.475
 20
-6.506000137329101
 30
0.0
 40
0.5
  1
0.28
100
AcDbAttributeDefinition
  3

  2
T
 70
     8
280
     0
  0
ATTDEF
  5
8D
330
6E
100
AcDbEntity
  8
AM_6
100
AcDbText
 10
7.475
 20
-7.006000137329101
 30
0.0
 40
0.5
  1
61200
100
AcDbAttributeDefinition
  3

  2
SC
 70
     8
280
     0
  0
ATTDEF
  5
8E
330
6E
100
AcDbEntity
  8
AM_6
100
AcDbText
 10
7.475
 20
-7.506000137329101
 30
0.0
 40
0.5
  1
9600
100
AcDbAttributeDefinition
  3

  2
DC
 70
     8
280
     0
  0
ATTDEF
  5
8F
330
6E
100
AcDbEntity
  8
AM_6
100
AcDbText
 10
7.475
 20
-8.006000137329101
 30
0.0
 40
0.5
  1
24
100
AcDbAttributeDefinition
  3

  2
RN
 70
     8
280
     0
  0
ATTDEF
  5
90
330
6E
100
AcDbEntity
  8
AM_6
100
AcDbText
 10
7.475
 20
-8.506000137329101
 30
0.0
 40
0.5
  1
0.41
100
AcDbAttributeDefinition
  3

  2
RMD
 70
     8
280
     0
  0
ATTDEF
  5
91
330
6E
100
AcDbEntity
  8
AM_6
100
AcDbText
 10
7.475
 20
-9.006000137329101
 30
0.0
 40
0.5
  1
3.900
100
AcDbAttributeDefinition
  3

  2
PD
 70
     8
280
     0
  0
ATTDEF
  5
92
330
6E
100
AcDbEntity
  8
AM_6
100
AcDbText
 10
7.475
 20
-9.506000137329101
 30
0.0
 40
0.5
  1
0.004/0.012
100
AcDbAttributeDefinition
  3

  2
EP
 70
     8
280
     0
  0
ATTDEF
  5
93
330
6E
100
AcDbEntity
  8
AM_6
100
AcDbText
 10
7.475
 20
-10.0060001373291
 30
0.0
 40
0.5
  1
1/2-13x7/8
100
AcDbAttributeDefinition
  3

  2
CSS
 70
     8
280
     0
  0
ATTDEF
  5
94
330
6E
100
AcDbEntity
  8
AM_6
100
AcDbText
 10
7.475
 20
-10.5060001373291
 30
0.0
 40
0.5
  1
620
100
AcDbAttributeDefinition
  3

  2
CST
 70
     8
280
     0
  0
ATTDEF
  5
95
330
6E
100
AcDbEntity
  8
AM_6
100
AcDbText
 10
7.475
 20
-11.0060001373291
 30
0.0
 40
0.5
  1
A48 CLASS 30
100
AcDbAttributeDefinition
  3

  2
HM
 70
     8
280
     0
  0
ATTDEF
  5
96
330
6E
100
AcDbEntity
  8
AM_6
100
AcDbText
 10
7.475
 20
-11.5060001373291
 30
0.0
 40
0.5
  1
4118 CASE CARB.
100
AcDbAttributeDefinition
  3

  2
CM
 70
     8
280
     0
  0
ATTDEF
  5
97
330
6E
100
AcDbEntity
  8
AM_6
100
AcDbText
 10
7.475
 20
-12.0060001373291
 30
0.0
 40
0.5
  1
4118 CASE CARB.
100
AcDbAttributeDefinition
  3

  2
CUM
 70
     8
280
     0
  0
ATTDEF
  5
98
330
6E
100
AcDbEntity
  8
AM_6
100
AcDbText
 10
7.475
 20
-12.5060001373291
 30
0.0
 40
0.5
  1
STEEL
100
AcDbAttributeDefinition
  3

  2
RM
 70
     8
280
     0
  0
ATTDEF
  5
99
330
6E
100
AcDbEntity
  8
AM_6
100
AcDbText
 10
7.475
 20
-13.0060001373291
 30
0.0
 40
0.5
  1
4118 CASE CARB.
100
AcDbAttributeDefinition
  3

  2
ROM
 70
     8
280
     0
  0
ATTDEF
  5
9A
330
6E
100
AcDbEntity
  8
AM_6
100
AcDbText
 10
7.475
 20
-13.5060001373291
 30
0.0
 40
0.5
  1
4.80
100
AcDbAttributeDefinition
  3

  2
SM
 70
     8
280
     0
  0
ATTDEF
  5
9B
330
6E
100
AcDbEntity
  8
AM_6
100
AcDbText
 10
7.475
 20
-14.0060001373291
 30
0.0
 40
0.5
  1
baldor
100
AcDbAttributeDefinition
  3

  2
COMPANY
 70
     8
280
     0
  0
INSERT
  5
9D
330
6E
100
AcDbEntity
  8
0
100
AcDbBlockReference
  2
2_2_15_16C_1_0_in_037588_2
 10
0.0
 20
0.0
 30
0.0
  0
INSERT
  5
DD
330
6E
100
AcDbEntity
  8
0
100
AcDbBlockReference
  2
3_2_15_16C_2_0_in_037588_2
 10
0.0
 20
0.0
 30
0.0
  0
INSERT
  5
119
330
6E
100
AcDbEntity
  8
0
100
AcDbBlockReference
  2
4_405015E_Inch_0_in_037588_2
 10
0.0
 20
0.0
 30
0.0
  0
INSERT
  5
157
330
6E
100
AcDbEntity
  8
0
100
AcDbBlockReference
  2
5_S1U_TAF_215_Ins_0_in_037588_2
 10
0.0
 20
0.0
 30
0.0
  0
INSERT
  5
1C5
330
6E
100
AcDbEntity
  8
0
100
AcDbBlockReference
  2
6_P2b_taf_215r_0_in_037588_2
 10
0.0
 20
0.0
 30
0.0
  0
ENDBLK
  5
71
330
6E
100
AcDbEntity
  8
0
100
AcDbBlockEnd
  0
BLOCK
  5
9E
330
9C
100
AcDbEntity
  8
0
100
AcDbBlockBegin
  2
2_2_15_16C_1_0_in_037588_2
 70
     2
 10
0.0
 20
0.0
 30
0.0
  3
2_2_15_16C_1_0_in_037588_2
  1

  0
ATTDEF
  5
A0
330
9C
100
AcDbEntity
  8
AM_6
100
AcDbText
 10
7.25
 20
2.359375
 30
0.0
 40
0.5
  1
E-Type Collar -Inch
100
AcDbAttributeDefinition
  3

  2
NN
 70
     8
280
     0
  0
ATTDEF
  5
A1
330
9C
100
AcDbEntity
  8
AM_6
100
AcDbText
 10
7.25
 20
1.859375
 30
0.0
 40
0.5
  1
E-Type Bearings
100
AcDbAttributeDefinition
  3

  2
NT
 70
     8
280
     0
  0
ATTDEF
  5
A2
330
9C
100
AcDbEntity
  8
AM_6
100
AcDbText
 10
7.25
 20
1.359375
 30
0.0
 40
0.5
  1
2-15/16C
100
AcDbAttributeDefinition
  3

  2
NB
 70
     8
280
     0
  0
ATTDEF
  5
A3
330
9C
100
AcDbEntity
  8
AM_6
100
AcDbText
 10
7.25
 20
0.8593750000000004
 30
0.0
 40
0.5
  1
$BORE.C
100
AcDbAttributeDefinition
  3

  2
NBSYN
 70
     8
280
     0
  0
ATTDEF
  5
A4
330
9C
100
AcDbEntity
  8
AM_6
100
AcDbText
 10
7.25
 20
0.3593750000000004
 30
0.0
 40
0.5
  1
2-15/16C
100
AcDbAttributeDefinition
  3

  2
LINA
 70
     8
280
     0
  0
ATTDEF
  5
A5
330
9C
100
AcDbEntity
  8
AM_6
100
AcDbText
 10
7.25
 20
-0.1406249999999996
 30
0.0
 40
0.5
  1
2-15/16
100
AcDbAttributeDefinition
  3

  2
BORE
 70
     8
280
     0
  0
ATTDEF
  5
A6
330
9C
100
AcDbEntity
  8
AM_6
100
AcDbText
 10
7.25
 20
-0.6406249999999996
 30
0.0
 40
0.5
  1
4.71875
100
AcDbAttributeDefinition
  3

  2
L
 70
     8
280
     0
  0
ATTDEF
  5
A7
330
9C
100
AcDbEntity
  8
AM_6
100
AcDbText
 10
7.25
 20
-1.140625
 30
0.0
 40
0.5
  1
4.50
100
AcDbAttributeDefinition
  3

  2
A
 70
     8
280
     0
  0
ATTDEF
  5
A8
330
9C
100
AcDbEntity
  8
AM_6
100
AcDbText
 10
7.25
 20
-1.640625
 30
0.0
 40
0.5
  1
1.94
100
AcDbAttributeDefinition
  3

  2
B
 70
     8
280
     0
  0
ATTDEF
  5
A9
330
9C
100
AcDbEntity
  8
AM_6
100
AcDbText
 10
7.25
 20
-2.140625
 30
0.0
 40
0.5
  1
3.47
100
AcDbAttributeDefinition
  3

  2
C
 70
     8
280
     0
  0
ATTDEF
  5
AA
330
9C
100
AcDbEntity
  8
AM_6
100
AcDbText
 10
7.25
 20
-2.640625
 30
0.0
 40
0.5
  1
4.78
100
AcDbAttributeDefinition
  3

  2
D
 70
     8
280
     0
  0
ATTDEF
  5
AB
330
9C
100
AcDbEntity
  8
AM_6
100
AcDbText
 10
7.25
 20
-3.140625
 30
0.0
 40
0.5
  1
0.54
100
AcDbAttributeDefinition
  3

  2
E
 70
     8
280
     0
  0
ATTDEF
  5
AC
330
9C
100
AcDbEntity
  8
AM_6
100
AcDbText
 10
7.25
 20
-3.640625
 30
0.0
 40
0.5
  1
0.44
100
AcDbAttributeDefinition
  3

  2
F
 70
     8
280
     0
  0
ATTDEF
  5
AD
330
9C
100
AcDbEntity
  8
AM_6
100
AcDbText
 10
7.25
 20
-4.140625
 30
0.0
 40
0.5
  1
1/2-13
100
AcDbAttributeDefinition
  3

  2
CS
 70
     8
280
     0
  0
ATTDEF
  5
AE
330
9C
100
AcDbEntity
  8
AM_6
100
AcDbText
 10
7.25
 20
-4.640625
 30
0.0
 40
0.5
  1
0.5000
100
AcDbAttributeDefinition
  3

  2
NDM
 70
     8
280
     0
  0
ATTDEF
  5
AF
330
9C
100
AcDbEntity
  8
AM_6
100
AcDbText
 10
7.25
 20
-5.140625
 30
0.0
 40
0.5
  1
0.4170
100
AcDbAttributeDefinition
  3

  2
KDM
 70
     8
280
     0
  0
ATTDEF
  5
B0
330
9C
100
AcDbEntity
  8
AM_6
100
AcDbText
 10
7.25
 20
-5.640625
 30
0.0
 40
0.5
  1
baldor
100
AcDbAttributeDefinition
  3

  2
COMPANY
 70
     8
280
     0
  0
LINE
  5
B3
330
9C
100
AcDbEntity
  8
AM_9
100
AcDbLine
 10
1.60165
 20
1.743316666666666
 30
0.0
 11
1.593692063818954
 21
1.73535873048562
 31
0.0
  0
LINE
  5
B4
330
9C
100
AcDbEntity
  8
AM_9
100
AcDbLine
 10
2.026401677631181
 20
1.735264989035485
 30
0.0
 11
2.01835
 21
1.743316666666666
 31
0.0
  0
LINE
  5
B5
330
9C
100
AcDbEntity
  8
AM_9
100
AcDbLine
 10
2.01835
 20
2.317725
 30
0.0
 11
2.05956198299665
 21
2.35893698299665
 31
0.0
  0
LINE
  5
B6
330
9C
100
AcDbEntity
  8
AM_9
100
AcDbLine
 10
1.560112557122459
 20
2.359262442877541
 30
0.0
 11
1.60165
 21
2.317725
 31
0.0
  0
LINE
  5
B7
330
9C
100
AcDbEntity
  8
AM_9
100
AcDbLine
 10
1.60165
 20
2.317725
 30
0.0
 11
2.01835
 21
2.317725
 31
0.0
  0
LINE
  5
B8
330
9C
100
AcDbEntity
  8
AM_9
100
AcDbLine
 10
1.60165
 20
1.743316666666666
 30
0.0
 11
2.01835
 21
1.743316666666666
 31
0.0
  0
LINE
  5
B9
330
9C
100
AcDbEntity
  8
AM_9
100
AcDbLine
 10
2.01835
 20
1.743316666666666
 30
0.0
 11
2.01835
 21
2.317725
 31
0.0
  0
LINE
  5
BA
330
9C
100
AcDbEntity
  8
AM_9
100
AcDbLine
 10
1.60165
 20
2.317725
 30
0.0
 11
1.60165
 21
1.743316666666666
 31
0.0
  0
ELLIPSE
  5
BB
330
9C
100
AcDbEntity
  8
AM_9
100
AcDbEllipse
 10
1.809999999999998
 20
0.7367574593302585
 30
0.0
 11
0.208349999999998
 21
0.0
 31
0.0
210
0.0
220
0.0
230
1.0
 40
0.9063077870366489
 41
2.443456542577994
 42
3.141592653589793
  0
ELLIPSE
  5
BC
330
9C
100
AcDbEntity
  8
AM_9
100
AcDbEllipse
 10
1.81
 20
0.7367574593302562
 30
0.0
 11
0.2083500000000002
 21
3.104656934738163E-9
 31
0.0
210
0.0
220
0.0
230
1.0
 40
0.9063077870366516
 41
1.862909947201807
 42
2.443456527349714
  0
ELLIPSE
  5
BD
330
9C
100
AcDbEntity
  8
AM_9
100
AcDbEllipse
 10
1.810000000000007
 20
0.7367574593302604
 30
0.0
 11
0.2083499999999932
 21
0.0
 31
0.0
210
0.0
220
0.0
230
1.0
 40
0.9063077870366478
 41
3.141592653589793
 42
6.981321418191393
  0
LINE
  5
BE
330
9C
100
AcDbEntity
  8
AM_9
100
AcDbLine
 10
2.01835
 20
0.7367574593302568
 30
0.0
 11
2.01835
 21
0.9795129106929622
 31
0.0
  0
LINE
  5
BF
330
9C
100
AcDbEntity
  8
AM_9
100
AcDbLine
 10
1.60165
 20
0.9795129106929622
 30
0.0
 11
1.60165
 21
0.7367574593302568
 31
0.0
  0
ELLIPSE
  5
C0
330
9C
100
AcDbEntity
  8
AM_9
100
AcDbEllipse
 10
1.81
 20
0.9795129106929626
 30
0.0
 11
0.2083500000000002
 21
3.104656934738163E-9
 31
0.0
210
0.0
220
0.0
230
1.0
 40
0.906307787036651
 41
1.862909947201809
 42
4.420275332480637
  0
LWPOLYLINE
  5
C1
330
9C
100
AcDbEntity
  8
AM_9
100
AcDbPolyline
 90
       39
 70
     0
 43
0.0
 10
1.654460767138978
 20
0.5837216828189349
 10
1.678197992660089
 20
0.5621914304862246
 10
1.705704398860351
 20
0.5437817440865206
 10
1.738752577690727
 20
0.5286101330073818
 10
1.775308884043453
 20
0.5190210942237665
 10
1.809448280293217
 20
0.5161190449049236
 10
1.844659609339304
 20
0.5190157922953418
 10
1.876729276553558
 20
0.5270396867747147
 10
1.907831273095757
 20
0.5402710588245737
 10
1.93634634917952
 20
0.5580495763906972
 10
1.962214827786413
 20
0.5803142753877912
 10
1.984972569846916
 20
0.607037453319781
 10
2.003458188147673
 20
0.6373402601943325
 10
2.017103700389159
 20
0.6709887290329131
 10
2.024960235219265
 20
0.706845954847602
 10
2.026411114352762
 20
0.7434194750101196
 10
2.021067220647529
 20
0.7803295335151326
 10
2.009189965200795
 20
0.8148593693106496
 10
1.990340734915682
 20
0.8476777130326707
 10
1.966484769650647
 20
0.8754861606673191
 10
1.936410334238764
 20
0.8997111918724505
 10
1.904571293770885
 20
0.9172133521964031
 10
1.8683464517832
 20
0.929827366990883
 10
1.834026229611861
 20
0.9359405638623236
 10
1.797831398016388
 20
0.9368513382657401
 10
1.764888599907363
 20
0.9328134877579397
 10
1.732295213212401
 20
0.9239419010702572
 10
1.702422082354892
 20
0.910888768553887
 10
1.674654236130354
 20
0.8934395013134131
 10
1.64965509630899
 20
0.8716330573039577
 10
1.628388550425192
 20
0.8458669307679771
 10
1.611321425731918
 20
0.8159806573729139
 10
1.599573200158219
 20
0.7828936477108867
 10
1.593831299756221
 20
0.747436268528391
 10
1.594633464860007
 20
0.7102025407410517
 10
1.602112024932895
 20
0.6735643456235485
 10
1.616602020644807
 20
0.6372212244336629
 10
1.633235434007992
 20
0.6095458402862491
 10
1.654460767138978
 20
0.5837216828189348
  0
LINE
  5
C2
330
9C
100
AcDbEntity
  8
AM_9
100
AcDbLine
 10
2.25
 20
1.735
 30
0.0
 11
2.026045048667588
 21
1.735
 31
0.0
  0
LINE
  5
C3
330
9C
100
AcDbEntity
  8
AM_9
100
AcDbLine
 10
1.594172398070024
 20
1.735
 30
0.0
 11
1.37
 21
1.735
 31
0.0
  0
LINE
  5
C4
330
9C
100
AcDbEntity
  8
AM_9
100
AcDbLine
 10
1.37
 20
-1.735
 30
0.0
 11
2.25
 21
-1.735
 31
0.0
  0
LWPOLYLINE
  5
C5
330
9C
100
AcDbEntity
  8
AM_9
100
AcDbPolyline
 90
       21
 70
     0
 43
0.0
 10
1.593333333333416
 20
1.734999999999989
 10
1.593960288434045
 20
1.734907118711451
 10
1.60017042818074
 20
1.734039130040588
 10
1.613187605814695
 20
1.732289344884671
 10
1.632629757231117
 20
1.729883667903581
 10
1.657641421991179
 20
1.727145362185531
 10
1.68785489446845
 20
1.724379603752346
 10
1.720626323758072
 20
1.722066215237736
 10
1.756437628082113
 20
1.720344091750088
 10
1.791318106206523
 20
1.719504029424383
 10
1.826778266969307
 20
1.719474752753205
 10
1.860006309297697
 20
1.720225087541898
 10
1.89185500592187
 20
1.721629502908366
 10
1.921822817727664
 20
1.723574843478317
 10
1.948868925596456
 20
1.725836063197507
 10
1.973714244414009
 20
1.728337819984525
 10
1.994175428933712
 20
1.730698950424888
 10
2.010743085542843
 20
1.732805942327864
 10
2.02156688754621
 20
1.734280483442391
 10
2.026455950329134
 20
1.734966500839165
 10
2.026666666666074
 20
1.734999999999916
  0
LINE
  5
C6
330
9C
100
AcDbEntity
  8
AM_9
100
AcDbLine
 10
1.652095283153144
 20
1.7277168052602
 30
0.0
 11
1.649555668756486
 21
1.727985576745294
 31
0.0
  0
LINE
  5
C7
330
9C
100
AcDbEntity
  8
AM_9
100
AcDbLine
 10
2.026666666666074
 20
1.734999999999916
 30
0.0
 11
2.020928693993576
 21
1.73419160125851
 31
0.0
  0
LWPOLYLINE
  5
C8
330
9C
100
AcDbEntity
  8
AM_9
100
AcDbPolyline
 90
        5
 70
     0
 43
0.0
 10
1.749818597592097
 20
0.7830083671414981
 10
1.736481139256238
 20
0.7863542802511121
 10
1.695020400036164
 20
0.80164290239356
 10
1.665121363204347
 20
0.818039483038666
 10
1.637404745047907
 20
0.838509314733745
  0
LWPOLYLINE
  5
C9
330
9C
100
AcDbEntity
  8
AM_9
100
AcDbPolyline
 90
       15
 70
     0
 43
0.0
 10
1.637404745047907
 20
0.838509314733745
 10
1.612786521970041
 20
0.8627372035032866
 10
1.591865539762076
 20
0.8906225716712172
 10
1.574620141961734
 20
0.9239338725103372
 10
1.563628037766915
 20
0.9603962989784921
 10
1.560011506727427
 20
0.99504739338859
 10
1.56304783600187
 20
1.030532815533234
 10
1.572179289720224
 20
1.063067470946234
 10
1.587572465257049
 20
1.094438538791401
 10
1.608288276301587
 20
1.12267065910018
 10
1.634542345156681
 20
1.148095216534088
 10
1.665630273573559
 20
1.169746465729017
 10
1.701214275261731
 20
1.187141718103831
 10
1.740324688946399
 20
1.199537369531373
 10
1.749855343647462
 20
1.201651477344969
  0
LINE
  5
CA
330
9C
100
AcDbEntity
  8
AM_9
100
AcDbLine
 10
1.560204208322313
 20
2.359375
 30
0.0
 11
1.37
 21
2.359375
 31
0.0
  0
LINE
  5
CB
330
9C
100
AcDbEntity
  8
AM_9
100
AcDbLine
 10
1.37
 20
-2.359375
 30
0.0
 11
1.75
 21
-2.359375
 31
0.0
  0
LINE
  5
CC
330
9C
100
AcDbEntity
  8
AM_9
100
AcDbLine
 10
1.37
 20
-2.359375
 30
0.0
 11
1.37
 21
2.359375
 31
0.0
  0
LWPOLYLINE
  5
CD
330
9C
100
AcDbEntity
  8
AM_9
100
AcDbPolyline
 90
       10
 70
     0
 43
0.0
 10
1.749792023994541
 20
2.348044362139598
 10
1.724340608412547
 20
2.34876177852493
 10
1.684388346186649
 20
2.350395065462159
 10
1.648096106934724
 20
2.352403149882938
 10
1.617376195886267
 20
2.354500549530382
 10
1.592328862213463
 20
2.356474669536132
 10
1.574673442383182
 20
2.358008276936021
 10
1.563719650834173
 20
2.359021229476038
 10
1.560038125304694
 20
2.359369290576375
 10
1.560000000000052
 20
2.359374999999995
  0
LINE
  5
CF
330
9C
100
AcDbEntity
  8
AM_5
100
AcDbLine
 10
2.06
 20
2.359375
 30
0.0
 11
2.06
 21
1.735000000000001
 31
0.0
  0
LINE
  5
D0
330
9C
100
AcDbEntity
  8
AM_5
100
AcDbLine
 10
1.56
 20
2.359375
 30
0.0
 11
1.56
 21
1.735000000000001
 31
0.0
  0
ELLIPSE
  5
D2
330
9C
100
AcDbEntity
  8
AM_4
100
AcDbEllipse
 10
1.81
 20
0.736757459330257
 30
0.0
 11
0.2083499999999996
 21
0.0
 31
0.0
210
0.0
220
0.0
230
1.0
 40
0.9063077870366507
 41
0.6981361110117987
 42
1.862909960950379
  0
ELLIPSE
  5
D3
330
9C
100
AcDbEntity
  8
AM_4
100
AcDbEllipse
 10
1.81
 20
0.9795129106929628
 30
0.0
 11
0.2083500000000005
 21
0.0
 31
0.0
210
0.0
220
0.0
230
1.0
 40
0.9063077870366506
 41
4.420275346229211
 42
8.146095268129962
  0
LINE
  5
D4
330
9C
100
AcDbEntity
  8
AM_4
100
AcDbLine
 10
2.25
 20
-2.212708333333334
 30
0.0
 11
2.25
 21
2.212708333333334
 31
0.0
  0
ARC
  5
D5
330
9C
100
AcDbEntity
  8
AM_4
100
AcDbCircle
 10
2.103333333333333
 20
2.212708333333333
 30
0.0
 40
0.1466666666666674
100
AcDbArc
 50
0.0
 51
90.0
  0
ARC
  5
D6
330
9C
100
AcDbEntity
  8
AM_4
100
AcDbCircle
 10
2.103333333333333
 20
-2.212708333333333
 30
0.0
 40
0.1466666666666674
100
AcDbArc
 50
270.0
 51
0.0
  0
LINE
  5
D7
330
9C
100
AcDbEntity
  8
AM_4
100
AcDbLine
 10
2.103333333333333
 20
-2.359375
 30
0.0
 11
2.103333333333333
 21
2.359375
 31
0.0
  0
LWPOLYLINE
  5
D8
330
9C
100
AcDbEntity
  8
AM_4
100
AcDbPolyline
 90
       23
 70
     0
 43
0.0
 10
1.749855343647462
 20
1.201651477344969
 10
1.782369947754167
 20
1.206441329282227
 10
1.825285198617749
 20
1.20731766842915
 10
1.868982517114074
 20
1.201886585903598
 10
1.910139280342119
 20
1.190431006263061
 10
1.949567829201778
 20
1.172496692467522
 10
1.983258801221311
 20
1.149879987294374
 10
2.012785918076061
 20
1.1214304996712
 10
2.034535294416357
 20
1.090889148105141
 10
2.050329177094185
 20
1.056080092367966
 10
2.058318007781718
 20
1.02199746415789
 10
2.059657146848933
 20
0.9858213949814849
 10
2.054494008322143
 20
0.951924352941875
 10
2.042894249982266
 20
0.9181095278410507
 10
2.025798774137946
 20
0.8870206335847497
 10
2.002903908805469
 20
0.8579609935641646
 10
1.974981156631457
 20
0.832281984815156
 10
1.942179994433425
 20
0.8104474423556527
 10
1.905285908795002
 20
0.7934091739102601
 10
1.86488680387649
 20
0.7818762920464111
 10
1.822632273486196
 20
0.7766466552211558
 10
1.778845934574491
 20
0.7781214911363364
 10
1.749818597592097
 20
0.7830083671414981
  0
LINE
  5
D9
330
9C
100
AcDbEntity
  8
AM_4
100
AcDbLine
 10
2.103333333333333
 20
2.359375
 30
0.0
 11
2.059201050513483
 21
2.359375
 31
0.0
  0
LINE
  5
DA
330
9C
100
AcDbEntity
  8
AM_4
100
AcDbLine
 10
1.75
 20
-2.359375
 30
0.0
 11
2.103333333333333
 21
-2.359375
 31
0.0
  0
LWPOLYLINE
  5
DB
330
9C
100
AcDbEntity
  8
AM_4
100
AcDbPolyline
 90
       13
 70
     0
 43
0.0
 10
2.059999999999965
 20
2.359374999999997
 10
2.058826544248452
 20
2.359260938908822
 10
2.051773801286873
 20
2.358599597555123
 10
2.038633429695194
 20
2.357413158489149
 10
2.01990401441403
 20
2.355836730599555
 10
1.995387412921692
 20
2.353974265058031
 10
1.96634609979954
 20
2.352062358750359
 10
1.93190128760042
 20
2.350217076568643
 10
1.894355779474501
 20
2.348718960754191
 10
1.852922522691474
 20
2.347704342650792
 10
1.810335157342085
 20
2.347343497866978
 10
1.766728038421501
 20
2.347710618325879
 10
1.749792023994541
 20
2.348044362139598
  0
ENDBLK
  5
9F
330
9C
100
AcDbEntity
  8
0
100
AcDbBlockEnd
  0
BLOCK
  5
DE
330
DC
100
AcDbEntity
  8
0
100
AcDbBlockBegin
  2
3_2_15_16C_2_0_in_037588_2
 70
     2
 10
0.0
 20
0.0
 30
0.0
  3
3_2_15_16C_2_0_in_037588_2
  1

  0
ATTDEF
  5
E0
330
DC
100
AcDbEntity
  8
AM_6
100
AcDbText
 10
3.63
 20
2.359375
 30
0.0
 40
0.5
  1
E-Type Collar -Inch
100
AcDbAttributeDefinition
  3

  2
NN
 70
     8
280
     0
  0
ATTDEF
  5
E1
330
DC
100
AcDbEntity
  8
AM_6
100
AcDbText
 10
3.63
 20
1.859375
 30
0.0
 40
0.5
  1
E-Type Bearings
100
AcDbAttributeDefinition
  3

  2
NT
 70
     8
280
     0
  0
ATTDEF
  5
E2
330
DC
100
AcDbEntity
  8
AM_6
100
AcDbText
 10
3.63
 20
1.359375
 30
0.0
 40
0.5
  1
2-15/16C
100
AcDbAttributeDefinition
  3

  2
NB
 70
     8
280
     0
  0
ATTDEF
  5
E3
330
DC
100
AcDbEntity
  8
AM_6
100
AcDbText
 10
3.63
 20
0.859375
 30
0.0
 40
0.5
  1
$BORE.C
100
AcDbAttributeDefinition
  3

  2
NBSYN
 70
     8
280
     0
  0
ATTDEF
  5
E4
330
DC
100
AcDbEntity
  8
AM_6
100
AcDbText
 10
3.63
 20
0.359375
 30
0.0
 40
0.5
  1
2-15/16C
100
AcDbAttributeDefinition
  3

  2
LINA
 70
     8
280
     0
  0
ATTDEF
  5
E5
330
DC
100
AcDbEntity
  8
AM_6
100
AcDbText
 10
3.63
 20
-0.140625
 30
0.0
 40
0.5
  1
2-15/16
100
AcDbAttributeDefinition
  3

  2
BORE
 70
     8
280
     0
  0
ATTDEF
  5
E6
330
DC
100
AcDbEntity
  8
AM_6
100
AcDbText
 10
3.63
 20
-0.640625
 30
0.0
 40
0.5
  1
4.71875
100
AcDbAttributeDefinition
  3

  2
L
 70
     8
280
     0
  0
ATTDEF
  5
E7
330
DC
100
AcDbEntity
  8
AM_6
100
AcDbText
 10
3.63
 20
-1.140625
 30
0.0
 40
0.5
  1
4.50
100
AcDbAttributeDefinition
  3

  2
A
 70
     8
280
     0
  0
ATTDEF
  5
E8
330
DC
100
AcDbEntity
  8
AM_6
100
AcDbText
 10
3.63
 20
-1.640625
 30
0.0
 40
0.5
  1
1.94
100
AcDbAttributeDefinition
  3

  2
B
 70
     8
280
     0
  0
ATTDEF
  5
E9
330
DC
100
AcDbEntity
  8
AM_6
100
AcDbText
 10
3.63
 20
-2.140625
 30
0.0
 40
0.5
  1
3.47
100
AcDbAttributeDefinition
  3

  2
C
 70
     8
280
     0
  0
ATTDEF
  5
EA
330
DC
100
AcDbEntity
  8
AM_6
100
AcDbText
 10
3.63
 20
-2.640625
 30
0.0
 40
0.5
  1
4.78
100
AcDbAttributeDefinition
  3

  2
D
 70
     8
280
     0
  0
ATTDEF
  5
EB
330
DC
100
AcDbEntity
  8
AM_6
100
AcDbText
 10
3.63
 20
-3.140625
 30
0.0
 40
0.5
  1
0.54
100
AcDbAttributeDefinition
  3

  2
E
 70
     8
280
     0
  0
ATTDEF
  5
EC
330
DC
100
AcDbEntity
  8
AM_6
100
AcDbText
 10
3.63
 20
-3.640625
 30
0.0
 40
0.5
  1
0.44
100
AcDbAttributeDefinition
  3

  2
F
 70
     8
280
     0
  0
ATTDEF
  5
ED
330
DC
100
AcDbEntity
  8
AM_6
100
AcDbText
 10
3.63
 20
-4.140625
 30
0.0
 40
0.5
  1
1/2-13
100
AcDbAttributeDefinition
  3

  2
CS
 70
     8
280
     0
  0
ATTDEF
  5
EE
330
DC
100
AcDbEntity
  8
AM_6
100
AcDbText
 10
3.63
 20
-4.640625
 30
0.0
 40
0.5
  1
0.5000
100
AcDbAttributeDefinition
  3

  2
NDM
 70
     8
280
     0
  0
ATTDEF
  5
EF
330
DC
100
AcDbEntity
  8
AM_6
100
AcDbText
 10
3.63
 20
-5.140625
 30
0.0
 40
0.5
  1
0.4170
100
AcDbAttributeDefinition
  3

  2
KDM
 70
     8
280
     0
  0
ATTDEF
  5
F0
330
DC
100
AcDbEntity
  8
AM_6
100
AcDbText
 10
3.63
 20
-5.640625
 30
0.0
 40
0.5
  1
baldor
100
AcDbAttributeDefinition
  3

  2
COMPANY
 70
     8
280
     0
  0
LINE
  5
F1
330
DC
100
AcDbEntity
  8
AM_9
100
AcDbLine
 10
-1.60165
 20
1.743316666666667
 30
0.0
 11
-1.60165
 21
2.317725
 31
0.0
  0
LINE
  5
F2
330
DC
100
AcDbEntity
  8
AM_9
100
AcDbLine
 10
-2.01835
 20
2.317725
 30
0.0
 11
-2.01835
 21
1.743316666666667
 31
0.0
  0
LINE
  5
F3
330
DC
100
AcDbEntity
  8
AM_9
100
AcDbLine
 10
-2.01835
 20
1.743316666666667
 30
0.0
 11
-1.60165
 21
1.743316666666667
 31
0.0
  0
LINE
  5
F4
330
DC
100
AcDbEntity
  8
AM_9
100
AcDbLine
 10
-2.01835
 20
1.743316666666667
 30
0.0
 11
-2.026383499926558
 21
1.735283166740109
 31
0.0
  0
LINE
  5
F5
330
DC
100
AcDbEntity
  8
AM_9
100
AcDbLine
 10
-1.59367834970831
 20
1.735345016374976
 30
0.0
 11
-1.60165
 21
1.743316666666667
 31
0.0
  0
LINE
  5
F6
330
DC
100
AcDbEntity
  8
AM_9
100
AcDbLine
 10
-2.01835
 20
2.317725
 30
0.0
 11
-1.60165
 21
2.317725
 31
0.0
  0
LINE
  5
F7
330
DC
100
AcDbEntity
  8
AM_9
100
AcDbLine
 10
-1.60165
 20
2.317725
 30
0.0
 11
-1.56
 21
2.359375
 31
0.0
  0
LINE
  5
F8
330
DC
100
AcDbEntity
  8
AM_9
100
AcDbLine
 10
-2.06
 20
2.359375
 30
0.0
 11
-2.01835
 21
2.317725
 31
0.0
  0
LWPOLYLINE
  5
F9
330
DC
100
AcDbEntity
  8
AM_9
100
AcDbPolyline
 90
       38
 70
     0
 43
0.0
 10
-1.649555668756485
 20
0.5890254700626291
 10
-1.630059625999035
 20
0.6141961062210209
 10
-1.614490675361804
 20
0.6415065184640424
 10
-1.601404494522102
 20
0.6760599527747658
 10
-1.594461797028247
 20
0.7117782647958293
 10
-1.593960288434045
 20
0.7488859425485209
 10
-1.60017042818074
 20
0.7851620103667684
 10
-1.613187605814695
 20
0.8198680908671213
 10
-1.632629757231117
 20
0.85175045400154
 10
-1.657641421991179
 20
0.879352269910662
 10
-1.68785489446845
 20
0.9024724552481161
 10
-1.720626323758072
 20
0.9194273976470249
 10
-1.756437628082113
 20
0.9310007182481714
 10
-1.791318106206522
 20
0.9364023306210565
 10
-1.826778266969307
 20
0.9365686464404278
 10
-1.860006309297697
 20
0.9317852251762043
 10
-1.89185500592187
 20
0.9224310735818785
 10
-1.921822817727664
 20
0.9085724076092766
 10
-1.948868925596456
 20
0.8907712261375355
 10
-1.973714244414009
 20
0.8680718266968884
 10
-1.994175428933712
 20
0.8420767489012024
 10
-2.010743085542843
 20
0.811286905893542
 10
-2.02156688754621
 20
0.778219582931986
 10
-2.026455950329134
 20
0.7420183810332149
 10
-2.024738766420171
 20
0.7051854586134623
 10
-2.016166359535574
 20
0.6681214688356935
 10
-2.000972840272981
 20
0.632567701221001
 10
-1.97960814663297
 20
0.5999750677882284
 10
-1.95252598454245
 20
0.5711544343957885
 10
-1.921709367588373
 20
0.5482001815905636
 10
-1.887052376945246
 20
0.5307967420929401
 10
-1.852306650676082
 20
0.5204789177352669
 10
-1.816196659427123
 20
0.5162103991709229
 10
-1.782182542507812
 20
0.5180049648621396
 10
-1.748963263442655
 20
0.5252208835120284
 10
-1.717762826461814
 20
0.5374759647080078
 10
-1.688992724445749
 20
0.5542453298024037
 10
-1.649555668756485
 20
0.5890254700626288
  0
LINE
  5
FA
330
DC
100
AcDbEntity
  8
AM_9
100
AcDbLine
 10
-2.25
 20
-1.735
 30
0.0
 11
-1.37
 21
-1.735
 31
0.0
  0
LINE
  5
FB
330
DC
100
AcDbEntity
  8
AM_9
100
AcDbLine
 10
-1.37
 20
1.735
 30
0.0
 11
-1.594138124101324
 21
1.735
 31
0.0
  0
LINE
  5
FC
330
DC
100
AcDbEntity
  8
AM_9
100
AcDbLine
 10
-2.026005839839122
 20
1.735
 30
0.0
 11
-2.25
 21
1.735
 31
0.0
  0
LWPOLYLINE
  5
FD
330
DC
100
AcDbEntity
  8
AM_9
100
AcDbPolyline
 90
       21
 70
     0
 43
0.0
 10
-2.026666666666196
 20
1.734999999999933
 10
-2.026411114352762
 20
1.734963553231908
 10
-2.021067220647529
 20
1.73421087214332
 10
-2.009189965200795
 20
1.732602866727684
 10
-1.990340734915682
 20
1.730235875674304
 10
-1.966484769650646
 20
1.72756835787447
 10
-1.936410334238764
 20
1.724733588278365
 10
-1.904571293770885
 20
1.722381168611359
 10
-1.8683464517832
 20
1.720523846078998
 10
-1.834026229611861
 20
1.719574172208164
 10
-1.797831398016388
 20
1.719429892626525
 10
-1.764888599907363
 20
1.720064026576171
 10
-1.732295213212401
 20
1.721407489605135
 10
-1.702422082354892
 20
1.723261129001908
 10
-1.674654236130354
 20
1.725513960970386
 10
-1.64965509630899
 20
1.727974975329969
 10
-1.628388550425192
 20
1.730388278227267
 10
-1.611321425731918
 20
1.732535648310732
 10
-1.599573200158219
 20
1.734121883030203
 10
-1.593831299756221
 20
1.7349290183679
 10
-1.59333333333354
 20
1.734999999999971
  0
ELLIPSE
  5
FE
330
DC
100
AcDbEntity
  8
AM_9
100
AcDbEllipse
 10
-1.810000000000002
 20
0.7367574593302579
 30
0.0
 11
0.2083499999999976
 21
3.104656934738124E-9
 31
0.0
210
0.0
220
0.0
230
1.0
 40
0.9063077870366498
 41
2.443456527349722
 42
6.283187037607677
  0
LINE
  5
FF
330
DC
100
AcDbEntity
  8
AM_9
100
AcDbLine
 10
-1.60165
 20
0.7367574593302569
 30
0.0
 11
-1.60165
 21
0.9795129106929624
 31
0.0
  0
LINE
  5
100
330
DC
100
AcDbEntity
  8
AM_9
100
AcDbLine
 10
-2.01835
 20
0.9795129106929624
 30
0.0
 11
-2.01835
 21
0.7367574593302569
 31
0.0
  0
ELLIPSE
  5
101
330
DC
100
AcDbEntity
  8
AM_9
100
AcDbEllipse
 10
-1.81
 20
0.9795129106929631
 30
0.0
 11
0.2083500000000007
 21
0.0
 31
0.0
210
0.0
220
0.0
230
1.0
 40
0.9063077870366502
 41
5.00450261454017
 42
7.561867999818997
  0
ELLIPSE
  5
102
330
DC
100
AcDbEntity
  8
AM_9
100
AcDbEllipse
 10
-1.81
 20
0.7367574593302569
 30
0.0
 11
0.2083500000000009
 21
0.0
 31
0.0
210
0.0
220
0.0
230
1.0
 40
0.9063077870366458
 41
0.6981361110117916
 42
1.278682692639416
  0
ELLIPSE
  5
103
330
DC
100
AcDbEntity
  8
AM_9
100
AcDbEllipse
 10
-1.809999999999999
 20
0.736757459330257
 30
0.0
 11
0.2083499999999991
 21
0.0
 31
0.0
210
0.0
220
0.0
230
1.0
 40
0.90630778703665
 41
0.0
 42
0.6981361110117928
  0
LWPOLYLINE
  5
104
330
DC
100
AcDbEntity
  8
AM_9
100
AcDbPolyline
 90
       13
 70
     0
 43
0.0
 10
-1.749792023994541
 20
1.201638527214359
 10
-1.724340608412546
 20
1.195222351923879
 10
-1.684388346186649
 20
1.179716108074031
 10
-1.648096106934724
 20
1.158432437544275
 10
-1.617376195886267
 20
1.132409697208659
 10
-1.592328862213463
 20
1.101882776657778
 10
-1.574673442383182
 20
1.069193830356992
 10
-1.563719650834173
 20
1.033993748365556
 10
-1.560038125304694
 20
0.9991012288579005
 10
-1.56296951277289
 20
0.9638860810333546
 10
-1.572215035880981
 20
0.9301675331894284
 10
-1.587344822729625
 20
0.8980713951308601
 10
-1.619285365243439
 20
0.8556327230851023
  0
LWPOLYLINE
  5
105
330
DC
100
AcDbEntity
  8
AM_9
100
AcDbPolyline
 90
        5
 70
     0
 43
0.0
 10
-1.619285365243439
 20
0.8556327230851023
 10
-1.645402722853204
 20
0.8319978546552359
 10
-1.674930600228178
 20
0.8120887096414533
 10
-1.712108774653523
 20
0.7944148519389849
 10
-1.749965709924996
 20
0.7829754267409645
  0
LINE
  5
106
330
DC
100
AcDbEntity
  8
AM_9
100
AcDbLine
 10
-1.75
 20
-2.359375
 30
0.0
 11
-1.37
 21
-2.359375
 31
0.0
  0
LINE
  5
107
330
DC
100
AcDbEntity
  8
AM_9
100
AcDbLine
 10
-1.37
 20
2.359375
 30
0.0
 11
-1.56
 21
2.359375
 31
0.0
  0
LWPOLYLINE
  5
108
330
DC
100
AcDbEntity
  8
AM_9
100
AcDbPolyline
 90
       10
 70
     0
 43
0.0
 10
-1.560000000000038
 20
2.359374999999996
 10
-1.56304783600187
 20
2.359084739458873
 10
-1.572179289720224
 20
2.358236048300077
 10
-1.587572465257049
 20
2.35687660944692
 10
-1.608288276301587
 20
2.355188665856818
 10
-1.634542345156681
 20
2.353283729386875
 10
-1.665630273573559
 20
2.351368178351641
 10
-1.701214275261731
 20
2.349630216729071
 10
-1.740324688946399
 20
2.348282025785208
 10
-1.749855343647462
 20
2.348042889094634
  0
LINE
  5
109
330
DC
100
AcDbEntity
  8
AM_9
100
AcDbLine
 10
-1.37
 20
2.359375
 30
0.0
 11
-1.37
 21
-2.359375
 31
0.0
  0
LINE
  5
10A
330
DC
100
AcDbEntity
  8
AM_5
100
AcDbLine
 10
-2.06
 20
2.359375
 30
0.0
 11
-2.06
 21
1.735
 31
0.0
  0
LINE
  5
10B
330
DC
100
AcDbEntity
  8
AM_5
100
AcDbLine
 10
-1.56
 20
2.359375
 30
0.0
 11
-1.56
 21
1.735
 31
0.0
  0
ELLIPSE
  5
10C
330
DC
100
AcDbEntity
  8
AM_4
100
AcDbEllipse
 10
-1.81
 20
0.7367574593302575
 30
0.0
 11
0.2083499999999996
 21
0.0
 31
0.0
210
0.0
220
0.0
230
1.0
 40
0.906307787036649
 41
1.570796326794897
 42
2.443456542578003
  0
ELLIPSE
  5
10D
330
DC
100
AcDbEntity
  8
AM_4
100
AcDbEllipse
 10
-1.81
 20
0.9795129106929625
 30
0.0
 11
0.20835
 21
0.0
 31
0.0
210
0.0
220
0.0
230
1.0
 40
0.9063077870366504
 41
1.570796326794897
 42
5.00450261454017
  0
ELLIPSE
  5
10E
330
DC
100
AcDbEntity
  8
AM_4
100
AcDbEllipse
 10
-1.81
 20
0.9795129106929551
 30
0.0
 11
0.2083500000000091
 21
0.0
 31
0.0
210
0.0
220
0.0
230
1.0
 40
0.9063077870366455
 41
1.278682692639425
 42
1.570796326794897
  0
ELLIPSE
  5
10F
330
DC
100
AcDbEntity
  8
AM_4
100
AcDbEllipse
 10
-1.810000000000001
 20
0.7367574593302525
 30
0.0
 11
0.2083500000000071
 21
0.0
 31
0.0
210
0.0
220
0.0
230
1.0
 40
0.9063077870366404
 41
1.278682692639421
 42
1.570796326794897
  0
LWPOLYLINE
  5
110
330
DC
100
AcDbEntity
  8
AM_4
100
AcDbPolyline
 90
       24
 70
     0
 43
0.0
 10
-1.749965709924996
 20
0.7829754267409645
 10
-1.751831614328399
 20
0.7825650159382259
 10
-1.79456404648549
 20
0.7768118464194397
 10
-1.837718466308976
 20
0.777752811058333
 10
-1.880797789163622
 20
0.7856384364243614
 10
-1.92185689160515
 20
0.8002116877431518
 10
-1.959393492189768
 20
0.8210175879704965
 10
-1.99254717544095
 20
0.8474712925964307
 10
-2.019343903191148
 20
0.8778414006266254
 10
-2.040007460099333
 20
0.9119003483436747
 10
-2.053122732471662
 20
0.9467604126244724
 10
-2.059458491903518
 20
0.9829201152517155
 10
-2.058826544248452
 20
1.017684204968099
 10
-2.051773801286873
 20
1.051604492999284
 10
-2.038633429695194
 20
1.083405041817086
 10
-2.01990401441403
 20
1.112683192664022
 10
-1.995387412921692
 20
1.139418418871424
 10
-1.96634609979954
 20
1.162249125616388
 10
-1.93190128760042
 20
1.181473742283764
 10
-1.894355779474501
 20
1.195611589965185
 10
-1.852922522691474
 20
1.204626370398941
 10
-1.810335157342085
 20
1.207702717556654
 10
-1.766728038421501
 20
1.204574167944354
 10
-1.749792023994541
 20
1.201638527214359
  0
LINE
  5
111
330
DC
100
AcDbEntity
  8
AM_4
100
AcDbLine
 10
-2.103333333333333
 20
-2.359375
 30
0.0
 11
-1.75
 21
-2.359375
 31
0.0
  0
LINE
  5
112
330
DC
100
AcDbEntity
  8
AM_4
100
AcDbLine
 10
-2.06
 20
2.359375
 30
0.0
 11
-2.103333333333333
 21
2.359375
 31
0.0
  0
LWPOLYLINE
  5
113
330
DC
100
AcDbEntity
  8
AM_4
100
AcDbPolyline
 90
       12
 70
     0
 43
0.0
 10
-1.749855343647462
 20
2.348042889094634
 10
-1.782369947754167
 20
2.347491113295463
 10
-1.825285198617749
 20
2.347388660866131
 10
-1.868982517114074
 20
2.348016128508163
 10
-1.910139280342119
 20
2.349281417176336
 10
-1.949567829201778
 20
2.351105280705856
 10
-1.98325880122131
 20
2.353136104588019
 10
-2.012785918076061
 20
2.355272190414748
 10
-2.034535294416357
 20
2.35705746351865
 10
-2.050329177094185
 20
2.358466058397719
 10
-2.058318007781718
 20
2.359214383260974
 10
-2.059999999999881
 20
2.359374999999988
  0
LINE
  5
114
330
DC
100
AcDbEntity
  8
AM_4
100
AcDbLine
 10
-2.25
 20
2.212708333333333
 30
0.0
 11
-2.25
 21
-2.212708333333333
 31
0.0
  0
ARC
  5
115
330
DC
100
AcDbEntity
  8
AM_4
100
AcDbCircle
 10
-2.103333333333333
 20
-2.212708333333333
 30
0.0
 40
0.1466666666666669
100
AcDbArc
 50
180.0
 51
270.0
  0
ARC
  5
116
330
DC
100
AcDbEntity
  8
AM_4
100
AcDbCircle
 10
-2.103333333333333
 20
2.212708333333333
 30
0.0
 40
0.1466666666666674
100
AcDbArc
 50
90.0
 51
180.0
  0
LINE
  5
117
330
DC
100
AcDbEntity
  8
AM_4
100
AcDbLine
 10
-2.103333333333333
 20
2.359375
 30
0.0
 11
-2.103333333333333
 21
-2.359375
 31
0.0
  0
ENDBLK
  5
DF
330
DC
100
AcDbEntity
  8
0
100
AcDbBlockEnd
  0
BLOCK
  5
11A
330
118
100
AcDbEntity
  8
0
100
AcDbBlockBegin
  2
4_405015E_Inch_0_in_037588_2
 70
     2
 10
0.0
 20
0.0
 30
0.0
  3
4_405015E_Inch_0_in_037588_2
  1

  0
ATTDEF
  5
11C
330
118
100
AcDbEntity
  8
AM_6
100
AcDbText
 10
5.252590742770462
 20
3.875
 30
0.0
 40
0.5
  1
405015E -Inch
100
AcDbAttributeDefinition
  3

  2
NN
 70
     8
280
     0
  0
ATTDEF
  5
11D
330
118
100
AcDbEntity
  8
AM_6
100
AcDbText
 10
5.252590742770462
 20
3.375
 30
0.0
 40
0.5
  1
Grease Fitting
100
AcDbAttributeDefinition
  3

  2
NT
 70
     8
280
     0
  0
ATTDEF
  5
11E
330
118
100
AcDbEntity
  8
AM_6
100
AcDbText
 10
5.252590742770462
 20
2.875
 30
0.0
 40
0.5
  1
405015E-Inch
100
AcDbAttributeDefinition
  3

  2
NB
 70
     8
280
     0
  0
ATTDEF
  5
11F
330
118
100
AcDbEntity
  8
AM_6
100
AcDbText
 10
5.252590742770462
 20
2.375
 30
0.0
 40
0.5
  1
$MN.-Inch
100
AcDbAttributeDefinition
  3

  2
NBSYN
 70
     8
280
     0
  0
ATTDEF
  5
120
330
118
100
AcDbEntity
  8
AM_6
100
AcDbText
 10
5.252590742770462
 20
1.875
 30
0.0
 40
0.5
  1
405015E
100
AcDbAttributeDefinition
  3

  2
LINA
 70
     8
280
     0
  0
ATTDEF
  5
121
330
118
100
AcDbEntity
  8
AM_6
100
AcDbText
 10
5.252590742770462
 20
1.375
 30
0.0
 40
0.5
  1
405015E
100
AcDbAttributeDefinition
  3

  2
MN
 70
     8
280
     0
  0
ATTDEF
  5
122
330
118
100
AcDbEntity
  8
AM_6
100
AcDbText
 10
5.252590742770462
 20
0.8749999999999996
 30
0.0
 40
0.5
  1
1/8 x 27PTF
100
AcDbAttributeDefinition
  3

  2
T
 70
     8
280
     0
  0
ATTDEF
  5
123
330
118
100
AcDbEntity
  8
AM_6
100
AcDbText
 10
5.252590742770462
 20
0.3749999999999996
 30
0.0
 40
0.5
  1
baldor
100
AcDbAttributeDefinition
  3

  2
COMPANY
 70
     8
280
     0
  0
LINE
  5
124
330
118
100
AcDbEntity
  8
AM_9
100
AcDbLine
 10
0.105
 20
3.705
 30
0.0
 11
0.105
 21
3.735
 31
0.0
  0
LINE
  5
125
330
118
100
AcDbEntity
  8
AM_9
100
AcDbLine
 10
-0.105
 20
3.735
 30
0.0
 11
-0.105
 21
3.705
 31
0.0
  0
LINE
  5
126
330
118
100
AcDbEntity
  8
AM_9
100
AcDbLine
 10
-0.21875
 20
3.6
 30
0.0
 11
0.21875
 21
3.6
 31
0.0
  0
LINE
  5
127
330
118
100
AcDbEntity
  8
AM_9
100
AcDbLine
 10
0.2525907427704612
 20
3.590932400303385
 30
0.0
 11
0.21875
 21
3.6
 31
0.0
  0
LINE
  5
128
330
118
100
AcDbEntity
  8
AM_9
100
AcDbLine
 10
-0.21875
 20
3.6
 30
0.0
 11
-0.2525907427704612
 21
3.590932400303385
 31
0.0
  0
LINE
  5
129
330
118
100
AcDbEntity
  8
AM_9
100
AcDbLine
 10
0.21875
 20
3.5
 30
0.0
 11
0.2525907427704612
 21
3.509067599696615
 31
0.0
  0
LINE
  5
12A
330
118
100
AcDbEntity
  8
AM_9
100
AcDbLine
 10
-0.2525907427704612
 20
3.509067599696615
 30
0.0
 11
-0.21875
 21
3.5
 31
0.0
  0
LINE
  5
12B
330
118
100
AcDbEntity
  8
AM_9
100
AcDbLine
 10
-0.105
 20
3.705
 30
0.0
 11
0.105
 21
3.705
 31
0.0
  0
LINE
  5
12C
330
118
100
AcDbEntity
  8
AM_9
100
AcDbLine
 10
-0.105
 20
3.705
 30
0.0
 11
-0.1188200907348975
 21
3.672753121618572
 31
0.0
  0
LINE
  5
12D
330
118
100
AcDbEntity
  8
AM_9
100
AcDbLine
 10
0.1188200907348975
 20
3.672753121618572
 30
0.0
 11
0.105
 21
3.705
 31
0.0
  0
LINE
  5
12E
330
118
100
AcDbEntity
  8
AM_9
100
AcDbLine
 10
-0.105
 20
3.735
 30
0.0
 11
0.105
 21
3.735
 31
0.0
  0
LINE
  5
12F
330
118
100
AcDbEntity
  8
AM_9
100
AcDbLine
 10
0.105
 20
3.735
 30
0.0
 11
0.135
 21
3.795
 31
0.0
  0
LINE
  5
130
330
118
100
AcDbEntity
  8
AM_9
100
AcDbLine
 10
-0.135
 20
3.795
 30
0.0
 11
-0.105
 21
3.735
 31
0.0
  0
LINE
  5
131
330
118
100
AcDbEntity
  8
AM_9
100
AcDbLine
 10
-0.1026779019331875
 20
3.875
 30
0.0
 11
0.1026779019331875
 21
3.875
 31
0.0
  0
LINE
  5
132
330
118
100
AcDbEntity
  8
AM_9
100
AcDbLine
 10
-0.135
 20
3.795
 30
0.0
 11
0.135
 21
3.795
 31
0.0
  0
LINE
  5
133
330
118
100
AcDbEntity
  8
AM_9
100
AcDbLine
 10
-0.1026779019331875
 20
3.875
 30
0.0
 11
-0.135
 21
3.795
 31
0.0
  0
LINE
  5
134
330
118
100
AcDbEntity
  8
AM_9
100
AcDbLine
 10
0.135
 20
3.795
 30
0.0
 11
0.1026779019331875
 21
3.875
 31
0.0
  0
LINE
  5
135
330
118
100
AcDbEntity
  8
AM_9
100
AcDbLine
 10
-0.1188200907348975
 20
3.672753121618572
 30
0.0
 11
0.1188200907348975
 21
3.672753121618572
 31
0.0
  0
LINE
  5
136
330
118
100
AcDbEntity
  8
AM_9
100
AcDbLine
 10
-0.1188200907348975
 20
3.672753121618572
 30
0.0
 11
-0.1725340532830154
 21
3.618318198540882
 31
0.0
  0
LINE
  5
137
330
118
100
AcDbEntity
  8
AM_9
100
AcDbLine
 10
0.1725340532830154
 20
3.618318198540882
 30
0.0
 11
0.1188200907348975
 21
3.672753121618572
 31
0.0
  0
LINE
  5
138
330
118
100
AcDbEntity
  8
AM_9
100
AcDbLine
 10
-0.161902872472269
 20
3.235
 30
0.0
 11
0.161902872472269
 21
3.235
 31
0.0
  0
LINE
  5
139
330
118
100
AcDbEntity
  8
AM_9
100
AcDbLine
 10
0.161902872472269
 20
3.235
 30
0.0
 11
0.1986176267812154
 21
3.271714754308946
 31
0.0
  0
LINE
  5
13A
330
118
100
AcDbEntity
  8
AM_9
100
AcDbLine
 10
-0.1986176267812154
 20
3.271714754308946
 30
0.0
 11
-0.161902872472269
 21
3.235
 31
0.0
  0
LINE
  5
13B
330
118
100
AcDbEntity
  8
AM_9
100
AcDbLine
 10
-0.1986176267812154
 20
3.271714754308946
 30
0.0
 11
0.1986176267812154
 21
3.271714754308946
 31
0.0
  0
LINE
  5
13C
330
118
100
AcDbEntity
  8
AM_9
100
AcDbLine
 10
0.1986176267812154
 20
3.271714754308946
 30
0.0
 11
0.2057518972230696
 21
3.5
 31
0.0
  0
LINE
  5
13D
330
118
100
AcDbEntity
  8
AM_9
100
AcDbLine
 10
-0.2057518972230696
 20
3.5
 30
0.0
 11
-0.1986176267812154
 21
3.271714754308946
 31
0.0
  0
LINE
  5
13E
330
118
100
AcDbEntity
  8
AM_9
100
AcDbLine
 10
-0.1725340532830154
 20
3.618318198540882
 30
0.0
 11
0.1725340532830154
 21
3.618318198540882
 31
0.0
  0
LINE
  5
13F
330
118
100
AcDbEntity
  8
AM_9
100
AcDbLine
 10
-0.1725340532830154
 20
3.618318198540882
 30
0.0
 11
-0.21375
 21
3.6
 31
0.0
  0
LINE
  5
140
330
118
100
AcDbEntity
  8
AM_9
100
AcDbLine
 10
0.21375
 20
3.6
 30
0.0
 11
0.1725340532830154
 21
3.618318198540882
 31
0.0
  0
LINE
  5
141
330
118
100
AcDbEntity
  8
AM_9
100
AcDbLine
 10
-0.1262953713852306
 20
3.590932400303385
 30
0.0
 11
-0.1262953713852306
 21
3.509067599696615
 31
0.0
  0
LWPOLYLINE
  5
142
330
118
100
AcDbEntity
  8
AM_9
100
AcDbPolyline
 90
        3
 70
     0
 43
0.0
 10
-0.2525907427704612
 20
3.590932400303385
 10
-0.2211588644235643
 20
3.59758547505038
 10
-0.1894430570778459
 20
3.6
  0
LINE
  5
143
330
118
100
AcDbEntity
  8
AM_9
100
AcDbLine
 10
-0.2525907427704612
 20
3.590932400303385
 30
0.0
 11
-0.2525907427704612
 21
3.509067599696615
 31
0.0
  0
LWPOLYLINE
  5
144
330
118
100
AcDbEntity
  8
AM_9
100
AcDbPolyline
 90
        3
 70
     0
 43
0.0
 10
-0.1894430570778459
 20
3.5
 10
-0.2210168999241536
 20
3.502393380785035
 10
-0.2525907427704612
 20
3.509067599696615
  0
LINE
  5
145
330
118
100
AcDbEntity
  8
AM_9
100
AcDbLine
 10
0.2525907427704612
 20
3.590932400303385
 30
0.0
 11
0.2525907427704612
 21
3.509067599696615
 31
0.0
  0
LWPOLYLINE
  5
146
330
118
100
AcDbEntity
  8
AM_9
100
AcDbPolyline
 90
        3
 70
     0
 43
0.0
 10
0.1894430570778459
 20
3.6
 10
0.2210168999241536
 20
3.597606619214965
 10
0.2525907427704612
 20
3.590932400303385
  0
LINE
  5
147
330
118
100
AcDbEntity
  8
AM_9
100
AcDbLine
 10
0.1262953713852306
 20
3.590932400303385
 30
0.0
 11
0.1262953713852306
 21
3.509067599696615
 31
0.0
  0
LWPOLYLINE
  5
148
330
118
100
AcDbEntity
  8
AM_9
100
AcDbPolyline
 90
        3
 70
     0
 43
0.0
 10
0.2525907427704612
 20
3.509067599696615
 10
0.2211588644235643
 20
3.50241452494962
 10
0.1894430570778459
 20
3.5
  0
LWPOLYLINE
  5
149
330
118
100
AcDbEntity
  8
AM_9
100
AcDbPolyline
 90
        3
 70
     0
 43
0.0
 10
0.0
 20
3.6
 10
0.0967996321117978
 20
3.594517587482156
 10
0.1262953713852306
 20
3.590932400303385
  0
LWPOLYLINE
  5
14A
330
118
100
AcDbEntity
  8
AM_9
100
AcDbPolyline
 90
        3
 70
     0
 43
0.0
 10
0.1262953713852306
 20
3.590932400303385
 10
0.1577272497321276
 20
3.59758547505038
 10
0.1894430570778459
 20
3.6
  0
LWPOLYLINE
  5
14B
330
118
100
AcDbEntity
  8
AM_9
100
AcDbPolyline
 90
        3
 70
     0
 43
0.0
 10
-0.1894430570778459
 20
3.6
 10
-0.1578692142315383
 20
3.597606619214965
 10
-0.1262953713852306
 20
3.590932400303385
  0
LWPOLYLINE
  5
14C
330
118
100
AcDbEntity
  8
AM_9
100
AcDbPolyline
 90
        3
 70
     0
 43
0.0
 10
-0.1262953713852306
 20
3.590932400303385
 10
-0.0634316146914367
 20
3.59758547505038
 10
0.0
 20
3.6
  0
LWPOLYLINE
  5
14D
330
118
100
AcDbEntity
  8
AM_9
100
AcDbPolyline
 90
        3
 70
     0
 43
0.0
 10
0.0
 20
3.5
 10
-0.0631476856926153
 20
3.502393380785035
 10
-0.1262953713852306
 20
3.509067599696615
  0
LWPOLYLINE
  5
14E
330
118
100
AcDbEntity
  8
AM_9
100
AcDbPolyline
 90
        3
 70
     0
 43
0.0
 10
-0.1262953713852306
 20
3.509067599696615
 10
-0.1577272497321276
 20
3.50241452494962
 10
-0.1894430570778459
 20
3.5
  0
LWPOLYLINE
  5
14F
330
118
100
AcDbEntity
  8
AM_9
100
AcDbPolyline
 90
        3
 70
     0
 43
0.0
 10
0.1894430570778459
 20
3.5
 10
0.1578692142315383
 20
3.502393380785035
 10
0.1262953713852306
 20
3.509067599696615
  0
LWPOLYLINE
  5
150
330
118
100
AcDbEntity
  8
AM_9
100
AcDbPolyline
 90
        3
 70
     0
 43
0.0
 10
0.1262953713852306
 20
3.509067599696615
 10
0.0967996321117978
 20
3.505482412517844
 10
0.0
 20
3.5
  0
LINE
  5
151
330
118
100
AcDbEntity
  8
AM_5
100
AcDbLine
 10
0.1681491248523479
 20
3.434870087748463
 30
0.0
 11
0.161902872472269
 21
3.235
 31
0.0
  0
LINE
  5
152
330
118
100
AcDbEntity
  8
AM_5
100
AcDbLine
 10
0.2057518972230696
 20
3.5
 30
0.0
 11
0.1681491248523479
 21
3.434870087748463
 31
0.0
  0
LINE
  5
153
330
118
100
AcDbEntity
  8
AM_5
100
AcDbLine
 10
-0.2037164857515569
 20
3.434870087748463
 30
0.0
 11
0.2037164857515567
 21
3.434870087748463
 31
0.0
  0
LINE
  5
154
330
118
100
AcDbEntity
  8
AM_5
100
AcDbLine
 10
-0.1681491248523479
 20
3.434870087748463
 30
0.0
 11
-0.161902872472269
 21
3.235
 31
0.0
  0
LINE
  5
155
330
118
100
AcDbEntity
  8
AM_5
100
AcDbLine
 10
-0.2057518972230696
 20
3.5
 30
0.0
 11
-0.1681491248523479
 21
3.434870087748463
 31
0.0
  0
ENDBLK
  5
11B
330
118
100
AcDbEntity
  8
0
100
AcDbBlockEnd
  0
BLOCK
  5
158
330
156
100
AcDbEntity
  8
0
100
AcDbBlockBegin
  2
5_S1U_TAF_215_Ins_0_in_037588_2
 70
     2
 10
0.0
 20
0.0
 30
0.0
  3
5_S1U_TAF_215_Ins_0_in_037588_2
  1

  0
ATTDEF
  5
15A
330
156
100
AcDbEntity
  8
AM_6
100
AcDbText
 10
7.475
 20
3.5
 30
0.0
 40
0.5
  1
S-1 Unit Taf -Insert -Inch
100
AcDbAttributeDefinition
  3

  2
NN
 70
     8
280
     0
  0
ATTDEF
  5
15B
330
156
100
AcDbEntity
  8
AM_6
100
AcDbText
 10
7.475
 20
3.0
 30
0.0
 40
0.5
  1
Taf Bearings
100
AcDbAttributeDefinition
  3

  2
NT
 70
     8
280
     0
  0
ATTDEF
  5
15C
330
156
100
AcDbEntity
  8
AM_6
100
AcDbText
 10
7.475
 20
2.5
 30
0.0
 40
0.5
  1
S1U-TAF-215-Ins
100
AcDbAttributeDefinition
  3

  2
NB
 70
     8
280
     0
  0
ATTDEF
  5
15D
330
156
100
AcDbEntity
  8
AM_6
100
AcDbText
 10
7.475
 20
2.0
 30
0.0
 40
0.5
  1
$PN.-Ins
100
AcDbAttributeDefinition
  3

  2
NBSYN
 70
     8
280
     0
  0
ATTDEF
  5
15E
330
156
100
AcDbEntity
  8
AM_6
100
AcDbText
 10
7.475
 20
1.5
 30
0.0
 40
0.5
  1
S1U-TAF-215-Ins
100
AcDbAttributeDefinition
  3

  2
LINA
 70
     8
280
     0
  0
ATTDEF
  5
15F
330
156
100
AcDbEntity
  8
AM_6
100
AcDbText
 10
7.475
 20
1.0
 30
0.0
 40
0.5
  1
2-15/16
100
AcDbAttributeDefinition
  3

  2
SS
 70
     8
280
     0
  0
ATTDEF
  5
160
330
156
100
AcDbEntity
  8
AM_6
100
AcDbText
 10
7.475
 20
0.5000000000000004
 30
0.0
 40
0.5
  1
S1U-TAF-215
100
AcDbAttributeDefinition
  3

  2
PN
 70
     8
280
     0
  0
ATTDEF
  5
161
330
156
100
AcDbEntity
  8
AM_6
100
AcDbText
 10
7.475
 20
0.0000000000000004
 30
0.0
 40
0.5
  1
S1U-TAF-215
100
AcDbAttributeDefinition
  3

  2
DESCRIPTION
 70
     8
280
     0
  0
ATTDEF
  5
162
330
156
100
AcDbEntity
  8
AM_6
100
AcDbText
 10
7.475
 20
-0.4999999999999996
 30
0.0
 40
0.5
  1
4-1/2
100
AcDbAttributeDefinition
  3

  2
A
 70
     8
280
     0
  0
ATTDEF
  5
163
330
156
100
AcDbEntity
  8
AM_6
100
AcDbText
 10
7.475
 20
-0.9999999999999996
 30
0.0
 40
0.5
  1
3
100
AcDbAttributeDefinition
  3

  2
B
 70
     8
280
     0
  0
ATTDEF
  5
164
330
156
100
AcDbEntity
  8
AM_6
100
AcDbText
 10
7.475
 20
-1.5
 30
0.0
 40
0.5
  1
1-7/8
100
AcDbAttributeDefinition
  3

  2
C
 70
     8
280
     0
  0
ATTDEF
  5
165
330
156
100
AcDbEntity
  8
AM_6
100
AcDbText
 10
7.475
 20
-2.0
 30
0.0
 40
0.5
  1
5.563
100
AcDbAttributeDefinition
  3

  2
EM
 70
     8
280
     0
  0
ATTDEF
  5
166
330
156
100
AcDbEntity
  8
AM_6
100
AcDbText
 10
7.475
 20
-2.5
 30
0.0
 40
0.5
  1
5-5/8
100
AcDbAttributeDefinition
  3

  2
EC
 70
     8
280
     0
  0
ATTDEF
  5
167
330
156
100
AcDbEntity
  8
AM_6
100
AcDbText
 10
7.475
 20
-3.0
 30
0.0
 40
0.5
  1
3/4
100
AcDbAttributeDefinition
  3

  2
H
 70
     8
280
     0
  0
ATTDEF
  5
168
330
156
100
AcDbEntity
  8
AM_6
100
AcDbText
 10
7.475
 20
-3.5
 30
0.0
 40
0.5
  1
6.061
100
AcDbAttributeDefinition
  3

  2
K
 70
     8
280
     0
  0
ATTDEF
  5
169
330
156
100
AcDbEntity
  8
AM_6
100
AcDbText
 10
7.475
 20
-4.0
 30
0.0
 40
0.5
  1
+0.000 to -0.002
100
AcDbAttributeDefinition
  3

  2
TOL
 70
     8
280
     0
  0
ATTDEF
  5
16A
330
156
100
AcDbEntity
  8
AM_6
100
AcDbText
 10
7.475
 20
-4.5
 30
0.0
 40
0.5
  1
4-23/32
100
AcDbAttributeDefinition
  3

  2
L
 70
     8
280
     0
  0
ATTDEF
  5
16B
330
156
100
AcDbEntity
  8
AM_6
100
AcDbText
 10
7.475
 20
-5.0
 30
0.0
 40
0.5
  1
3-7/8
100
AcDbAttributeDefinition
  3

  2
M
 70
     8
280
     0
  0
ATTDEF
  5
16C
330
156
100
AcDbEntity
  8
AM_6
100
AcDbText
 10
7.475
 20
-5.5
 30
0.0
 40
0.5
  1
baldor
100
AcDbAttributeDefinition
  3

  2
COMPANY
 70
     8
280
     0
  0
LINE
  5
16D
330
156
100
AcDbEntity
  8
AM_9
100
AcDbLine
 10
1.54
 20
1.735
 30
0.0
 11
1.54
 21
1.46875
 31
0.0
  0
LINE
  5
16E
330
156
100
AcDbEntity
  8
AM_9
100
AcDbLine
 10
2.08
 20
1.46875
 30
0.0
 11
2.08
 21
1.735
 31
0.0
  0
LINE
  5
16F
330
156
100
AcDbEntity
  8
AM_9
100
AcDbLine
 10
-2.08
 20
1.735
 30
0.0
 11
-2.08
 21
1.46875
 31
0.0
  0
LINE
  5
170
330
156
100
AcDbEntity
  8
AM_9
100
AcDbLine
 10
-1.54
 20
1.46875
 30
0.0
 11
-1.54
 21
1.735
 31
0.0
  0
LINE
  5
171
330
156
100
AcDbEntity
  8
AM_9
100
AcDbLine
 10
0.3288796429849728
 20
3.5
 30
0.0
 11
-0.3288796429806702
 21
3.5
 31
0.0
  0
ARC
  5
172
330
156
100
AcDbEntity
  8
AM_9
100
AcDbCircle
 10
-0.3288796429849738
 20
3.446000000000002
 30
0.0
 40
0.053999999999998
100
AcDbArc
 50
90.0
 51
171.0000000000018
  0
ARC
  5
173
330
156
100
AcDbEntity
  8
AM_9
100
AcDbCircle
 10
0.3288796429849738
 20
3.446000000000002
 30
0.0
 40
0.0539999999999984
100
AcDbArc
 50
8.999999999998153
 51
90.0
  0
LINE
  5
174
330
156
100
AcDbEntity
  8
AM_9
100
AcDbLine
 10
0.3822148133771099
 20
3.454447461112172
 30
0.0
 11
-0.3822148133771099
 21
3.454447461112172
 31
0.0
  0
LINE
  5
175
330
156
100
AcDbEntity
  8
AM_9
100
AcDbLine
 10
-0.3822148133771099
 20
3.454447461112172
 30
0.0
 11
-0.4547973808811264
 21
2.996179165594686
 31
0.0
  0
LINE
  5
176
330
156
100
AcDbEntity
  8
AM_9
100
AcDbLine
 10
0.4547973808811264
 20
2.996179165594686
 30
0.0
 11
0.3822148133771099
 21
3.454447461112172
 31
0.0
  0
LINE
  5
177
330
156
100
AcDbEntity
  8
AM_9
100
AcDbLine
 10
-2.25
 20
-1.46875
 30
0.0
 11
2.25
 21
-1.46875
 31
0.0
  0
LINE
  5
178
330
156
100
AcDbEntity
  8
AM_9
100
AcDbLine
 10
2.25
 20
1.46875
 30
0.0
 11
2.08
 21
1.46875
 31
0.0
  0
LINE
  5
179
330
156
100
AcDbEntity
  8
AM_9
100
AcDbLine
 10
1.54
 20
1.46875
 30
0.0
 11
-1.54
 21
1.46875
 31
0.0
  0
LINE
  5
17A
330
156
100
AcDbEntity
  8
AM_9
100
AcDbLine
 10
-2.08
 20
1.46875
 30
0.0
 11
-2.25
 21
1.46875
 31
0.0
  0
LWPOLYLINE
  5
17B
330
156
100
AcDbEntity
  8
AM_9
100
AcDbPolyline
 90
       21
 70
     0
 43
0.0
 10
1.540000000001629
 20
1.468749999999701
 10
1.540250910558862
 20
1.468703895873611
 10
1.546089004315793
 20
1.467642863963515
 10
1.558887317252659
 20
1.465395558180987
 10
1.578998360455547
 20
1.46208355437445
 10
1.605062370420246
 20
1.458192715150425
 10
1.637634484319792
 20
1.453972638496235
 10
1.674543279038836
 20
1.450060373140909
 10
1.716504975962404
 20
1.446743889574029
 10
1.759757795330155
 20
1.444593659694686
 10
1.80579010412505
 20
1.443725834680282
 10
1.849952701435311
 20
1.44427240534879
 10
1.894237224239218
 20
1.446175118181587
 10
1.934882459323734
 20
1.449110827765338
 10
1.973143940760334
 20
1.452908293013297
 10
2.006373552663182
 20
1.457013772991031
 10
2.03494530513575
 20
1.461138923170078
 10
2.056645610255039
 20
1.464636685174204
 10
2.071823835564065
 20
1.467268988075969
 10
2.077914787804084
 20
1.468368106444739
 10
2.08
 20
1.46875
  0
LWPOLYLINE
  5
17C
330
156
100
AcDbEntity
  8
AM_9
100
AcDbPolyline
 90
       21
 70
     0
 43
0.0
 10
-2.079999999998372
 20
1.468749999999701
 10
-2.079749089441138
 20
1.468703895873611
 10
-2.073910995684207
 20
1.467642863963515
 10
-2.061112682747341
 20
1.465395558180987
 10
-2.041001639544453
 20
1.46208355437445
 10
-2.014937629579754
 20
1.458192715150425
 10
-1.982365515680208
 20
1.453972638496235
 10
-1.945456720961164
 20
1.450060373140909
 10
-1.903495024037596
 20
1.446743889574029
 10
-1.860242204669845
 20
1.444593659694686
 10
-1.81420989587495
 20
1.443725834680282
 10
-1.77004729856469
 20
1.44427240534879
 10
-1.725762775760782
 20
1.446175118181587
 10
-1.685117540676266
 20
1.449110827765338
 10
-1.646856059239666
 20
1.452908293013297
 10
-1.613626447336818
 20
1.457013772991031
 10
-1.58505469486425
 20
1.461138923170078
 10
-1.563354389744961
 20
1.464636685174204
 10
-1.548176164435936
 20
1.467268988075969
 10
-1.542085212195916
 20
1.468368106444739
 10
-1.54
 20
1.46875
  0
LWPOLYLINE
  5
17D
330
156
100
AcDbEntity
  8
AM_9
100
AcDbPolyline
 90
       11
 70
     0
 43
0.0
 10
-1.81
 20
0.3654392061398447
 10
-1.765743999489902
 20
0.3690353891527137
 10
-1.721487998979805
 20
0.3801072372011742
 10
-1.680965620936412
 20
0.3976243976475202
 10
-1.642968102920861
 20
0.4219545975565778
 10
-1.610264153931264
 20
0.4513008186739937
 10
-1.58233391800072
 20
0.4861326302091235
 10
-1.561366911657267
 20
0.5237179885502059
 10
-1.547001963355146
 20
0.5648167380873816
 10
-1.540529647551703
 20
0.605359666529963
 10
-1.540000000795543
 20
0.6207017871601601
  0
LINE
  5
17E
330
156
100
AcDbEntity
  8
AM_9
100
AcDbLine
 10
-2.08
 20
0.7331837551069109
 30
0.0
 11
-2.08
 21
0.6206963085489486
 31
0.0
  0
LINE
  5
17F
330
156
100
AcDbEntity
  8
AM_9
100
AcDbLine
 10
-1.54
 20
0.6206498696221466
 30
0.0
 11
-1.54
 21
0.733231005674801
 31
0.0
  0
LWPOLYLINE
  5
180
330
156
100
AcDbEntity
  8
AM_9
100
AcDbPolyline
 90
        4
 70
     0
 43
0.0
 10
-2.072962151210784
 20
0.675687196279478
 10
-2.075280517295214
 20
0.6659096623165326
 10
-2.079966692613922
 20
0.6245615073396588
 10
-2.079999999192213
 20
0.6207395005777833
  0
LWPOLYLINE
  5
181
330
156
100
AcDbEntity
  8
AM_9
100
AcDbPolyline
 90
        5
 70
     0
 43
0.0
 10
-2.012988675547122
 20
0.777495959382551
 10
-2.017804968285833
 20
0.7726655461656525
 10
-2.043552369096493
 20
0.7408558724192238
 10
-2.06329155592773
 20
0.7042066749722756
 10
-2.072962151210784
 20
0.675687196279478
  0
LWPOLYLINE
  5
182
330
156
100
AcDbEntity
  8
AM_9
100
AcDbPolyline
 90
        4
 70
     0
 43
0.0
 10
-1.933596257601553
 20
0.8299332079010481
 10
-1.949753617367224
 20
0.8223669440423066
 10
-1.985763223779808
 20
0.8004012121476209
 10
-2.012988675547122
 20
0.777495959382551
  0
LWPOLYLINE
  5
183
330
156
100
AcDbEntity
  8
AM_9
100
AcDbPolyline
 90
        4
 70
     0
 43
0.0
 10
-1.686074197094385
 20
0.8297910655009567
 10
-1.689981793199859
 20
0.8314453870948442
 10
-1.73182838998577
 20
0.8452586751863699
 10
-1.749779640134831
 20
0.8492118168561115
  0
LWPOLYLINE
  5
184
330
156
100
AcDbEntity
  8
AM_9
100
AcDbPolyline
 90
        4
 70
     0
 43
0.0
 10
-1.607326121624106
 20
0.7778021673498736
 10
-1.616632860483893
 20
0.7863741460022404
 10
-1.650507104018587
 20
0.8113004425661731
 10
-1.686074197094385
 20
0.8297910655009567
  0
LWPOLYLINE
  5
185
330
156
100
AcDbEntity
  8
AM_9
100
AcDbPolyline
 90
        5
 70
     0
 43
0.0
 10
-1.547443163160907
 20
0.6772107705439584
 10
-1.549894821091187
 20
0.6856042830704792
 10
-1.565682606252527
 20
0.7229796456152451
 10
-1.587748849731257
 20
0.756277163720813
 10
-1.607326121624106
 20
0.7778021673498736
  0
LWPOLYLINE
  5
186
330
156
100
AcDbEntity
  8
AM_9
100
AcDbPolyline
 90
        3
 70
     0
 43
0.0
 10
-1.540000000795543
 20
0.6207017871601601
 10
-1.541571172234286
 20
0.6469592368130528
 10
-1.547443163160907
 20
0.6772107705439584
  0
LWPOLYLINE
  5
187
330
156
100
AcDbEntity
  8
AM_9
100
AcDbPolyline
 90
       11
 70
     0
 43
0.0
 10
-2.079999999192213
 20
0.6207395005777833
 10
-2.077030128095985
 20
0.5842964600958732
 10
-2.066523380846526
 20
0.5433548452843011
 10
-2.049374771366885
 20
0.5052753813134107
 10
-2.025113218906887
 20
0.4689905595908775
 10
-1.995280272999292
 20
0.4371514636266248
 10
-1.959312625699886
 20
0.4095162568118756
 10
-1.919825944241546
 20
0.3883606080707223
 10
-1.875921522030644
 20
0.3734804889474337
 10
-1.843481311854057
 20
0.3674919720902405
 10
-1.81
 20
0.3654392061398447
  0
LWPOLYLINE
  5
188
330
156
100
AcDbEntity
  8
AM_9
100
AcDbPolyline
 90
        7
 70
     0
 43
0.0
 10
-1.620746056262658
 20
0.903239360577468
 10
-1.600808406601096
 20
0.8843929389854573
 10
-1.575079103600343
 20
0.8516496473503785
 10
-1.555996897166227
 20
0.815198592935213
 10
-1.544253418495136
 20
0.7760819607321047
 10
-1.540009176900261
 20
0.7352595962118352
 10
-1.540000000337887
 20
0.7332549262661776
  0
LWPOLYLINE
  5
189
330
156
100
AcDbEntity
  8
AM_9
100
AcDbPolyline
 90
        5
 70
     0
 43
0.0
 10
-1.749970329157929
 20
0.9633322191299264
 10
-1.708664073453575
 20
0.9523662257738068
 10
-1.668603240050793
 20
0.9352349712857532
 10
-1.632227649049555
 20
0.912342744594904
 10
-1.620746056262658
 20
0.903239360577468
  0
LWPOLYLINE
  5
18A
330
156
100
AcDbEntity
  8
AM_9
100
AcDbPolyline
 90
        8
 70
     0
 43
0.0
 10
-1.998935331113388
 20
0.9035079145372265
 10
-1.96782643069286
 20
0.9258893966518486
 10
-1.928781192761772
 20
0.9457982923585128
 10
-1.886251049515455
 20
0.9597448171546433
 10
-1.841520148649331
 20
0.9674620266758085
 10
-1.796338706378366
 20
0.9687007404748416
 10
-1.751545868557394
 20
0.9636303508581853
 10
-1.749970329157929
 20
0.9633322191299264
  0
LWPOLYLINE
  5
18B
330
156
100
AcDbEntity
  8
AM_9
100
AcDbPolyline
 90
        7
 70
     0
 43
0.0
 10
-2.079999999060577
 20
0.7332222712293915
 10
-2.078361689251916
 20
0.7600512803864219
 10
-2.069686191475499
 20
0.7994754444077306
 10
-2.053874925706517
 20
0.8366164094441345
 10
-2.031185563952598
 20
0.8706134133622138
 10
-2.002394707038779
 20
0.900542367252187
 10
-1.998935331113388
 20
0.9035079145372265
  0
LWPOLYLINE
  5
18C
330
156
100
AcDbEntity
  8
AM_9
100
AcDbPolyline
 90
        3
 70
     0
 43
0.0
 10
-1.749960223606426
 20
0.4861776052702496
 10
-1.778153786116405
 20
0.4814468153714228
 10
-1.81
 20
0.4796065289345781
  0
LWPOLYLINE
  5
18D
330
156
100
AcDbEntity
  8
AM_9
100
AcDbPolyline
 90
       10
 70
     0
 43
0.0
 10
-1.540000000337887
 20
0.7332549262661776
 10
-1.54342719455302
 20
0.6943075068191421
 10
-1.554212070566499
 20
0.6539873103851301
 10
-1.572126624235077
 20
0.6155340832923073
 10
-1.596569579887676
 20
0.580027664822629
 10
-1.627281807824554
 20
0.54829009896526
 10
-1.663121540818258
 20
0.5216369625882545
 10
-1.703406783534719
 20
0.5009130518079108
 10
-1.746760450401828
 20
0.4869062310260638
 10
-1.749960223606426
 20
0.4861776052702496
  0
LWPOLYLINE
  5
18E
330
156
100
AcDbEntity
  8
AM_9
100
AcDbPolyline
 90
       11
 70
     0
 43
0.0
 10
1.81
 20
0.3654392061398447
 10
1.854256000510098
 20
0.3690353891527137
 10
1.898512001020196
 20
0.3801072372011742
 10
1.939034379063588
 20
0.3976243976475202
 10
1.977031897079139
 20
0.4219545975565778
 10
2.009735846068736
 20
0.4513008186739937
 10
2.03766608199928
 20
0.4861326302091235
 10
2.058633088342733
 20
0.5237179885502059
 10
2.072998036644854
 20
0.5648167380873816
 10
2.079470352448297
 20
0.605359666529963
 10
2.079999999204457
 20
0.6207017871601601
  0
LINE
  5
18F
330
156
100
AcDbEntity
  8
AM_9
100
AcDbLine
 10
1.54
 20
0.7331837551069109
 30
0.0
 11
1.54
 21
0.6206963085489486
 31
0.0
  0
LINE
  5
190
330
156
100
AcDbEntity
  8
AM_9
100
AcDbLine
 10
2.08
 20
0.6206498696221466
 30
0.0
 11
2.08
 21
0.733231005674801
 31
0.0
  0
LWPOLYLINE
  5
191
330
156
100
AcDbEntity
  8
AM_9
100
AcDbPolyline
 90
        4
 70
     0
 43
0.0
 10
1.547037848789216
 20
0.675687196279478
 10
1.544719482704786
 20
0.6659096623165326
 10
1.540033307386078
 20
0.6245615073396588
 10
1.540000000807787
 20
0.6207395005777833
  0
LWPOLYLINE
  5
192
330
156
100
AcDbEntity
  8
AM_9
100
AcDbPolyline
 90
        5
 70
     0
 43
0.0
 10
1.606846630423511
 20
0.7773353083668166
 10
1.602195031714167
 20
0.7726655461656525
 10
1.576447630903508
 20
0.7408558724192238
 10
1.55670844407227
 20
0.7042066749722756
 10
1.547037848789216
 20
0.675687196279478
  0
LWPOLYLINE
  5
193
330
156
100
AcDbEntity
  8
AM_9
100
AcDbPolyline
 90
        4
 70
     0
 43
0.0
 10
1.686402942752484
 20
0.829932863580863
 10
1.670246382632776
 20
0.8223669440423066
 10
1.634236776220192
 20
0.8004012121476209
 10
1.606846630423511
 20
0.7773353083668166
  0
LWPOLYLINE
  5
194
330
156
100
AcDbEntity
  8
AM_9
100
AcDbPolyline
 90
        3
 70
     0
 43
0.0
 10
1.749946236692453
 20
0.8492433826732249
 10
1.710794184821612
 20
0.8391676111115205
 10
1.686402942752484
 20
0.829932863580863
  0
LWPOLYLINE
  5
195
330
156
100
AcDbEntity
  8
AM_9
100
AcDbPolyline
 90
        4
 70
     0
 43
0.0
 10
2.013117435537428
 20
0.7773703867547375
 10
2.003367139516107
 20
0.7863741460022404
 10
1.969492895981414
 20
0.8113004425661731
 10
1.933979936480059
 20
0.8297676694562501
  0
LWPOLYLINE
  5
196
330
156
100
AcDbEntity
  8
AM_9
100
AcDbPolyline
 90
        5
 70
     0
 43
0.0
 10
2.072556836839093
 20
0.6772107705439581
 10
2.070105178908813
 20
0.6856042830704792
 10
2.054317393747473
 20
0.7229796456152451
 10
2.032251150268743
 20
0.756277163720813
 10
2.013117435537428
 20
0.7773703867547375
  0
LWPOLYLINE
  5
197
330
156
100
AcDbEntity
  8
AM_9
100
AcDbPolyline
 90
        3
 70
     0
 43
0.0
 10
2.079999999204457
 20
0.6207017871601601
 10
2.078428827765714
 20
0.6469592368130528
 10
2.072556836839093
 20
0.6772107705439581
  0
LWPOLYLINE
  5
198
330
156
100
AcDbEntity
  8
AM_9
100
AcDbPolyline
 90
       11
 70
     0
 43
0.0
 10
1.540000000807787
 20
0.6207395005777833
 10
1.542969871904015
 20
0.5842964600958732
 10
1.553476619153473
 20
0.5433548452843011
 10
1.570625228633115
 20
0.5052753813134107
 10
1.594886781093113
 20
0.4689905595908775
 10
1.624719727000709
 20
0.4371514636266248
 10
1.660687374300114
 20
0.4095162568118756
 10
1.700174055758454
 20
0.3883606080707223
 10
1.744078477969357
 20
0.3734804889474337
 10
1.776518688145943
 20
0.3674919720902405
 10
1.81
 20
0.3654392061398447
  0
LWPOLYLINE
  5
199
330
156
100
AcDbEntity
  8
AM_9
100
AcDbPolyline
 90
        7
 70
     0
 43
0.0
 10
1.999323977569363
 20
0.9031802076168267
 10
2.019191593398904
 20
0.8843929389854573
 10
2.044920896399657
 20
0.8516496473503785
 10
2.064003102833774
 20
0.815198592935213
 10
2.075746581504864
 20
0.7760819607321047
 10
2.079990823099739
 20
0.7352595962118352
 10
2.079999999662113
 20
0.7332549262661776
  0
LWPOLYLINE
  5
19A
330
156
100
AcDbEntity
  8
AM_9
100
AcDbPolyline
 90
        8
 70
     0
 43
0.0
 10
1.749792073353832
 20
0.9632979616503582
 10
1.778479851350669
 20
0.9674620266758085
 10
1.823661293621634
 20
0.9687007404748416
 10
1.868454131442606
 20
0.9636303508581853
 10
1.911335926546425
 20
0.9523662257738068
 10
1.951396759949207
 20
0.9352349712857532
 10
1.987772350950445
 20
0.912342744594904
 10
1.999323977569363
 20
0.9031802076168267
  0
LWPOLYLINE
  5
19B
330
156
100
AcDbEntity
  8
AM_9
100
AcDbPolyline
 90
        5
 70
     0
 43
0.0
 10
1.621080634712549
 20
0.9035213479175707
 10
1.652173569307141
 20
0.9258893966518486
 10
1.691218807238228
 20
0.9457982923585128
 10
1.733748950484546
 20
0.9597448171546433
 10
1.749792073353832
 20
0.9632979616503582
  0
LWPOLYLINE
  5
19C
330
156
100
AcDbEntity
  8
AM_9
100
AcDbPolyline
 90
        7
 70
     0
 43
0.0
 10
1.540000000939423
 20
0.7332222712293915
 10
1.541638310748085
 20
0.7600512803864219
 10
1.550313808524501
 20
0.7994754444077306
 10
1.566125074293483
 20
0.8366164094441345
 10
1.588814436047402
 20
0.8706134133622138
 10
1.617605292961221
 20
0.900542367252187
 10
1.621080634712549
 20
0.9035213479175707
  0
LWPOLYLINE
  5
19D
330
156
100
AcDbEntity
  8
AM_9
100
AcDbPolyline
 90
       11
 70
     0
 43
0.0
 10
2.079999999662113
 20
0.7332549262661776
 10
2.07657280544698
 20
0.6943075068191421
 10
2.065787929433502
 20
0.6539873103851301
 10
2.047873375764923
 20
0.6155340832923073
 10
2.023430420112324
 20
0.580027664822629
 10
1.992718192175447
 20
0.54829009896526
 10
1.956878459181742
 20
0.5216369625882545
 10
1.916593216465281
 20
0.5009130518079108
 10
1.873239549598172
 20
0.4869062310260638
 10
1.841846213883596
 20
0.4814468153714228
 10
1.81
 20
0.4796065289345781
  0
LWPOLYLINE
  5
19E
330
156
100
AcDbEntity
  8
AM_9
100
AcDbPolyline
 90
       10
 70
     0
 43
0.0
 10
1.749824664193286
 20
1.714918677675257
 10
1.736789089166013
 20
1.715425555792248
 10
1.694142848499154
 20
1.717774106090172
 10
1.655715375549961
 20
1.720793057093644
 10
1.620582376691144
 20
1.724298128520696
 10
1.591333415172463
 20
1.727755791574764
 10
1.567534723994028
 20
1.730928770940229
 10
1.55118611605932
 20
1.733294443111285
 10
1.541847957749841
 20
1.734713382021056
 10
1.540000000000742
 20
1.734999999999885
  0
LWPOLYLINE
  5
19F
330
156
100
AcDbEntity
  8
AM_9
100
AcDbPolyline
 90
       12
 70
     0
 43
0.0
 10
2.08
 20
1.735
 10
2.07632730141284
 20
1.734432250472138
 10
2.064992011465814
 20
1.732727885708365
 10
2.046967562483629
 20
1.730167224770321
 10
2.021753721379602
 20
1.72689450706119
 10
1.991192045410432
 20
1.723413925126525
 10
1.954564327790672
 20
1.719948791350943
 10
1.91468771242043
 20
1.71705693473799
 10
1.870562985790038
 20
1.714932323809836
 10
1.826312769386756
 20
1.713940228375852
 10
1.780287175247941
 20
1.714120139300261
 10
1.749824664193286
 20
1.714918677675257
  0
LWPOLYLINE
  5
1A0
330
156
100
AcDbEntity
  8
AM_9
100
AcDbPolyline
 90
       10
 70
     0
 43
0.0
 10
1.749801974185949
 20
0.4862127070340065
 10
1.721243579628362
 20
0.4941765714991642
 10
1.680058577157042
 20
0.5119166763251393
 10
1.642502587726757
 20
0.5358357738896399
 10
1.609423759717458
 20
0.5654771126031161
 10
1.581967020238705
 20
0.5996662737626878
 10
1.560892909632038
 20
0.6375998093529768
 10
1.546882200464892
 20
0.6778983930364376
 10
1.540482776065598
 20
0.7190153699496267
 10
1.540000000939423
 20
0.7332222712293915
  0
LWPOLYLINE
  5
1A1
330
156
100
AcDbEntity
  8
AM_9
100
AcDbPolyline
 90
        3
 70
     0
 43
0.0
 10
1.81
 20
0.4796065289345781
 10
1.764983597544502
 20
0.4833101015160275
 10
1.749801974185949
 20
0.4862127070340065
  0
LINE
  5
1A2
330
156
100
AcDbEntity
  8
AM_9
100
AcDbLine
 10
1.326
 20
-1.735
 30
0.0
 11
2.25
 21
-1.735
 31
0.0
  0
LINE
  5
1A3
330
156
100
AcDbEntity
  8
AM_9
100
AcDbLine
 10
2.25
 20
1.735
 30
0.0
 11
2.08
 21
1.735
 31
0.0
  0
LINE
  5
1A4
330
156
100
AcDbEntity
  8
AM_9
100
AcDbLine
 10
1.54
 20
1.735
 30
0.0
 11
1.326
 21
1.735
 31
0.0
  0
LWPOLYLINE
  5
1A5
330
156
100
AcDbEntity
  8
AM_9
100
AcDbPolyline
 90
       12
 70
     0
 43
0.0
 10
-1.749989438792231
 20
1.714912903752395
 10
-1.793687230613244
 20
1.713940228375852
 10
-1.83971282475206
 20
1.714120139300261
 10
-1.883210910833987
 20
1.715425555792248
 10
-1.925857151500846
 20
1.717774106090172
 10
-1.964284624450039
 20
1.720793057093644
 10
-1.999417623308856
 20
1.724298128520696
 10
-2.028666584827537
 20
1.727755791574764
 10
-2.052465276005973
 20
1.730928770940229
 10
-2.068813883940681
 20
1.733294443111285
 10
-2.078152042250159
 20
1.734713382021056
 10
-2.079999999999258
 20
1.734999999999885
  0
LWPOLYLINE
  5
1A6
330
156
100
AcDbEntity
  8
AM_9
100
AcDbPolyline
 90
       10
 70
     0
 43
0.0
 10
-1.54
 20
1.735
 10
-1.54367269858716
 20
1.734432250472138
 10
-1.555007988534186
 20
1.732727885708365
 10
-1.573032437516372
 20
1.730167224770321
 10
-1.598246278620399
 20
1.72689450706119
 10
-1.628807954589568
 20
1.723413925126525
 10
-1.665435672209328
 20
1.719948791350943
 10
-1.70531228757957
 20
1.71705693473799
 10
-1.749437014209962
 20
1.714932323809836
 10
-1.749989438792231
 20
1.714912903752395
  0
LWPOLYLINE
  5
1A7
330
156
100
AcDbEntity
  8
AM_9
100
AcDbPolyline
 90
       11
 70
     0
 43
0.0
 10
-1.81
 20
0.4796065289345781
 10
-1.855016402455498
 20
0.4833101015160275
 10
-1.898756420371638
 20
0.4941765714991642
 10
-1.939941422842958
 20
0.5119166763251393
 10
-1.977497412273244
 20
0.5358357738896399
 10
-2.010576240282542
 20
0.5654771126031161
 10
-2.038032979761295
 20
0.5996662737626878
 10
-2.059107090367962
 20
0.6375998093529768
 10
-2.073117799535108
 20
0.6778983930364376
 10
-2.079517223934403
 20
0.7190153699496267
 10
-2.079999999060577
 20
0.7332222712293915
  0
LINE
  5
1A8
330
156
100
AcDbEntity
  8
AM_9
100
AcDbLine
 10
-2.25
 20
-1.735
 30
0.0
 11
-1.326
 21
-1.735
 31
0.0
  0
LINE
  5
1A9
330
156
100
AcDbEntity
  8
AM_9
100
AcDbLine
 10
-1.326
 20
1.735
 30
0.0
 11
-1.54
 21
1.735
 31
0.0
  0
LINE
  5
1AA
330
156
100
AcDbEntity
  8
AM_9
100
AcDbLine
 10
-2.08
 20
1.735
 30
0.0
 11
-2.25
 21
1.735
 31
0.0
  0
LINE
  5
1AB
330
156
100
AcDbEntity
  8
AM_9
100
AcDbLine
 10
1.326
 20
-2.419871794871795
 30
0.0
 11
1.326
 21
2.419871794871794
 31
0.0
  0
LINE
  5
1AC
330
156
100
AcDbEntity
  8
AM_9
100
AcDbLine
 10
1.326
 20
-2.419871794871795
 30
0.0
 11
1.5
 21
-2.450552689515067
 31
0.0
  0
LINE
  5
1AD
330
156
100
AcDbEntity
  8
AM_9
100
AcDbLine
 10
1.5
 20
2.450552689515067
 30
0.0
 11
1.326
 21
2.419871794871794
 31
0.0
  0
LINE
  5
1AE
330
156
100
AcDbEntity
  8
AM_9
100
AcDbLine
 10
-1.326
 20
2.419871794871795
 30
0.0
 11
-1.5
 21
2.450552689515067
 31
0.0
  0
LINE
  5
1AF
330
156
100
AcDbEntity
  8
AM_9
100
AcDbLine
 10
-1.5
 20
-2.450552689515067
 30
0.0
 11
-1.326
 21
-2.419871794871795
 31
0.0
  0
LINE
  5
1B0
330
156
100
AcDbEntity
  8
AM_9
100
AcDbLine
 10
-1.326
 20
2.419871794871795
 30
0.0
 11
-1.326
 21
-2.419871794871795
 31
0.0
  0
LINE
  5
1B1
330
156
100
AcDbEntity
  8
AM_9
100
AcDbLine
 10
-1.5
 20
-2.7815
 30
0.0
 11
-0.9374999999999998
 21
-2.7815
 31
0.0
  0
LINE
  5
1B2
330
156
100
AcDbEntity
  8
AM_9
100
AcDbLine
 10
-0.9374999999999998
 20
2.7815
 30
0.0
 11
-1.5
 21
2.7815
 31
0.0
  0
LINE
  5
1B3
330
156
100
AcDbEntity
  8
AM_9
100
AcDbLine
 10
-1.5
 20
2.7815
 30
0.0
 11
-1.5
 21
-2.7815
 31
0.0
  0
LINE
  5
1B4
330
156
100
AcDbEntity
  8
AM_9
100
AcDbLine
 10
0.9375000000000003
 20
-2.7815
 30
0.0
 11
1.499999999999999
 21
-2.7815
 31
0.0
  0
LINE
  5
1B5
330
156
100
AcDbEntity
  8
AM_9
100
AcDbLine
 10
1.499999999999999
 20
2.7815
 30
0.0
 11
0.9375000000000003
 21
2.7815
 31
0.0
  0
LINE
  5
1B6
330
156
100
AcDbEntity
  8
AM_9
100
AcDbLine
 10
1.499999999999999
 20
2.7815
 30
0.0
 11
1.499999999999999
 21
-2.7815
 31
0.0
  0
LINE
  5
1B7
330
156
100
AcDbEntity
  8
AM_9
100
AcDbLine
 10
0.4547973808811265
 20
2.996179165594686
 30
0.0
 11
-0.4547973808811251
 21
2.996179165594686
 31
0.0
  0
ARC
  5
1B8
330
156
100
AcDbEntity
  8
AM_9
100
AcDbCircle
 10
-0.0000000000000091
 20
-0.0000000000000435
 30
0.0
 40
3.030500000000044
100
AcDbArc
 50
71.9796424065299
 51
81.36882088716258
  0
ARC
  5
1B9
330
156
100
AcDbEntity
  8
AM_9
100
AcDbCircle
 10
0.0000000000000193
 20
-0.000000000000083
 30
0.0
 40
3.030500000000085
100
AcDbArc
 50
98.63117911283749
 51
108.0203575934701
  0
ARC
  5
1BA
330
156
100
AcDbEntity
  8
AM_9
100
AcDbCircle
 10
0.0000000000000001
 20
-0.0000000000000719
 30
0.0
 40
3.030499999999928
100
AcDbArc
 50
251.9796424065293
 51
288.0203575934706
  0
LINE
  5
1BB
330
156
100
AcDbEntity
  8
AM_9
100
AcDbLine
 10
-0.9374999999999998
 20
2.881843854201681
 30
0.0
 11
-0.9374999999999998
 21
-2.881843854201677
 31
0.0
  0
LINE
  5
1BC
330
156
100
AcDbEntity
  8
AM_9
100
AcDbLine
 10
0.9375000000000002
 20
2.881843854201681
 30
0.0
 11
0.9375000000000002
 21
-2.881843854201677
 31
0.0
  0
LINE
  5
1BF
330
156
100
AcDbEntity
  8
AM_7
100
AcDbLine
 10
-2.475
 20
0.0
 30
0.0
 11
2.475
 21
0.0
 31
0.0
  0
LINE
  5
1C0
330
156
100
AcDbEntity
  8
AM_7
100
AcDbLine
 10
-1.81
 20
-0.11796875
 30
0.0
 11
-1.81
 21
2.47734375
 31
0.0
  0
LINE
  5
1C1
330
156
100
AcDbEntity
  8
AM_7
100
AcDbLine
 10
1.81
 20
-0.11796875
 30
0.0
 11
1.81
 21
2.47734375
 31
0.0
  0
LWPOLYLINE
  5
1C2
330
156
100
AcDbEntity
  8
AM_4
100
AcDbPolyline
 90
        6
 70
     0
 43
0.0
 10
-1.749779640134831
 20
0.8492118168561115
 10
-1.777245332013574
 20
0.8531951003489624
 10
-1.821662007908809
 20
0.8546369507952902
 10
-1.867037348670711
 20
0.849798972130762
 10
-1.909205815178388
 20
0.8391676111115205
 10
-1.933596257601553
 20
0.8299332079010481
  0
LWPOLYLINE
  5
1C3
330
156
100
AcDbEntity
  8
AM_4
100
AcDbPolyline
 90
        7
 70
     0
 43
0.0
 10
1.933979936480059
 20
0.8297676694562501
 10
1.930018206800141
 20
0.8314453870948442
 10
1.88817161001423
 20
0.8452586751863699
 10
1.842754667986427
 20
0.8531951003489624
 10
1.798337992091191
 20
0.8546369507952902
 10
1.75296265132929
 20
0.849798972130762
 10
1.749946236692453
 20
0.8492433826732249
  0
ENDBLK
  5
159
330
156
100
AcDbEntity
  8
0
100
AcDbBlockEnd
  0
BLOCK
  5
1C6
330
1C4
100
AcDbEntity
  8
0
100
AcDbBlockBegin
  2
6_P2b_taf_215r_0_in_037588_2
 70
     2
 10
0.0
 20
0.0
 30
0.0
  3
6_P2b_taf_215r_0_in_037588_2
  1

  0
ATTDEF
  5
1C8
330
1C4
100
AcDbEntity
  8
AM_6
100
AcDbText
 10
6.85
 20
5.993999862670899
 30
0.0
 40
0.5
  1
2B TAF PILLOW BLOCK NON-EXPANSION TYPE-BODY
100
AcDbAttributeDefinition
  3

  2
NN
 70
     8
280
     0
  0
ATTDEF
  5
1C9
330
1C4
100
AcDbEntity
  8
AM_6
100
AcDbText
 10
6.85
 20
5.493999862670899
 30
0.0
 40
0.5
  1
Taf Bearings
100
AcDbAttributeDefinition
  3

  2
NT
 70
     8
280
     0
  0
ATTDEF
  5
1CA
330
1C4
100
AcDbEntity
  8
AM_6
100
AcDbText
 10
6.85
 20
4.993999862670899
 30
0.0
 40
0.5
  1
P2b-taf-215r
100
AcDbAttributeDefinition
  3

  2
NB
 70
     8
280
     0
  0
ATTDEF
  5
1CB
330
1C4
100
AcDbEntity
  8
AM_6
100
AcDbText
 10
6.85
 20
4.493999862670899
 30
0.0
 40
0.5
  1
$PN.
100
AcDbAttributeDefinition
  3

  2
NBSYN
 70
     8
280
     0
  0
ATTDEF
  5
1CC
330
1C4
100
AcDbEntity
  8
AM_6
100
AcDbText
 10
6.85
 20
3.993999862670899
 30
0.0
 40
0.5
  1
P2b-taf-215r
100
AcDbAttributeDefinition
  3

  2
LINA
 70
     8
280
     0
  0
ATTDEF
  5
1CD
330
1C4
100
AcDbEntity
  8
AM_6
100
AcDbText
 10
6.85
 20
3.493999862670899
 30
0.0
 40
0.5
  1
2-15/16
100
AcDbAttributeDefinition
  3

  2
SS
 70
     8
280
     0
  0
ATTDEF
  5
1CE
330
1C4
100
AcDbEntity
  8
AM_6
100
AcDbText
 10
6.85
 20
2.993999862670899
 30
0.0
 40
0.5
  1
517
100
AcDbAttributeDefinition
  3

  2
SERIES
 70
     8
280
     0
  0
ATTDEF
  5
1CF
330
1C4
100
AcDbEntity
  8
AM_6
100
AcDbText
 10
6.85
 20
2.493999862670899
 30
0.0
 40
0.5
  1
P2b-taf-215r
100
AcDbAttributeDefinition
  3

  2
PN
 70
     8
280
     0
  0
ATTDEF
  5
1D0
330
1C4
100
AcDbEntity
  8
AM_6
100
AcDbText
 10
6.85
 20
1.993999862670899
 30
0.0
 40
0.5
  1
P2b-taf-215r
100
AcDbAttributeDefinition
  3

  2
DESCRIPTION
 70
     8
280
     0
  0
ATTDEF
  5
1D1
330
1C4
100
AcDbEntity
  8
AM_6
100
AcDbText
 10
6.85
 20
1.493999862670899
 30
0.0
 40
0.5
  1
2
100
AcDbAttributeDefinition
  3

  2
HF
 70
     8
280
     0
  0
ATTDEF
  5
1D2
330
1C4
100
AcDbEntity
  8
AM_6
100
AcDbText
 10
6.85
 20
0.9939998626708988
 30
0.0
 40
0.5
  1
Non Expansion Type
100
AcDbAttributeDefinition
  3

  2
EF
 70
     8
280
     0
  0
ATTDEF
  5
1D3
330
1C4
100
AcDbEntity
  8
AM_6
100
AcDbText
 10
6.85
 20
0.4939998626708988
 30
0.0
 40
0.5
  1
4.50
100
AcDbAttributeDefinition
  3

  2
A
 70
     8
280
     0
  0
ATTDEF
  5
1D4
330
1C4
100
AcDbEntity
  8
AM_6
100
AcDbText
 10
6.85
 20
-0.0060001373291012
 30
0.0
 40
0.5
  1
12.59
100
AcDbAttributeDefinition
  3

  2
B
 70
     8
280
     0
  0
ATTDEF
  5
1D5
330
1C4
100
AcDbEntity
  8
AM_6
100
AcDbText
 10
6.85
 20
-0.5060001373291012
 30
0.0
 40
0.5
  1
3.50
100
AcDbAttributeDefinition
  3

  2
C
 70
     8
280
     0
  0
ATTDEF
  5
1D6
330
1C4
100
AcDbEntity
  8
AM_6
100
AcDbText
 10
6.85
 20
-1.006000137329101
 30
0.0
 40
0.5
  1
9.88
100
AcDbAttributeDefinition
  3

  2
DMIN
 70
     8
280
     0
  0
ATTDEF
  5
1D7
330
1C4
100
AcDbEntity
  8
AM_6
100
AcDbText
 10
6.85
 20
-1.506000137329101
 30
0.0
 40
0.5
  1
11.00
100
AcDbAttributeDefinition
  3

  2
DMAX
 70
     8
280
     0
  0
ATTDEF
  5
1D8
330
1C4
100
AcDbEntity
  8
AM_6
100
AcDbText
 10
6.85
 20
-2.006000137329101
 30
0.0
 40
0.5
  1
2.13
100
AcDbAttributeDefinition
  3

  2
E
 70
     8
280
     0
  0
ATTDEF
  5
1D9
330
1C4
100
AcDbEntity
  8
AM_6
100
AcDbText
 10
6.85
 20
-2.506000137329101
 30
0.0
 40
0.5
  1
3/4
100
AcDbAttributeDefinition
  3

  2
F
 70
     8
280
     0
  0
ATTDEF
  5
1DA
330
1C4
100
AcDbEntity
  8
AM_6
100
AcDbText
 10
6.85
 20
-3.006000137329101
 30
0.0
 40
0.5
  1
1.44
100
AcDbAttributeDefinition
  3

  2
G
 70
     8
280
     0
  0
ATTDEF
  5
1DB
330
1C4
100
AcDbEntity
  8
AM_6
100
AcDbText
 10
6.85
 20
-3.506000137329101
 30
0.0
 40
0.5
  1
1.25
100
AcDbAttributeDefinition
  3

  2
H
 70
     8
280
     0
  0
ATTDEF
  5
1DC
330
1C4
100
AcDbEntity
  8
AM_6
100
AcDbText
 10
6.85
 20
-4.006000137329101
 30
0.0
 40
0.5
  1
7.92
100
AcDbAttributeDefinition
  3

  2
J
 70
     8
280
     0
  0
ATTDEF
  5
1DD
330
1C4
100
AcDbEntity
  8
AM_6
100
AcDbText
 10
6.85
 20
-4.506000137329101
 30
0.0
 40
0.5
  1
2.25
100
AcDbAttributeDefinition
  3

  2
K
 70
     8
280
     0
  0
ATTDEF
  5
1DE
330
1C4
100
AcDbEntity
  8
AM_6
100
AcDbText
 10
6.85
 20
-5.006000137329101
 30
0.0
 40
0.5
  1
2.250000
100
AcDbAttributeDefinition
  3

  2
K1
 70
     8
280
     0
  0
ATTDEF
  5
1DF
330
1C4
100
AcDbEntity
  8
AM_6
100
AcDbText
 10
6.85
 20
-5.506000137329101
 30
0.0
 40
0.5
  1
4.72
100
AcDbAttributeDefinition
  3

  2
L
 70
     8
280
     0
  0
ATTDEF
  5
1E0
330
1C4
100
AcDbEntity
  8
AM_6
100
AcDbText
 10
6.85
 20
-6.006000137329101
 30
0.0
 40
0.5
  1
3.75
100
AcDbAttributeDefinition
  3

  2
M
 70
     8
280
     0
  0
ATTDEF
  5
1E1
330
1C4
100
AcDbEntity
  8
AM_6
100
AcDbText
 10
6.85
 20
-6.506000137329101
 30
0.0
 40
0.5
  1
8.31
100
AcDbAttributeDefinition
  3

  2
P
 70
     8
280
     0
  0
ATTDEF
  5
1E2
330
1C4
100
AcDbEntity
  8
AM_6
100
AcDbText
 10
6.85
 20
-7.006000137329101
 30
0.0
 40
0.5
  1
0.28
100
AcDbAttributeDefinition
  3

  2
T
 70
     8
280
     0
  0
ATTDEF
  5
1E3
330
1C4
100
AcDbEntity
  8
AM_6
100
AcDbText
 10
6.85
 20
-7.506000137329101
 30
0.0
 40
0.5
  1
61200
100
AcDbAttributeDefinition
  3

  2
SC
 70
     8
280
     0
  0
ATTDEF
  5
1E4
330
1C4
100
AcDbEntity
  8
AM_6
100
AcDbText
 10
6.85
 20
-8.006000137329101
 30
0.0
 40
0.5
  1
9600
100
AcDbAttributeDefinition
  3

  2
DC
 70
     8
280
     0
  0
ATTDEF
  5
1E5
330
1C4
100
AcDbEntity
  8
AM_6
100
AcDbText
 10
6.85
 20
-8.506000137329101
 30
0.0
 40
0.5
  1
24
100
AcDbAttributeDefinition
  3

  2
RN
 70
     8
280
     0
  0
ATTDEF
  5
1E6
330
1C4
100
AcDbEntity
  8
AM_6
100
AcDbText
 10
6.85
 20
-9.006000137329101
 30
0.0
 40
0.5
  1
0.41
100
AcDbAttributeDefinition
  3

  2
RMD
 70
     8
280
     0
  0
ATTDEF
  5
1E7
330
1C4
100
AcDbEntity
  8
AM_6
100
AcDbText
 10
6.85
 20
-9.506000137329101
 30
0.0
 40
0.5
  1
3.900
100
AcDbAttributeDefinition
  3

  2
PD
 70
     8
280
     0
  0
ATTDEF
  5
1E8
330
1C4
100
AcDbEntity
  8
AM_6
100
AcDbText
 10
6.85
 20
-10.0060001373291
 30
0.0
 40
0.5
  1
0.004/0.012
100
AcDbAttributeDefinition
  3

  2
EP
 70
     8
280
     0
  0
ATTDEF
  5
1E9
330
1C4
100
AcDbEntity
  8
AM_6
100
AcDbText
 10
6.85
 20
-10.5060001373291
 30
0.0
 40
0.5
  1
1/2-13x7/8
100
AcDbAttributeDefinition
  3

  2
CSS
 70
     8
280
     0
  0
ATTDEF
  5
1EA
330
1C4
100
AcDbEntity
  8
AM_6
100
AcDbText
 10
6.85
 20
-11.0060001373291
 30
0.0
 40
0.5
  1
620
100
AcDbAttributeDefinition
  3

  2
CST
 70
     8
280
     0
  0
ATTDEF
  5
1EB
330
1C4
100
AcDbEntity
  8
AM_6
100
AcDbText
 10
6.85
 20
-11.5060001373291
 30
0.0
 40
0.5
  1
A48 CLASS 30
100
AcDbAttributeDefinition
  3

  2
HM
 70
     8
280
     0
  0
ATTDEF
  5
1EC
330
1C4
100
AcDbEntity
  8
AM_6
100
AcDbText
 10
6.85
 20
-12.0060001373291
 30
0.0
 40
0.5
  1
4118 CASE CARB.
100
AcDbAttributeDefinition
  3

  2
CM
 70
     8
280
     0
  0
ATTDEF
  5
1ED
330
1C4
100
AcDbEntity
  8
AM_6
100
AcDbText
 10
6.85
 20
-12.5060001373291
 30
0.0
 40
0.5
  1
4118 CASE CARB.
100
AcDbAttributeDefinition
  3

  2
CUM
 70
     8
280
     0
  0
ATTDEF
  5
1EE
330
1C4
100
AcDbEntity
  8
AM_6
100
AcDbText
 10
6.85
 20
-13.0060001373291
 30
0.0
 40
0.5
  1
STEEL
100
AcDbAttributeDefinition
  3

  2
RM
 70
     8
280
     0
  0
ATTDEF
  5
1EF
330
1C4
100
AcDbEntity
  8
AM_6
100
AcDbText
 10
6.85
 20
-13.5060001373291
 30
0.0
 40
0.5
  1
4118 CASE CARB.
100
AcDbAttributeDefinition
  3

  2
ROM
 70
     8
280
     0
  0
ATTDEF
  5
1F0
330
1C4
100
AcDbEntity
  8
AM_6
100
AcDbText
 10
6.85
 20
-14.0060001373291
 30
0.0
 40
0.5
  1
4.80
100
AcDbAttributeDefinition
  3

  2
SM
 70
     8
280
     0
  0
ATTDEF
  5
1F1
330
1C4
100
AcDbEntity
  8
AM_6
100
AcDbText
 10
6.85
 20
-14.5060001373291
 30
0.0
 40
0.5
  1
baldor
100
AcDbAttributeDefinition
  3

  2
COMPANY
 70
     8
280
     0
  0
LINE
  5
1F2
330
1C4
100
AcDbEntity
  8
AM_9
100
AcDbLine
 10
1.75
 20
2.780000013899999
 30
0.0
 11
1.604043035163302
 21
2.78
 31
0.0
  0
LINE
  5
1F3
330
1C4
100
AcDbEntity
  8
AM_9
100
AcDbLine
 10
-1.604043035163303
 20
2.78
 30
0.0
 11
-1.75
 21
2.780000013899999
 31
0.0
  0
LINE
  5
1F4
330
1C4
100
AcDbEntity
  8
AM_9
100
AcDbLine
 10
-0.8725499999999997
 20
4.27
 30
0.0
 11
-0.8725499999999997
 21
4.17
 31
0.0
  0
LINE
  5
1F5
330
1C4
100
AcDbEntity
  8
AM_9
100
AcDbLine
 10
0.20775
 20
4.27
 30
0.0
 11
0.20775
 21
4.17
 31
0.0
  0
LINE
  5
1F6
330
1C4
100
AcDbEntity
  8
AM_9
100
AcDbLine
 10
-0.875
 20
4.17
 30
0.0
 11
-0.875
 21
3.0305
 31
0.0
  0
LINE
  5
1F7
330
1C4
100
AcDbEntity
  8
AM_9
100
AcDbLine
 10
0.875
 20
3.0305
 30
0.0
 11
0.875
 21
4.17
 31
0.0
  0
LINE
  5
1F8
330
1C4
100
AcDbEntity
  8
AM_9
100
AcDbLine
 10
-1.666666666666666
 20
-3.0305
 30
0.0
 11
1.666666666666667
 21
-3.0305
 31
0.0
  0
LINE
  5
1F9
330
1C4
100
AcDbEntity
  8
AM_9
100
AcDbLine
 10
1.666666666666667
 20
3.0305
 30
0.0
 11
0.8749999999999998
 21
3.0305
 31
0.0
  0
LINE
  5
1FA
330
1C4
100
AcDbEntity
  8
AM_9
100
AcDbLine
 10
-0.8749999999999998
 20
3.0305
 30
0.0
 11
-1.666666666666666
 21
3.0305
 31
0.0
  0
LWPOLYLINE
  5
1FB
330
1C4
100
AcDbEntity
  8
AM_9
100
AcDbPolyline
 90
       40
 70
     0
 43
0.0
 10
-0.8749999999994699
 20
3.030499999999847
 10
-0.8748676147491593
 20
3.030461778893917
 10
-0.8704914284626978
 20
3.029199915801386
 10
-0.8599847815751843
 20
3.026198783051258
 10
-0.8443601046215823
 20
3.021794763214602
 10
-0.8233945989699994
 20
3.016004627916371
 10
-0.7964309258088741
 20
3.008754468059815
 10
-0.7642030382788509
 20
3.000385230885299
 10
-0.7271399389555775
 20
2.991159730423867
 10
-0.6853527986945694
 20
2.981277194203598
 10
-0.6377811331362924
 20
2.970702301379607
 10
-0.585821114341326
 20
2.959981693863682
 10
-0.5294864544534376
 20
2.949350364021126
 10
-0.4694055214191851
 20
2.939157497232637
 10
-0.4040377770588949
 20
2.92943077499517
 10
-0.3355526083749318
 20
2.920770583765048
 10
-0.2669292859247882
 20
2.913687158034273
 10
-0.1963245033224919
 20
2.908066120397681
 10
-0.1219498399714909
 20
2.90399724917142
 10
-0.0465895247338173
 20
2.901805616131949
 10
0.0240534062695404
 20
2.901534457026012
 10
0.0945260124884015
 20
2.902970963863909
 10
0.1663888490017289
 20
2.906201842875059
 10
0.2370176663714352
 20
2.911096464250568
 10
0.3033174901162739
 20
2.917245134834721
 10
0.3675880577341296
 20
2.924624117760905
 10
0.431071292543631
 20
2.933280927674921
 10
0.4916034932865914
 20
2.942784267426272
 10
0.5491772244035206
 20
2.952948704692198
 10
0.6030402919096203
 20
2.963437673322393
 10
0.6541671457117018
 20
2.974263184482937
 10
0.7006974571650453
 20
2.984842068933892
 10
0.7422041022623795
 20
2.994857282447019
 10
0.7785298278467786
 20
3.004066234763664
 10
0.8102296377162316
 20
3.012436126847035
 10
0.8358755808820455
 20
3.0194359136625
 10
0.8527170236596525
 20
3.024140721368303
 10
0.8649069955253614
 20
3.027601255269377
 10
0.8724677083940475
 20
3.029768872271266
 10
0.875
 20
3.0305
  0
LINE
  5
1FC
330
1C4
100
AcDbEntity
  8
AM_9
100
AcDbLine
 10
1.166867061317363
 20
3.155000000000001
 30
0.0
 11
1.166867061317363
 21
3.132669855420049
 31
0.0
  0
LINE
  5
1FD
330
1C4
100
AcDbEntity
  8
AM_9
100
AcDbLine
 10
-1.166867061317363
 20
3.155000000000001
 30
0.0
 11
-1.166867061317363
 21
3.132669855420049
 31
0.0
  0
LWPOLYLINE
  5
1FE
330
1C4
100
AcDbEntity
  8
AM_9
100
AcDbPolyline
 90
        9
 70
     0
 43
0.0
 10
1.166867061317363
 20
3.132669855420049
 10
1.101076702083658
 20
3.135733798164517
 10
1.034963804251843
 20
3.133740741513905
 10
0.9698596024363025
 20
3.126743472653971
 10
0.906564694543413
 20
3.114805368528808
 10
0.8454319039914585
 20
3.098177844220337
 10
0.7874253540132298
 20
3.07724075431943
 10
0.7312648177760919
 20
3.051364028971038
 10
0.7183617897595053
 20
3.044586156222292
  0
LWPOLYLINE
  5
1FF
330
1C4
100
AcDbEntity
  8
AM_9
100
AcDbPolyline
 90
        7
 70
     0
 43
0.0
 10
1.469546384716144
 20
2.932292663489719
 10
1.428769820290524
 20
2.968570229910932
 10
1.356244414607805
 20
3.024833865798869
 10
1.312178701157991
 20
3.054547659272698
 10
1.266173530769761
 20
3.082404752746125
 10
1.21737177636761
 20
3.108710539822867
 10
1.166867061317363
 20
3.132669855420049
  0
LINE
  5
200
330
1C4
100
AcDbEntity
  8
AM_9
100
AcDbLine
 10
1.56297110731754
 20
2.832946199338933
 30
0.0
 11
1.544047116477384
 21
2.855203515297677
 31
0.0
  0
LWPOLYLINE
  5
201
330
1C4
100
AcDbEntity
  8
AM_9
100
AcDbPolyline
 90
        9
 70
     0
 43
0.0
 10
-0.7183615284025388
 20
3.04458601480367
 10
-0.7398449888766218
 20
3.055726214620455
 10
-0.7893416645432171
 20
3.07802175446149
 10
-0.840386148567431
 20
3.096595515093605
 10
-0.8937720785277182
 20
3.111794747346178
 10
-0.9513275357394437
 20
3.123783127118387
 10
-1.010433060785512
 20
3.131729798680933
 10
-1.087841228058241
 20
3.135784666822712
 10
-1.166867061317363
 20
3.132669855420049
  0
LINE
  5
202
330
1C4
100
AcDbEntity
  8
AM_9
100
AcDbLine
 10
-1.543998746253521
 20
2.855258853590013
 30
0.0
 11
-1.562611087449422
 21
2.833381296197976
 31
0.0
  0
LWPOLYLINE
  5
203
330
1C4
100
AcDbEntity
  8
AM_9
100
AcDbPolyline
 90
        7
 70
     0
 43
0.0
 10
-1.166867061317363
 20
3.132669855420049
 10
-1.229728352729739
 20
3.102348484911607
 10
-1.289859946783278
 20
3.068448944308465
 10
-1.348765286625532
 20
3.030095370954053
 10
-1.404179605411708
 20
2.988763586227722
 10
-1.460189978808692
 20
2.94094581014355
 10
-1.46904905010834
 20
2.932758030347911
  0
LINE
  5
204
330
1C4
100
AcDbEntity
  8
AM_9
100
AcDbLine
 10
1.666666666666667
 20
3.226216216216216
 30
0.0
 11
1.666666666666667
 21
-3.226216216216216
 31
0.0
  0
ARC
  5
205
330
1C4
100
AcDbEntity
  8
AM_9
100
AcDbCircle
 10
1.716666666666665
 20
-3.226216216216216
 30
0.0
 40
0.0499999999999989
100
AcDbArc
 50
180.0
 51
270.0
  0
ARC
  5
206
330
1C4
100
AcDbEntity
  8
AM_9
100
AcDbCircle
 10
1.716666666666665
 20
3.226216216216216
 30
0.0
 40
0.0499999999999989
100
AcDbArc
 50
90.0
 51
180.0
  0
LINE
  5
207
330
1C4
100
AcDbEntity
  8
AM_9
100
AcDbLine
 10
1.716666666666666
 20
-3.276216216216215
 30
0.0
 11
1.75
 21
-3.276216216216215
 31
0.0
  0
LINE
  5
208
330
1C4
100
AcDbEntity
  8
AM_9
100
AcDbLine
 10
1.75
 20
3.276216216216215
 30
0.0
 11
1.716666666666666
 21
3.276216216216215
 31
0.0
  0
LINE
  5
209
330
1C4
100
AcDbEntity
  8
AM_9
100
AcDbLine
 10
1.716666666666666
 20
3.276216216216215
 30
0.0
 11
1.716666666666666
 21
-3.276216216216215
 31
0.0
  0
LINE
  5
20A
330
1C4
100
AcDbEntity
  8
AM_9
100
AcDbLine
 10
-1.75
 20
-3.276216216216217
 30
0.0
 11
-1.716666666666665
 21
-3.276216216216217
 31
0.0
  0
LINE
  5
20B
330
1C4
100
AcDbEntity
  8
AM_9
100
AcDbLine
 10
-1.716666666666665
 20
3.276216216216217
 30
0.0
 11
-1.75
 21
3.276216216216217
 31
0.0
  0
LINE
  5
20C
330
1C4
100
AcDbEntity
  8
AM_9
100
AcDbLine
 10
-1.666666666666667
 20
3.226216216216217
 30
0.0
 11
-1.666666666666667
 21
-3.226216216216217
 31
0.0
  0
ARC
  5
20D
330
1C4
100
AcDbEntity
  8
AM_9
100
AcDbCircle
 10
-1.716666666666667
 20
-3.226216216216217
 30
0.0
 40
0.0499999999999998
100
AcDbArc
 50
270.0
 51
0.0
  0
ARC
  5
20E
330
1C4
100
AcDbEntity
  8
AM_9
100
AcDbCircle
 10
-1.716666666666667
 20
3.226216216216217
 30
0.0
 40
0.0499999999999998
100
AcDbArc
 50
0.0
 51
90.0
  0
LINE
  5
20F
330
1C4
100
AcDbEntity
  8
AM_9
100
AcDbLine
 10
-1.716666666666665
 20
3.276216216216217
 30
0.0
 11
-1.716666666666665
 21
-3.276216216216217
 31
0.0
  0
LINE
  5
210
330
1C4
100
AcDbEntity
  8
AM_9
100
AcDbLine
 10
0.4400000000000009
 20
-2.5
 30
0.0
 11
0.4400000000000009
 21
-3.75
 31
0.0
  0
LINE
  5
211
330
1C4
100
AcDbEntity
  8
AM_9
100
AcDbLine
 10
-0.4399999999999998
 20
-2.5
 30
0.0
 11
-0.4399999999999998
 21
-3.75
 31
0.0
  0
LINE
  5
212
330
1C4
100
AcDbEntity
  8
AM_7
100
AcDbLine
 10
1.09375
 20
2.6975
 30
0.0
 11
1.09375
 21
2.8625
 31
0.0
  0
LINE
  5
213
330
1C4
100
AcDbEntity
  8
AM_7
100
AcDbLine
 10
-1.09375
 20
2.6975
 30
0.0
 11
-1.09375
 21
2.8625
 31
0.0
  0
LINE
  5
214
330
1C4
100
AcDbEntity
  8
AM_7
100
AcDbLine
 10
0.0
 20
-0.30225
 30
0.0
 11
0.0
 21
5.993999862670899
 31
0.0
  0
LINE
  5
215
330
1C4
100
AcDbEntity
  8
AM_4
100
AcDbLine
 10
-0.9542200538379252
 20
4.37
 30
0.0
 11
-0.9542200538379252
 21
4.27
 31
0.0
  0
LINE
  5
216
330
1C4
100
AcDbEntity
  8
AM_4
100
AcDbLine
 10
-0.8964850269189627
 20
4.37
 30
0.0
 11
-0.8964850269189627
 21
4.27
 31
0.0
  0
LINE
  5
217
330
1C4
100
AcDbEntity
  8
AM_4
100
AcDbLine
 10
-0.7232799461620748
 20
4.37
 30
0.0
 11
-0.7232799461620748
 21
4.27
 31
0.0
  0
LINE
  5
218
330
1C4
100
AcDbEntity
  8
AM_4
100
AcDbLine
 10
-0.9542200538379252
 20
4.37
 30
0.0
 11
-0.7232799461620748
 21
4.37
 31
0.0
  0
LINE
  5
219
330
1C4
100
AcDbEntity
  8
AM_4
100
AcDbLine
 10
-0.7810149730810375
 20
4.37
 30
0.0
 11
-0.7810149730810375
 21
4.27
 31
0.0
  0
LINE
  5
21A
330
1C4
100
AcDbEntity
  8
AM_4
100
AcDbLine
 10
0.7232799461620748
 20
4.37
 30
0.0
 11
0.7232799461620748
 21
4.27
 31
0.0
  0
LINE
  5
21B
330
1C4
100
AcDbEntity
  8
AM_4
100
AcDbLine
 10
0.7810149730810375
 20
4.37
 30
0.0
 11
0.7810149730810375
 21
4.27
 31
0.0
  0
LINE
  5
21C
330
1C4
100
AcDbEntity
  8
AM_4
100
AcDbLine
 10
0.9542200538379252
 20
4.37
 30
0.0
 11
0.9542200538379254
 21
4.27
 31
0.0
  0
LINE
  5
21D
330
1C4
100
AcDbEntity
  8
AM_4
100
AcDbLine
 10
0.7232799461620748
 20
4.37
 30
0.0
 11
0.9542200538379252
 21
4.37
 31
0.0
  0
LINE
  5
21E
330
1C4
100
AcDbEntity
  8
AM_4
100
AcDbLine
 10
0.8964850269189627
 20
4.37
 30
0.0
 11
0.8964850269189627
 21
4.27
 31
0.0
  0
LINE
  5
21F
330
1C4
100
AcDbEntity
  8
AM_4
100
AcDbLine
 10
1.03875
 20
4.27
 30
0.0
 11
1.03875
 21
4.17
 31
0.0
  0
LINE
  5
220
330
1C4
100
AcDbEntity
  8
AM_4
100
AcDbLine
 10
0.8725499999999999
 20
4.27
 30
0.0
 11
0.8725499999999999
 21
4.17
 31
0.0
  0
LINE
  5
221
330
1C4
100
AcDbEntity
  8
AM_4
100
AcDbLine
 10
-0.2077499999999995
 20
4.27
 30
0.0
 11
-0.2077499999999994
 21
4.17
 31
0.0
  0
LINE
  5
222
330
1C4
100
AcDbEntity
  8
AM_4
100
AcDbLine
 10
-1.03875
 20
4.27
 30
0.0
 11
1.03875
 21
4.27
 31
0.0
  0
LINE
  5
223
330
1C4
100
AcDbEntity
  8
AM_4
100
AcDbLine
 10
-1.03875
 20
4.27
 30
0.0
 11
-1.03875
 21
4.17
 31
0.0
  0
LINE
  5
224
330
1C4
100
AcDbEntity
  8
AM_4
100
AcDbLine
 10
-1.75
 20
0.3125000000000006
 30
0.0
 11
-1.75
 21
4.013749999999999
 31
0.0
  0
LINE
  5
225
330
1C4
100
AcDbEntity
  8
AM_4
100
AcDbLine
 10
1.75
 20
0.3125000000000006
 30
0.0
 11
1.75
 21
4.01375
 31
0.0
  0
LWPOLYLINE
  5
226
330
1C4
100
AcDbEntity
  8
AM_4
100
AcDbPolyline
 90
       19
 70
     0
 43
0.0
 10
-1.59375
 20
4.17
 10
-1.607368084804321
 20
4.169405421576835
 10
-1.620882527760458
 20
4.167626211408157
 10
-1.634190475797269
 20
4.164675910357666
 10
-1.647190647394636
 20
4.160576971997798
 10
-1.659784103396984
 20
4.155360591724476
 10
-1.671875
 20
4.149066469341318
 10
-1.683371318179851
 20
4.141742506920155
 10
-1.694185564013522
 20
4.13344444423734
 10
-1.704235434560398
 20
4.124235434560397
 10
-1.713444444237341
 20
4.114185564013521
 10
-1.721742506920155
 20
4.103371318179851
 10
-1.729066469341319
 20
4.091874999999999
 10
-1.735360591724477
 20
4.079784103396983
 10
-1.740576971997799
 20
4.067190647394635
 10
-1.744675910357667
 20
4.054190475797268
 10
-1.747626211408158
 20
4.040882527760457
 10
-1.749405421576836
 20
4.02736808480432
 10
-1.75
 20
4.013750004656612
  0
LINE
  5
227
330
1C4
100
AcDbEntity
  8
AM_4
100
AcDbLine
 10
-1.59375
 20
4.17
 30
0.0
 11
1.593749999999998
 21
4.17
 31
0.0
  0
LINE
  5
228
330
1C4
100
AcDbEntity
  8
AM_4
100
AcDbLine
 10
-1.75
 20
4.013749999999999
 30
0.0
 11
1.75
 21
4.01375
 31
0.0
  0
LWPOLYLINE
  5
229
330
1C4
100
AcDbEntity
  8
AM_4
100
AcDbPolyline
 90
       19
 70
     0
 43
0.0
 10
1.749999999999999
 20
4.013749999999999
 10
1.749405421576835
 20
4.02736808480432
 10
1.747626211408157
 20
4.040882527760457
 10
1.744675910357666
 20
4.054190475797268
 10
1.740576971997797
 20
4.067190647394635
 10
1.735360591724476
 20
4.079784103396983
 10
1.729066469341318
 20
4.091874999999999
 10
1.721742506920154
 20
4.103371318179851
 10
1.713444444237339
 20
4.114185564013521
 10
1.704235434560397
 20
4.124235434560398
 10
1.694185564013521
 20
4.13344444423734
 10
1.68337131817985
 20
4.141742506920155
 10
1.671874999999999
 20
4.149066469341318
 10
1.659784103396983
 20
4.155360591724476
 10
1.647190647394634
 20
4.160576971997798
 10
1.634190475797267
 20
4.164675910357666
 10
1.620882527760456
 20
4.167626211408158
 10
1.60736808480432
 20
4.169405421576835
 10
1.593749999999998
 20
4.17
  0
LINE
  5
22A
330
1C4
100
AcDbEntity
  8
AM_4
100
AcDbLine
 10
-1.166867061317363
 20
3.933277895089539
 30
0.0
 11
-1.75
 21
3.767222327192807
 31
0.0
  0
LINE
  5
22B
330
1C4
100
AcDbEntity
  8
AM_4
100
AcDbLine
 10
1.75
 20
3.767222327192808
 30
0.0
 11
1.166867061317363
 21
3.933277895089539
 31
0.0
  0
LINE
  5
22C
330
1C4
100
AcDbEntity
  8
AM_4
100
AcDbLine
 10
1.166867061317363
 20
3.933277895089539
 30
0.0
 11
1.166867061317363
 21
3.155000000000001
 31
0.0
  0
LINE
  5
22D
330
1C4
100
AcDbEntity
  8
AM_4
100
AcDbLine
 10
1.166867061317363
 20
3.933277895089539
 30
0.0
 11
-1.166867061317363
 21
3.933277895089539
 31
0.0
  0
LINE
  5
22E
330
1C4
100
AcDbEntity
  8
AM_4
100
AcDbLine
 10
-1.166867061317363
 20
3.933277895089539
 30
0.0
 11
-1.166867061317363
 21
3.155000000000001
 31
0.0
  0
LWPOLYLINE
  5
22F
330
1C4
100
AcDbEntity
  8
AM_4
100
AcDbPolyline
 90
        7
 70
     0
 43
0.0
 10
0.7183617897595053
 20
3.044586156222292
 10
0.6789629112592429
 20
3.021501379713477
 10
0.6309564387668065
 20
2.988171396740285
 10
0.5676767717481089
 20
2.932918081439751
 10
0.5134433885521532
 20
2.871602305095975
 10
0.4681408797937515
 20
2.805549767443357
 10
0.4535004218266595
 20
2.78
  0
LWPOLYLINE
  5
230
330
1C4
100
AcDbEntity
  8
AM_4
100
AcDbPolyline
 90
        3
 70
     0
 43
0.0
 10
1.544047116477384
 20
2.855203515297677
 10
1.494782552484669
 20
2.907878369080362
 10
1.469546384716144
 20
2.932292663489719
  0
LINE
  5
231
330
1C4
100
AcDbEntity
  8
AM_4
100
AcDbLine
 10
1.604043035163302
 20
2.78
 30
0.0
 11
1.56297110731754
 21
2.832946199338933
 31
0.0
  0
LWPOLYLINE
  5
232
330
1C4
100
AcDbEntity
  8
AM_4
100
AcDbPolyline
 90
        8
 70
     0
 43
0.0
 10
-0.4535004218266592
 20
2.78
 10
-0.4848753377795863
 20
2.831992045838461
 10
-0.521169688006086
 20
2.881431330551786
 10
-0.5637864134611473
 20
2.929079842437405
 10
-0.6120543881530632
 20
2.973179159780838
 10
-0.6511681761229868
 20
3.002988686473049
 10
-0.6933753816881731
 20
3.03038124674651
 10
-0.7183615284025388
 20
3.04458601480367
  0
LINE
  5
233
330
1C4
100
AcDbEntity
  8
AM_4
100
AcDbLine
 10
-1.562611087449422
 20
2.833381296197976
 30
0.0
 11
-1.604043030866161
 21
2.780000013900001
 31
0.0
  0
LWPOLYLINE
  5
234
330
1C4
100
AcDbEntity
  8
AM_4
100
AcDbPolyline
 90
        3
 70
     0
 43
0.0
 10
-1.46904905010834
 20
2.932758030347911
 10
-1.511856087258544
 20
2.890418954955261
 10
-1.543998746253521
 20
2.855258853590013
  0
LINE
  5
235
330
1C4
100
AcDbEntity
  8
AM_4
100
AcDbLine
 10
-1.46875
 20
3.155000000000001
 30
0.0
 11
-0.7187499999999998
 21
3.155000000000001
 31
0.0
  0
LINE
  5
236
330
1C4
100
AcDbEntity
  8
AM_4
100
AcDbLine
 10
-0.7187499999999998
 20
3.155000000000001
 30
0.0
 11
-0.7187499999999998
 21
2.855
 31
0.0
  0
LINE
  5
237
330
1C4
100
AcDbEntity
  8
AM_4
100
AcDbLine
 10
-1.46875
 20
3.155000000000001
 30
0.0
 11
-1.46875
 21
2.855
 31
0.0
  0
LINE
  5
238
330
1C4
100
AcDbEntity
  8
AM_4
100
AcDbLine
 10
-1.09375
 20
3.155000000000001
 30
0.0
 11
-1.09375
 21
2.855
 31
0.0
  0
LINE
  5
239
330
1C4
100
AcDbEntity
  8
AM_4
100
AcDbLine
 10
1.46875
 20
3.155000000000001
 30
0.0
 11
1.46875
 21
2.855
 31
0.0
  0
LINE
  5
23A
330
1C4
100
AcDbEntity
  8
AM_4
100
AcDbLine
 10
0.7187500000000002
 20
3.155000000000001
 30
0.0
 11
1.46875
 21
3.155000000000001
 31
0.0
  0
LINE
  5
23B
330
1C4
100
AcDbEntity
  8
AM_4
100
AcDbLine
 10
0.7187500000000002
 20
3.155000000000001
 30
0.0
 11
0.7187500000000002
 21
2.855
 31
0.0
  0
LINE
  5
23C
330
1C4
100
AcDbEntity
  8
AM_4
100
AcDbLine
 10
1.09375
 20
3.155000000000001
 30
0.0
 11
1.09375
 21
2.855
 31
0.0
  0
LINE
  5
23D
330
1C4
100
AcDbEntity
  8
AM_4
100
AcDbLine
 10
-1.5625
 20
2.855
 30
0.0
 11
-0.6249999999999998
 21
2.855
 31
0.0
  0
LINE
  5
23E
330
1C4
100
AcDbEntity
  8
AM_4
100
AcDbLine
 10
-1.5625
 20
2.855
 30
0.0
 11
-1.5625
 21
2.780000013900001
 31
0.0
  0
LINE
  5
23F
330
1C4
100
AcDbEntity
  8
AM_4
100
AcDbLine
 10
-0.6249999999999998
 20
2.780000013900001
 30
0.0
 11
-0.6249999999999998
 21
2.855
 31
0.0
  0
LINE
  5
240
330
1C4
100
AcDbEntity
  8
AM_4
100
AcDbLine
 10
0.6250000000000003
 20
2.855
 30
0.0
 11
1.5625
 21
2.855
 31
0.0
  0
LINE
  5
241
330
1C4
100
AcDbEntity
  8
AM_4
100
AcDbLine
 10
0.6250000000000003
 20
2.855
 30
0.0
 11
0.6250000000000003
 21
2.780000013900001
 31
0.0
  0
LINE
  5
242
330
1C4
100
AcDbEntity
  8
AM_4
100
AcDbLine
 10
1.5625
 20
2.780000013900001
 30
0.0
 11
1.5625
 21
2.855
 31
0.0
  0
LINE
  5
243
330
1C4
100
AcDbEntity
  8
AM_4
100
AcDbLine
 10
-0.3746860367332837
 20
0.3125
 30
0.0
 11
-0.3746860367332837
 21
0.0
 31
0.0
  0
LINE
  5
244
330
1C4
100
AcDbEntity
  8
AM_4
100
AcDbLine
 10
0.3746860367332828
 20
0.3125
 30
0.0
 11
0.3746860367332828
 21
0.0
 31
0.0
  0
LINE
  5
245
330
1C4
100
AcDbEntity
  8
AM_4
100
AcDbLine
 10
-1.75
 20
0.0
 30
0.0
 11
-1.75
 21
-3.75
 31
0.0
  0
LINE
  5
246
330
1C4
100
AcDbEntity
  8
AM_4
100
AcDbLine
 10
0.4961138858443051
 20
2.780000013900001
 30
0.0
 11
0.496113885844305
 21
0.3125000000000006
 31
0.0
  0
LINE
  5
247
330
1C4
100
AcDbEntity
  8
AM_4
100
AcDbLine
 10
-0.4961138858443044
 20
2.780000013900001
 30
0.0
 11
-0.4961138858443044
 21
0.3125000000000006
 31
0.0
  0
LINE
  5
248
330
1C4
100
AcDbEntity
  8
AM_4
100
AcDbLine
 10
-0.4961138858443043
 20
0.0
 30
0.0
 11
-0.4961138858443044
 21
-2.5
 31
0.0
  0
LINE
  5
249
330
1C4
100
AcDbEntity
  8
AM_4
100
AcDbLine
 10
-1.75
 20
2.780000013900001
 30
0.0
 11
1.75
 21
2.780000013900001
 31
0.0
  0
LINE
  5
24A
330
1C4
100
AcDbEntity
  8
AM_4
100
AcDbLine
 10
0.4961138858443051
 20
0.0
 30
0.0
 11
0.4961138858443051
 21
-2.5
 31
0.0
  0
LINE
  5
24B
330
1C4
100
AcDbEntity
  8
AM_4
100
AcDbLine
 10
1.75
 20
0.0
 30
0.0
 11
1.75
 21
-3.75
 31
0.0
  0
LINE
  5
24C
330
1C4
100
AcDbEntity
  8
AM_4
100
AcDbLine
 10
1.3125
 20
0.0
 30
0.0
 11
1.3125
 21
-2.5
 31
0.0
  0
LINE
  5
24D
330
1C4
100
AcDbEntity
  8
AM_4
100
AcDbLine
 10
-1.31249999348074
 20
0.0
 30
0.0
 11
-1.31249999348074
 21
-2.5
 31
0.0
  0
LINE
  5
24E
330
1C4
100
AcDbEntity
  8
AM_4
100
AcDbLine
 10
0.875000000000002
 20
-2.5
 30
0.0
 11
0.875000000000002
 21
2.780000013900001
 31
0.0
  0
LINE
  5
24F
330
1C4
100
AcDbEntity
  8
AM_4
100
AcDbLine
 10
1.3125
 20
2.780000013900001
 30
0.0
 11
1.312499999999999
 21
0.3125
 31
0.0
  0
LINE
  5
250
330
1C4
100
AcDbEntity
  8
AM_4
100
AcDbLine
 10
-1.31249999348074
 20
2.780000013900001
 30
0.0
 11
-1.312499999999999
 21
0.3125
 31
0.0
  0
LINE
  5
251
330
1C4
100
AcDbEntity
  8
AM_4
100
AcDbLine
 10
-0.874999999999998
 20
-2.5
 30
0.0
 11
-0.8749999999999997
 21
2.780000013900001
 31
0.0
  0
LINE
  5
252
330
1C4
100
AcDbEntity
  8
AM_4
100
AcDbLine
 10
-0.4761665104597283
 20
0.3125
 30
0.0
 11
-0.4761665104597283
 21
0.0
 31
0.0
  0
LINE
  5
253
330
1C4
100
AcDbEntity
  8
AM_4
100
AcDbLine
 10
0.4761665104597285
 20
0.3125
 30
0.0
 11
0.4761665104597285
 21
0.0
 31
0.0
  0
LINE
  5
254
330
1C4
100
AcDbEntity
  8
AM_4
100
AcDbLine
 10
1.85
 20
0.3125
 30
0.0
 11
1.85
 21
0.0
 31
0.0
  0
LINE
  5
255
330
1C4
100
AcDbEntity
  8
AM_4
100
AcDbLine
 10
1.4125
 20
0.3125
 30
0.0
 11
1.4125
 21
0.0
 31
0.0
  0
LINE
  5
256
330
1C4
100
AcDbEntity
  8
AM_4
100
AcDbLine
 10
-1.85
 20
0.3125
 30
0.0
 11
1.85
 21
0.3125
 31
0.0
  0
LINE
  5
257
330
1C4
100
AcDbEntity
  8
AM_4
100
AcDbLine
 10
-1.85
 20
0.0
 30
0.0
 11
1.85
 21
0.0
 31
0.0
  0
LINE
  5
258
330
1C4
100
AcDbEntity
  8
AM_4
100
AcDbLine
 10
-1.412500000000001
 20
0.3125
 30
0.0
 11
-1.412500000000001
 21
0.0
 31
0.0
  0
LINE
  5
259
330
1C4
100
AcDbEntity
  8
AM_4
100
AcDbLine
 10
-1.85
 20
0.3125
 30
0.0
 11
-1.85
 21
0.0
 31
0.0
  0
LINE
  5
25A
330
1C4
100
AcDbEntity
  8
AM_4
100
AcDbLine
 10
-1.399999999999999
 20
-2.75
 30
0.0
 11
-1.399999999999999
 21
-3.75
 31
0.0
  0
LINE
  5
25B
330
1C4
100
AcDbEntity
  8
AM_4
100
AcDbLine
 10
1.4
 20
-2.75
 30
0.0
 11
1.4
 21
-3.75
 31
0.0
  0
LINE
  5
25C
330
1C4
100
AcDbEntity
  8
AM_4
100
AcDbLine
 10
-1.75
 20
-3.75
 30
0.0
 11
1.75
 21
-3.75
 31
0.0
  0
LINE
  5
25D
330
1C4
100
AcDbEntity
  8
AM_4
100
AcDbLine
 10
-1.75
 20
-2.5
 30
0.0
 11
1.75
 21
-2.5
 31
0.0
  0
LINE
  5
25E
330
1C4
100
AcDbEntity
  8
AM_4
100
AcDbLine
 10
-1.399999999999999
 20
-2.75
 30
0.0
 11
1.4
 21
-2.75
 31
0.0
  0
LWPOLYLINE
  5
25F
330
1C4
100
AcDbEntity
  8
AM_4
100
AcDbPolyline
 90
       19
 70
     0
 43
0.0
 10
1.4
 20
-2.75
 10
1.400951325477064
 20
-2.728211064313085
 10
1.403798061746948
 20
-2.706587955583267
 10
1.408518543427733
 20
-2.68529523872437
 10
1.415076844803523
 20
-2.664494964168583
 10
1.423423053240838
 20
-2.644345434564825
 10
1.433493649053891
 20
-2.625
 10
1.445211988927752
 20
-2.606605890912239
 10
1.458488889220256
 20
-2.589303097578365
 10
1.473223304703363
 20
-2.573223304703363
 10
1.489303097578365
 20
-2.558488889220256
 10
1.506605890912239
 20
-2.545211988927752
 10
1.525
 20
-2.53349364905389
 10
1.544345434564825
 20
-2.523423053240838
 10
1.564494964168583
 20
-2.515076844803523
 10
1.58529523872437
 20
-2.508518543427733
 10
1.606587955583268
 20
-2.503798061746948
 10
1.628211064313086
 20
-2.500951325477064
 10
1.65
 20
-2.5
  0
LWPOLYLINE
  5
260
330
1C4
100
AcDbEntity
  8
AM_4
100
AcDbPolyline
 90
       19
 70
     0
 43
0.0
 10
-1.65
 20
-2.5
 10
-1.628211064313085
 20
-2.500951325477064
 10
-1.606587955583267
 20
-2.503798061746948
 10
-1.58529523872437
 20
-2.508518543427733
 10
-1.564494964168582
 20
-2.515076844803523
 10
-1.544345434564825
 20
-2.523423053240838
 10
-1.525
 20
-2.53349364905389
 10
-1.506605890912238
 20
-2.545211988927752
 10
-1.489303097578365
 20
-2.558488889220256
 10
-1.473223304703363
 20
-2.573223304703363
 10
-1.458488889220255
 20
-2.589303097578365
 10
-1.445211988927751
 20
-2.606605890912239
 10
-1.43349364905389
 20
-2.625
 10
-1.423423053240837
 20
-2.644345434564825
 10
-1.415076844803522
 20
-2.664494964168583
 10
-1.408518543427733
 20
-2.68529523872437
 10
-1.403798061746947
 20
-2.706587955583267
 10
-1.400951325477063
 20
-2.728211064313085
 10
-1.399999999999999
 20
-2.75
  0
ENDBLK
  5
1C7
330
1C4
100
AcDbEntity
  8
0
100
AcDbBlockEnd
  0
ENDSEC
  0
SECTION
  2
ENTITIES
  0
INSERT
  5
6F
330
1F
100
AcDbEntity
  8
0
100
AcDbBlockReference
  2
1_037588_2
 10
0.0
 20
0.0
 30
0.0
  0
POINT
  5
262
330
1F
100
AcDbEntity
  8
ConnectionPoints
100
AcDbPoint
 10
-2.25
 20
0.0
 30
0.0000000000000001
  0
POINT
  5
263
330
1F
100
AcDbEntity
  8
ConnectionPoints
100
AcDbPoint
 10
0.0
 20
3.5
 30
0.0
  0
POINT
  5
264
330
1F
100
AcDbEntity
  8
ConnectionPoints
100
AcDbPoint
 10
0.0
 20
0.0
 30
0.0
  0
POINT
  5
265
330
1F
100
AcDbEntity
  8
ConnectionPoints
100
AcDbPoint
 10
-2.25
 20
0.0
 30
0.0000000000000001
  0
POINT
  5
266
330
1F
100
AcDbEntity
  8
ConnectionPoints
100
AcDbPoint
 10
2.25
 20
0.0
 30
-0.0000000000000001
  0
POINT
  5
267
330
1F
100
AcDbEntity
  8
ConnectionPoints
100
AcDbPoint
 10
0.0
 20
3.5
 30
0.0
  0
POINT
  5
268
330
1F
100
AcDbEntity
  8
ConnectionPoints
100
AcDbPoint
 10
0.0
 20
3.5
 30
0.0
  0
POINT
  5
269
330
1F
100
AcDbEntity
  8
ConnectionPoints
100
AcDbPoint
 10
0.0
 20
0.0
 30
0.0
  0
ENDSEC
  0
SECTION
  2
OBJECTS
  0
DICTIONARY
  5
C
330
0
100
AcDbDictionary
281
     1
  3
ACAD_DETAILVIEWSTYLE
350
271
  3
ACAD_GROUP
350
D
  3
ACAD_LAYOUT
350
1A
  3
ACAD_MATERIAL
350
43
  3
ACAD_MLEADERSTYLE
350
6B
  3
ACAD_MLINESTYLE
350
17
  3
ACAD_PLOTSETTINGS
350
19
  3
ACAD_PLOTSTYLENAME
350
E
  3
ACAD_SCALELIST
350
47
  3
ACAD_SECTIONVIEWSTYLE
350
272
  3
ACAD_TABLESTYLE
350
69
  3
ACAD_VISUALSTYLE
350
2A
  3
ACDB_RECOMPOSE_DATA
350
26E
  3
AcDbVariableDictionary
350
26A
  0
SUN
  5
6D
330
29
100
AcDbSun
 90
        1
290
     0
 63
     7
421
 16777215
 40
1.0
291
     1
 91
  2455826
 92
 54000000
292
     0
 70
     2
 71
   256
280
     1
  0
DICTIONARY
  5
271
102
{ACAD_REACTORS
330
C
102
}
330
C
100
AcDbDictionary
281
     1
  0
DICTIONARY
  5
D
102
{ACAD_REACTORS
330
C
102
}
330
C
100
AcDbDictionary
281
     1
  0
DICTIONARY
  5
1A
102
{ACAD_REACTORS
330
C
102
}
330
C
100
AcDbDictionary
281
     1
  3
Layout1
350
1E
  3
Layout2
350
26
  3
Model
350
22
  0
DICTIONARY
  5
43
102
{ACAD_REACTORS
330
C
102
}
330
C
100
AcDbDictionary
281
     1
  3
ByBlock
350
45
  3
ByLayer
350
44
  3
Global
350
46
  0
DICTIONARY
  5
6B
102
{ACAD_REACTORS
330
C
102
}
330
C
100
AcDbDictionary
281
     1
  3
Standard
350
6C
  0
DICTIONARY
  5
17
102
{ACAD_REACTORS
330
C
102
}
330
C
100
AcDbDictionary
281
     1
  3
Standard
350
18
  0
DICTIONARY
  5
19
102
{ACAD_REACTORS
330
C
102
}
330
C
100
AcDbDictionary
281
     1
  0
ACDBDICTIONARYWDFLT
  5
E
102
{ACAD_REACTORS
330
C
102
}
330
C
100
AcDbDictionary
281
     1
  3
Normal
350
F
100
AcDbDictionaryWithDefault
340
F
  0
DICTIONARY
  5
47
102
{ACAD_REACTORS
330
C
102
}
330
C
100
AcDbDictionary
281
     1
  3
A0
350
48
  3
A1
350
49
  3
A2
350
4A
  3
A3
350
4B
  3
A4
350
4C
  3
A5
350
4D
  3
A6
350
4E
  3
A7
350
4F
  3
A8
350
50
  3
A9
350
51
  3
B0
350
52
  3
B1
350
53
  3
B2
350
54
  3
B3
350
55
  3
B4
350
56
  3
B5
350
57
  3
B6
350
58
  3
B7
350
59
  3
B8
350
5A
  3
B9
350
5B
  3
C0
350
5C
  3
C1
350
5D
  3
C2
350
5E
  3
C3
350
5F
  3
C4
350
60
  3
C5
350
61
  3
C6
350
62
  3
C7
350
63
  3
C8
350
64
  3
C9
350
65
  3
D0
350
66
  3
D1
350
67
  3
D2
350
68
  0
DICTIONARY
  5
272
102
{ACAD_REACTORS
330
C
102
}
330
C
100
AcDbDictionary
281
     1
  0
DICTIONARY
  5
69
102
{ACAD_REACTORS
330
C
102
}
330
C
100
AcDbDictionary
281
     1
  3
Standard
350
6A
  0
DICTIONARY
  5
2A
102
{ACAD_REACTORS
330
C
102
}
330
C
100
AcDbDictionary
281
     1
  3
2dWireframe
350
2F
  3
Basic
350
32
  3
Brighten
350
36
  3
ColorChange
350
3A
  3
Conceptual
350
34
  3
Dim
350
35
  3
EdgeColorOff
350
3D
  3
Facepattern
350
39
  3
Flat
350
2B
  3
FlatWithEdges
350
2C
  3
Gouraud
350
2D
  3
GouraudWithEdges
350
2E
  3
Hidden
350
31
  3
JitterOff
350
3B
  3
Linepattern
350
38
  3
OverhangOff
350
3C
  3
Realistic
350
33
  3
Shaded
350
42
  3
Shaded with edges
350
41
  3
Shades of Gray
350
3E
  3
Sketchy
350
3F
  3
Thicken
350
37
  3
Wireframe
350
30
  3
X-Ray
350
40
  0
XRECORD
  5
26E
102
{ACAD_REACTORS
330
C
102
}
330
C
100
AcDbXrecord
280
     1
 90
        1
330
6A
  0
DICTIONARY
  5
26A
102
{ACAD_REACTORS
330
C
102
}
330
C
100
AcDbDictionary
281
     1
  3
CANNOSCALE
350
26B
  3
CMLEADERSTYLE
350
270
  3
CTABLESTYLE
350
26F
  0
LAYOUT
  5
1E
102
{ACAD_REACTORS
330
1A
102
}
330
1A
100
AcDbPlotSettings
  1

  2
none_device
  4

  6

 40
0.0
 41
0.0
 42
0.0
 43
0.0
 44
0.0
 45
0.0
 46
0.0
 47
0.0
 48
0.0
 49
0.0
140
0.0
141
0.0
142
1.0
143
1.0
 70
   688
 72
     0
 73
     0
 74
     5
  7

 75
    16
 76
     0
 77
     2
 78
   300
147
1.0
148
0.0
149
0.0
100
AcDbLayout
  1
Layout1
 70
     1
 71
     1
 10
0.0
 20
0.0
 11
12.0
 21
9.0
 12
0.0
 22
0.0
 32
0.0
 14
1.000000000000000E+20
 24
1.000000000000000E+20
 34
1.000000000000000E+20
 15
-1.000000000000000E+20
 25
-1.000000000000000E+20
 35
-1.000000000000000E+20
146
0.0
 13
0.0
 23
0.0
 33
0.0
 16
1.0
 26
0.0
 36
0.0
 17
0.0
 27
1.0
 37
0.0
 76
     0
330
1B
  0
LAYOUT
  5
26
102
{ACAD_REACTORS
330
1A
102
}
330
1A
100
AcDbPlotSettings
  1

  2
none_device
  4

  6

 40
0.0
 41
0.0
 42
0.0
 43
0.0
 44
0.0
 45
0.0
 46
0.0
 47
0.0
 48
0.0
 49
0.0
140
0.0
141
0.0
142
1.0
143
1.0
 70
   688
 72
     0
 73
     0
 74
     5
  7

 75
    16
 76
     0
 77
     2
 78
   300
147
1.0
148
0.0
149
0.0
100
AcDbLayout
  1
Layout2
 70
     1
 71
     2
 10
0.0
 20
0.0
 11
0.0
 21
0.0
 12
0.0
 22
0.0
 32
0.0
 14
0.0
 24
0.0
 34
0.0
 15
0.0
 25
0.0
 35
0.0
146
0.0
 13
0.0
 23
0.0
 33
0.0
 16
1.0
 26
0.0
 36
0.0
 17
0.0
 27
1.0
 37
0.0
 76
     0
330
23
  0
LAYOUT
  5
22
102
{ACAD_REACTORS
330
1A
102
}
330
1A
100
AcDbPlotSettings
  1

  2
none_device
  4
Letter_(8.50_x_11.00_Inches)
  6

 40
6.35
 41
6.35
 42
6.35000508
 43
6.35000508
 44
215.9
 45
279.4
 46
0.0
 47
0.0
 48
0.0
 49
0.0
140
0.0
141
0.0
142
1.0
143
1.0
 70
  1712
 72
     0
 73
     0
 74
     0
  7

 75
     0
 76
     0
 77
     2
 78
   300
147
1.0
148
0.0
149
0.0
100
AcDbLayout
  1
Model
 70
     1
 71
     0
 10
0.0
 20
0.0
 11
12.0
 21
9.0
 12
0.0
 22
0.0
 32
0.0
 14
1.000000000000000E+20
 24
1.000000000000000E+20
 34
1.000000000000000E+20
 15
-1.000000000000000E+20
 25
-1.000000000000000E+20
 35
-1.000000000000000E+20
146
0.0
 13
0.0
 23
0.0
 33
0.0
 16
1.0
 26
0.0
 36
0.0
 17
0.0
 27
1.0
 37
0.0
 76
     0
330
1F
331
29
  0
MATERIAL
  5
45
102
{ACAD_REACTORS
330
43
102
}
330
43
100
AcDbMaterial
  1
ByBlock
 72
     1
 94
      127
  0
MATERIAL
  5
44
102
{ACAD_REACTORS
330
43
102
}
330
43
100
AcDbMaterial
  1
ByLayer
 72
     1
 94
      127
  0
MATERIAL
  5
46
102
{ACAD_REACTORS
330
43
102
}
330
43
100
AcDbMaterial
  1
Global
 72
     1
 94
      127
  0
MLEADERSTYLE
  5
6C
102
{ACAD_REACTORS
330
6B
102
}
330
6B
100
AcDbMLeaderStyle
179
     2
170
     2
171
     1
172
     0
 90
        2
 40
0.0
 41
0.0
173
     1
 91
-1056964608
340
14
 92
       -2
290
     1
 42
0.09
291
     1
 43
0.36
  3
Standard
341
0
 44
0.18
300

342
11
174
     1
178
     6
175
     1
176
     0
 93
-1056964608
 45
0.18
292
     0
297
     0
 46
0.18
343
0
 94
-1056964608
 47
1.0
 49
1.0
140
1.0
293
     1
141
0.0
294
     1
177
     0
142
1.0
295
     0
296
     0
143
0.125
271
     0
272
     9
273
     9
298
     0
  0
MLINESTYLE
  5
18
102
{ACAD_REACTORS
330
17
102
}
330
17
100
AcDbMlineStyle
  2
Standard
 70
     0
  3

 62
   256
 51
90.0
 52
90.0
 71
     2
 49
0.5
 62
   256
  6
BYLAYER
 49
-0.5
 62
   256
  6
BYLAYER
  0
ACDBPLACEHOLDER
  5
F
102
{ACAD_REACTORS
330
E
102
}
330
E
  0
SCALE
  5
48
102
{ACAD_REACTORS
330
47
102
}
330
47
100
AcDbScale
 70
     0
300
1:1
140
1.0
141
1.0
290
     1
  0
SCALE
  5
49
102
{ACAD_REACTORS
330
47
102
}
330
47
100
AcDbScale
 70
     0
300
1:2
140
1.0
141
2.0
290
     0
  0
SCALE
  5
4A
102
{ACAD_REACTORS
330
47
102
}
330
47
100
AcDbScale
 70
     0
300
1:4
140
1.0
141
4.0
290
     0
  0
SCALE
  5
4B
102
{ACAD_REACTORS
330
47
102
}
330
47
100
AcDbScale
 70
     0
300
1:5
140
1.0
141
5.0
290
     0
  0
SCALE
  5
4C
102
{ACAD_REACTORS
330
47
102
}
330
47
100
AcDbScale
 70
     0
300
1:8
140
1.0
141
8.0
290
     0
  0
SCALE
  5
4D
102
{ACAD_REACTORS
330
47
102
}
330
47
100
AcDbScale
 70
     0
300
1:10
140
1.0
141
10.0
290
     0
  0
SCALE
  5
4E
102
{ACAD_REACTORS
330
47
102
}
330
47
100
AcDbScale
 70
     0
300
1:16
140
1.0
141
16.0
290
     0
  0
SCALE
  5
4F
102
{ACAD_REACTORS
330
47
102
}
330
47
100
AcDbScale
 70
     0
300
1:20
140
1.0
141
20.0
290
     0
  0
SCALE
  5
50
102
{ACAD_REACTORS
330
47
102
}
330
47
100
AcDbScale
 70
     0
300
1:30
140
1.0
141
30.0
290
     0
  0
SCALE
  5
51
102
{ACAD_REACTORS
330
47
102
}
330
47
100
AcDbScale
 70
     0
300
1:40
140
1.0
141
40.0
290
     0
  0
SCALE
  5
52
102
{ACAD_REACTORS
330
47
102
}
330
47
100
AcDbScale
 70
     0
300
1:50
140
1.0
141
50.0
290
     0
  0
SCALE
  5
53
102
{ACAD_REACTORS
330
47
102
}
330
47
100
AcDbScale
 70
     0
300
1:100
140
1.0
141
100.0
290
     0
  0
SCALE
  5
54
102
{ACAD_REACTORS
330
47
102
}
330
47
100
AcDbScale
 70
     0
300
2:1
140
2.0
141
1.0
290
     0
  0
SCALE
  5
55
102
{ACAD_REACTORS
330
47
102
}
330
47
100
AcDbScale
 70
     0
300
4:1
140
4.0
141
1.0
290
     0
  0
SCALE
  5
56
102
{ACAD_REACTORS
330
47
102
}
330
47
100
AcDbScale
 70
     0
300
8:1
140
8.0
141
1.0
290
     0
  0
SCALE
  5
57
102
{ACAD_REACTORS
330
47
102
}
330
47
100
AcDbScale
 70
     0
300
10:1
140
10.0
141
1.0
290
     0
  0
SCALE
  5
58
102
{ACAD_REACTORS
330
47
102
}
330
47
100
AcDbScale
 70
     0
300
100:1
140
100.0
141
1.0
290
     0
  0
SCALE
  5
59
102
{ACAD_REACTORS
330
47
102
}
330
47
100
AcDbScale
 70
     0
300
1/128" = 1'-0"
140
0.0078125
141
12.0
290
     0
  0
SCALE
  5
5A
102
{ACAD_REACTORS
330
47
102
}
330
47
100
AcDbScale
 70
     0
300
1/64" = 1'-0"
140
0.015625
141
12.0
290
     0
  0
SCALE
  5
5B
102
{ACAD_REACTORS
330
47
102
}
330
47
100
AcDbScale
 70
     0
300
1/32" = 1'-0"
140
0.03125
141
12.0
290
     0
  0
SCALE
  5
5C
102
{ACAD_REACTORS
330
47
102
}
330
47
100
AcDbScale
 70
     0
300
1/16" = 1'-0"
140
0.0625
141
12.0
290
     0
  0
SCALE
  5
5D
102
{ACAD_REACTORS
330
47
102
}
330
47
100
AcDbScale
 70
     0
300
3/32" = 1'-0"
140
0.09375
141
12.0
290
     0
  0
SCALE
  5
5E
102
{ACAD_REACTORS
330
47
102
}
330
47
100
AcDbScale
 70
     0
300
1/8" = 1'-0"
140
0.125
141
12.0
290
     0
  0
SCALE
  5
5F
102
{ACAD_REACTORS
330
47
102
}
330
47
100
AcDbScale
 70
     0
300
3/16" = 1'-0"
140
0.1875
141
12.0
290
     0
  0
SCALE
  5
60
102
{ACAD_REACTORS
330
47
102
}
330
47
100
AcDbScale
 70
     0
300
1/4" = 1'-0"
140
0.25
141
12.0
290
     0
  0
SCALE
  5
61
102
{ACAD_REACTORS
330
47
102
}
330
47
100
AcDbScale
 70
     0
300
3/8" = 1'-0"
140
0.375
141
12.0
290
     0
  0
SCALE
  5
62
102
{ACAD_REACTORS
330
47
102
}
330
47
100
AcDbScale
 70
     0
300
1/2" = 1'-0"
140
0.5
141
12.0
290
     0
  0
SCALE
  5
63
102
{ACAD_REACTORS
330
47
102
}
330
47
100
AcDbScale
 70
     0
300
3/4" = 1'-0"
140
0.75
141
12.0
290
     0
  0
SCALE
  5
64
102
{ACAD_REACTORS
330
47
102
}
330
47
100
AcDbScale
 70
     0
300
1" = 1'-0"
140
1.0
141
12.0
290
     0
  0
SCALE
  5
65
102
{ACAD_REACTORS
330
47
102
}
330
47
100
AcDbScale
 70
     0
300
1-1/2" = 1'-0"
140
1.5
141
12.0
290
     0
  0
SCALE
  5
66
102
{ACAD_REACTORS
330
47
102
}
330
47
100
AcDbScale
 70
     0
300
3" = 1'-0"
140
3.0
141
12.0
290
     0
  0
SCALE
  5
67
102
{ACAD_REACTORS
330
47
102
}
330
47
100
AcDbScale
 70
     0
300
6" = 1'-0"
140
6.0
141
12.0
290
     0
  0
SCALE
  5
68
102
{ACAD_REACTORS
330
47
102
}
330
47
100
AcDbScale
 70
     0
300
1'-0" = 1'-0"
140
12.0
141
12.0
290
     0
  0
TABLESTYLE
  5
6A
102
{ACAD_REACTORS
330
69
102
}
102
{ACAD_XDICTIONARY
360
26C
102
}
330
69
100
AcDbTableStyle
  3
Standard
 70
     0
 71
     0
 40
0.06
 41
0.06
280
     0
281
     0
  7
Standard
140
0.18
170
     2
 62
     0
 63
   257
283
     0
 90
        4
 91
        0
  1

274
    -2
284
     1
 64
     0
275
    -2
285
     1
 65
     0
276
    -2
286
     1
 66
     0
277
    -2
287
     1
 67
     0
278
    -2
288
     1
 68
     0
279
    -2
289
     1
 69
     0
  7
Standard
140
0.25
170
     5
 62
     0
 63
   257
283
     0
 90
        4
 91
        0
  1

274
    -2
284
     1
 64
     0
275
    -2
285
     1
 65
     0
276
    -2
286
     1
 66
     0
277
    -2
287
     1
 67
     0
278
    -2
288
     1
 68
     0
279
    -2
289
     1
 69
     0
  7
Standard
140
0.18
170
     5
 62
     0
 63
   257
283
     0
 90
        4
 91
        0
  1

274
    -2
284
     1
 64
     0
275
    -2
285
     1
 65
     0
276
    -2
286
     1
 66
     0
277
    -2
287
     1
 67
     0
278
    -2
288
     1
 68
     0
279
    -2
289
     1
 69
     0
  0
VISUALSTYLE
  5
2F
102
{ACAD_REACTORS
330
2A
102
}
330
2A
100
AcDbVisualStyle
  2
2dWireframe
 70
     4
177
     3
291
     0
 70
    58
 90
        0
176
     1
 90
        2
176
     1
 90
        0
176
     1
 90
        0
176
     1
 40
0.6
176
     1
 40
30.0
176
     1
 62
     7
420
 16777215
176
     1
 90
        1
176
     1
 90
        4
176
     1
 62
     7
176
     1
 62
   257
176
     1
 90
        1
176
     1
 90
        1
176
     1
 40
1.0
176
     1
 90
        0
176
     1
 62
   257
176
     1
 40
1.0
176
     1
 90
        1
176
     1
 90
        6
176
     1
 90
        2
176
     1
 62
     7
176
     1
 90
        5
176
     1
 90
        0
176
     1
 90
        0
176
     1
290
     0
176
     1
 90
        1
176
     1
 40
0.0
176
     1
 90
        0
176
     1
290
     1
176
     1
290
     1
176
     1
290
     0
176
     1
290
     0
176
     1
290
     0
176
     1
290
     0
176
     1
290
     0
176
     1
290
     0
176
     1
290
     0
176
     1
 90
       50
176
     1
 40
0.0
176
     1
 40
1.0
176
     1
 90
        0
176
     1
 62
    18
420
        0
176
     1
 90
       50
176
     1
 90
        3
176
     1
 62
     5
420
      255
176
     1
290
     0
176
     1
 90
       50
176
     1
 90
       50
176
     1
 90
       50
176
     1
290
     0
176
     1
 90
       50
176
     1
 62
   256
176
     0
 40
1.0
176
     0
 90
        2
176
     1
  1
strokes_ogs.tif
176
     1
290
     0
176
     1
 40
1.0
176
     1
 40
1.0
176
     1
  0
VISUALSTYLE
  5
32
102
{ACAD_REACTORS
330
2A
102
}
330
2A
100
AcDbVisualStyle
  2
Basic
 70
     7
177
     3
291
     1
 70
    58
 90
        1
176
     1
 90
        0
176
     1
 90
        1
176
     1
 90
        0
176
     1
 40
0.6
176
     1
 40
30.0
176
     1
 62
     7
420
 16777215
176
     1
 90
        0
176
     1
 90
        4
176
     1
 62
     7
176
     1
 62
   257
176
     1
 90
        1
176
     1
 90
        1
176
     1
 40
1.0
176
     1
 90
        8
176
     1
 62
     7
176
     1
 40
1.0
176
     1
 90
        1
176
     1
 90
        6
176
     1
 90
        2
176
     1
 62
     7
176
     1
 90
        5
176
     1
 90
        0
176
     1
 90
        0
176
     1
290
     0
176
     1
 90
        1
176
     1
 40
0.0
176
     1
 90
        0
176
     1
290
     0
176
     1
290
     1
176
     1
290
     1
176
     1
290
     0
176
     1
290
     0
176
     1
290
     0
176
     1
290
     0
176
     1
290
     0
176
     1
290
     0
176
     1
 90
       50
176
     1
 40
0.0
176
     1
 40
1.0
176
     1
 90
        0
176
     1
 62
    18
420
        0
176
     1
 90
       50
176
     1
 90
        3
176
     1
 62
     5
420
      255
176
     1
290
     0
176
     1
 90
       50
176
     1
 90
       50
176
     1
 90
       50
176
     1
290
     0
176
     1
 90
       50
176
     1
 62
   256
176
     0
 40
1.0
176
     0
 90
        2
176
     1
  1
strokes_ogs.tif
176
     1
290
     0
176
     1
 40
1.0
176
     1
 40
1.0
176
     1
  0
VISUALSTYLE
  5
36
102
{ACAD_REACTORS
330
2A
102
}
330
2A
100
AcDbVisualStyle
  2
Brighten
 70
    12
177
     3
291
     1
 70
    58
 90
        2
176
     1
 90
        2
176
     1
 90
        0
176
     1
 90
        0
176
     1
 40
0.6
176
     1
 40
30.0
176
     1
 62
     7
420
 16777215
176
     1
 90
        1
176
     1
 90
        4
176
     1
 62
     7
176
     1
 62
   257
176
     1
 90
        1
176
     1
 90
        1
176
     1
 40
1.0
176
     1
 90
        8
176
     1
 62
     7
176
     1
 40
1.0
176
     1
 90
        1
176
     1
 90
        6
176
     1
 90
        2
176
     1
 62
     7
176
     1
 90
        5
176
     1
 90
        0
176
     1
 90
        0
176
     1
290
     0
176
     1
 90
        1
176
     1
 40
50.0
176
     1
 90
        0
176
     1
290
     0
176
     1
290
     1
176
     1
290
     1
176
     1
290
     0
176
     1
290
     0
176
     1
290
     0
176
     1
290
     0
176
     1
290
     0
176
     1
290
     0
176
     1
 90
       50
176
     1
 40
0.0
176
     1
 40
1.0
176
     1
 90
        0
176
     1
 62
    18
420
        0
176
     1
 90
       50
176
     1
 90
        3
176
     1
 62
     5
420
      255
176
     1
290
     0
176
     1
 90
       50
176
     1
 90
       50
176
     1
 90
       50
176
     1
290
     0
176
     1
 90
       50
176
     1
 62
   256
176
     0
 40
1.0
176
     0
 90
        2
176
     1
  1
strokes_ogs.tif
176
     1
290
     0
176
     1
 40
1.0
176
     1
 40
1.0
176
     1
  0
VISUALSTYLE
  5
3A
102
{ACAD_REACTORS
330
2A
102
}
330
2A
100
AcDbVisualStyle
  2
ColorChange
 70
    16
177
     3
291
     1
 70
    58
 90
        2
176
     1
 90
        2
176
     1
 90
        3
176
     1
 90
        0
176
     1
 40
0.6
176
     1
 40
30.0
176
     1
 62
     8
420
  8421504
176
     1
 90
        1
176
     1
 90
        4
176
     1
 62
     7
176
     1
 62
   257
176
     1
 90
        1
176
     1
 90
        1
176
     1
 40
1.0
176
     1
 90
        8
176
     1
 62
     8
420
  8421504
176
     1
 40
1.0
176
     1
 90
        1
176
     1
 90
        6
176
     1
 90
        2
176
     1
 62
     7
176
     1
 90
        5
176
     1
 90
        0
176
     1
 90
        0
176
     1
290
     0
176
     1
 90
        1
176
     1
 40
0.0
176
     1
 90
        0
176
     1
290
     0
176
     1
290
     1
176
     1
290
     1
176
     1
290
     0
176
     1
290
     0
176
     1
290
     0
176
     1
290
     0
176
     1
290
     0
176
     1
290
     0
176
     1
 90
       50
176
     1
 40
0.0
176
     1
 40
1.0
176
     1
 90
        0
176
     1
 62
    18
420
        0
176
     1
 90
       50
176
     1
 90
        3
176
     1
 62
     5
420
      255
176
     1
290
     0
176
     1
 90
       50
176
     1
 90
       50
176
     1
 90
       50
176
     1
290
     0
176
     1
 90
       50
176
     1
 62
   256
176
     0
 40
1.0
176
     0
 90
        2
176
     1
  1
strokes_ogs.tif
176
     1
290
     0
176
     1
 40
1.0
176
     1
 40
1.0
176
     1
  0
VISUALSTYLE
  5
34
102
{ACAD_REACTORS
330
2A
102
}
330
2A
100
AcDbVisualStyle
  2
Conceptual
 70
     9
177
     3
291
     0
 70
    58
 90
        3
176
     1
 90
        2
176
     1
 90
        0
176
     1
 90
        0
176
     1
 40
0.6
176
     1
 40
30.0
176
     1
 62
     7
420
 16777215
176
     1
 90
        2
176
     1
 90
        2
176
     1
 62
     7
176
     1
 62
   257
176
     1
 90
        1
176
     1
 90
        1
176
     1
 40
179.0
176
     1
 90
        8
176
     1
 62
     7
176
     1
 40
1.0
176
     1
 90
        1
176
     1
 90
        6
176
     1
 90
        2
176
     1
 62
     7
176
     1
 90
        3
176
     1
 90
        0
176
     1
 90
        0
176
     1
290
     0
176
     1
 90
        1
176
     1
 40
0.0
176
     1
 90
        0
176
     1
290
     0
176
     1
290
     1
176
     1
290
     1
176
     1
290
     0
176
     1
290
     0
176
     1
290
     0
176
     1
290
     0
176
     1
290
     0
176
     1
290
     0
176
     1
 90
       50
176
     1
 40
0.0
176
     1
 40
1.0
176
     1
 90
        0
176
     1
 62
    18
420
        0
176
     1
 90
       50
176
     1
 90
        3
176
     1
 62
     5
420
      255
176
     1
290
     0
176
     1
 90
       50
176
     1
 90
       50
176
     1
 90
       50
176
     1
290
     0
176
     1
 90
       50
176
     1
 62
   256
176
     0
 40
1.0
176
     0
 90
        2
176
     1
  1
strokes_ogs.tif
176
     1
290
     0
176
     1
 40
1.0
176
     1
 40
1.0
176
     1
  0
VISUALSTYLE
  5
35
102
{ACAD_REACTORS
330
2A
102
}
330
2A
100
AcDbVisualStyle
  2
Dim
 70
    11
177
     3
291
     1
 70
    58
 90
        2
176
     1
 90
        2
176
     1
 90
        0
176
     1
 90
        0
176
     1
 40
0.6
176
     1
 40
30.0
176
     1
 62
     7
420
 16777215
176
     1
 90
        1
176
     1
 90
        4
176
     1
 62
     7
176
     1
 62
   257
176
     1
 90
        1
176
     1
 90
        1
176
     1
 40
1.0
176
     1
 90
        8
176
     1
 62
     7
176
     1
 40
1.0
176
     1
 90
        1
176
     1
 90
        6
176
     1
 90
        2
176
     1
 62
     7
176
     1
 90
        5
176
     1
 90
        0
176
     1
 90
        0
176
     1
290
     0
176
     1
 90
        1
176
     1
 40
-50.0
176
     1
 90
        0
176
     1
290
     0
176
     1
290
     1
176
     1
290
     1
176
     1
290
     0
176
     1
290
     0
176
     1
290
     0
176
     1
290
     0
176
     1
290
     0
176
     1
290
     0
176
     1
 90
       50
176
     1
 40
0.0
176
     1
 40
1.0
176
     1
 90
        0
176
     1
 62
    18
420
        0
176
     1
 90
       50
176
     1
 90
        3
176
     1
 62
     5
420
      255
176
     1
290
     0
176
     1
 90
       50
176
     1
 90
       50
176
     1
 90
       50
176
     1
290
     0
176
     1
 90
       50
176
     1
 62
   256
176
     0
 40
1.0
176
     0
 90
        2
176
     1
  1
strokes_ogs.tif
176
     1
290
     0
176
     1
 40
1.0
176
     1
 40
1.0
176
     1
  0
VISUALSTYLE
  5
3D
102
{ACAD_REACTORS
330
2A
102
}
330
2A
100
AcDbVisualStyle
  2
EdgeColorOff
 70
    22
177
     3
291
     1
 70
    58
 90
        2
176
     0
 90
        2
176
     0
 90
        0
176
     0
 90
        0
176
     0
 40
0.6
176
     0
 40
30.0
176
     0
 62
     7
420
 16777215
176
     0
 90
        1
176
     0
 90
        4
176
     0
 62
     7
176
     0
 62
   257
176
     0
 90
        1
176
     0
 90
        1
176
     0
 40
1.0
176
     0
 90
        8
176
     2
 62
     7
176
     0
 40
1.0
176
     0
 90
        1
176
     0
 90
        6
176
     0
 90
        2
176
     0
 62
     7
176
     0
 90
        5
176
     0
 90
        0
176
     0
 90
        0
176
     0
290
     0
176
     0
 90
        1
176
     0
 40
0.0
176
     0
 90
        0
176
     0
290
     0
176
     0
290
     1
176
     0
290
     1
176
     0
290
     0
176
     0
290
     0
176
     0
290
     0
176
     0
290
     0
176
     0
290
     0
176
     0
290
     0
176
     0
 90
       50
176
     0
 40
0.0
176
     0
 40
1.0
176
     0
 90
        0
176
     0
 62
    18
420
        0
176
     0
 90
       50
176
     0
 90
        3
176
     0
 62
     5
420
      255
176
     0
290
     0
176
     0
 90
       50
176
     0
 90
       50
176
     0
 90
       50
176
     0
290
     0
176
     0
 90
       50
176
     0
 62
   256
176
     0
 40
1.0
176
     0
 90
        2
176
     0
  1
strokes_ogs.tif
176
     0
290
     0
176
     0
 40
1.0
176
     0
 40
1.0
176
     0
  0
VISUALSTYLE
  5
39
102
{ACAD_REACTORS
330
2A
102
}
330
2A
100
AcDbVisualStyle
  2
Facepattern
 70
    15
177
     3
291
     1
 70
    58
 90
        2
176
     1
 90
        2
176
     1
 90
        0
176
     1
 90
        0
176
     1
 40
0.6
176
     1
 40
30.0
176
     1
 62
     7
420
 16777215
176
     1
 90
        1
176
     1
 90
        4
176
     1
 62
     7
176
     1
 62
   257
176
     1
 90
        1
176
     1
 90
        1
176
     1
 40
1.0
176
     1
 90
        8
176
     1
 62
     7
176
     1
 40
1.0
176
     1
 90
        1
176
     1
 90
        6
176
     1
 90
        2
176
     1
 62
     7
176
     1
 90
        5
176
     1
 90
        0
176
     1
 90
        0
176
     1
290
     0
176
     1
 90
        1
176
     1
 40
0.0
176
     1
 90
        0
176
     1
290
     0
176
     1
290
     1
176
     1
290
     1
176
     1
290
     0
176
     1
290
     0
176
     1
290
     0
176
     1
290
     0
176
     1
290
     0
176
     1
290
     0
176
     1
 90
       50
176
     1
 40
0.0
176
     1
 40
1.0
176
     1
 90
        0
176
     1
 62
    18
420
        0
176
     1
 90
       50
176
     1
 90
        3
176
     1
 62
     5
420
      255
176
     1
290
     0
176
     1
 90
       50
176
     1
 90
       50
176
     1
 90
       50
176
     1
290
     0
176
     1
 90
       50
176
     1
 62
   256
176
     0
 40
1.0
176
     0
 90
        2
176
     1
  1
strokes_ogs.tif
176
     1
290
     0
176
     1
 40
1.0
176
     1
 40
1.0
176
     1
  0
VISUALSTYLE
  5
2B
102
{ACAD_REACTORS
330
2A
102
}
330
2A
100
AcDbVisualStyle
  2
Flat
 70
     0
177
     3
291
     1
 70
    58
 90
        2
176
     1
 90
        1
176
     1
 90
        1
176
     1
 90
        2
176
     1
 40
0.6
176
     1
 40
30.0
176
     1
 62
     7
420
 16777215
176
     1
 90
        0
176
     1
 90
        0
176
     1
 62
     7
176
     1
 62
   257
176
     1
 90
        1
176
     1
 90
        1
176
     1
 40
1.0
176
     1
 90
        8
176
     1
 62
     7
176
     1
 40
1.0
176
     1
 90
        1
176
     1
 90
        6
176
     1
 90
        2
176
     1
 62
     7
176
     1
 90
        5
176
     1
 90
        0
176
     1
 90
        0
176
     1
290
     0
176
     1
 90
       13
176
     1
 40
0.0
176
     1
 90
        0
176
     1
290
     0
176
     1
290
     1
176
     1
290
     1
176
     1
290
     0
176
     1
290
     0
176
     1
290
     0
176
     1
290
     0
176
     1
290
     0
176
     1
290
     0
176
     1
 90
       50
176
     1
 40
0.0
176
     1
 40
1.0
176
     1
 90
        0
176
     1
 62
    18
420
        0
176
     1
 90
       50
176
     1
 90
        3
176
     1
 62
     5
420
      255
176
     1
290
     0
176
     1
 90
       50
176
     1
 90
       50
176
     1
 90
       50
176
     1
290
     0
176
     1
 90
       50
176
     1
 62
   256
176
     0
 40
1.0
176
     0
 90
        2
176
     1
  1
strokes_ogs.tif
176
     1
290
     0
176
     1
 40
1.0
176
     1
 40
1.0
176
     1
  0
VISUALSTYLE
  5
2C
102
{ACAD_REACTORS
330
2A
102
}
330
2A
100
AcDbVisualStyle
  2
FlatWithEdges
 70
     1
177
     3
291
     1
 70
    58
 90
        2
176
     1
 90
        1
176
     1
 90
        1
176
     1
 90
        2
176
     1
 40
0.6
176
     1
 40
30.0
176
     1
 62
     7
420
 16777215
176
     1
 90
        1
176
     1
 90
        0
176
     1
 62
     7
176
     1
 62
   257
176
     1
 90
        1
176
     1
 90
        1
176
     1
 40
1.0
176
     1
 90
        0
176
     1
 62
   257
176
     1
 40
1.0
176
     1
 90
        1
176
     1
 90
        6
176
     1
 90
        2
176
     1
 62
     7
176
     1
 90
        5
176
     1
 90
        0
176
     1
 90
        0
176
     1
290
     0
176
     1
 90
       13
176
     1
 40
0.0
176
     1
 90
        0
176
     1
290
     0
176
     1
290
     1
176
     1
290
     1
176
     1
290
     0
176
     1
290
     0
176
     1
290
     0
176
     1
290
     0
176
     1
290
     0
176
     1
290
     0
176
     1
 90
       50
176
     1
 40
0.0
176
     1
 40
1.0
176
     1
 90
        0
176
     1
 62
    18
420
        0
176
     1
 90
       50
176
     1
 90
        3
176
     1
 62
     5
420
      255
176
     1
290
     0
176
     1
 90
       50
176
     1
 90
       50
176
     1
 90
       50
176
     1
290
     0
176
     1
 90
       50
176
     1
 62
   256
176
     0
 40
1.0
176
     0
 90
        2
176
     1
  1
strokes_ogs.tif
176
     1
290
     0
176
     1
 40
1.0
176
     1
 40
1.0
176
     1
  0
VISUALSTYLE
  5
2D
102
{ACAD_REACTORS
330
2A
102
}
330
2A
100
AcDbVisualStyle
  2
Gouraud
 70
     2
177
     3
291
     1
 70
    58
 90
        2
176
     1
 90
        2
176
     1
 90
        1
176
     1
 90
        2
176
     1
 40
0.6
176
     1
 40
30.0
176
     1
 62
     7
420
 16777215
176
     1
 90
        0
176
     1
 90
        0
176
     1
 62
     7
176
     1
 62
   257
176
     1
 90
        1
176
     1
 90
        1
176
     1
 40
1.0
176
     1
 90
        0
176
     1
 62
     7
176
     1
 40
1.0
176
     1
 90
        1
176
     1
 90
        6
176
     1
 90
        2
176
     1
 62
     7
176
     1
 90
        5
176
     1
 90
        0
176
     1
 90
        0
176
     1
290
     0
176
     1
 90
       13
176
     1
 40
0.0
176
     1
 90
        0
176
     1
290
     0
176
     1
290
     1
176
     1
290
     1
176
     1
290
     0
176
     1
290
     0
176
     1
290
     0
176
     1
290
     0
176
     1
290
     0
176
     1
290
     0
176
     1
 90
       50
176
     1
 40
0.0
176
     1
 40
1.0
176
     1
 90
        0
176
     1
 62
    18
420
        0
176
     1
 90
       50
176
     1
 90
        3
176
     1
 62
     5
420
      255
176
     1
290
     0
176
     1
 90
       50
176
     1
 90
       50
176
     1
 90
       50
176
     1
290
     0
176
     1
 90
       50
176
     1
 62
   256
176
     0
 40
1.0
176
     0
 90
        2
176
     1
  1
strokes_ogs.tif
176
     1
290
     0
176
     1
 40
1.0
176
     1
 40
1.0
176
     1
  0
VISUALSTYLE
  5
2E
102
{ACAD_REACTORS
330
2A
102
}
330
2A
100
AcDbVisualStyle
  2
GouraudWithEdges
 70
     3
177
     3
291
     1
 70
    58
 90
        2
176
     1
 90
        2
176
     1
 90
        1
176
     1
 90
        2
176
     1
 40
0.6
176
     1
 40
30.0
176
     1
 62
     7
420
 16777215
176
     1
 90
        1
176
     1
 90
        0
176
     1
 62
     7
176
     1
 62
   257
176
     1
 90
        1
176
     1
 90
        1
176
     1
 40
1.0
176
     1
 90
        0
176
     1
 62
   257
176
     1
 40
1.0
176
     1
 90
        1
176
     1
 90
        6
176
     1
 90
        2
176
     1
 62
     7
176
     1
 90
        5
176
     1
 90
        0
176
     1
 90
        0
176
     1
290
     0
176
     1
 90
       13
176
     1
 40
0.0
176
     1
 90
        0
176
     1
290
     0
176
     1
290
     1
176
     1
290
     1
176
     1
290
     0
176
     1
290
     0
176
     1
290
     0
176
     1
290
     0
176
     1
290
     0
176
     1
290
     0
176
     1
 90
       50
176
     1
 40
0.0
176
     1
 40
1.0
176
     1
 90
        0
176
     1
 62
    18
420
        0
176
     1
 90
       50
176
     1
 90
        3
176
     1
 62
     5
420
      255
176
     1
290
     0
176
     1
 90
       50
176
     1
 90
       50
176
     1
 90
       50
176
     1
290
     0
176
     1
 90
       50
176
     1
 62
   256
176
     0
 40
1.0
176
     0
 90
        2
176
     1
  1
strokes_ogs.tif
176
     1
290
     0
176
     1
 40
1.0
176
     1
 40
1.0
176
     1
  0
VISUALSTYLE
  5
31
102
{ACAD_REACTORS
330
2A
102
}
330
2A
100
AcDbVisualStyle
  2
Hidden
 70
     6
177
     3
291
     0
 70
    58
 90
        1
176
     1
 90
        2
176
     1
 90
        2
176
     1
 90
        0
176
     1
 40
0.6
176
     1
 40
30.0
176
     1
 62
     7
420
 16777215
176
     1
 90
        2
176
     1
 90
        2
176
     1
 62
     7
176
     1
 62
   257
176
     1
 90
        2
176
     1
 90
        1
176
     1
 40
40.0
176
     1
 90
        0
176
     1
 62
   257
176
     1
 40
1.0
176
     1
 90
        1
176
     1
 90
        6
176
     1
 90
        2
176
     1
 62
     7
176
     1
 90
        3
176
     1
 90
        0
176
     1
 90
        0
176
     1
290
     0
176
     1
 90
        1
176
     1
 40
0.0
176
     1
 90
        0
176
     1
290
     0
176
     1
290
     1
176
     1
290
     1
176
     1
290
     0
176
     1
290
     0
176
     1
290
     0
176
     1
290
     0
176
     1
290
     0
176
     1
290
     0
176
     1
 90
       50
176
     1
 40
0.0
176
     1
 40
1.0
176
     1
 90
        0
176
     1
 62
    18
420
        0
176
     1
 90
       50
176
     1
 90
        3
176
     1
 62
     5
420
      255
176
     1
290
     0
176
     1
 90
       50
176
     1
 90
       50
176
     1
 90
       50
176
     1
290
     0
176
     1
 90
       50
176
     1
 62
   256
176
     0
 40
1.0
176
     0
 90
        2
176
     1
  1
strokes_ogs.tif
176
     1
290
     0
176
     1
 40
1.0
176
     1
 40
1.0
176
     1
  0
VISUALSTYLE
  5
3B
102
{ACAD_REACTORS
330
2A
102
}
330
2A
100
AcDbVisualStyle
  2
JitterOff
 70
    20
177
     3
291
     1
 70
    58
 90
        2
176
     0
 90
        2
176
     0
 90
        0
176
     0
 90
        0
176
     0
 40
0.6
176
     0
 40
30.0
176
     0
 62
     7
420
 16777215
176
     0
 90
        1
176
     0
 90
        4
176
     0
 62
     7
176
     0
 62
   257
176
     0
 90
        1
176
     0
 90
        1
176
     0
 40
1.0
176
     0
 90
       10
176
     2
 62
     7
176
     0
 40
1.0
176
     0
 90
        1
176
     0
 90
        6
176
     0
 90
        2
176
     0
 62
     7
176
     0
 90
        5
176
     0
 90
        0
176
     0
 90
        0
176
     0
290
     0
176
     0
 90
        1
176
     0
 40
0.0
176
     0
 90
        0
176
     0
290
     0
176
     0
290
     1
176
     0
290
     1
176
     0
290
     0
176
     0
290
     0
176
     0
290
     0
176
     0
290
     0
176
     0
290
     0
176
     0
290
     0
176
     0
 90
       50
176
     0
 40
0.0
176
     0
 40
1.0
176
     0
 90
        0
176
     0
 62
    18
420
        0
176
     0
 90
       50
176
     0
 90
        3
176
     0
 62
     5
420
      255
176
     0
290
     0
176
     0
 90
       50
176
     0
 90
       50
176
     0
 90
       50
176
     0
290
     0
176
     0
 90
       50
176
     0
 62
   256
176
     0
 40
1.0
176
     0
 90
        2
176
     0
  1
strokes_ogs.tif
176
     0
290
     0
176
     0
 40
1.0
176
     0
 40
1.0
176
     0
  0
VISUALSTYLE
  5
38
102
{ACAD_REACTORS
330
2A
102
}
330
2A
100
AcDbVisualStyle
  2
Linepattern
 70
    14
177
     3
291
     1
 70
    58
 90
        2
176
     1
 90
        2
176
     1
 90
        0
176
     1
 90
        0
176
     1
 40
0.6
176
     1
 40
30.0
176
     1
 62
     7
420
 16777215
176
     1
 90
        1
176
     1
 90
        4
176
     1
 62
     7
176
     1
 62
   257
176
     1
 90
        7
176
     1
 90
        7
176
     1
 40
1.0
176
     1
 90
        8
176
     1
 62
     7
176
     1
 40
1.0
176
     1
 90
        1
176
     1
 90
        6
176
     1
 90
        2
176
     1
 62
     7
176
     1
 90
        5
176
     1
 90
        0
176
     1
 90
        0
176
     1
290
     0
176
     1
 90
        1
176
     1
 40
0.0
176
     1
 90
        0
176
     1
290
     0
176
     1
290
     1
176
     1
290
     1
176
     1
290
     0
176
     1
290
     0
176
     1
290
     0
176
     1
290
     0
176
     1
290
     0
176
     1
290
     0
176
     1
 90
       50
176
     1
 40
0.0
176
     1
 40
1.0
176
     1
 90
        0
176
     1
 62
    18
420
        0
176
     1
 90
       50
176
     1
 90
        3
176
     1
 62
     5
420
      255
176
     1
290
     0
176
     1
 90
       50
176
     1
 90
       50
176
     1
 90
       50
176
     1
290
     0
176
     1
 90
       50
176
     1
 62
   256
176
     0
 40
1.0
176
     0
 90
        2
176
     1
  1
strokes_ogs.tif
176
     1
290
     0
176
     1
 40
1.0
176
     1
 40
1.0
176
     1
  0
VISUALSTYLE
  5
3C
102
{ACAD_REACTORS
330
2A
102
}
330
2A
100
AcDbVisualStyle
  2
OverhangOff
 70
    21
177
     3
291
     1
 70
    58
 90
        2
176
     0
 90
        2
176
     0
 90
        0
176
     0
 90
        0
176
     0
 40
0.6
176
     0
 40
30.0
176
     0
 62
     7
420
 16777215
176
     0
 90
        1
176
     0
 90
        4
176
     0
 62
     7
176
     0
 62
   257
176
     0
 90
        1
176
     0
 90
        1
176
     0
 40
1.0
176
     0
 90
        9
176
     2
 62
     7
176
     0
 40
1.0
176
     0
 90
        1
176
     0
 90
        6
176
     0
 90
        2
176
     0
 62
     7
176
     0
 90
        5
176
     0
 90
        0
176
     0
 90
        0
176
     0
290
     0
176
     0
 90
        1
176
     0
 40
0.0
176
     0
 90
        0
176
     0
290
     0
176
     0
290
     1
176
     0
290
     1
176
     0
290
     0
176
     0
290
     0
176
     0
290
     0
176
     0
290
     0
176
     0
290
     0
176
     0
290
     0
176
     0
 90
       50
176
     0
 40
0.0
176
     0
 40
1.0
176
     0
 90
        0
176
     0
 62
    18
420
        0
176
     0
 90
       50
176
     0
 90
        3
176
     0
 62
     5
420
      255
176
     0
290
     0
176
     0
 90
       50
176
     0
 90
       50
176
     0
 90
       50
176
     0
290
     0
176
     0
 90
       50
176
     0
 62
   256
176
     0
 40
1.0
176
     0
 90
        2
176
     0
  1
strokes_ogs.tif
176
     0
290
     0
176
     0
 40
1.0
176
     0
 40
1.0
176
     0
  0
VISUALSTYLE
  5
33
102
{ACAD_REACTORS
330
2A
102
}
330
2A
100
AcDbVisualStyle
  2
Realistic
 70
     8
177
     3
291
     0
 70
    58
 90
        2
176
     1
 90
        3
176
     1
 90
        0
176
     1
 90
        2
176
     1
 40
0.6
176
     1
 40
30.0
176
     1
 62
     7
420
 16777215
176
     1
 90
        0
176
     1
 90
        0
176
     1
 62
     7
176
     1
 62
   257
176
     1
 90
        1
176
     1
 90
        1
176
     1
 40
1.0
176
     1
 90
        8
176
     1
 62
   257
176
     1
 40
1.0
176
     1
 90
        1
176
     1
 90
        6
176
     1
 90
        2
176
     1
 62
     7
176
     1
 90
        3
176
     1
 90
        0
176
     1
 90
        0
176
     1
290
     0
176
     1
 90
       13
176
     1
 40
0.0
176
     1
 90
        0
176
     1
290
     0
176
     1
290
     1
176
     1
290
     1
176
     1
290
     0
176
     1
290
     0
176
     1
290
     0
176
     1
290
     0
176
     1
290
     0
176
     1
290
     0
176
     1
 90
       50
176
     1
 40
0.0
176
     1
 40
1.0
176
     1
 90
        0
176
     1
 62
    18
420
        0
176
     1
 90
       50
176
     1
 90
        3
176
     1
 62
     5
420
      255
176
     1
290
     0
176
     1
 90
       50
176
     1
 90
       50
176
     1
 90
       50
176
     1
290
     0
176
     1
 90
       50
176
     1
 62
   256
176
     0
 40
1.0
176
     0
 90
        2
176
     1
  1
strokes_ogs.tif
176
     1
290
     0
176
     1
 40
1.0
176
     1
 40
1.0
176
     1
  0
VISUALSTYLE
  5
42
102
{ACAD_REACTORS
330
2A
102
}
330
2A
100
AcDbVisualStyle
  2
Shaded
 70
    27
177
     3
291
     0
 70
    58
 90
        2
176
     1
 90
        2
176
     1
 90
        1
176
     1
 90
        2
176
     1
 40
0.6
176
     1
 40
30.0
176
     1
 62
     7
420
 16777215
176
     1
 90
        0
176
     1
 90
        4
176
     1
 62
     7
176
     1
 62
   257
176
     1
 90
        1
176
     1
 90
        1
176
     1
 40
1.0
176
     1
 90
        8
176
     1
 62
   257
176
     1
 40
1.0
176
     1
 90
        1
176
     1
 90
        6
176
     1
 90
        2
176
     1
 62
     8
420
  7895160
176
     1
 90
        3
176
     1
 90
        0
176
     1
 90
        0
176
     1
290
     0
176
     1
 90
        5
176
     1
 40
0.0
176
     1
 90
        0
176
     1
290
     0
176
     1
290
     1
176
     1
290
     1
176
     1
290
     0
176
     1
290
     0
176
     1
290
     0
176
     1
290
     0
176
     1
290
     0
176
     1
290
     0
176
     1
 90
       50
176
     1
 40
0.0
176
     1
 40
1.0
176
     1
 90
        0
176
     1
 62
    18
420
        0
176
     1
 90
       50
176
     1
 90
        3
176
     1
 62
     5
420
      255
176
     1
290
     0
176
     1
 90
       50
176
     1
 90
       50
176
     1
 90
       50
176
     1
290
     0
176
     1
 90
       50
176
     1
 62
   256
176
     0
 40
1.0
176
     0
 90
        2
176
     1
  1
strokes_ogs.tif
176
     1
290
     0
176
     1
 40
1.0
176
     1
 40
1.0
176
     1
  0
VISUALSTYLE
  5
41
102
{ACAD_REACTORS
330
2A
102
}
330
2A
100
AcDbVisualStyle
  2
Shaded with edges
 70
    26
177
     3
291
     0
 70
    58
 90
        2
176
     1
 90
        2
176
     1
 90
        1
176
     1
 90
        2
176
     1
 40
0.6
176
     1
 40
30.0
176
     1
 62
     7
420
 16777215
176
     1
 90
        1
176
     1
 90
       10
176
     1
 62
     7
176
     1
 62
   257
176
     1
 90
        2
176
     1
 90
        1
176
     1
 40
1.0
176
     1
 90
        8
176
     1
 62
   257
176
     1
 40
1.0
176
     1
 90
        1
176
     1
 90
        6
176
     1
 90
        2
176
     1
 62
     7
176
     1
 90
        3
176
     1
 90
        0
176
     1
 90
        0
176
     1
290
     0
176
     1
 90
        5
176
     1
 40
0.0
176
     1
 90
        0
176
     1
290
     0
176
     1
290
     1
176
     1
290
     1
176
     1
290
     0
176
     1
290
     0
176
     1
290
     0
176
     1
290
     0
176
     1
290
     0
176
     1
290
     0
176
     1
 90
       50
176
     1
 40
0.0
176
     1
 40
1.0
176
     1
 90
        0
176
     1
 62
    18
420
        0
176
     1
 90
       50
176
     1
 90
        3
176
     1
 62
     5
420
      255
176
     1
290
     0
176
     1
 90
       50
176
     1
 90
       50
176
     1
 90
       50
176
     1
290
     0
176
     1
 90
       50
176
     1
 62
   256
176
     0
 40
1.0
176
     0
 90
        2
176
     1
  1
strokes_ogs.tif
176
     1
290
     0
176
     1
 40
1.0
176
     1
 40
1.0
176
     1
  0
VISUALSTYLE
  5
3E
102
{ACAD_REACTORS
330
2A
102
}
330
2A
100
AcDbVisualStyle
  2
Shades of Gray
 70
    23
177
     3
291
     0
 70
    58
 90
        2
176
     1
 90
        2
176
     1
 90
        3
176
     1
 90
        0
176
     1
 40
0.6
176
     1
 40
30.0
176
     1
 62
     7
420
 16777215
176
     1
 90
        2
176
     1
 90
        2
176
     1
 62
     7
176
     1
 62
     7
176
     1
 90
        1
176
     1
 90
        1
176
     1
 40
40.0
176
     1
 90
        8
176
     1
 62
     7
176
     1
 40
1.0
176
     1
 90
        1
176
     1
 90
        6
176
     1
 90
        2
176
     1
 62
     7
176
     1
 90
        3
176
     1
 90
        0
176
     1
 90
        0
176
     1
290
     0
176
     1
 90
        1
176
     1
 40
0.0
176
     1
 90
        0
176
     1
290
     0
176
     1
290
     1
176
     1
290
     1
176
     1
290
     0
176
     1
290
     0
176
     1
290
     0
176
     1
290
     0
176
     1
290
     0
176
     1
290
     0
176
     1
 90
       50
176
     1
 40
0.0
176
     1
 40
1.0
176
     1
 90
        0
176
     1
 62
    18
420
        0
176
     1
 90
       50
176
     1
 90
        3
176
     1
 62
     5
420
      255
176
     1
290
     0
176
     1
 90
       50
176
     1
 90
       50
176
     1
 90
       50
176
     1
290
     0
176
     1
 90
       50
176
     1
 62
   256
176
     0
 40
1.0
176
     0
 90
        2
176
     1
  1
strokes_ogs.tif
176
     1
290
     0
176
     1
 40
1.0
176
     1
 40
1.0
176
     1
  0
VISUALSTYLE
  5
3F
102
{ACAD_REACTORS
330
2A
102
}
330
2A
100
AcDbVisualStyle
  2
Sketchy
 70
    24
177
     3
291
     0
 70
    58
 90
        1
176
     1
 90
        2
176
     1
 90
        2
176
     1
 90
        0
176
     1
 40
0.6
176
     1
 40
30.0
176
     1
 62
     7
420
 16777215
176
     1
 90
        2
176
     1
 90
        2
176
     1
 62
     7
176
     1
 62
     7
176
     1
 90
        1
176
     1
 90
        1
176
     1
 40
40.0
176
     1
 90
       11
176
     1
 62
     7
176
     1
 40
1.0
176
     1
 90
        1
176
     1
 90
        6
176
     1
 90
        2
176
     1
 62
     7
176
     1
 90
        6
176
     1
 90
        0
176
     1
 90
        0
176
     1
290
     0
176
     1
 90
        1
176
     1
 40
0.0
176
     1
 90
        0
176
     1
290
     0
176
     1
290
     1
176
     1
290
     1
176
     1
290
     0
176
     1
290
     0
176
     1
290
     0
176
     1
290
     0
176
     1
290
     0
176
     1
290
     0
176
     1
 90
       50
176
     1
 40
0.0
176
     1
 40
1.0
176
     1
 90
        0
176
     1
 62
    18
420
        0
176
     1
 90
       50
176
     1
 90
        3
176
     1
 62
     5
420
      255
176
     1
290
     0
176
     1
 90
       50
176
     1
 90
       50
176
     1
 90
       50
176
     1
290
     0
176
     1
 90
       50
176
     1
 62
   256
176
     0
 40
1.0
176
     0
 90
        2
176
     1
  1
strokes_ogs.tif
176
     1
290
     0
176
     1
 40
1.0
176
     1
 40
1.0
176
     1
  0
VISUALSTYLE
  5
37
102
{ACAD_REACTORS
330
2A
102
}
330
2A
100
AcDbVisualStyle
  2
Thicken
 70
    13
177
     3
291
     1
 70
    58
 90
        2
176
     1
 90
        2
176
     1
 90
        0
176
     1
 90
        0
176
     1
 40
0.6
176
     1
 40
30.0
176
     1
 62
     7
420
 16777215
176
     1
 90
        1
176
     1
 90
        4
176
     1
 62
     7
176
     1
 62
   257
176
     1
 90
        1
176
     1
 90
        1
176
     1
 40
1.0
176
     1
 90
       12
176
     1
 62
     7
176
     1
 40
1.0
176
     1
 90
        1
176
     1
 90
        6
176
     1
 90
        2
176
     1
 62
     7
176
     1
 90
        5
176
     1
 90
        0
176
     1
 90
        0
176
     1
290
     0
176
     1
 90
        1
176
     1
 40
0.0
176
     1
 90
        0
176
     1
290
     0
176
     1
290
     1
176
     1
290
     1
176
     1
290
     0
176
     1
290
     0
176
     1
290
     0
176
     1
290
     0
176
     1
290
     0
176
     1
290
     0
176
     1
 90
       50
176
     1
 40
0.0
176
     1
 40
1.0
176
     1
 90
        0
176
     1
 62
    18
420
        0
176
     1
 90
       50
176
     1
 90
        3
176
     1
 62
     5
420
      255
176
     1
290
     0
176
     1
 90
       50
176
     1
 90
       50
176
     1
 90
       50
176
     1
290
     0
176
     1
 90
       50
176
     1
 62
   256
176
     0
 40
1.0
176
     0
 90
        2
176
     1
  1
strokes_ogs.tif
176
     1
290
     0
176
     1
 40
1.0
176
     1
 40
1.0
176
     1
  0
VISUALSTYLE
  5
30
102
{ACAD_REACTORS
330
2A
102
}
330
2A
100
AcDbVisualStyle
  2
Wireframe
 70
     5
177
     3
291
     0
 70
    58
 90
        0
176
     1
 90
        2
176
     1
 90
        0
176
     1
 90
        0
176
     1
 40
0.6
176
     1
 40
30.0
176
     1
 62
     7
420
 16777215
176
     1
 90
        1
176
     1
 90
        4
176
     1
 62
     7
176
     1
 62
   257
176
     1
 90
        1
176
     1
 90
        1
176
     1
 40
1.0
176
     1
 90
        0
176
     1
 62
   257
176
     1
 40
1.0
176
     1
 90
        1
176
     1
 90
        6
176
     1
 90
        2
176
     1
 62
     7
176
     1
 90
        3
176
     1
 90
        0
176
     1
 90
        0
176
     1
290
     0
176
     1
 90
        1
176
     1
 40
0.0
176
     1
 90
        0
176
     1
290
     0
176
     1
290
     1
176
     1
290
     1
176
     1
290
     0
176
     1
290
     0
176
     1
290
     0
176
     1
290
     0
176
     1
290
     0
176
     1
290
     0
176
     1
 90
       50
176
     1
 40
0.0
176
     1
 40
1.0
176
     1
 90
        0
176
     1
 62
    18
420
        0
176
     1
 90
       50
176
     1
 90
        3
176
     1
 62
     5
420
      255
176
     1
290
     0
176
     1
 90
       50
176
     1
 90
       50
176
     1
 90
       50
176
     1
290
     0
176
     1
 90
       50
176
     1
 62
   256
176
     0
 40
1.0
176
     0
 90
        2
176
     1
  1
strokes_ogs.tif
176
     1
290
     0
176
     1
 40
1.0
176
     1
 40
1.0
176
     1
  0
VISUALSTYLE
  5
40
102
{ACAD_REACTORS
330
2A
102
}
330
2A
100
AcDbVisualStyle
  2
X-Ray
 70
    25
177
     3
291
     0
 70
    58
 90
        2
176
     1
 90
        2
176
     1
 90
        1
176
     1
 90
        1
176
     1
 40
0.5
176
     1
 40
30.0
176
     1
 62
     7
420
 16777215
176
     1
 90
        1
176
     1
 90
        0
176
     1
 62
     7
176
     1
 62
   257
176
     1
 90
        1
176
     1
 90
        1
176
     1
 40
1.0
176
     1
 90
        8
176
     1
 62
     7
176
     1
 40
1.0
176
     1
 90
        1
176
     1
 90
        6
176
     1
 90
        2
176
     1
 62
     7
176
     1
 90
        3
176
     1
 90
        0
176
     1
 90
        0
176
     1
290
     0
176
     1
 90
       13
176
     1
 40
0.0
176
     1
 90
        0
176
     1
290
     0
176
     1
290
     1
176
     1
290
     1
176
     1
290
     0
176
     1
290
     0
176
     1
290
     0
176
     1
290
     0
176
     1
290
     0
176
     1
290
     0
176
     1
 90
       50
176
     1
 40
0.0
176
     1
 40
1.0
176
     1
 90
        0
176
     1
 62
    18
420
        0
176
     1
 90
       50
176
     1
 90
        3
176
     1
 62
     5
420
      255
176
     1
290
     0
176
     1
 90
       50
176
     1
 90
       50
176
     1
 90
       50
176
     1
290
     0
176
     1
 90
       50
176
     1
 62
   256
176
     0
 40
1.0
176
     0
 90
        2
176
     1
  1
strokes_ogs.tif
176
     1
290
     0
176
     1
 40
1.0
176
     1
 40
1.0
176
     1
  0
DICTIONARYVAR
  5
26B
102
{ACAD_REACTORS
330
26A
102
}
330
26A
100
DictionaryVariables
280
     0
  1
1:1
  0
DICTIONARYVAR
  5
270
102
{ACAD_REACTORS
330
26A
102
}
330
26A
100
DictionaryVariables
280
     0
  1
Standard
  0
DICTIONARYVAR
  5
26F
102
{ACAD_REACTORS
330
26A
102
}
330
26A
100
DictionaryVariables
280
     0
  1
Standard
  0
DICTIONARY
  5
26C
330
6A
100
AcDbDictionary
280
     1
281
     1
  3
ACAD_ROUNDTRIP_2008_TABLESTYLE_CELLSTYLEMAP
360
26D
  0
CELLSTYLEMAP
  5
26D
102
{ACAD_REACTORS
330
26C
102
}
330
26C
100
AcDbCellStyleMap
 90
        3
300
CELLSTYLE
  1
TABLEFORMAT_BEGIN
 90
        5
170
     1
 91
        0
 92
    32768
 62
   257
 93
        1
300
CONTENTFORMAT
  1
CONTENTFORMAT_BEGIN
 90
        0
 91
        0
 92
        4
 93
        0
300

 40
0.0
140
1.0
 94
        5
 62
     0
340
11
144
0.25
309
CONTENTFORMAT_END
171
     1
301
MARGIN
  1
CELLMARGIN_BEGIN
 40
0.06
 40
0.06
 40
0.06
 40
0.06
 40
0.06
 40
0.06
309
CELLMARGIN_END
 94
        6
 95
        1
302
GRIDFORMAT
  1
GRIDFORMAT_BEGIN
 90
        0
 91
        1
 62
     0
 92
       -2
340
14
 93
        0
 40
0.045
309
GRIDFORMAT_END
 95
        2
302
GRIDFORMAT
  1
GRIDFORMAT_BEGIN
 90
        0
 91
        1
 62
     0
 92
       -2
340
14
 93
        0
 40
0.045
309
GRIDFORMAT_END
 95
        4
302
GRIDFORMAT
  1
GRIDFORMAT_BEGIN
 90
        0
 91
        1
 62
     0
 92
       -2
340
14
 93
        0
 40
0.045
309
GRIDFORMAT_END
 95
        8
302
GRIDFORMAT
  1
GRIDFORMAT_BEGIN
 90
        0
 91
        1
 62
     0
 92
       -2
340
14
 93
        0
 40
0.045
309
GRIDFORMAT_END
 95
       16
302
GRIDFORMAT
  1
GRIDFORMAT_BEGIN
 90
        0
 91
        1
 62
     0
 92
       -2
340
14
 93
        0
 40
0.045
309
GRIDFORMAT_END
 95
       32
302
GRIDFORMAT
  1
GRIDFORMAT_BEGIN
 90
        0
 91
        1
 62
     0
 92
       -2
340
14
 93
        0
 40
0.045
309
GRIDFORMAT_END
309
TABLEFORMAT_END
  1
CELLSTYLE_BEGIN
 90
        1
 91
        1
300
_TITLE
309
CELLSTYLE_END
300
CELLSTYLE
  1
TABLEFORMAT_BEGIN
 90
        5
170
     1
 91
        0
 92
        0
 62
   257
 93
        1
300
CONTENTFORMAT
  1
CONTENTFORMAT_BEGIN
 90
        0
 91
        0
 92
        4
 93
        0
300

 40
0.0
140
1.0
 94
        5
 62
     0
340
11
144
0.18
309
CONTENTFORMAT_END
171
     1
301
MARGIN
  1
CELLMARGIN_BEGIN
 40
0.06
 40
0.06
 40
0.06
 40
0.06
 40
0.06
 40
0.06
309
CELLMARGIN_END
 94
        6
 95
        1
302
GRIDFORMAT
  1
GRIDFORMAT_BEGIN
 90
        0
 91
        1
 62
     0
 92
       -2
340
14
 93
        0
 40
0.045
309
GRIDFORMAT_END
 95
        2
302
GRIDFORMAT
  1
GRIDFORMAT_BEGIN
 90
        0
 91
        1
 62
     0
 92
       -2
340
14
 93
        0
 40
0.045
309
GRIDFORMAT_END
 95
        4
302
GRIDFORMAT
  1
GRIDFORMAT_BEGIN
 90
        0
 91
        1
 62
     0
 92
       -2
340
14
 93
        0
 40
0.045
309
GRIDFORMAT_END
 95
        8
302
GRIDFORMAT
  1
GRIDFORMAT_BEGIN
 90
        0
 91
        1
 62
     0
 92
       -2
340
14
 93
        0
 40
0.045
309
GRIDFORMAT_END
 95
       16
302
GRIDFORMAT
  1
GRIDFORMAT_BEGIN
 90
        0
 91
        1
 62
     0
 92
       -2
340
14
 93
        0
 40
0.045
309
GRIDFORMAT_END
 95
       32
302
GRIDFORMAT
  1
GRIDFORMAT_BEGIN
 90
        0
 91
        1
 62
     0
 92
       -2
340
14
 93
        0
 40
0.045
309
GRIDFORMAT_END
309
TABLEFORMAT_END
  1
CELLSTYLE_BEGIN
 90
        2
 91
        1
300
_HEADER
309
CELLSTYLE_END
300
CELLSTYLE
  1
TABLEFORMAT_BEGIN
 90
        5
170
     1
 91
        0
 92
        0
 62
   257
 93
        1
300
CONTENTFORMAT
  1
CONTENTFORMAT_BEGIN
 90
        0
 91
        0
 92
        4
 93
        0
300

 40
0.0
140
1.0
 94
        2
 62
     0
340
11
144
0.18
309
CONTENTFORMAT_END
171
     1
301
MARGIN
  1
CELLMARGIN_BEGIN
 40
0.06
 40
0.06
 40
0.06
 40
0.06
 40
0.06
 40
0.06
309
CELLMARGIN_END
 94
        6
 95
        1
302
GRIDFORMAT
  1
GRIDFORMAT_BEGIN
 90
        0
 91
        1
 62
     0
 92
       -2
340
14
 93
        0
 40
0.045
309
GRIDFORMAT_END
 95
        2
302
GRIDFORMAT
  1
GRIDFORMAT_BEGIN
 90
        0
 91
        1
 62
     0
 92
       -2
340
14
 93
        0
 40
0.045
309
GRIDFORMAT_END
 95
        4
302
GRIDFORMAT
  1
GRIDFORMAT_BEGIN
 90
        0
 91
        1
 62
     0
 92
       -2
340
14
 93
        0
 40
0.045
309
GRIDFORMAT_END
 95
        8
302
GRIDFORMAT
  1
GRIDFORMAT_BEGIN
 90
        0
 91
        1
 62
     0
 92
       -2
340
14
 93
        0
 40
0.045
309
GRIDFORMAT_END
 95
       16
302
GRIDFORMAT
  1
GRIDFORMAT_BEGIN
 90
        0
 91
        1
 62
     0
 92
       -2
340
14
 93
        0
 40
0.045
309
GRIDFORMAT_END
 95
       32
302
GRIDFORMAT
  1
GRIDFORMAT_BEGIN
 90
        0
 91
        1
 62
     0
 92
       -2
340
14
 93
        0
 40
0.045
309
GRIDFORMAT_END
309
TABLEFORMAT_END
  1
CELLSTYLE_BEGIN
 90
        3
 91
        2
300
_DATA
309
CELLSTYLE_END
  0
ENDSEC
  0
EOF