0
SECTION
  2
HEADER
  9
$ACADVER
  1
AC1027
  9
$ACADMAINTVER
 70
     8
  9
$DWGCODEPAGE
  3
ANSI_1252
  9
$REQUIREDVERSIONS
160
                 0
  9
$COMMENTS
  1
File was created by Cadenas
  9
$CUSTOMPROPERTYTAG
  1
NN
  9
$CUSTOMPROPERTY
  1
Sleeve Bearings - SOLIDLUBE 20mm thru 75mm LT700 Pillow Blocks
  9
$CUSTOMPROPERTYTAG
  1
NT
  9
$CUSTOMPROPERTY
  1
SOLIDLUBE
  9
$CUSTOMPROPERTYTAG
  1
NB
  9
$CUSTOMPROPERTY
  1
034233
  9
$CUSTOMPROPERTYTAG
  1
NBSYN
  9
$CUSTOMPROPERTY
  1
$PN.
  9
$CUSTOMPROPERTYTAG
  1
LINA
  9
$CUSTOMPROPERTY
  1
034233
  9
$CUSTOMPROPERTYTAG
  1
SERIES
  9
$CUSTOMPROPERTY
  1
215
  9
$CUSTOMPROPERTYTAG
  1
SS
  9
$CUSTOMPROPERTY
  1
75
  9
$CUSTOMPROPERTYTAG
  1
PN
  9
$CUSTOMPROPERTY
  1
034233
  9
$CUSTOMPROPERTYTAG
  1
DESCRIPTION
  9
$CUSTOMPROPERTY
  1
P2B-LT7-75M
  9
$CUSTOMPROPERTYTAG
  1
WEIGHT
  9
$CUSTOMPROPERTY
  1
9.62
  9
$CUSTOMPROPERTYTAG
  1
UF
  9
$CUSTOMPROPERTY
  1
LD-45
  9
$CUSTOMPROPERTYTAG
  1
A
  9
$CUSTOMPROPERTY
  1
69.1
  9
$CUSTOMPROPERTYTAG
  1
B
  9
$CUSTOMPROPERTY
  1
298.5
  9
$CUSTOMPROPERTYTAG
  1
C
  9
$CUSTOMPROPERTY
  1
73.0
  9
$CUSTOMPROPERTYTAG
  1
DMIN
  9
$CUSTOMPROPERTY
  1
215.9
  9
$CUSTOMPROPERTYTAG
  1
DMAX
  9
$CUSTOMPROPERTY
  1
241.3
  9
$CUSTOMPROPERTYTAG
  1
F
  9
$CUSTOMPROPERTY
  1
22
  9
$CUSTOMPROPERTYTAG
  1
G
  9
$CUSTOMPROPERTY
  1
36.5
  9
$CUSTOMPROPERTYTAG
  1
H
  9
$CUSTOMPROPERTY
  1
25.4
  9
$CUSTOMPROPERTYTAG
  1
J
  9
$CUSTOMPROPERTY
  1
171.5
  9
$CUSTOMPROPERTYTAG
  1
L
  9
$CUSTOMPROPERTY
  1
100.0
  9
$CUSTOMPROPERTYTAG
  1
M
  9
$CUSTOMPROPERTY
  1
88.9
  9
$CUSTOMPROPERTYTAG
  1
COMPANY
  9
$CUSTOMPROPERTY
  1
baldor
  9
$INSBASE
 10
0.0
 20
0.0
 30
0.0
  9
$EXTMIN
 10
1.000000000000000E+20
 20
1.000000000000000E+20
 30
1.000000000000000E+20
  9
$EXTMAX
 10
-1.000000000000000E+20
 20
-1.000000000000000E+20
 30
-1.000000000000000E+20
  9
$LIMMIN
 10
0.0
 20
0.0
  9
$LIMMAX
 10
420.0
 20
297.0
  9
$ORTHOMODE
 70
     0
  9
$REGENMODE
 70
     1
  9
$FILLMODE
 70
     1
  9
$QTEXTMODE
 70
     0
  9
$MIRRTEXT
 70
     1
  9
$LTSCALE
 40
1.0
  9
$ATTMODE
 70
     1
  9
$TEXTSIZE
 40
2.5
  9
$TRACEWID
 40
1.0
  9
$TEXTSTYLE
  7
Standard
  9
$CLAYER
  8
0
  9
$CELTYPE
  6
ByLayer
  9
$CECOLOR
 62
   256
  9
$CELTSCALE
 40
1.0
  9
$DISPSILH
 70
     0
  9
$DIMSCALE
 40
1.0
  9
$DIMASZ
 40
2.5
  9
$DIMEXO
 40
0.625
  9
$DIMDLI
 40
3.75
  9
$DIMRND
 40
0.0
  9
$DIMDLE
 40
0.0
  9
$DIMEXE
 40
1.25
  9
$DIMTP
 40
0.0
  9
$DIMTM
 40
0.0
  9
$DIMTXT
 40
2.5
  9
$DIMCEN
 40
2.5
  9
$DIMTSZ
 40
0.0
  9
$DIMTOL
 70
     0
  9
$DIMLIM
 70
     0
  9
$DIMTIH
 70
     0
  9
$DIMTOH
 70
     0
  9
$DIMSE1
 70
     0
  9
$DIMSE2
 70
     0
  9
$DIMTAD
 70
     1
  9
$DIMZIN
 70
     8
  9
$DIMBLK
  1

  9
$DIMASO
 70
     1
  9
$DIMSHO
 70
     1
  9
$DIMPOST
  1

  9
$DIMAPOST
  1

  9
$DIMALT
 70
     0
  9
$DIMALTD
 70
     3
  9
$DIMALTF
 40
0.03937007874016
  9
$DIMLFAC
 40
1.0
  9
$DIMTOFL
 70
     1
  9
$DIMTVP
 40
0.0
  9
$DIMTIX
 70
     0
  9
$DIMSOXD
 70
     0
  9
$DIMSAH
 70
     0
  9
$DIMBLK1
  1

  9
$DIMBLK2
  1

  9
$DIMSTYLE
  2
ISO-25
  9
$DIMCLRD
 70
     0
  9
$DIMCLRE
 70
     0
  9
$DIMCLRT
 70
     0
  9
$DIMTFAC
 40
1.0
  9
$DIMGAP
 40
0.625
  9
$DIMJUST
 70
     0
  9
$DIMSD1
 70
     0
  9
$DIMSD2
 70
     0
  9
$DIMTOLJ
 70
     0
  9
$DIMTZIN
 70
     8
  9
$DIMALTZ
 70
     0
  9
$DIMALTTZ
 70
     0
  9
$DIMUPT
 70
     0
  9
$DIMDEC
 70
     2
  9
$DIMTDEC
 70
     2
  9
$DIMALTU
 70
     2
  9
$DIMALTTD
 70
     3
  9
$DIMTXSTY
  7
Standard
  9
$DIMAUNIT
 70
     0
  9
$DIMADEC
 70
     0
  9
$DIMALTRND
 40
0.0
  9
$DIMAZIN
 70
     0
  9
$DIMDSEP
 70
    44
  9
$DIMATFIT
 70
     3
  9
$DIMFRAC
 70
     0
  9
$DIMLDRBLK
  1

  9
$DIMLUNIT
 70
     2
  9
$DIMLWD
 70
    -2
  9
$DIMLWE
 70
    -2
  9
$DIMTMOVE
 70
     0
  9
$DIMFXL
 40
1.0
  9
$DIMFXLON
 70
     0
  9
$DIMJOGANG
 40
0.7853981633974483
  9
$DIMTFILL
 70
     0
  9
$DIMTFILLCLR
 70
     0
  9
$DIMARCSYM
 70
     0
  9
$DIMLTYPE
  6

  9
$DIMLTEX1
  6

  9
$DIMLTEX2
  6

  9
$DIMTXTDIRECTION
 70
     0
  9
$LUNITS
 70
     2
  9
$LUPREC
 70
     4
  9
$SKETCHINC
 40
1.0
  9
$FILLETRAD
 40
10.0
  9
$AUNITS
 70
     0
  9
$AUPREC
 70
     0
  9
$MENU
  1
.
  9
$ELEVATION
 40
0.0
  9
$PELEVATION
 40
0.0
  9
$THICKNESS
 40
0.0
  9
$LIMCHECK
 70
     0
  9
$CHAMFERA
 40
0.0
  9
$CHAMFERB
 40
0.0
  9
$CHAMFERC
 40
0.0
  9
$CHAMFERD
 40
0.0
  9
$SKPOLY
 70
     0
  9
$TDCREATE
 40
2458169.006626227
  9
$TDUCREATE
 40
2458168.96495956
  9
$TDUPDATE
 40
2458169.006626401
  9
$TDUUPDATE
 40
2458168.964959734
  9
$TDINDWG
 40
0.0000000116
  9
$TDUSRTIMER
 40
0.0000000116
  9
$USRTIMER
 70
     1
  9
$ANGBASE
 50
0.0
  9
$ANGDIR
 70
     0
  9
$PDMODE
 70
     0
  9
$PDSIZE
 40
0.0
  9
$PLINEWID
 40
0.0
  9
$SPLFRAME
 70
     0
  9
$SPLINETYPE
 70
     6
  9
$SPLINESEGS
 70
     8
  9
$HANDSEED
  5
154
  9
$SURFTAB1
 70
     6
  9
$SURFTAB2
 70
     6
  9
$SURFTYPE
 70
     6
  9
$SURFU
 70
     6
  9
$SURFV
 70
     6
  9
$UCSBASE
  2

  9
$UCSNAME
  2

  9
$UCSORG
 10
0.0
 20
0.0
 30
0.0
  9
$UCSXDIR
 10
1.0
 20
0.0
 30
0.0
  9
$UCSYDIR
 10
0.0
 20
1.0
 30
0.0
  9
$UCSORTHOREF
  2

  9
$UCSORTHOVIEW
 70
     0
  9
$UCSORGTOP
 10
0.0
 20
0.0
 30
0.0
  9
$UCSORGBOTTOM
 10
0.0
 20
0.0
 30
0.0
  9
$UCSORGLEFT
 10
0.0
 20
0.0
 30
0.0
  9
$UCSORGRIGHT
 10
0.0
 20
0.0
 30
0.0
  9
$UCSORGFRONT
 10
0.0
 20
0.0
 30
0.0
  9
$UCSORGBACK
 10
0.0
 20
0.0
 30
0.0
  9
$PUCSBASE
  2

  9
$PUCSNAME
  2

  9
$PUCSORG
 10
0.0
 20
0.0
 30
0.0
  9
$PUCSXDIR
 10
1.0
 20
0.0
 30
0.0
  9
$PUCSYDIR
 10
0.0
 20
1.0
 30
0.0
  9
$PUCSORTHOREF
  2

  9
$PUCSORTHOVIEW
 70
     0
  9
$PUCSORGTOP
 10
0.0
 20
0.0
 30
0.0
  9
$PUCSORGBOTTOM
 10
0.0
 20
0.0
 30
0.0
  9
$PUCSORGLEFT
 10
0.0
 20
0.0
 30
0.0
  9
$PUCSORGRIGHT
 10
0.0
 20
0.0
 30
0.0
  9
$PUCSORGFRONT
 10
0.0
 20
0.0
 30
0.0
  9
$PUCSORGBACK
 10
0.0
 20
0.0
 30
0.0
  9
$USERI1
 70
     0
  9
$USERI2
 70
     0
  9
$USERI3
 70
     0
  9
$USERI4
 70
     0
  9
$USERI5
 70
     0
  9
$USERR1
 40
0.0
  9
$USERR2
 40
0.0
  9
$USERR3
 40
0.0
  9
$USERR4
 40
0.0
  9
$USERR5
 40
0.0
  9
$WORLDVIEW
 70
     1
  9
$SHADEDGE
 70
     3
  9
$SHADEDIF
 70
    70
  9
$TILEMODE
 70
     1
  9
$MAXACTVP
 70
    64
  9
$PINSBASE
 10
0.0
 20
0.0
 30
0.0
  9
$PLIMCHECK
 70
     0
  9
$PEXTMIN
 10
1.000000000000000E+20
 20
1.000000000000000E+20
 30
1.000000000000000E+20
  9
$PEXTMAX
 10
-1.000000000000000E+20
 20
-1.000000000000000E+20
 30
-1.000000000000000E+20
  9
$PLIMMIN
 10
0.0
 20
0.0
  9
$PLIMMAX
 10
420.0
 20
297.0
  9
$UNITMODE
 70
     0
  9
$VISRETAIN
 70
     1
  9
$PLINEGEN
 70
     0
  9
$PSLTSCALE
 70
     1
  9
$TREEDEPTH
 70
  3020
  9
$CMLSTYLE
  2
Standard
  9
$CMLJUST
 70
     0
  9
$CMLSCALE
 40
20.0
  9
$PROXYGRAPHICS
 70
     1
  9
$MEASUREMENT
 70
     1
  9
$CELWEIGHT
370
    -1
  9
$ENDCAPS
280
     0
  9
$JOINSTYLE
280
     0
  9
$LWDISPLAY
290
     0
  9
$INSUNITS
 70
     4
  9
$HYPERLINKBASE
  1

  9
$STYLESHEET
  1

  9
$XEDIT
290
     1
  9
$CEPSNTYPE
380
     0
  9
$PSTYLEMODE
290
     1
  9
$FINGERPRINTGUID
  2
{31E095BE-98A6-496D-83A4-067F5C8F83AF}
  9
$VERSIONGUID
  2
{FAEB1C32-E019-11D5-929B-00C0DF256EC4}
  9
$EXTNAMES
290
     1
  9
$PSVPSCALE
 40
0.0
  9
$OLESTARTUP
290
     0
  9
$SORTENTS
280
   127
  9
$INDEXCTL
280
     0
  9
$HIDETEXT
280
     1
  9
$XCLIPFRAME
280
     2
  9
$HALOGAP
280
     0
  9
$OBSCOLOR
 70
   257
  9
$OBSLTYPE
280
     0
  9
$INTERSECTIONDISPLAY
280
     0
  9
$INTERSECTIONCOLOR
 70
   257
  9
$DIMASSOC
280
     2
  9
$PROJECTNAME
  1

  9
$CAMERADISPLAY
290
     0
  9
$LENSLENGTH
 40
50.0
  9
$CAMERAHEIGHT
 40
0.0
  9
$STEPSPERSEC
 40
2.0
  9
$STEPSIZE
 40
6.0
  9
$3DDWFPREC
 40
2.0
  9
$PSOLWIDTH
 40
5.0
  9
$PSOLHEIGHT
 40
80.0
  9
$LOFTANG1
 40
1.570796326794897
  9
$LOFTANG2
 40
1.570796326794897
  9
$LOFTMAG1
 40
0.0
  9
$LOFTMAG2
 40
0.0
  9
$LOFTPARAM
 70
     7
  9
$LOFTNORMALS
280
     1
  9
$LATITUDE
 40
37.795
  9
$LONGITUDE
 40
-122.394
  9
$NORTHDIRECTION
 40
0.0
  9
$TIMEZONE
 70
 -8000
  9
$LIGHTGLYPHDISPLAY
280
     1
  9
$TILEMODELIGHTSYNCH
280
     1
  9
$CMATERIAL
347
44
  9
$SOLIDHIST
280
     0
  9
$SHOWHIST
280
     1
  9
$DWFFRAME
280
     2
  9
$DGNFRAME
280
     2
  9
$REALWORLDSCALE
290
     1
  9
$INTERFERECOLOR
 62
   256
  9
$CSHADOW
280
     0
  9
$SHADOWPLANELOCATION
 40
0.0
  0
ENDSEC
  0
SECTION
  2
CLASSES
  0
CLASS
  1
ACDBDICTIONARYWDFLT
  2
AcDbDictionaryWithDefault
  3
ObjectDBX Classes
 90
        0
 91
        4
280
     0
281
     0
  0
CLASS
  1
VISUALSTYLE
  2
AcDbVisualStyle
  3
ObjectDBX Classes
 90
     4095
 91
        4
280
     0
281
     0
  0
CLASS
  1
MATERIAL
  2
AcDbMaterial
  3
ObjectDBX Classes
 90
     1153
 91
        4
280
     0
281
     0
  0
CLASS
  1
SCALE
  2
AcDbScale
  3
ObjectDBX Classes
 90
     1153
 91
        4
280
     0
281
     0
  0
CLASS
  1
TABLESTYLE
  2
AcDbTableStyle
  3
ObjectDBX Classes
 90
     4095
 91
        4
280
     0
281
     0
  0
CLASS
  1
MLEADERSTYLE
  2
AcDbMLeaderStyle
  3
ACDB_MLEADERSTYLE_CLASS
 90
     4095
 91
        4
280
     0
281
     0
  0
CLASS
  1
SUN
  2
AcDbSun
  3
SCENEOE
 90
     1153
 91
        4
280
     0
281
     0
  0
CLASS
  1
DICTIONARYVAR
  2
AcDbDictionaryVar
  3
ObjectDBX Classes
 90
        0
 91
        4
280
     0
281
     0
  0
CLASS
  1
CELLSTYLEMAP
  2
AcDbCellStyleMap
  3
ObjectDBX Classes
 90
     1152
 91
        4
280
     0
281
     0
  0
ENDSEC
  0
SECTION
  2
TABLES
  0
TABLE
  2
VPORT
  5
8
330
0
100
AcDbSymbolTable
 70
     1
  0
VPORT
  5
29
330
8
100
AcDbSymbolTableRecord
100
AcDbViewportTableRecord
  2
*Active
 70
     0
 10
0.0
 20
0.0
 11
1.0
 21
1.0
 12
0.0
 22
0.0
 13
0.0
 23
0.0
 14
10.0
 24
10.0
 15
10.0
 25
10.0
 16
0.0
 26
0.0
 36
1.0
 17
-0.0000000000000568
 27
0.0
 37
0.0
 40
81.90600000000002
 41
3.7173100871731
 42
50.0
 43
0.0
 44
0.0
 50
0.0
 51
0.0
 71
     0
 72
   100
 73
     1
 74
     3
 75
     0
 76
     0
 77
     0
 78
     0
281
     0
 65
     1
110
0.0
120
0.0
130
0.0
111
1.0
121
0.0
131
0.0
112
0.0
122
1.0
132
0.0
 79
     0
146
0.0
348
2F
 60
     3
 61
     5
292
     1
282
     1
141
0.0
142
0.0
 63
   250
361
6D
  0
ENDTAB
  0
TABLE
  2
LTYPE
  5
5
330
0
100
AcDbSymbolTable
 70
     3
  0
LTYPE
  5
14
330
5
100
AcDbSymbolTableRecord
100
AcDbLinetypeTableRecord
  2
ByBlock
 70
     0
  3

 72
    65
 73
     0
 40
0.0
  0
LTYPE
  5
15
330
5
100
AcDbSymbolTableRecord
100
AcDbLinetypeTableRecord
  2
ByLayer
 70
     0
  3

 72
    65
 73
     0
 40
0.0
  0
LTYPE
  5
16
330
5
100
AcDbSymbolTableRecord
100
AcDbLinetypeTableRecord
  2
Continuous
 70
     0
  3
Solid line
 72
    65
 73
     0
 40
0.0
  0
LTYPE
  5
9D
330
5
100
AcDbSymbolTableRecord
100
AcDbLinetypeTableRecord
  2
Dashed
 70
     0
  3

 72
    65
 73
     2
 40
2.0
 49
1.0
 74
     0
 49
-1.0
 74
     0
  0
LTYPE
  5
EF
330
5
100
AcDbSymbolTableRecord
100
AcDbLinetypeTableRecord
  2
Center
 70
     0
  3

 72
    65
 73
     4
 40
1.5
 49
0.45
 74
     0
 49
-0.5
 74
     0
 49
0.05
 74
     0
 49
-0.5
 74
     0
  0
ENDTAB
  0
TABLE
  2
LAYER
  5
2
330
0
100
AcDbSymbolTable
 70
     6
  0
LAYER
  5
10
330
2
100
AcDbSymbolTableRecord
100
AcDbLayerTableRecord
  2
0
 70
     0
 62
     7
  6
Continuous
370
    -3
390
F
347
46
348
0
  0
LAYER
  5
72
330
2
100
AcDbSymbolTableRecord
100
AcDbLayerTableRecord
  2
AM_6
 70
     0
 62
    -2
  6
Continuous
370
    35
390
F
347
46
348
0
  0
LAYER
  5
9E
330
2
100
AcDbSymbolTableRecord
100
AcDbLayerTableRecord
  2
AM_9
 70
     0
 62
     6
  6
Dashed
370
    25
390
F
347
46
348
0
  0
LAYER
  5
A9
330
2
100
AcDbSymbolTableRecord
100
AcDbLayerTableRecord
  2
AM_4
 70
     0
 62
     7
  6
Continuous
370
    50
390
F
347
46
348
0
  0
LAYER
  5
F0
330
2
100
AcDbSymbolTableRecord
100
AcDbLayerTableRecord
  2
AM_7
 70
     0
 62
     7
  6
Center
370
    25
390
F
347
46
348
0
  0
LAYER
  5
148
330
2
100
AcDbSymbolTableRecord
100
AcDbLayerTableRecord
  2
ConnectionPoints
 70
     0
 62
     7
  6
Continuous
370
    50
390
F
347
46
348
0
  0
ENDTAB
  0
TABLE
  2
STYLE
  5
3
330
0
100
AcDbSymbolTable
 70
     1
  0
STYLE
  5
11
330
3
100
AcDbSymbolTableRecord
100
AcDbTextStyleTableRecord
  2
Standard
 70
     0
 40
0.0
 41
1.0
 50
0.0
 71
     0
 42
2.5
  3
txt
  4

  0
ENDTAB
  0
TABLE
  2
VIEW
  5
6
330
0
100
AcDbSymbolTable
 70
     0
  0
ENDTAB
  0
TABLE
  2
UCS
  5
7
330
0
100
AcDbSymbolTable
 70
     0
  0
ENDTAB
  0
TABLE
  2
APPID
  5
9
330
0
100
AcDbSymbolTable
 70
     1
  0
APPID
  5
12
330
9
100
AcDbSymbolTableRecord
100
AcDbRegAppTableRecord
  2
ACAD
 70
     0
  0
ENDTAB
  0
TABLE
  2
DIMSTYLE
  5
A
330
0
100
AcDbSymbolTable
 70
     1
100
AcDbDimStyleTable
  0
DIMSTYLE
105
27
330
A
100
AcDbSymbolTableRecord
100
AcDbDimStyleTableRecord
  2
ISO-25
 70
     0
 41
2.5
 42
0.625
 43
3.75
 44
1.25
 73
     0
 74
     0
 77
     1
 78
     8
140
2.5
141
2.5
143
0.03937007874016
147
0.625
171
     3
172
     1
178
     0
271
     2
272
     2
274
     3
278
    44
283
     0
284
     8
340
11
  0
ENDTAB
  0
TABLE
  2
BLOCK_RECORD
  5
1
330
0
100
AcDbSymbolTable
 70
     4
  0
BLOCK_RECORD
  5
1F
330
1
100
AcDbSymbolTableRecord
100
AcDbBlockTableRecord
  2
*Model_Space
340
22
 70
     0
280
     1
281
     0
  0
BLOCK_RECORD
  5
1B
330
1
100
AcDbSymbolTableRecord
100
AcDbBlockTableRecord
  2
*Paper_Space
340
1E
 70
     0
280
     1
281
     0
  0
BLOCK_RECORD
  5
23
330
1
100
AcDbSymbolTableRecord
100
AcDbBlockTableRecord
  2
*Paper_Space0
340
26
 70
     0
280
     1
281
     0
  0
BLOCK_RECORD
  5
6E
330
1
100
AcDbSymbolTableRecord
100
AcDbBlockTableRecord
  2
1_034233_4
340
0
102
{BLKREFS
331
6F
102
}
 70
     0
280
     1
281
     0
  0
BLOCK_RECORD
  5
8A
330
1
100
AcDbSymbolTableRecord
100
AcDbBlockTableRecord
  2
2_034472_0_in_034233_4
340
0
102
{BLKREFS
331
8B
102
}
 70
     0
280
     1
281
     0
  0
BLOCK_RECORD
  5
B0
330
1
100
AcDbSymbolTableRecord
100
AcDbBlockTableRecord
  2
3_P2B_LT7_75M_0_in_034233_4
340
0
102
{BLKREFS
331
B1
102
}
 70
     0
280
     1
281
     0
  0
ENDTAB
  0
ENDSEC
  0
SECTION
  2
BLOCKS
  0
BLOCK
  5
20
330
1F
100
AcDbEntity
  8
0
100
AcDbBlockBegin
  2
*Model_Space
 70
     0
 10
0.0
 20
0.0
 30
0.0
  3
*Model_Space
  1

  0
ENDBLK
  5
21
330
1F
100
AcDbEntity
  8
0
100
AcDbBlockEnd
  0
BLOCK
  5
1C
330
1B
100
AcDbEntity
 67
     1
  8
0
100
AcDbBlockBegin
  2
*Paper_Space
 70
     0
 10
0.0
 20
0.0
 30
0.0
  3
*Paper_Space
  1

  0
ENDBLK
  5
1D
330
1B
100
AcDbEntity
 67
     1
  8
0
100
AcDbBlockEnd
  0
BLOCK
  5
24
330
23
100
AcDbEntity
  8
0
100
AcDbBlockBegin
  2
*Paper_Space0
 70
     0
 10
0.0
 20
0.0
 30
0.0
  3
*Paper_Space0
  1

  0
ENDBLK
  5
25
330
23
100
AcDbEntity
  8
0
100
AcDbBlockEnd
  0
BLOCK
  5
70
330
6E
100
AcDbEntity
  8
0
100
AcDbBlockBegin
  2
1_034233_4
 70
     2
 10
0.0
 20
0.0
 30
0.0
  3
1_034233_4
  1

  0
ATTDEF
  5
73
330
6E
100
AcDbEntity
  8
AM_6
100
AcDbText
 10
154.25
 20
40.15
 30
0.0
 40
0.5
  1
Sleeve Bearings - SOLIDLUBE 20mm thru 75mm LT700 Pillow Blocks
100
AcDbAttributeDefinition
  3

  2
NN
 70
     8
280
     0
  0
ATTDEF
  5
74
330
6E
100
AcDbEntity
  8
AM_6
100
AcDbText
 10
154.25
 20
39.65
 30
0.0
 40
0.5
  1
SOLIDLUBE
100
AcDbAttributeDefinition
  3

  2
NT
 70
     8
280
     0
  0
ATTDEF
  5
75
330
6E
100
AcDbEntity
  8
AM_6
100
AcDbText
 10
154.25
 20
39.15
 30
0.0
 40
0.5
  1
034233
100
AcDbAttributeDefinition
  3

  2
NB
 70
     8
280
     0
  0
ATTDEF
  5
76
330
6E
100
AcDbEntity
  8
AM_6
100
AcDbText
 10
154.25
 20
38.65
 30
0.0
 40
0.5
  1
$PN.
100
AcDbAttributeDefinition
  3

  2
NBSYN
 70
     8
280
     0
  0
ATTDEF
  5
77
330
6E
100
AcDbEntity
  8
AM_6
100
AcDbText
 10
154.25
 20
38.15
 30
0.0
 40
0.5
  1
034233
100
AcDbAttributeDefinition
  3

  2
LINA
 70
     8
280
     0
  0
ATTDEF
  5
78
330
6E
100
AcDbEntity
  8
AM_6
100
AcDbText
 10
154.25
 20
37.65
 30
0.0
 40
0.5
  1
215
100
AcDbAttributeDefinition
  3

  2
SERIES
 70
     8
280
     0
  0
ATTDEF
  5
79
330
6E
100
AcDbEntity
  8
AM_6
100
AcDbText
 10
154.25
 20
37.15
 30
0.0
 40
0.5
  1
75
100
AcDbAttributeDefinition
  3

  2
SS
 70
     8
280
     0
  0
ATTDEF
  5
7A
330
6E
100
AcDbEntity
  8
AM_6
100
AcDbText
 10
154.25
 20
36.65
 30
0.0
 40
0.5
  1
034233
100
AcDbAttributeDefinition
  3

  2
PN
 70
     8
280
     0
  0
ATTDEF
  5
7B
330
6E
100
AcDbEntity
  8
AM_6
100
AcDbText
 10
154.25
 20
36.15
 30
0.0
 40
0.5
  1
P2B-LT7-75M
100
AcDbAttributeDefinition
  3

  2
DESCRIPTION
 70
     8
280
     0
  0
ATTDEF
  5
7C
330
6E
100
AcDbEntity
  8
AM_6
100
AcDbText
 10
154.25
 20
35.65
 30
0.0
 40
0.5
  1
9.62
100
AcDbAttributeDefinition
  3

  2
WEIGHT
 70
     8
280
     0
  0
ATTDEF
  5
7D
330
6E
100
AcDbEntity
  8
AM_6
100
AcDbText
 10
154.25
 20
35.15
 30
0.0
 40
0.5
  1
LD-45
100
AcDbAttributeDefinition
  3

  2
UF
 70
     8
280
     0
  0
ATTDEF
  5
7E
330
6E
100
AcDbEntity
  8
AM_6
100
AcDbText
 10
154.25
 20
34.65
 30
0.0
 40
0.5
  1
69.1
100
AcDbAttributeDefinition
  3

  2
A
 70
     8
280
     0
  0
ATTDEF
  5
7F
330
6E
100
AcDbEntity
  8
AM_6
100
AcDbText
 10
154.25
 20
34.15
 30
0.0
 40
0.5
  1
298.5
100
AcDbAttributeDefinition
  3

  2
B
 70
     8
280
     0
  0
ATTDEF
  5
80
330
6E
100
AcDbEntity
  8
AM_6
100
AcDbText
 10
154.25
 20
33.65
 30
0.0
 40
0.5
  1
73.0
100
AcDbAttributeDefinition
  3

  2
C
 70
     8
280
     0
  0
ATTDEF
  5
81
330
6E
100
AcDbEntity
  8
AM_6
100
AcDbText
 10
154.25
 20
33.15
 30
0.0
 40
0.5
  1
215.9
100
AcDbAttributeDefinition
  3

  2
DMIN
 70
     8
280
     0
  0
ATTDEF
  5
82
330
6E
100
AcDbEntity
  8
AM_6
100
AcDbText
 10
154.25
 20
32.65
 30
0.0
 40
0.5
  1
241.3
100
AcDbAttributeDefinition
  3

  2
DMAX
 70
     8
280
     0
  0
ATTDEF
  5
83
330
6E
100
AcDbEntity
  8
AM_6
100
AcDbText
 10
154.25
 20
32.15
 30
0.0
 40
0.5
  1
22
100
AcDbAttributeDefinition
  3

  2
F
 70
     8
280
     0
  0
ATTDEF
  5
84
330
6E
100
AcDbEntity
  8
AM_6
100
AcDbText
 10
154.25
 20
31.65
 30
0.0
 40
0.5
  1
36.5
100
AcDbAttributeDefinition
  3

  2
G
 70
     8
280
     0
  0
ATTDEF
  5
85
330
6E
100
AcDbEntity
  8
AM_6
100
AcDbText
 10
154.25
 20
31.15
 30
0.0
 40
0.5
  1
25.4
100
AcDbAttributeDefinition
  3

  2
H
 70
     8
280
     0
  0
ATTDEF
  5
86
330
6E
100
AcDbEntity
  8
AM_6
100
AcDbText
 10
154.25
 20
30.65
 30
0.0
 40
0.5
  1
171.5
100
AcDbAttributeDefinition
  3

  2
J
 70
     8
280
     0
  0
ATTDEF
  5
87
330
6E
100
AcDbEntity
  8
AM_6
100
AcDbText
 10
154.25
 20
30.15
 30
0.0
 40
0.5
  1
100.0
100
AcDbAttributeDefinition
  3

  2
L
 70
     8
280
     0
  0
ATTDEF
  5
88
330
6E
100
AcDbEntity
  8
AM_6
100
AcDbText
 10
154.25
 20
29.65
 30
0.0
 40
0.5
  1
88.9
100
AcDbAttributeDefinition
  3

  2
M
 70
     8
280
     0
  0
ATTDEF
  5
89
330
6E
100
AcDbEntity
  8
AM_6
100
AcDbText
 10
154.25
 20
29.15
 30
0.0
 40
0.5
  1
baldor
100
AcDbAttributeDefinition
  3

  2
COMPANY
 70
     8
280
     0
  0
INSERT
  5
8B
330
6E
100
AcDbEntity
  8
0
100
AcDbBlockReference
  2
2_034472_0_in_034233_4
 10
0.0
 20
0.0
 30
0.0
  0
INSERT
  5
B1
330
6E
100
AcDbEntity
  8
0
100
AcDbBlockReference
  2
3_P2B_LT7_75M_0_in_034233_4
 10
0.0
 20
0.0
 30
0.0
  0
ENDBLK
  5
71
330
6E
100
AcDbEntity
  8
0
100
AcDbBlockEnd
  0
BLOCK
  5
8C
330
8A
100
AcDbEntity
  8
0
100
AcDbBlockBegin
  2
2_034472_0_in_034233_4
 70
     2
 10
0.0
 20
0.0
 30
0.0
  3
2_034472_0_in_034233_4
  1

  0
ATTDEF
  5
8E
330
8A
100
AcDbEntity
  8
AM_6
100
AcDbText
 10
69.925
 20
34.55
 30
0.0
 40
0.5
  1
Sleeve Bearings - SOLIDLUBE 20mm thru 75mm LT700 Inserts
100
AcDbAttributeDefinition
  3

  2
NN
 70
     8
280
     0
  0
ATTDEF
  5
8F
330
8A
100
AcDbEntity
  8
AM_6
100
AcDbText
 10
69.925
 20
34.05
 30
0.0
 40
0.5
  1
SOLIDLUBE
100
AcDbAttributeDefinition
  3

  2
NT
 70
     8
280
     0
  0
ATTDEF
  5
90
330
8A
100
AcDbEntity
  8
AM_6
100
AcDbText
 10
69.925
 20
33.55
 30
0.0
 40
0.5
  1
034472
100
AcDbAttributeDefinition
  3

  2
NB
 70
     8
280
     0
  0
ATTDEF
  5
91
330
8A
100
AcDbEntity
  8
AM_6
100
AcDbText
 10
69.925
 20
33.05
 30
0.0
 40
0.5
  1
$PN.
100
AcDbAttributeDefinition
  3

  2
NBSYN
 70
     8
280
     0
  0
ATTDEF
  5
92
330
8A
100
AcDbEntity
  8
AM_6
100
AcDbText
 10
69.925
 20
32.55
 30
0.0
 40
0.5
  1
034472
100
AcDbAttributeDefinition
  3

  2
LINA
 70
     8
280
     0
  0
ATTDEF
  5
93
330
8A
100
AcDbEntity
  8
AM_6
100
AcDbText
 10
69.925
 20
32.05
 30
0.0
 40
0.5
  1
215
100
AcDbAttributeDefinition
  3

  2
SERIES
 70
     8
280
     0
  0
ATTDEF
  5
94
330
8A
100
AcDbEntity
  8
AM_6
100
AcDbText
 10
69.925
 20
31.55
 30
0.0
 40
0.5
  1
75
100
AcDbAttributeDefinition
  3

  2
SS
 70
     8
280
     0
  0
ATTDEF
  5
95
330
8A
100
AcDbEntity
  8
AM_6
100
AcDbText
 10
69.925
 20
31.05
 30
0.0
 40
0.5
  1
034472
100
AcDbAttributeDefinition
  3

  2
PN
 70
     8
280
     0
  0
ATTDEF
  5
96
330
8A
100
AcDbEntity
  8
AM_6
100
AcDbText
 10
69.925
 20
30.55
 30
0.0
 40
0.5
  1
INS-LT7-75M
100
AcDbAttributeDefinition
  3

  2
DESCRIPTION
 70
     8
280
     0
  0
ATTDEF
  5
97
330
8A
100
AcDbEntity
  8
AM_6
100
AcDbText
 10
69.925
 20
30.05
 30
0.0
 40
0.5
  1
2.5
100
AcDbAttributeDefinition
  3

  2
WEIGHT
 70
     8
280
     0
  0
ATTDEF
  5
98
330
8A
100
AcDbEntity
  8
AM_6
100
AcDbText
 10
69.925
 20
29.55
 30
0.0
 40
0.5
  1
69.1
100
AcDbAttributeDefinition
  3

  2
A
 70
     8
280
     0
  0
ATTDEF
  5
99
330
8A
100
AcDbEntity
  8
AM_6
100
AcDbText
 10
69.925
 20
29.05
 30
0.0
 40
0.5
  1
30.2
100
AcDbAttributeDefinition
  3

  2
C
 70
     8
280
     0
  0
ATTDEF
  5
9A
330
8A
100
AcDbEntity
  8
AM_6
100
AcDbText
 10
69.925
 20
28.55
 30
0.0
 40
0.5
  1
100.0
100
AcDbAttributeDefinition
  3

  2
L
 70
     8
280
     0
  0
ATTDEF
  5
9B
330
8A
100
AcDbEntity
  8
AM_6
100
AcDbText
 10
69.925
 20
28.05
 30
0.0
 40
0.5
  1
129.883/129.832
100
AcDbAttributeDefinition
  3

  2
S
 70
     8
280
     0
  0
ATTDEF
  5
9C
330
8A
100
AcDbEntity
  8
AM_6
100
AcDbText
 10
69.925
 20
27.55
 30
0.0
 40
0.5
  1
baldor
100
AcDbAttributeDefinition
  3

  2
COMPANY
 70
     8
280
     0
  0
LINE
  5
9F
330
8A
100
AcDbEntity
  8
AM_9
100
AcDbLine
 10
-37.5
 20
34.55
 30
0.0
 11
-37.5
 21
-34.55
 31
0.0
  0
LINE
  5
A0
330
8A
100
AcDbEntity
  8
AM_9
100
AcDbLine
 10
37.5
 20
-34.55
 30
0.0
 11
37.5
 21
34.55
 31
0.0
  0
ARC
  5
A1
330
8A
100
AcDbEntity
  8
AM_9
100
AcDbCircle
 10
-64.92499999999998
 20
34.54999999999997
 30
0.0
 40
19.44999999999996
100
AcDbArc
 50
270.0
 51
324.5148892149642
  0
ARC
  5
A2
330
8A
100
AcDbEntity
  8
AM_9
100
AcDbCircle
 10
64.92499999999998
 20
34.54999999999998
 30
0.0
 40
19.44999999999997
100
AcDbArc
 50
215.485110785036
 51
270.0
  0
ARC
  5
A3
330
8A
100
AcDbEntity
  8
AM_9
100
AcDbCircle
 10
-64.925
 20
-34.54999999999998
 30
0.0
 40
19.44999999999999
100
AcDbArc
 50
35.48511078503298
 51
90.0
  0
ARC
  5
A4
330
8A
100
AcDbEntity
  8
AM_9
100
AcDbCircle
 10
64.92499999999997
 20
-34.54999999999994
 30
0.0
 40
19.44999999999994
100
AcDbArc
 50
90.0
 51
144.5148892149671
  0
LINE
  5
A5
330
8A
100
AcDbEntity
  8
AM_9
100
AcDbLine
 10
-64.925
 20
15.10000000000002
 30
0.0
 11
-64.925
 21
-15.1
 31
0.0
  0
LINE
  5
A6
330
8A
100
AcDbEntity
  8
AM_9
100
AcDbLine
 10
64.925
 20
-15.1
 30
0.0
 11
64.925
 21
15.10000000000002
 31
0.0
  0
LINE
  5
A7
330
8A
100
AcDbEntity
  8
AM_9
100
AcDbLine
 10
64.925
 20
15.10000000000002
 30
0.0
 11
-64.925
 21
15.10000000000002
 31
0.0
  0
LINE
  5
A8
330
8A
100
AcDbEntity
  8
AM_9
100
AcDbLine
 10
64.925
 20
-15.1
 30
0.0
 11
-64.925
 21
-15.1
 31
0.0
  0
ARC
  5
AA
330
8A
100
AcDbEntity
  8
AM_4
100
AcDbCircle
 10
-64.92499999999984
 20
34.54999999999995
 30
0.0
 40
19.44999999999983
100
AcDbArc
 50
324.5148892149639
 51
0.0
  0
ARC
  5
AB
330
8A
100
AcDbEntity
  8
AM_4
100
AcDbCircle
 10
64.92500000000003
 20
34.55
 30
0.0
 40
19.45000000000002
100
AcDbArc
 50
180.0
 51
215.4851107850359
  0
LINE
  5
AC
330
8A
100
AcDbEntity
  8
AM_4
100
AcDbLine
 10
45.47500000000001
 20
34.55
 30
0.0
 11
-45.47500000000001
 21
34.55
 31
0.0
  0
ARC
  5
AD
330
8A
100
AcDbEntity
  8
AM_4
100
AcDbCircle
 10
-64.92500000000013
 20
-34.55000000000003
 30
0.0
 40
19.45000000000012
100
AcDbArc
 50
0.0
 51
35.48511078503287
  0
ARC
  5
AE
330
8A
100
AcDbEntity
  8
AM_4
100
AcDbCircle
 10
64.92500000000005
 20
-34.55000000000002
 30
0.0
 40
19.45000000000005
100
AcDbArc
 50
144.5148892149671
 51
180.0
  0
LINE
  5
AF
330
8A
100
AcDbEntity
  8
AM_4
100
AcDbLine
 10
45.475
 20
-34.55
 30
0.0
 11
-45.475
 21
-34.55
 31
0.0
  0
ENDBLK
  5
8D
330
8A
100
AcDbEntity
  8
0
100
AcDbBlockEnd
  0
BLOCK
  5
B2
330
B0
100
AcDbEntity
  8
0
100
AcDbBlockBegin
  2
3_P2B_LT7_75M_0_in_034233_4
 70
     2
 10
0.0
 20
0.0
 30
0.0
  3
3_P2B_LT7_75M_0_in_034233_4
  1

  0
ATTDEF
  5
B4
330
B0
100
AcDbEntity
  8
AM_6
100
AcDbText
 10
154.25
 20
40.15
 30
0.0
 40
0.5
  1
20MM THRU 75MM SOLIDLUBE LT PILLOW BLOCKS - METRIC - 700 Series - Body
100
AcDbAttributeDefinition
  3

  2
NN
 70
     8
280
     0
  0
ATTDEF
  5
B5
330
B0
100
AcDbEntity
  8
AM_6
100
AcDbText
 10
154.25
 20
39.65
 30
0.0
 40
0.5
  1
SOLIDLUBE
100
AcDbAttributeDefinition
  3

  2
NT
 70
     8
280
     0
  0
ATTDEF
  5
B6
330
B0
100
AcDbEntity
  8
AM_6
100
AcDbText
 10
154.25
 20
39.15
 30
0.0
 40
0.5
  1
P2B-LT7-75M
100
AcDbAttributeDefinition
  3

  2
NB
 70
     8
280
     0
  0
ATTDEF
  5
B7
330
B0
100
AcDbEntity
  8
AM_6
100
AcDbText
 10
154.25
 20
38.65
 30
0.0
 40
0.5
  1
$PN.
100
AcDbAttributeDefinition
  3

  2
NBSYN
 70
     8
280
     0
  0
ATTDEF
  5
B8
330
B0
100
AcDbEntity
  8
AM_6
100
AcDbText
 10
154.25
 20
38.15
 30
0.0
 40
0.5
  1
P2B-LT7-75M
100
AcDbAttributeDefinition
  3

  2
LINA
 70
     8
280
     0
  0
ATTDEF
  5
B9
330
B0
100
AcDbEntity
  8
AM_6
100
AcDbText
 10
154.25
 20
37.65
 30
0.0
 40
0.5
  1
215
100
AcDbAttributeDefinition
  3

  2
SERIES
 70
     8
280
     0
  0
ATTDEF
  5
BA
330
B0
100
AcDbEntity
  8
AM_6
100
AcDbText
 10
154.25
 20
37.15
 30
0.0
 40
0.5
  1
129.85500
100
AcDbAttributeDefinition
  3

  2
BOD
 70
     8
280
     0
  0
ATTDEF
  5
BB
330
B0
100
AcDbEntity
  8
AM_6
100
AcDbText
 10
154.25
 20
36.65
 30
0.0
 40
0.5
  1
75
100
AcDbAttributeDefinition
  3

  2
SS
 70
     8
280
     0
  0
ATTDEF
  5
BC
330
B0
100
AcDbEntity
  8
AM_6
100
AcDbText
 10
154.25
 20
36.15
 30
0.0
 40
0.5
  1
P2B-LT7-75M
100
AcDbAttributeDefinition
  3

  2
PN
 70
     8
280
     0
  0
ATTDEF
  5
BD
330
B0
100
AcDbEntity
  8
AM_6
100
AcDbText
 10
154.25
 20
35.65
 30
0.0
 40
0.5
  1
P2B-LT7-75M
100
AcDbAttributeDefinition
  3

  2
DESCRIPTION
 70
     8
280
     0
  0
ATTDEF
  5
BE
330
B0
100
AcDbEntity
  8
AM_6
100
AcDbText
 10
154.25
 20
35.15
 30
0.0
 40
0.5
  1
9.62
100
AcDbAttributeDefinition
  3

  2
WEIGHT
 70
     8
280
     0
  0
ATTDEF
  5
BF
330
B0
100
AcDbEntity
  8
AM_6
100
AcDbText
 10
154.25
 20
34.65
 30
0.0
 40
0.5
  1
LD-45
100
AcDbAttributeDefinition
  3

  2
UF
 70
     8
280
     0
  0
ATTDEF
  5
C0
330
B0
100
AcDbEntity
  8
AM_6
100
AcDbText
 10
154.25
 20
34.15
 30
0.0
 40
0.5
  1
69.1
100
AcDbAttributeDefinition
  3

  2
A
 70
     8
280
     0
  0
ATTDEF
  5
C1
330
B0
100
AcDbEntity
  8
AM_6
100
AcDbText
 10
154.25
 20
33.65
 30
0.0
 40
0.5
  1
298.5
100
AcDbAttributeDefinition
  3

  2
B
 70
     8
280
     0
  0
ATTDEF
  5
C2
330
B0
100
AcDbEntity
  8
AM_6
100
AcDbText
 10
154.25
 20
33.15
 30
0.0
 40
0.5
  1
73.0
100
AcDbAttributeDefinition
  3

  2
C
 70
     8
280
     0
  0
ATTDEF
  5
C3
330
B0
100
AcDbEntity
  8
AM_6
100
AcDbText
 10
154.25
 20
32.65
 30
0.0
 40
0.5
  1
215.9
100
AcDbAttributeDefinition
  3

  2
DMIN
 70
     8
280
     0
  0
ATTDEF
  5
C4
330
B0
100
AcDbEntity
  8
AM_6
100
AcDbText
 10
154.25
 20
32.15
 30
0.0
 40
0.5
  1
241.3
100
AcDbAttributeDefinition
  3

  2
DMAX
 70
     8
280
     0
  0
ATTDEF
  5
C5
330
B0
100
AcDbEntity
  8
AM_6
100
AcDbText
 10
154.25
 20
31.65
 30
0.0
 40
0.5
  1
22
100
AcDbAttributeDefinition
  3

  2
F
 70
     8
280
     0
  0
ATTDEF
  5
C6
330
B0
100
AcDbEntity
  8
AM_6
100
AcDbText
 10
154.25
 20
31.15
 30
0.0
 40
0.5
  1
22
100
AcDbAttributeDefinition
  3

  2
F1
 70
     8
280
     0
  0
ATTDEF
  5
C7
330
B0
100
AcDbEntity
  8
AM_6
100
AcDbText
 10
154.25
 20
30.65
 30
0.0
 40
0.5
  1
36.5
100
AcDbAttributeDefinition
  3

  2
G
 70
     8
280
     0
  0
ATTDEF
  5
C8
330
B0
100
AcDbEntity
  8
AM_6
100
AcDbText
 10
154.25
 20
30.15
 30
0.0
 40
0.5
  1
25.4
100
AcDbAttributeDefinition
  3

  2
H
 70
     8
280
     0
  0
ATTDEF
  5
C9
330
B0
100
AcDbEntity
  8
AM_6
100
AcDbText
 10
154.25
 20
29.65
 30
0.0
 40
0.5
  1
171.5
100
AcDbAttributeDefinition
  3

  2
J
 70
     8
280
     0
  0
ATTDEF
  5
CA
330
B0
100
AcDbEntity
  8
AM_6
100
AcDbText
 10
154.25
 20
29.15
 30
0.0
 40
0.5
  1
100.0
100
AcDbAttributeDefinition
  3

  2
L
 70
     8
280
     0
  0
ATTDEF
  5
CB
330
B0
100
AcDbEntity
  8
AM_6
100
AcDbText
 10
154.25
 20
28.65
 30
0.0
 40
0.5
  1
88.9
100
AcDbAttributeDefinition
  3

  2
M
 70
     8
280
     0
  0
ATTDEF
  5
CC
330
B0
100
AcDbEntity
  8
AM_6
100
AcDbText
 10
154.25
 20
28.15
 30
0.0
 40
0.5
  1
baldor
100
AcDbAttributeDefinition
  3

  2
COMPANY
 70
     8
280
     0
  0
LINE
  5
CD
330
B0
100
AcDbEntity
  8
AM_9
100
AcDbLine
 10
-68.6775
 20
-10.95000000000001
 30
0.0
 11
-68.67750000000001
 21
32.67619047619051
 31
0.0
  0
LINE
  5
CE
330
B0
100
AcDbEntity
  8
AM_9
100
AcDbLine
 10
-66.13749999999999
 20
18.25
 30
0.0
 11
-66.13749999999999
 21
29.32843785405012
 31
0.0
  0
LINE
  5
CF
330
B0
100
AcDbEntity
  8
AM_9
100
AcDbLine
 10
-68.67750000000001
 20
-32.67619047619052
 30
0.0
 11
-68.67750000000001
 21
-18.25000000000001
 31
0.0
  0
LINE
  5
D0
330
B0
100
AcDbEntity
  8
AM_9
100
AcDbLine
 10
-66.13749999999999
 20
-29.32843785405013
 30
0.0
 11
-66.13749999999999
 21
-18.25000000000001
 31
0.0
  0
LINE
  5
D1
330
B0
100
AcDbEntity
  8
AM_9
100
AcDbLine
 10
68.67750000000001
 20
-32.67619047619053
 30
0.0
 11
68.67750000000001
 21
-18.25000000000001
 31
0.0
  0
LINE
  5
D2
330
B0
100
AcDbEntity
  8
AM_9
100
AcDbLine
 10
66.13749999999999
 20
-29.32843785405014
 30
0.0
 11
66.13749999999999
 21
-18.25000000000001
 31
0.0
  0
LINE
  5
D3
330
B0
100
AcDbEntity
  8
AM_9
100
AcDbLine
 10
68.6775
 20
-10.95000000000001
 30
0.0
 11
68.67750000000001
 21
32.67619047619051
 31
0.0
  0
LINE
  5
D4
330
B0
100
AcDbEntity
  8
AM_9
100
AcDbLine
 10
66.13749999999999
 20
18.25
 30
0.0
 11
66.13749999999999
 21
29.32843785405012
 31
0.0
  0
LINE
  5
D5
330
B0
100
AcDbEntity
  8
AM_9
100
AcDbLine
 10
98.44397343871984
 20
-18.25
 30
0.0
 11
98.44397343871984
 21
-5.534930805008843
 31
0.0
  0
LINE
  5
D6
330
B0
100
AcDbEntity
  8
AM_9
100
AcDbLine
 10
98.44397343871984
 20
5.534930805008832
 30
0.0
 11
98.44397343871984
 21
18.25
 31
0.0
  0
LINE
  5
D7
330
B0
100
AcDbEntity
  8
AM_9
100
AcDbLine
 10
-98.44397343871971
 20
5.534930805008599
 30
0.0
 11
-98.44397343871971
 21
18.25
 31
0.0
  0
LINE
  5
D8
330
B0
100
AcDbEntity
  8
AM_9
100
AcDbLine
 10
-98.44397343871971
 20
-18.25
 30
0.0
 11
-98.44397343871971
 21
-5.534930805008607
 31
0.0
  0
LINE
  5
D9
330
B0
100
AcDbEntity
  8
AM_9
100
AcDbLine
 10
-133.82
 20
-18.25
 30
0.0
 11
-133.82
 21
18.25
 31
0.0
  0
LINE
  5
DA
330
B0
100
AcDbEntity
  8
AM_9
100
AcDbLine
 10
-138.9
 20
-18.25000000000001
 30
0.0
 11
-138.9
 21
18.24999999999999
 31
0.0
  0
LINE
  5
DB
330
B0
100
AcDbEntity
  8
AM_9
100
AcDbLine
 10
138.9
 20
-18.25000000000001
 30
0.0
 11
138.9
 21
18.24999999999999
 31
0.0
  0
LINE
  5
DC
330
B0
100
AcDbEntity
  8
AM_9
100
AcDbLine
 10
133.82
 20
-18.25
 30
0.0
 11
133.82
 21
18.25
 31
0.0
  0
LINE
  5
DD
330
B0
100
AcDbEntity
  8
AM_9
100
AcDbLine
 10
-91.86996969311586
 20
-18.25
 30
0.0
 11
-91.86996969311586
 21
18.25
 31
0.0
  0
LINE
  5
DE
330
B0
100
AcDbEntity
  8
AM_9
100
AcDbLine
 10
91.8699696931158
 20
-18.25
 30
0.0
 11
91.8699696931158
 21
18.25
 31
0.0
  0
LINE
  5
DF
330
B0
100
AcDbEntity
  8
AM_9
100
AcDbLine
 10
46.75596779746795
 20
-18.25
 30
0.0
 11
46.75596779746795
 21
18.25
 31
0.0
  0
LINE
  5
E0
330
B0
100
AcDbEntity
  8
AM_9
100
AcDbLine
 10
-46.75596751487411
 20
-18.25
 30
0.0
 11
-46.75596751487411
 21
18.25
 31
0.0
  0
LINE
  5
E1
330
B0
100
AcDbEntity
  8
AM_9
100
AcDbLine
 10
-56.97058751097893
 20
-18.25
 30
0.0
 11
-56.97058751097893
 21
18.25
 31
0.0
  0
LINE
  5
E2
330
B0
100
AcDbEntity
  8
AM_9
100
AcDbLine
 10
56.97058751097894
 20
-18.25
 30
0.0
 11
56.97058751097894
 21
18.25
 31
0.0
  0
LINE
  5
E3
330
B0
100
AcDbEntity
  8
AM_9
100
AcDbLine
 10
138.9
 20
-18.25000000000001
 30
0.0
 11
-138.9
 21
-18.25000000000001
 31
0.0
  0
LINE
  5
E4
330
B0
100
AcDbEntity
  8
AM_9
100
AcDbLine
 10
138.9
 20
18.24999999999999
 30
0.0
 11
-138.9
 21
18.24999999999999
 31
0.0
  0
LINE
  5
E5
330
B0
100
AcDbEntity
  8
AM_9
100
AcDbLine
 10
57.53563249196103
 20
-10.95000000000001
 30
0.0
 11
57.53563249196103
 21
23.88364134154689
 31
0.0
  0
LINE
  5
E6
330
B0
100
AcDbEntity
  8
AM_9
100
AcDbLine
 10
68.6775
 20
-10.95000000000001
 30
0.0
 11
53.00311553342878
 21
-10.95000000000001
 31
0.0
  0
LINE
  5
E7
330
B0
100
AcDbEntity
  8
AM_9
100
AcDbLine
 10
-53.00311553342878
 20
-10.95000000000001
 30
0.0
 11
-68.6775
 21
-10.95000000000001
 31
0.0
  0
LINE
  5
E8
330
B0
100
AcDbEntity
  8
AM_9
100
AcDbLine
 10
-57.53563249196101
 20
-10.95000000000001
 30
0.0
 11
-57.53563249196101
 21
23.88364134154689
 31
0.0
  0
LINE
  5
E9
330
B0
100
AcDbEntity
  8
AM_9
100
AcDbLine
 10
46.22526738159072
 20
-29.20000000000001
 30
0.0
 11
-46.22526738159072
 21
-29.2
 31
0.0
  0
LINE
  5
EA
330
B0
100
AcDbEntity
  8
AM_9
100
AcDbLine
 10
-53.00311553342878
 20
-10.95000000000001
 30
0.0
 11
-53.00311553342878
 21
23.88364134154689
 31
0.0
  0
LINE
  5
EB
330
B0
100
AcDbEntity
  8
AM_9
100
AcDbLine
 10
53.00311553342878
 20
23.88364134154689
 30
0.0
 11
53.00311553342878
 21
-10.95000000000001
 31
0.0
  0
LINE
  5
EC
330
B0
100
AcDbEntity
  8
AM_9
100
AcDbLine
 10
-46.22526738159073
 20
29.19999999999999
 30
0.0
 11
46.22526738159073
 21
29.19999999999999
 31
0.0
  0
LINE
  5
ED
330
B0
100
AcDbEntity
  8
AM_9
100
AcDbLine
 10
64.9275
 20
-28.56793292265571
 30
0.0
 11
64.9275
 21
-10.95000000000001
 31
0.0
  0
LINE
  5
EE
330
B0
100
AcDbEntity
  8
AM_9
100
AcDbLine
 10
-64.9275
 20
-10.95000000000001
 30
0.0
 11
-64.9275
 21
-28.56793292265571
 31
0.0
  0
LINE
  5
F1
330
B0
100
AcDbEntity
  8
AM_7
100
AcDbLine
 10
0.0
 20
40.15
 30
0.0
 11
0.0
 21
-40.15
 31
0.0
  0
LINE
  5
F2
330
B0
100
AcDbEntity
  8
AM_7
100
AcDbLine
 10
-132.2
 20
-0.0000000000000018
 30
0.0
 11
-96.40000000000002
 21
-0.0000000000000053
 31
0.0
  0
LINE
  5
F3
330
B0
100
AcDbEntity
  8
AM_7
100
AcDbLine
 10
-120.65
 20
-11.55000000000005
 30
0.0
 11
-120.65
 21
11.55000000000004
 31
0.0
  0
LINE
  5
F4
330
B0
100
AcDbEntity
  8
AM_7
100
AcDbLine
 10
96.40000000000002
 20
-0.0000000000000036
 30
0.0
 11
132.2
 21
0.0000000000000027
 31
0.0
  0
LINE
  5
F5
330
B0
100
AcDbEntity
  8
AM_7
100
AcDbLine
 10
120.6499999999999
 20
-11.55000000000006
 30
0.0
 11
120.6499999999999
 21
11.55000000000006
 31
0.0
  0
LINE
  5
F6
330
B0
100
AcDbEntity
  8
AM_7
100
AcDbLine
 10
107.9500000000001
 20
-11.55000000000005
 30
0.0
 11
107.9500000000001
 21
11.55000000000004
 31
0.0
  0
LINE
  5
F7
330
B0
100
AcDbEntity
  8
AM_7
100
AcDbLine
 10
-107.9500000000001
 20
-11.55000000000005
 30
0.0
 11
-107.9500000000001
 21
11.55000000000004
 31
0.0
  0
LINE
  5
F8
330
B0
100
AcDbEntity
  8
AM_4
100
AcDbLine
 10
-141.95
 20
36.49999999999999
 30
0.0
 11
-149.25
 21
29.19999999999997
 31
0.0
  0
LINE
  5
F9
330
B0
100
AcDbEntity
  8
AM_4
100
AcDbLine
 10
149.25
 20
29.19999999999999
 30
0.0
 11
141.95
 21
36.49999999999999
 31
0.0
  0
LINE
  5
FA
330
B0
100
AcDbEntity
  8
AM_4
100
AcDbLine
 10
-144.17
 20
18.46106681585724
 30
0.0
 11
-144.17
 21
34.28000000000002
 31
0.0
  0
LINE
  5
FB
330
B0
100
AcDbEntity
  8
AM_4
100
AcDbLine
 10
141.95
 20
-36.50000000000001
 30
0.0
 11
149.25
 21
-29.20000000000002
 31
0.0
  0
LINE
  5
FC
330
B0
100
AcDbEntity
  8
AM_4
100
AcDbLine
 10
-149.25
 20
-29.19999999999997
 30
0.0
 11
-149.25
 21
29.2
 31
0.0
  0
LINE
  5
FD
330
B0
100
AcDbEntity
  8
AM_4
100
AcDbLine
 10
-149.25
 20
-29.19999999999997
 30
0.0
 11
-141.95
 21
-36.49999999999998
 31
0.0
  0
LINE
  5
FE
330
B0
100
AcDbEntity
  8
AM_4
100
AcDbLine
 10
-144.17
 20
-34.28000000000001
 30
0.0
 11
-144.17
 21
-18.46106681585723
 31
0.0
  0
LINE
  5
FF
330
B0
100
AcDbEntity
  8
AM_4
100
AcDbLine
 10
144.1699999999999
 20
18.46106681585726
 30
0.0
 11
144.1699999999999
 21
34.28000000000005
 31
0.0
  0
LINE
  5
100
330
B0
100
AcDbEntity
  8
AM_4
100
AcDbLine
 10
149.25
 20
-29.20000000000002
 30
0.0
 11
149.25
 21
29.2
 31
0.0
  0
LINE
  5
101
330
B0
100
AcDbEntity
  8
AM_4
100
AcDbLine
 10
144.1699999999999
 20
-34.28000000000007
 30
0.0
 11
144.1699999999999
 21
-18.46106681585721
 31
0.0
  0
LINE
  5
102
330
B0
100
AcDbEntity
  8
AM_4
100
AcDbLine
 10
-114.5575832846414
 20
-36.50000000000001
 30
0.0
 11
-114.5575832846414
 21
-26.4
 31
0.0
  0
LINE
  5
103
330
B0
100
AcDbEntity
  8
AM_4
100
AcDbLine
 10
-114.5575832846414
 20
26.4
 30
0.0
 11
-114.5575832846414
 21
36.49999999999999
 31
0.0
  0
LINE
  5
104
330
B0
100
AcDbEntity
  8
AM_4
100
AcDbLine
 10
114.5575832846414
 20
-36.50000000000001
 30
0.0
 11
114.5575832846414
 21
-26.4
 31
0.0
  0
LINE
  5
105
330
B0
100
AcDbEntity
  8
AM_4
100
AcDbLine
 10
114.5575832846414
 20
26.4
 30
0.0
 11
114.5575832846414
 21
36.49999999999999
 31
0.0
  0
ARC
  5
106
330
B0
100
AcDbEntity
  8
AM_4
100
AcDbCircle
 10
-107.95
 20
-0.0000000000000027
 30
0.0
 40
11.0
100
AcDbArc
 50
270.0
 51
90.0
  0
LINE
  5
107
330
B0
100
AcDbEntity
  8
AM_4
100
AcDbLine
 10
-107.95
 20
-11.0
 30
0.0
 11
-120.65
 21
-11.00000000000001
 31
0.0
  0
ARC
  5
108
330
B0
100
AcDbEntity
  8
AM_4
100
AcDbCircle
 10
-120.65
 20
-0.0000000000000018
 30
0.0
 40
11.0
100
AcDbArc
 50
90.0
 51
270.0
  0
LINE
  5
109
330
B0
100
AcDbEntity
  8
AM_4
100
AcDbLine
 10
-120.65
 20
11.0
 30
0.0
 11
-107.95
 21
11.0
 31
0.0
  0
LINE
  5
10A
330
B0
100
AcDbEntity
  8
AM_4
100
AcDbLine
 10
-127.25
 20
-26.39999999999999
 30
0.0
 11
-107.95
 21
-26.39999999999998
 31
0.0
  0
LINE
  5
10B
330
B0
100
AcDbEntity
  8
AM_4
100
AcDbLine
 10
-107.95
 20
26.40000000000002
 30
0.0
 11
-127.25
 21
26.4
 31
0.0
  0
ARC
  5
10C
330
B0
100
AcDbEntity
  8
AM_4
100
AcDbCircle
 10
-127.2500000000001
 20
4.400000000000041
 30
0.0
 40
21.99999999999995
100
AcDbArc
 50
90.0
 51
180.0
  0
ARC
  5
10D
330
B0
100
AcDbEntity
  8
AM_4
100
AcDbCircle
 10
-127.25
 20
-4.400000000000032
 30
0.0
 40
21.99999999999997
100
AcDbArc
 50
180.0
 51
270.0
  0
LINE
  5
10E
330
B0
100
AcDbEntity
  8
AM_4
100
AcDbLine
 10
120.65
 20
-11.0
 30
0.0
 11
107.95
 21
-11.0
 31
0.0
  0
LINE
  5
10F
330
B0
100
AcDbEntity
  8
AM_4
100
AcDbLine
 10
107.95
 20
-26.4
 30
0.0
 11
127.25
 21
-26.4
 31
0.0
  0
ARC
  5
110
330
B0
100
AcDbEntity
  8
AM_4
100
AcDbCircle
 10
107.95
 20
-0.0000000000000027
 30
0.0
 40
11.0
100
AcDbArc
 50
90.0
 51
270.0
  0
LINE
  5
111
330
B0
100
AcDbEntity
  8
AM_4
100
AcDbLine
 10
107.95
 20
11.0
 30
0.0
 11
120.65
 21
11.0
 31
0.0
  0
ARC
  5
112
330
B0
100
AcDbEntity
  8
AM_4
100
AcDbCircle
 10
120.65
 20
-0.0000000000000027
 30
0.0
 40
11.0
100
AcDbArc
 50
270.0
 51
90.0
  0
LINE
  5
113
330
B0
100
AcDbEntity
  8
AM_4
100
AcDbLine
 10
127.25
 20
26.40000000000002
 30
0.0
 11
107.95
 21
26.39999999999999
 31
0.0
  0
ARC
  5
114
330
B0
100
AcDbEntity
  8
AM_4
100
AcDbCircle
 10
127.2499999999999
 20
-4.399999999999967
 30
0.0
 40
22.00000000000004
100
AcDbArc
 50
270.0
 51
0.0000012074182697
  0
ARC
  5
115
330
B0
100
AcDbEntity
  8
AM_4
100
AcDbCircle
 10
127.25
 20
4.400000000000008
 30
0.0
 40
22.0
100
AcDbArc
 50
0.0
 51
90.0
  0
LINE
  5
116
330
B0
100
AcDbEntity
  8
AM_4
100
AcDbLine
 10
109.7336886971362
 20
-36.50000000000001
 30
0.0
 11
109.7336886971362
 21
-26.4
 31
0.0
  0
LWPOLYLINE
  5
117
330
B0
100
AcDbEntity
  8
AM_4
100
AcDbPolyline
 90
       37
 70
     0
 43
0.0
 10
107.95
 20
26.39999999999999
 10
105.6490883914618
 20
26.29954002962208
 10
103.3656881095931
 20
25.99892467952229
 10
101.1171772092935
 20
25.50044181403141
 10
98.92066821620237
 20
24.80788518874799
 10
96.79287789004556
 20
23.92652557776757
 10
94.75000000000003
 20
22.86307065990919
 10
92.80758208033241
 20
21.6256139692294
 10
90.98040710427539
 20
20.22357329834104
 10
89.28238097667519
 20
18.66761902332489
 10
87.72642670165901
 20
16.96959289572467
 10
86.32438603077064
 20
15.14241791966766
 10
85.08692934009083
 20
13.20000000000005
 10
84.02347442223245
 20
11.15712210995452
 10
83.14211481125204
 20
9.029331783797714
 10
82.44955818596861
 20
6.832822790706612
 10
81.95107532047771
 20
4.584311890407029
 10
81.65045997037792
 20
2.300911608538248
 10
81.55
 20
0.0000000000000763
 10
81.65045997037791
 20
-2.300911608538097
 10
81.95107532047768
 20
-4.58431189040688
 10
82.44955818596858
 20
-6.832822790706465
 10
83.14211481125199
 20
-9.02933178379757
 10
84.0234744222324
 20
-11.15712210995438
 10
85.08692934009076
 20
-13.19999999999992
 10
86.32438603077055
 20
-15.14241791966753
 10
87.72642670165892
 20
-16.96959289572456
 10
89.28238097667507
 20
-18.66761902332478
 10
90.98040710427529
 20
-20.22357329834095
 10
92.8075820803323
 20
-21.62561396922932
 10
94.7499999999999
 20
-22.86307065990912
 10
96.79287789004543
 20
-23.92652557776751
 10
98.92066821620224
 20
-24.80788518874794
 10
101.1171772092933
 20
-25.50044181403137
 10
103.3656881095929
 20
-25.99892467952226
 10
105.6490883914617
 20
-26.29954002962207
 10
107.9499999999999
 20
-26.4
  0
LINE
  5
118
330
B0
100
AcDbEntity
  8
AM_4
100
AcDbLine
 10
109.7336886971362
 20
26.4
 30
0.0
 11
109.7336886971362
 21
36.49999999999999
 31
0.0
  0
LINE
  5
119
330
B0
100
AcDbEntity
  8
AM_4
100
AcDbLine
 10
-109.7336886971362
 20
26.4
 30
0.0
 11
-109.7336886971362
 21
36.49999999999999
 31
0.0
  0
LWPOLYLINE
  5
11A
330
B0
100
AcDbEntity
  8
AM_4
100
AcDbPolyline
 90
       37
 70
     0
 43
0.0
 10
-107.95
 20
-26.39999999999998
 10
-105.6490883914618
 20
-26.29954002962207
 10
-103.3656881095931
 20
-25.99892467952228
 10
-101.1171772092935
 20
-25.50044181403139
 10
-98.92066821620236
 20
-24.80788518874797
 10
-96.79287789004555
 20
-23.92652557776755
 10
-94.75000000000001
 20
-22.86307065990917
 10
-92.80758208033241
 20
-21.62561396922938
 10
-90.98040710427539
 20
-20.22357329834102
 10
-89.28238097667517
 20
-18.66761902332486
 10
-87.72642670165901
 20
-16.96959289572464
 10
-86.32438603077064
 20
-15.14241791966762
 10
-85.08692934009083
 20
-13.20000000000001
 10
-84.02347442223245
 20
-11.15712210995448
 10
-83.14211481125203
 20
-9.029331783797673
 10
-82.44955818596861
 20
-6.832822790706569
 10
-81.95107532047771
 20
-4.584311890406986
 10
-81.65045997037792
 20
-2.300911608538204
 10
-81.55
 20
-0.00000000000003
 10
-81.65045997037791
 20
2.300911608538143
 10
-81.9510753204777
 20
4.584311890406926
 10
-82.44955818596858
 20
6.832822790706512
 10
-83.142114811252
 20
9.029331783797614
 10
-84.02347442223241
 20
11.15712210995443
 10
-85.08692934009079
 20
13.19999999999996
 10
-86.32438603077058
 20
15.14241791966758
 10
-87.72642670165894
 20
16.9695928957246
 10
-89.2823809766751
 20
18.66761902332482
 10
-90.98040710427532
 20
20.22357329834098
 10
-92.80758208033232
 20
21.62561396922936
 10
-94.74999999999993
 20
22.86307065990916
 10
-96.79287789004546
 20
23.92652557776754
 10
-98.92066821620227
 20
24.80788518874797
 10
-101.1171772092934
 20
25.5004418140314
 10
-103.365688109593
 20
25.9989246795223
 10
-105.6490883914617
 20
26.29954002962209
 10
-107.9499999999999
 20
26.40000000000001
  0
LINE
  5
11B
330
B0
100
AcDbEntity
  8
AM_4
100
AcDbLine
 10
-109.7336886971362
 20
-36.50000000000001
 30
0.0
 11
-109.7336886971362
 21
-26.4
 31
0.0
  0
LINE
  5
11C
330
B0
100
AcDbEntity
  8
AM_4
100
AcDbLine
 10
57.53563249196101
 20
23.88364134154689
 30
0.0
 11
57.53563249196101
 21
29.19999999999999
 31
0.0
  0
LWPOLYLINE
  5
11D
330
B0
100
AcDbEntity
  8
AM_4
100
AcDbPolyline
 90
        6
 70
     0
 43
0.0
 10
65.20130952380948
 20
29.2
 10
65.72639301142733
 20
29.23988613027051
 10
66.20966827598252
 20
29.34946342792315
 10
66.6517497604001
 20
29.51705715408513
 10
67.05022841527614
 20
29.7324854706685
 10
67.55161536967587
 20
30.11494807109803
  0
LWPOLYLINE
  5
11E
330
B0
100
AcDbEntity
  8
AM_4
100
AcDbPolyline
 90
        4
 70
     0
 43
0.0
 10
68.6775
 20
28.56793292265572
 10
68.41616137819584
 20
29.31562561968911
 10
67.63413445749592
 20
30.05762792382889
 10
67.55161536967589
 20
30.11494807109803
  0
LINE
  5
11F
330
B0
100
AcDbEntity
  8
AM_4
100
AcDbLine
 10
-46.22526738159073
 20
29.19999999999999
 30
0.0
 11
-65.20130952380951
 21
29.2
 31
0.0
  0
LWPOLYLINE
  5
120
330
B0
100
AcDbEntity
  8
AM_4
100
AcDbPolyline
 90
        5
 70
     0
 43
0.0
 10
-67.55161536967587
 20
30.11494807109803
 10
-67.14652869495575
 20
29.79521449521416
 10
-66.67753398850418
 20
29.52902324888999
 10
-65.99193432436853
 20
29.29110367501413
 10
-65.20130952380953
 20
29.19999999999983
  0
LINE
  5
121
330
B0
100
AcDbEntity
  8
AM_4
100
AcDbLine
 10
-57.53563249196102
 20
23.88364134154689
 30
0.0
 11
-57.53563249196102
 21
29.19999999999999
 31
0.0
  0
LWPOLYLINE
  5
122
330
B0
100
AcDbEntity
  8
AM_4
100
AcDbPolyline
 90
        8
 70
     0
 43
0.0
 10
-68.6775
 20
28.56793292265572
 10
-68.41616137819584
 20
27.82024022562232
 10
-67.63413445749592
 20
27.07823792148254
 10
-66.33737093496748
 20
26.34757309580413
 10
-64.53573996402422
 20
25.63380654909797
 10
-62.24295304420953
 20
24.94237047576853
 10
-59.47645966840579
 20
24.27852712183437
 10
-57.535632491961
 20
23.88364134154689
  0
LINE
  5
123
330
B0
100
AcDbEntity
  8
AM_4
100
AcDbLine
 10
-46.22526738159072
 20
-29.2
 30
0.0
 11
-65.20130952380948
 21
-29.19999999999999
 31
0.0
  0
LINE
  5
124
330
B0
100
AcDbEntity
  8
AM_4
100
AcDbLine
 10
65.20130952380951
 20
-29.20000000000001
 30
0.0
 11
46.22526738159072
 21
-29.20000000000001
 31
0.0
  0
LINE
  5
125
330
B0
100
AcDbEntity
  8
AM_4
100
AcDbLine
 10
53.00311553342878
 20
23.88364134154688
 30
0.0
 11
53.00311553342878
 21
29.19999999999999
 31
0.0
  0
LINE
  5
126
330
B0
100
AcDbEntity
  8
AM_4
100
AcDbLine
 10
46.22526738159073
 20
29.19999999999999
 30
0.0
 11
65.20130952380948
 21
29.2
 31
0.0
  0
LINE
  5
127
330
B0
100
AcDbEntity
  8
AM_4
100
AcDbLine
 10
-53.00311553342878
 20
29.19999999999999
 30
0.0
 11
-53.00311553342878
 21
23.88364134154688
 31
0.0
  0
LWPOLYLINE
  5
128
330
B0
100
AcDbEntity
  8
AM_4
100
AcDbPolyline
 90
       37
 70
     0
 43
0.0
 10
64.92750000000001
 20
-28.56793292265571
 10
64.68043126035182
 20
-27.86106651682213
 10
63.94110538370015
 20
-27.15957979115455
 10
62.71514908638351
 20
-26.46881148320456
 10
61.01189263607709
 20
-25.79401875689297
 10
58.84429884282212
 20
-25.14033719231801
 10
56.22886440421418
 20
-24.5127417008898
 10
53.18549435557356
 20
-23.91600866325064
 10
49.7373505806075
 20
-23.35467957813422
 10
45.91067553548962
 20
-22.83302649881804
 10
41.73459252792284
 20
-22.35501952021844
 10
37.24088407118263
 20
-21.92429656407107
 10
32.46375000000008
 20
-21.54413569214984
 10
27.43954718916936
 20
-21.21743015823748
 10
22.20651285577746
 20
-20.94666638871727
 10
16.80447355089402
 20
-20.73390505936688
 10
11.27454205546974
 20
-20.58076541237147
 10
5.658804487248701
 20
-20.48841293291293
 10
0.0000000000001312
 20
-20.45755047912388
 10
-5.65880448724844
 20
-20.48841293291292
 10
-11.27454205546948
 20
-20.58076541237146
 10
-16.80447355089377
 20
-20.73390505936687
 10
-22.20651285577721
 20
-20.94666638871725
 10
-27.43954718916912
 20
-21.21743015823747
 10
-32.46374999999986
 20
-21.54413569214982
 10
-37.2408840711824
 20
-21.92429656407105
 10
-41.73459252792264
 20
-22.35501952021842
 10
-45.91067553548944
 20
-22.83302649881801
 10
-49.73735058060733
 20
-23.35467957813419
 10
-53.18549435557341
 20
-23.91600866325061
 10
-56.22886440421405
 20
-24.51274170088977
 10
-58.84429884282201
 20
-25.14033719231798
 10
-61.011892636077
 20
-25.79401875689294
 10
-62.71514908638343
 20
-26.46881148320453
 10
-63.94110538370011
 20
-27.15957979115452
 10
-64.68043126035181
 20
-27.8610665168221
 10
-64.92750000000001
 20
-28.56793292265568
  0
LINE
  5
129
330
B0
100
AcDbEntity
  8
AM_4
100
AcDbLine
 10
-64.92750000000001
 20
-28.56793292265571
 30
0.0
 11
-64.7300290147471
 21
-29.19999999999999
 31
0.0
  0
LINE
  5
12A
330
B0
100
AcDbEntity
  8
AM_4
100
AcDbLine
 10
-78.43576632439425
 20
-25.33317808548668
 30
0.0
 11
-78.43576632439425
 21
25.33317808548668
 31
0.0
  0
LINE
  5
12B
330
B0
100
AcDbEntity
  8
AM_4
100
AcDbLine
 10
78.43576632439425
 20
-25.33317808548669
 30
0.0
 11
78.43576632439427
 21
25.33317808548668
 31
0.0
  0
LINE
  5
12C
330
B0
100
AcDbEntity
  8
AM_4
100
AcDbLine
 10
68.6775
 20
-32.67619047619052
 30
0.0
 11
68.67750000000001
 21
-33.02380952380953
 31
0.0
  0
LWPOLYLINE
  5
12D
330
B0
100
AcDbEntity
  8
AM_4
100
AcDbPolyline
 90
       19
 70
     0
 43
0.0
 10
68.67750000000001
 20
-33.02380952380952
 10
68.69072795425251
 20
-33.32677948669424
 10
68.7303111442909
 20
-33.62744366522313
 10
68.795948318138
 20
-33.92351382345161
 10
68.88713993726803
 20
-34.21273668870351
 10
69.00319197839642
 20
-34.49291110033671
 10
69.14322121541599
 20
-34.76190476190476
 10
69.30616194128113
 20
-35.0176704692203
 10
69.49077407868165
 20
-35.25826169081511
 10
69.69565261778008
 20
-35.4818473822199
 10
69.91923830918488
 20
-35.68672592131835
 10
70.15982953077969
 20
-35.87133805871888
 10
70.41559523809524
 20
-36.034278784584
 10
70.68458889966328
 20
-36.17430802160359
 10
70.96476331129648
 20
-36.29036006273196
 10
71.25398617654838
 20
-36.381551681862
 10
71.55005633477685
 20
-36.44718885570911
 10
71.85072051330575
 20
-36.4867720457475
 10
72.15369047619046
 20
-36.50000000000001
  0
LINE
  5
12E
330
B0
100
AcDbEntity
  8
AM_4
100
AcDbLine
 10
72.15369047619048
 20
-36.50000000000001
 30
0.0
 11
141.95
 21
-36.50000000000001
 31
0.0
  0
LINE
  5
12F
330
B0
100
AcDbEntity
  8
AM_4
100
AcDbLine
 10
78.43576632439425
 20
-25.33317808548669
 30
0.0
 11
107.95
 21
-36.50000000000001
 31
0.0
  0
LWPOLYLINE
  5
130
330
B0
100
AcDbEntity
  8
AM_4
100
AcDbPolyline
 90
       30
 70
     0
 43
0.0
 10
-78.43576632439427
 20
-25.33317808548668
 10
-75.88033006160185
 20
-24.49155625452388
 10
-72.74739866924466
 20
-23.6809581113891
 10
-69.06081564693423
 20
-22.90755279740412
 10
-64.84863811749001
 20
-22.17722639400327
 10
-60.14292329529343
 20
-21.49553712609958
 10
-54.97948451152968
 20
-20.86767306063701
 10
-49.39761865311279
 20
-20.29841262226844
 10
-43.43980708964805
 20
-19.79208822665869
 10
-37.15139236455844
 20
-19.35255330818538
 10
-30.5802331109505
 20
-18.98315299297655
 10
-23.77633981851863
 20
-18.68669864048092
 10
-16.79149422352132
 20
-18.46544644732504
 10
-9.678855218501596
 20
-18.32108027629453
 10
-2.492554281016507
 20
-18.25469884112163
 10
4.712716499592541
 20
-18.2668073446102
 10
11.88212066202367
 20
-18.35731363373738
 10
18.96109471159617
 20
-18.52552890099372
 10
25.89576338139143
 20
-18.77017292662425
 10
32.63334965556484
 20
-19.08938382187382
 10
39.12257643430415
 20
-19.48073219908476
 10
45.31405678352087
 20
-19.94123966080389
 10
51.16066979923944
 20
-20.46740146718552
 10
56.61791922612876
 20
-21.05521320917791
 10
61.64427210087291
 20
-21.70020128449406
 10
66.20147484310024
 20
-22.39745694442635
 10
70.25484438822815
 20
-23.14167365238823
 10
73.77353214652678
 20
-23.92718746986178
 10
76.7307587795137
 20
-24.74802016238981
 10
78.43576632439425
 20
-25.33317808548668
  0
LINE
  5
131
330
B0
100
AcDbEntity
  8
AM_4
100
AcDbLine
 10
-107.95
 20
-36.50000000000001
 30
0.0
 11
-78.43576632439425
 21
-25.33317808548668
 31
0.0
  0
LINE
  5
132
330
B0
100
AcDbEntity
  8
AM_4
100
AcDbLine
 10
-141.95
 20
-36.49999999999998
 30
0.0
 11
-72.15369047619048
 21
-36.5
 31
0.0
  0
LWPOLYLINE
  5
133
330
B0
100
AcDbEntity
  8
AM_4
100
AcDbPolyline
 90
       19
 70
     0
 43
0.0
 10
-72.15369047619045
 20
-36.49999999999999
 10
-71.85072051330573
 20
-36.48677204574749
 10
-71.55005633477684
 20
-36.4471888557091
 10
-71.25398617654837
 20
-36.38155168186199
 10
-70.96476331129648
 20
-36.29036006273196
 10
-70.68458889966327
 20
-36.17430802160359
 10
-70.41559523809522
 20
-36.034278784584
 10
-70.15982953077969
 20
-35.87133805871887
 10
-69.91923830918488
 20
-35.68672592131835
 10
-69.69565261778008
 20
-35.4818473822199
 10
-69.49077407868164
 20
-35.25826169081511
 10
-69.30616194128112
 20
-35.01767046922031
 10
-69.14322121541599
 20
-34.76190476190477
 10
-69.0031919783964
 20
-34.49291110033673
 10
-68.88713993726803
 20
-34.21273668870352
 10
-68.795948318138
 20
-33.92351382345163
 10
-68.73031114429088
 20
-33.62744366522315
 10
-68.69072795425251
 20
-33.32677948669426
 10
-68.6775
 20
-33.02380952380954
  0
LINE
  5
134
330
B0
100
AcDbEntity
  8
AM_4
100
AcDbLine
 10
-68.67750000000001
 20
-33.02380952380953
 30
0.0
 11
-68.67750000000001
 21
-32.67619047619047
 31
0.0
  0
LWPOLYLINE
  5
135
330
B0
100
AcDbEntity
  8
AM_4
100
AcDbPolyline
 90
       19
 70
     0
 43
0.0
 10
-65.2013094340905
 20
-29.19999999999999
 10
-65.50427939731664
 20
-29.21322794643297
 10
-65.80494357686716
 20
-29.25281112871135
 10
-66.10101373678971
 20
-29.31844829491701
 10
-66.39023660439521
 20
-29.40963990658233
 10
-66.67041101902369
 20
-29.52569194047952
 10
-66.93940468420583
 20
-29.66572117055651
 10
-67.19517039572679
 20
-29.82866188982043
 10
-67.43576162208637
 20
-30.0132740210114
 10
-67.659347318779
 20
-30.2181525543392
 10
-67.8642258636481
 20
-30.44173824045617
 10
-68.04883800725818
 20
-30.68232945728622
 10
-68.21177873972451
 20
-30.93809516039633
 10
-68.35180798368671
 20
-31.20708881835029
 10
-68.46786003204627
 20
-31.48726322698824
 10
-68.55905165864101
 20
-31.77648608988652
 10
-68.62468884012956
 20
-32.07255624642094
 10
-68.66427203792797
 20
-32.37322042392822
 10
-68.67750000000001
 20
-32.67619038647153
  0
LINE
  5
136
330
B0
100
AcDbEntity
  8
AM_4
100
AcDbLine
 10
64.7300290147471
 20
-29.20000000000001
 30
0.0
 11
64.92750000000001
 21
-28.56793292265571
 31
0.0
  0
LWPOLYLINE
  5
137
330
B0
100
AcDbEntity
  8
AM_4
100
AcDbPolyline
 90
       19
 70
     0
 43
0.0
 10
68.6775
 20
-32.67619047619052
 10
68.66427204574748
 20
-32.3732205133058
 10
68.62468885570911
 20
-32.0725563347769
 10
68.55905168186199
 20
-31.77648617654841
 10
68.46786006273196
 20
-31.48726331129652
 10
68.35180802160357
 20
-31.20708889966331
 10
68.211778784584
 20
-30.93809523809526
 10
68.04883805871886
 20
-30.68232953077972
 10
67.86422592131834
 20
-30.44173830918491
 10
67.65934738221989
 20
-30.21815261778012
 10
67.4357616908151
 20
-30.01327407868166
 10
67.19517046922029
 20
-29.82866194128114
 10
66.93940476190474
 20
-29.66572121541601
 10
66.6704111003367
 20
-29.52569197839642
 10
66.39023668870348
 20
-29.40963993726804
 10
66.10101382345158
 20
-29.31844831813801
 10
65.8049436652231
 20
-29.2528111442909
 10
65.50427948669422
 20
-29.21322795425251
 10
65.20130952380948
 20
-29.2
  0
LINE
  5
138
330
B0
100
AcDbEntity
  8
AM_4
100
AcDbLine
 10
-57.53563249196101
 20
23.88364134154689
 30
0.0
 11
-53.00311553342878
 21
23.88364134154689
 31
0.0
  0
LWPOLYLINE
  5
139
330
B0
100
AcDbEntity
  8
AM_4
100
AcDbPolyline
 90
        4
 70
     0
 43
0.0
 10
-67.55161536967589
 20
30.11494807109803
 10
-68.37394991463238
 20
29.37362603270817
 10
-68.67591741541878
 20
28.62617218326001
 10
-68.6775
 20
28.56793292265572
  0
LWPOLYLINE
  5
13A
330
B0
100
AcDbEntity
  8
AM_4
100
AcDbPolyline
 90
       11
 70
     0
 43
0.0
 10
-68.6775
 20
32.67619047619051
 10
-68.66427204574748
 20
32.3732205133058
 10
-68.6246888557091
 20
32.07255633477689
 10
-68.55905168186199
 20
31.77648617654841
 10
-68.46786006273196
 20
31.48726331129651
 10
-68.35180802160357
 20
31.20708889966331
 10
-68.211778784584
 20
30.93809523809526
 10
-68.04883805871886
 20
30.68232953077971
 10
-67.86422592131834
 20
30.4417383091849
 10
-67.65934738221989
 20
30.21815261778011
 10
-67.55161536967587
 20
30.11494807109803
  0
LINE
  5
13B
330
B0
100
AcDbEntity
  8
AM_4
100
AcDbLine
 10
-68.6775
 20
32.67619047619051
 30
0.0
 11
-68.67750000000001
 21
33.02380952380925
 31
0.0
  0
LWPOLYLINE
  5
13C
330
B0
100
AcDbEntity
  8
AM_4
100
AcDbPolyline
 90
       19
 70
     0
 43
0.0
 10
-68.67750000000001
 20
33.02380952380897
 10
-68.69072795425247
 20
33.32677948669369
 10
-68.73031114429081
 20
33.62744366522259
 10
-68.79594831813786
 20
33.92351382345109
 10
-68.88713993726785
 20
34.21273668870299
 10
-69.00319197839617
 20
34.49291110033622
 10
-69.14322121541574
 20
34.76190476190428
 10
-69.3061619412808
 20
35.01767046921984
 10
-69.4907740786813
 20
35.25826169081468
 10
-69.69565261777971
 20
35.48184738221951
 10
-69.91923830918448
 20
35.68672592131799
 10
-70.15982953077926
 20
35.87133805871856
 10
-70.41559523809477
 20
36.03427878458372
 10
-70.6845888996628
 20
36.17430802160335
 10
-70.96476331129597
 20
36.29036006273177
 10
-71.25398617654785
 20
36.38155168186185
 10
-71.55005633477633
 20
36.447188855709
 10
-71.85072051330522
 20
36.48677204574744
 10
-72.15369047618994
 20
36.49999999999999
  0
LINE
  5
13D
330
B0
100
AcDbEntity
  8
AM_4
100
AcDbLine
 10
-141.95
 20
36.49999999999999
 30
0.0
 11
-72.15369047619048
 21
36.49999999999999
 31
0.0
  0
LINE
  5
13E
330
B0
100
AcDbEntity
  8
AM_4
100
AcDbLine
 10
-78.43576632439425
 20
25.33317808548668
 30
0.0
 11
-107.95
 21
36.49999999999999
 31
0.0
  0
LWPOLYLINE
  5
13F
330
B0
100
AcDbEntity
  8
AM_4
100
AcDbPolyline
 90
       30
 70
     0
 43
0.0
 10
78.43576632439425
 20
25.33317808548668
 10
75.88033006160184
 20
24.49155625452388
 10
72.74739866924465
 20
23.6809581113891
 10
69.06081564693422
 20
22.90755279740412
 10
64.84863811748998
 20
22.17722639400327
 10
60.1429232952934
 20
21.49553712609957
 10
54.97948451152966
 20
20.86767306063701
 10
49.39761865311277
 20
20.29841262226844
 10
43.43980708964803
 20
19.79208822665869
 10
37.15139236455843
 20
19.35255330818539
 10
30.58023311095048
 20
18.98315299297655
 10
23.77633981851861
 20
18.68669864048093
 10
16.7914942235213
 20
18.46544644732504
 10
9.678855218501583
 20
18.32108027629454
 10
2.492554281016496
 20
18.25469884112163
 10
-4.71271649959255
 20
18.2668073446102
 10
-11.88212066202367
 20
18.35731363373738
 10
-18.96109471159618
 20
18.52552890099373
 10
-25.89576338139143
 20
18.77017292662426
 10
-32.63334965556484
 20
19.08938382187382
 10
-39.12257643430415
 20
19.48073219908476
 10
-45.31405678352087
 20
19.94123966080389
 10
-51.16066979923944
 20
20.46740146718552
 10
-56.61791922612876
 20
21.05521320917791
 10
-61.6442721008729
 20
21.70020128449406
 10
-66.20147484310024
 20
22.39745694442635
 10
-70.25484438822815
 20
23.14167365238823
 10
-73.77353214652678
 20
23.92718746986178
 10
-76.7307587795137
 20
24.74802016238981
 10
-78.43576632439424
 20
25.33317808548668
  0
LINE
  5
140
330
B0
100
AcDbEntity
  8
AM_4
100
AcDbLine
 10
107.95
 20
36.49999999999999
 30
0.0
 11
78.43576632439427
 21
25.33317808548668
 31
0.0
  0
LINE
  5
141
330
B0
100
AcDbEntity
  8
AM_4
100
AcDbLine
 10
72.15369047619048
 20
36.49999999999999
 30
0.0
 11
141.95
 21
36.49999999999999
 31
0.0
  0
LWPOLYLINE
  5
142
330
B0
100
AcDbEntity
  8
AM_4
100
AcDbPolyline
 90
       19
 70
     0
 43
0.0
 10
72.15369047619045
 20
36.5
 10
71.85072051330573
 20
36.48677204574749
 10
71.55005633477684
 20
36.4471888557091
 10
71.25398617654837
 20
36.38155168186199
 10
70.96476331129648
 20
36.29036006273196
 10
70.68458889966327
 20
36.17430802160359
 10
70.41559523809524
 20
36.034278784584
 10
70.15982953077969
 20
35.87133805871888
 10
69.91923830918488
 20
35.68672592131836
 10
69.6956526177801
 20
35.48184738221991
 10
69.49077407868165
 20
35.25826169081512
 10
69.30616194128113
 20
35.01767046922031
 10
69.14322121541599
 20
34.76190476190478
 10
69.00319197839642
 20
34.49291110033673
 10
68.88713993726805
 20
34.21273668870353
 10
68.795948318138
 20
33.92351382345164
 10
68.7303111442909
 20
33.62744366522316
 10
68.69072795425251
 20
33.32677948669427
 10
68.67750000000001
 20
33.02380952380955
  0
LINE
  5
143
330
B0
100
AcDbEntity
  8
AM_4
100
AcDbLine
 10
68.67750000000001
 20
33.02380952380955
 30
0.0
 11
68.67750000000001
 21
32.67619047619021
 31
0.0
  0
LWPOLYLINE
  5
144
330
B0
100
AcDbEntity
  8
AM_4
100
AcDbPolyline
 90
       11
 70
     0
 43
0.0
 10
67.55161536967587
 20
30.11494807109803
 10
67.76589873052824
 20
30.32953702339028
 10
67.96066401897619
 20
30.56198542540643
 10
68.13442895357213
 20
30.81052420445096
 10
68.28587107824161
 20
31.07326183034353
 10
68.41383782697271
 20
31.34819871110577
 10
68.51735529553909
 20
31.63324241106366
 10
68.59563565349944
 20
31.92622357554642
 10
68.64808314006268
 20
32.22491244098548
 10
68.67429859818742
 20
32.52703580476158
 10
68.67750000000001
 20
32.67619047618994
  0
LWPOLYLINE
  5
145
330
B0
100
AcDbEntity
  8
AM_4
100
AcDbPolyline
 90
        8
 70
     0
 43
0.0
 10
57.53563249196099
 20
23.88364134154689
 10
60.58503239288389
 20
24.52785754830125
 10
63.17334361505418
 20
25.20282116811865
 10
65.2808675472061
 20
25.90339532029811
 10
66.89156465965826
 20
26.62424821252331
 10
67.99317657481937
 20
27.35989371902153
 10
68.57731936084359
 20
28.10473313329342
 10
68.6775
 20
28.56793292265572
  0
LINE
  5
146
330
B0
100
AcDbEntity
  8
AM_4
100
AcDbLine
 10
53.00311553342878
 20
23.88364134154689
 30
0.0
 11
57.53563249196103
 21
23.88364134154689
 31
0.0
  0
LWPOLYLINE
  5
147
330
B0
100
AcDbEntity
  8
AM_4
100
AcDbPolyline
 90
       23
 70
     0
 43
0.0
 10
-53.00311553342878
 20
23.88364134154688
 10
-49.53308232370881
 20
23.32442098410192
 10
-45.68607244861257
 20
22.80510691862843
 10
-41.49136397617762
 20
22.32965143873506
 10
-36.98088117071341
 20
21.90167304771168
 10
-32.18895152987351
 20
21.52442891953438
 10
-27.15204453167093
 20
21.20079010980484
 10
-21.9084940797296
 20
20.93321970528354
 10
-16.49820675913112
 20
20.72375407831233
 10
-10.96235812320603
 20
20.57398738879127
 10
-5.34307932271054
 20
20.48505945165918
 10
0.3168635376702822
 20
20.45764706221383
 10
5.974394875201998
 20
20.49195884529093
 10
11.58645746029517
 20
20.58773366750326
 10
17.11034010802121
 20
20.74424262462334
 10
22.50400273601937
 20
20.96029458898482
 10
27.72639631490805
 20
21.23424527468315
 10
32.73777527618446
 20
21.56400975158423
 10
37.49999999999991
 20
21.9470783129016
 10
41.9768270806963
 20
22.38053557558051
 10
46.1341851610074
 20
22.86108266812333
 10
49.94043423566061
 20
23.38506233699354
 10
53.00311553342877
 20
23.88364134154688
  0
ENDBLK
  5
B3
330
B0
100
AcDbEntity
  8
0
100
AcDbBlockEnd
  0
ENDSEC
  0
SECTION
  2
ENTITIES
  0
INSERT
  5
6F
330
1F
100
AcDbEntity
  8
0
100
AcDbBlockReference
  2
1_034233_4
 10
0.0
 20
0.0
 30
0.0
  0
POINT
  5
149
330
1F
100
AcDbEntity
  8
ConnectionPoints
100
AcDbPoint
 10
58.40702012600882
 20
0.0000000000000036
 30
58.40702012600882
  0
POINT
  5
14A
330
1F
100
AcDbEntity
  8
ConnectionPoints
100
AcDbPoint
 10
0.0
 20
0.0
 30
0.0
  0
ENDSEC
  0
SECTION
  2
OBJECTS
  0
DICTIONARY
  5
C
330
0
100
AcDbDictionary
281
     1
  3
ACAD_DETAILVIEWSTYLE
350
152
  3
ACAD_GROUP
350
D
  3
ACAD_LAYOUT
350
1A
  3
ACAD_MATERIAL
350
43
  3
ACAD_MLEADERSTYLE
350
6B
  3
ACAD_MLINESTYLE
350
17
  3
ACAD_PLOTSETTINGS
350
19
  3
ACAD_PLOTSTYLENAME
350
E
  3
ACAD_SCALELIST
350
47
  3
ACAD_SECTIONVIEWSTYLE
350
153
  3
ACAD_TABLESTYLE
350
69
  3
ACAD_VISUALSTYLE
350
2A
  3
ACDB_RECOMPOSE_DATA
350
14F
  3
AcDbVariableDictionary
350
14B
  0
SUN
  5
6D
330
29
100
AcDbSun
 90
        1
290
     0
 63
     7
421
 16777215
 40
1.0
291
     1
 91
  2455826
 92
 54000000
292
     0
 70
     2
 71
   256
280
     1
  0
DICTIONARY
  5
152
102
{ACAD_REACTORS
330
C
102
}
330
C
100
AcDbDictionary
281
     1
  0
DICTIONARY
  5
D
102
{ACAD_REACTORS
330
C
102
}
330
C
100
AcDbDictionary
281
     1
  0
DICTIONARY
  5
1A
102
{ACAD_REACTORS
330
C
102
}
330
C
100
AcDbDictionary
281
     1
  3
Layout1
350
1E
  3
Layout2
350
26
  3
Model
350
22
  0
DICTIONARY
  5
43
102
{ACAD_REACTORS
330
C
102
}
330
C
100
AcDbDictionary
281
     1
  3
ByBlock
350
45
  3
ByLayer
350
44
  3
Global
350
46
  0
DICTIONARY
  5
6B
102
{ACAD_REACTORS
330
C
102
}
330
C
100
AcDbDictionary
281
     1
  3
Standard
350
6C
  0
DICTIONARY
  5
17
102
{ACAD_REACTORS
330
C
102
}
330
C
100
AcDbDictionary
281
     1
  3
Standard
350
18
  0
DICTIONARY
  5
19
102
{ACAD_REACTORS
330
C
102
}
330
C
100
AcDbDictionary
281
     1
  0
ACDBDICTIONARYWDFLT
  5
E
102
{ACAD_REACTORS
330
C
102
}
330
C
100
AcDbDictionary
281
     1
  3
Normal
350
F
100
AcDbDictionaryWithDefault
340
F
  0
DICTIONARY
  5
47
102
{ACAD_REACTORS
330
C
102
}
330
C
100
AcDbDictionary
281
     1
  3
A0
350
48
  3
A1
350
49
  3
A2
350
4A
  3
A3
350
4B
  3
A4
350
4C
  3
A5
350
4D
  3
A6
350
4E
  3
A7
350
4F
  3
A8
350
50
  3
A9
350
51
  3
B0
350
52
  3
B1
350
53
  3
B2
350
54
  3
B3
350
55
  3
B4
350
56
  3
B5
350
57
  3
B6
350
58
  3
B7
350
59
  3
B8
350
5A
  3
B9
350
5B
  3
C0
350
5C
  3
C1
350
5D
  3
C2
350
5E
  3
C3
350
5F
  3
C4
350
60
  3
C5
350
61
  3
C6
350
62
  3
C7
350
63
  3
C8
350
64
  3
C9
350
65
  3
D0
350
66
  3
D1
350
67
  3
D2
350
68
  0
DICTIONARY
  5
153
102
{ACAD_REACTORS
330
C
102
}
330
C
100
AcDbDictionary
281
     1
  0
DICTIONARY
  5
69
102
{ACAD_REACTORS
330
C
102
}
330
C
100
AcDbDictionary
281
     1
  3
Standard
350
6A
  0
DICTIONARY
  5
2A
102
{ACAD_REACTORS
330
C
102
}
330
C
100
AcDbDictionary
281
     1
  3
2dWireframe
350
2F
  3
Basic
350
32
  3
Brighten
350
36
  3
ColorChange
350
3A
  3
Conceptual
350
34
  3
Dim
350
35
  3
EdgeColorOff
350
3D
  3
Facepattern
350
39
  3
Flat
350
2B
  3
FlatWithEdges
350
2C
  3
Gouraud
350
2D
  3
GouraudWithEdges
350
2E
  3
Hidden
350
31
  3
JitterOff
350
3B
  3
Linepattern
350
38
  3
OverhangOff
350
3C
  3
Realistic
350
33
  3
Shaded
350
42
  3
Shaded with edges
350
41
  3
Shades of Gray
350
3E
  3
Sketchy
350
3F
  3
Thicken
350
37
  3
Wireframe
350
30
  3
X-Ray
350
40
  0
XRECORD
  5
14F
102
{ACAD_REACTORS
330
C
102
}
330
C
100
AcDbXrecord
280
     1
 90
        1
330
6A
  0
DICTIONARY
  5
14B
102
{ACAD_REACTORS
330
C
102
}
330
C
100
AcDbDictionary
281
     1
  3
CANNOSCALE
350
14C
  3
CMLEADERSTYLE
350
151
  3
CTABLESTYLE
350
150
  0
LAYOUT
  5
1E
102
{ACAD_REACTORS
330
1A
102
}
330
1A
100
AcDbPlotSettings
  1

  2
none_device
  4

  6

 40
0.0
 41
0.0
 42
0.0
 43
0.0
 44
0.0
 45
0.0
 46
0.0
 47
0.0
 48
0.0
 49
0.0
140
0.0
141
0.0
142
1.0
143
1.0
 70
   688
 72
     1
 73
     0
 74
     5
  7

 75
    16
 76
     0
 77
     2
 78
   300
147
1.0
148
0.0
149
0.0
100
AcDbLayout
  1
Layout1
 70
     1
 71
     1
 10
0.0
 20
0.0
 11
420.0
 21
297.0
 12
0.0
 22
0.0
 32
0.0
 14
1.000000000000000E+20
 24
1.000000000000000E+20
 34
1.000000000000000E+20
 15
-1.000000000000000E+20
 25
-1.000000000000000E+20
 35
-1.000000000000000E+20
146
0.0
 13
0.0
 23
0.0
 33
0.0
 16
1.0
 26
0.0
 36
0.0
 17
0.0
 27
1.0
 37
0.0
 76
     0
330
1B
  0
LAYOUT
  5
26
102
{ACAD_REACTORS
330
1A
102
}
330
1A
100
AcDbPlotSettings
  1

  2
none_device
  4

  6

 40
0.0
 41
0.0
 42
0.0
 43
0.0
 44
0.0
 45
0.0
 46
0.0
 47
0.0
 48
0.0
 49
0.0
140
0.0
141
0.0
142
1.0
143
1.0
 70
   688
 72
     1
 73
     0
 74
     5
  7

 75
    16
 76
     0
 77
     2
 78
   300
147
1.0
148
0.0
149
0.0
100
AcDbLayout
  1
Layout2
 70
     1
 71
     2
 10
0.0
 20
0.0
 11
0.0
 21
0.0
 12
0.0
 22
0.0
 32
0.0
 14
0.0
 24
0.0
 34
0.0
 15
0.0
 25
0.0
 35
0.0
146
0.0
 13
0.0
 23
0.0
 33
0.0
 16
1.0
 26
0.0
 36
0.0
 17
0.0
 27
1.0
 37
0.0
 76
     0
330
23
  0
LAYOUT
  5
22
102
{ACAD_REACTORS
330
1A
102
}
330
1A
100
AcDbPlotSettings
  1

  2
none_device
  4
Letter_(8.50_x_11.00_Inches)
  6

 40
6.35
 41
6.35
 42
6.35000508
 43
6.35000508
 44
215.9
 45
279.4
 46
0.0
 47
0.0
 48
0.0
 49
0.0
140
0.0
141
0.0
142
1.0
143
1.0
 70
  1712
 72
     1
 73
     0
 74
     0
  7

 75
     0
 76
     0
 77
     2
 78
   300
147
1.0
148
0.0
149
0.0
100
AcDbLayout
  1
Model
 70
     1
 71
     0
 10
0.0
 20
0.0
 11
420.0
 21
297.0
 12
0.0
 22
0.0
 32
0.0
 14
1.000000000000000E+20
 24
1.000000000000000E+20
 34
1.000000000000000E+20
 15
-1.000000000000000E+20
 25
-1.000000000000000E+20
 35
-1.000000000000000E+20
146
0.0
 13
0.0
 23
0.0
 33
0.0
 16
1.0
 26
0.0
 36
0.0
 17
0.0
 27
1.0
 37
0.0
 76
     0
330
1F
331
29
  0
MATERIAL
  5
45
102
{ACAD_REACTORS
330
43
102
}
330
43
100
AcDbMaterial
  1
ByBlock
 72
     1
 94
      127
  0
MATERIAL
  5
44
102
{ACAD_REACTORS
330
43
102
}
330
43
100
AcDbMaterial
  1
ByLayer
 72
     1
 94
      127
  0
MATERIAL
  5
46
102
{ACAD_REACTORS
330
43
102
}
330
43
100
AcDbMaterial
  1
Global
 72
     1
 94
      127
  0
MLEADERSTYLE
  5
6C
102
{ACAD_REACTORS
330
6B
102
}
330
6B
100
AcDbMLeaderStyle
179
     2
170
     2
171
     1
172
     0
 90
        2
 40
0.0
 41
0.0
173
     1
 91
-1056964608
340
14
 92
       -2
290
     1
 42
2.0
291
     1
 43
8.0
  3
Standard
341
0
 44
4.0
300

342
11
174
     1
178
     6
175
     1
176
     0
 93
-1056964608
 45
4.0
292
     0
297
     0
 46
4.0
343
0
 94
-1056964608
 47
1.0
 49
1.0
140
1.0
293
     1
141
0.0
294
     1
177
     0
142
1.0
295
     0
296
     0
143
3.75
271
     0
272
     9
273
     9
298
     0
  0
MLINESTYLE
  5
18
102
{ACAD_REACTORS
330
17
102
}
330
17
100
AcDbMlineStyle
  2
Standard
 70
     0
  3

 62
   256
 51
90.0
 52
90.0
 71
     2
 49
0.5
 62
   256
  6
BYLAYER
 49
-0.5
 62
   256
  6
BYLAYER
  0
ACDBPLACEHOLDER
  5
F
102
{ACAD_REACTORS
330
E
102
}
330
E
  0
SCALE
  5
48
102
{ACAD_REACTORS
330
47
102
}
330
47
100
AcDbScale
 70
     0
300
1:1
140
1.0
141
1.0
290
     1
  0
SCALE
  5
49
102
{ACAD_REACTORS
330
47
102
}
330
47
100
AcDbScale
 70
     0
300
1:2
140
1.0
141
2.0
290
     0
  0
SCALE
  5
4A
102
{ACAD_REACTORS
330
47
102
}
330
47
100
AcDbScale
 70
     0
300
1:4
140
1.0
141
4.0
290
     0
  0
SCALE
  5
4B
102
{ACAD_REACTORS
330
47
102
}
330
47
100
AcDbScale
 70
     0
300
1:5
140
1.0
141
5.0
290
     0
  0
SCALE
  5
4C
102
{ACAD_REACTORS
330
47
102
}
330
47
100
AcDbScale
 70
     0
300
1:8
140
1.0
141
8.0
290
     0
  0
SCALE
  5
4D
102
{ACAD_REACTORS
330
47
102
}
330
47
100
AcDbScale
 70
     0
300
1:10
140
1.0
141
10.0
290
     0
  0
SCALE
  5
4E
102
{ACAD_REACTORS
330
47
102
}
330
47
100
AcDbScale
 70
     0
300
1:16
140
1.0
141
16.0
290
     0
  0
SCALE
  5
4F
102
{ACAD_REACTORS
330
47
102
}
330
47
100
AcDbScale
 70
     0
300
1:20
140
1.0
141
20.0
290
     0
  0
SCALE
  5
50
102
{ACAD_REACTORS
330
47
102
}
330
47
100
AcDbScale
 70
     0
300
1:30
140
1.0
141
30.0
290
     0
  0
SCALE
  5
51
102
{ACAD_REACTORS
330
47
102
}
330
47
100
AcDbScale
 70
     0
300
1:40
140
1.0
141
40.0
290
     0
  0
SCALE
  5
52
102
{ACAD_REACTORS
330
47
102
}
330
47
100
AcDbScale
 70
     0
300
1:50
140
1.0
141
50.0
290
     0
  0
SCALE
  5
53
102
{ACAD_REACTORS
330
47
102
}
330
47
100
AcDbScale
 70
     0
300
1:100
140
1.0
141
100.0
290
     0
  0
SCALE
  5
54
102
{ACAD_REACTORS
330
47
102
}
330
47
100
AcDbScale
 70
     0
300
2:1
140
2.0
141
1.0
290
     0
  0
SCALE
  5
55
102
{ACAD_REACTORS
330
47
102
}
330
47
100
AcDbScale
 70
     0
300
4:1
140
4.0
141
1.0
290
     0
  0
SCALE
  5
56
102
{ACAD_REACTORS
330
47
102
}
330
47
100
AcDbScale
 70
     0
300
8:1
140
8.0
141
1.0
290
     0
  0
SCALE
  5
57
102
{ACAD_REACTORS
330
47
102
}
330
47
100
AcDbScale
 70
     0
300
10:1
140
10.0
141
1.0
290
     0
  0
SCALE
  5
58
102
{ACAD_REACTORS
330
47
102
}
330
47
100
AcDbScale
 70
     0
300
100:1
140
100.0
141
1.0
290
     0
  0
SCALE
  5
59
102
{ACAD_REACTORS
330
47
102
}
330
47
100
AcDbScale
 70
     0
300
1/128" = 1'-0"
140
0.0078125
141
12.0
290
     0
  0
SCALE
  5
5A
102
{ACAD_REACTORS
330
47
102
}
330
47
100
AcDbScale
 70
     0
300
1/64" = 1'-0"
140
0.015625
141
12.0
290
     0
  0
SCALE
  5
5B
102
{ACAD_REACTORS
330
47
102
}
330
47
100
AcDbScale
 70
     0
300
1/32" = 1'-0"
140
0.03125
141
12.0
290
     0
  0
SCALE
  5
5C
102
{ACAD_REACTORS
330
47
102
}
330
47
100
AcDbScale
 70
     0
300
1/16" = 1'-0"
140
0.0625
141
12.0
290
     0
  0
SCALE
  5
5D
102
{ACAD_REACTORS
330
47
102
}
330
47
100
AcDbScale
 70
     0
300
3/32" = 1'-0"
140
0.09375
141
12.0
290
     0
  0
SCALE
  5
5E
102
{ACAD_REACTORS
330
47
102
}
330
47
100
AcDbScale
 70
     0
300
1/8" = 1'-0"
140
0.125
141
12.0
290
     0
  0
SCALE
  5
5F
102
{ACAD_REACTORS
330
47
102
}
330
47
100
AcDbScale
 70
     0
300
3/16" = 1'-0"
140
0.1875
141
12.0
290
     0
  0
SCALE
  5
60
102
{ACAD_REACTORS
330
47
102
}
330
47
100
AcDbScale
 70
     0
300
1/4" = 1'-0"
140
0.25
141
12.0
290
     0
  0
SCALE
  5
61
102
{ACAD_REACTORS
330
47
102
}
330
47
100
AcDbScale
 70
     0
300
3/8" = 1'-0"
140
0.375
141
12.0
290
     0
  0
SCALE
  5
62
102
{ACAD_REACTORS
330
47
102
}
330
47
100
AcDbScale
 70
     0
300
1/2" = 1'-0"
140
0.5
141
12.0
290
     0
  0
SCALE
  5
63
102
{ACAD_REACTORS
330
47
102
}
330
47
100
AcDbScale
 70
     0
300
3/4" = 1'-0"
140
0.75
141
12.0
290
     0
  0
SCALE
  5
64
102
{ACAD_REACTORS
330
47
102
}
330
47
100
AcDbScale
 70
     0
300
1" = 1'-0"
140
1.0
141
12.0
290
     0
  0
SCALE
  5
65
102
{ACAD_REACTORS
330
47
102
}
330
47
100
AcDbScale
 70
     0
300
1-1/2" = 1'-0"
140
1.5
141
12.0
290
     0
  0
SCALE
  5
66
102
{ACAD_REACTORS
330
47
102
}
330
47
100
AcDbScale
 70
     0
300
3" = 1'-0"
140
3.0
141
12.0
290
     0
  0
SCALE
  5
67
102
{ACAD_REACTORS
330
47
102
}
330
47
100
AcDbScale
 70
     0
300
6" = 1'-0"
140
6.0
141
12.0
290
     0
  0
SCALE
  5
68
102
{ACAD_REACTORS
330
47
102
}
330
47
100
AcDbScale
 70
     0
300
1'-0" = 1'-0"
140
12.0
141
12.0
290
     0
  0
TABLESTYLE
  5
6A
102
{ACAD_REACTORS
330
69
102
}
102
{ACAD_XDICTIONARY
360
14D
102
}
330
69
100
AcDbTableStyle
  3
Standard
 70
     0
 71
     0
 40
0.06
 41
0.06
280
     0
281
     0
  7
Standard
140
4.5
170
     2
 62
     0
 63
   257
283
     0
 90
        4
 91
        0
  1

274
    -2
284
     1
 64
     0
275
    -2
285
     1
 65
     0
276
    -2
286
     1
 66
     0
277
    -2
287
     1
 67
     0
278
    -2
288
     1
 68
     0
279
    -2
289
     1
 69
     0
  7
Standard
140
6.0
170
     5
 62
     0
 63
   257
283
     0
 90
        4
 91
        0
  1

274
    -2
284
     1
 64
     0
275
    -2
285
     1
 65
     0
276
    -2
286
     1
 66
     0
277
    -2
287
     1
 67
     0
278
    -2
288
     1
 68
     0
279
    -2
289
     1
 69
     0
  7
Standard
140
4.5
170
     5
 62
     0
 63
   257
283
     0
 90
        4
 91
        0
  1

274
    -2
284
     1
 64
     0
275
    -2
285
     1
 65
     0
276
    -2
286
     1
 66
     0
277
    -2
287
     1
 67
     0
278
    -2
288
     1
 68
     0
279
    -2
289
     1
 69
     0
  0
VISUALSTYLE
  5
2F
102
{ACAD_REACTORS
330
2A
102
}
330
2A
100
AcDbVisualStyle
  2
2dWireframe
 70
     4
177
     3
291
     0
 70
    58
 90
        0
176
     1
 90
        2
176
     1
 90
        0
176
     1
 90
        0
176
     1
 40
0.6
176
     1
 40
30.0
176
     1
 62
     7
420
 16777215
176
     1
 90
        1
176
     1
 90
        4
176
     1
 62
     7
176
     1
 62
   257
176
     1
 90
        1
176
     1
 90
        1
176
     1
 40
1.0
176
     1
 90
        0
176
     1
 62
   257
176
     1
 40
1.0
176
     1
 90
        1
176
     1
 90
        6
176
     1
 90
        2
176
     1
 62
     7
176
     1
 90
        5
176
     1
 90
        0
176
     1
 90
        0
176
     1
290
     0
176
     1
 90
        1
176
     1
 40
0.0
176
     1
 90
        0
176
     1
290
     1
176
     1
290
     1
176
     1
290
     0
176
     1
290
     0
176
     1
290
     0
176
     1
290
     0
176
     1
290
     0
176
     1
290
     0
176
     1
290
     0
176
     1
 90
       50
176
     1
 40
0.0
176
     1
 40
1.0
176
     1
 90
        0
176
     1
 62
    18
420
        0
176
     1
 90
       50
176
     1
 90
        3
176
     1
 62
     5
420
      255
176
     1
290
     0
176
     1
 90
       50
176
     1
 90
       50
176
     1
 90
       50
176
     1
290
     0
176
     1
 90
       50
176
     1
 62
   256
176
     0
 40
1.0
176
     0
 90
        2
176
     1
  1
strokes_ogs.tif
176
     1
290
     0
176
     1
 40
1.0
176
     1
 40
1.0
176
     1
  0
VISUALSTYLE
  5
32
102
{ACAD_REACTORS
330
2A
102
}
330
2A
100
AcDbVisualStyle
  2
Basic
 70
     7
177
     3
291
     1
 70
    58
 90
        1
176
     1
 90
        0
176
     1
 90
        1
176
     1
 90
        0
176
     1
 40
0.6
176
     1
 40
30.0
176
     1
 62
     7
420
 16777215
176
     1
 90
        0
176
     1
 90
        4
176
     1
 62
     7
176
     1
 62
   257
176
     1
 90
        1
176
     1
 90
        1
176
     1
 40
1.0
176
     1
 90
        8
176
     1
 62
     7
176
     1
 40
1.0
176
     1
 90
        1
176
     1
 90
        6
176
     1
 90
        2
176
     1
 62
     7
176
     1
 90
        5
176
     1
 90
        0
176
     1
 90
        0
176
     1
290
     0
176
     1
 90
        1
176
     1
 40
0.0
176
     1
 90
        0
176
     1
290
     0
176
     1
290
     1
176
     1
290
     1
176
     1
290
     0
176
     1
290
     0
176
     1
290
     0
176
     1
290
     0
176
     1
290
     0
176
     1
290
     0
176
     1
 90
       50
176
     1
 40
0.0
176
     1
 40
1.0
176
     1
 90
        0
176
     1
 62
    18
420
        0
176
     1
 90
       50
176
     1
 90
        3
176
     1
 62
     5
420
      255
176
     1
290
     0
176
     1
 90
       50
176
     1
 90
       50
176
     1
 90
       50
176
     1
290
     0
176
     1
 90
       50
176
     1
 62
   256
176
     0
 40
1.0
176
     0
 90
        2
176
     1
  1
strokes_ogs.tif
176
     1
290
     0
176
     1
 40
1.0
176
     1
 40
1.0
176
     1
  0
VISUALSTYLE
  5
36
102
{ACAD_REACTORS
330
2A
102
}
330
2A
100
AcDbVisualStyle
  2
Brighten
 70
    12
177
     3
291
     1
 70
    58
 90
        2
176
     1
 90
        2
176
     1
 90
        0
176
     1
 90
        0
176
     1
 40
0.6
176
     1
 40
30.0
176
     1
 62
     7
420
 16777215
176
     1
 90
        1
176
     1
 90
        4
176
     1
 62
     7
176
     1
 62
   257
176
     1
 90
        1
176
     1
 90
        1
176
     1
 40
1.0
176
     1
 90
        8
176
     1
 62
     7
176
     1
 40
1.0
176
     1
 90
        1
176
     1
 90
        6
176
     1
 90
        2
176
     1
 62
     7
176
     1
 90
        5
176
     1
 90
        0
176
     1
 90
        0
176
     1
290
     0
176
     1
 90
        1
176
     1
 40
50.0
176
     1
 90
        0
176
     1
290
     0
176
     1
290
     1
176
     1
290
     1
176
     1
290
     0
176
     1
290
     0
176
     1
290
     0
176
     1
290
     0
176
     1
290
     0
176
     1
290
     0
176
     1
 90
       50
176
     1
 40
0.0
176
     1
 40
1.0
176
     1
 90
        0
176
     1
 62
    18
420
        0
176
     1
 90
       50
176
     1
 90
        3
176
     1
 62
     5
420
      255
176
     1
290
     0
176
     1
 90
       50
176
     1
 90
       50
176
     1
 90
       50
176
     1
290
     0
176
     1
 90
       50
176
     1
 62
   256
176
     0
 40
1.0
176
     0
 90
        2
176
     1
  1
strokes_ogs.tif
176
     1
290
     0
176
     1
 40
1.0
176
     1
 40
1.0
176
     1
  0
VISUALSTYLE
  5
3A
102
{ACAD_REACTORS
330
2A
102
}
330
2A
100
AcDbVisualStyle
  2
ColorChange
 70
    16
177
     3
291
     1
 70
    58
 90
        2
176
     1
 90
        2
176
     1
 90
        3
176
     1
 90
        0
176
     1
 40
0.6
176
     1
 40
30.0
176
     1
 62
     8
420
  8421504
176
     1
 90
        1
176
     1
 90
        4
176
     1
 62
     7
176
     1
 62
   257
176
     1
 90
        1
176
     1
 90
        1
176
     1
 40
1.0
176
     1
 90
        8
176
     1
 62
     8
420
  8421504
176
     1
 40
1.0
176
     1
 90
        1
176
     1
 90
        6
176
     1
 90
        2
176
     1
 62
     7
176
     1
 90
        5
176
     1
 90
        0
176
     1
 90
        0
176
     1
290
     0
176
     1
 90
        1
176
     1
 40
0.0
176
     1
 90
        0
176
     1
290
     0
176
     1
290
     1
176
     1
290
     1
176
     1
290
     0
176
     1
290
     0
176
     1
290
     0
176
     1
290
     0
176
     1
290
     0
176
     1
290
     0
176
     1
 90
       50
176
     1
 40
0.0
176
     1
 40
1.0
176
     1
 90
        0
176
     1
 62
    18
420
        0
176
     1
 90
       50
176
     1
 90
        3
176
     1
 62
     5
420
      255
176
     1
290
     0
176
     1
 90
       50
176
     1
 90
       50
176
     1
 90
       50
176
     1
290
     0
176
     1
 90
       50
176
     1
 62
   256
176
     0
 40
1.0
176
     0
 90
        2
176
     1
  1
strokes_ogs.tif
176
     1
290
     0
176
     1
 40
1.0
176
     1
 40
1.0
176
     1
  0
VISUALSTYLE
  5
34
102
{ACAD_REACTORS
330
2A
102
}
330
2A
100
AcDbVisualStyle
  2
Conceptual
 70
     9
177
     3
291
     0
 70
    58
 90
        3
176
     1
 90
        2
176
     1
 90
        0
176
     1
 90
        0
176
     1
 40
0.6
176
     1
 40
30.0
176
     1
 62
     7
420
 16777215
176
     1
 90
        2
176
     1
 90
        2
176
     1
 62
     7
176
     1
 62
   257
176
     1
 90
        1
176
     1
 90
        1
176
     1
 40
179.0
176
     1
 90
        8
176
     1
 62
     7
176
     1
 40
1.0
176
     1
 90
        1
176
     1
 90
        6
176
     1
 90
        2
176
     1
 62
     7
176
     1
 90
        3
176
     1
 90
        0
176
     1
 90
        0
176
     1
290
     0
176
     1
 90
        1
176
     1
 40
0.0
176
     1
 90
        0
176
     1
290
     0
176
     1
290
     1
176
     1
290
     1
176
     1
290
     0
176
     1
290
     0
176
     1
290
     0
176
     1
290
     0
176
     1
290
     0
176
     1
290
     0
176
     1
 90
       50
176
     1
 40
0.0
176
     1
 40
1.0
176
     1
 90
        0
176
     1
 62
    18
420
        0
176
     1
 90
       50
176
     1
 90
        3
176
     1
 62
     5
420
      255
176
     1
290
     0
176
     1
 90
       50
176
     1
 90
       50
176
     1
 90
       50
176
     1
290
     0
176
     1
 90
       50
176
     1
 62
   256
176
     0
 40
1.0
176
     0
 90
        2
176
     1
  1
strokes_ogs.tif
176
     1
290
     0
176
     1
 40
1.0
176
     1
 40
1.0
176
     1
  0
VISUALSTYLE
  5
35
102
{ACAD_REACTORS
330
2A
102
}
330
2A
100
AcDbVisualStyle
  2
Dim
 70
    11
177
     3
291
     1
 70
    58
 90
        2
176
     1
 90
        2
176
     1
 90
        0
176
     1
 90
        0
176
     1
 40
0.6
176
     1
 40
30.0
176
     1
 62
     7
420
 16777215
176
     1
 90
        1
176
     1
 90
        4
176
     1
 62
     7
176
     1
 62
   257
176
     1
 90
        1
176
     1
 90
        1
176
     1
 40
1.0
176
     1
 90
        8
176
     1
 62
     7
176
     1
 40
1.0
176
     1
 90
        1
176
     1
 90
        6
176
     1
 90
        2
176
     1
 62
     7
176
     1
 90
        5
176
     1
 90
        0
176
     1
 90
        0
176
     1
290
     0
176
     1
 90
        1
176
     1
 40
-50.0
176
     1
 90
        0
176
     1
290
     0
176
     1
290
     1
176
     1
290
     1
176
     1
290
     0
176
     1
290
     0
176
     1
290
     0
176
     1
290
     0
176
     1
290
     0
176
     1
290
     0
176
     1
 90
       50
176
     1
 40
0.0
176
     1
 40
1.0
176
     1
 90
        0
176
     1
 62
    18
420
        0
176
     1
 90
       50
176
     1
 90
        3
176
     1
 62
     5
420
      255
176
     1
290
     0
176
     1
 90
       50
176
     1
 90
       50
176
     1
 90
       50
176
     1
290
     0
176
     1
 90
       50
176
     1
 62
   256
176
     0
 40
1.0
176
     0
 90
        2
176
     1
  1
strokes_ogs.tif
176
     1
290
     0
176
     1
 40
1.0
176
     1
 40
1.0
176
     1
  0
VISUALSTYLE
  5
3D
102
{ACAD_REACTORS
330
2A
102
}
330
2A
100
AcDbVisualStyle
  2
EdgeColorOff
 70
    22
177
     3
291
     1
 70
    58
 90
        2
176
     0
 90
        2
176
     0
 90
        0
176
     0
 90
        0
176
     0
 40
0.6
176
     0
 40
30.0
176
     0
 62
     7
420
 16777215
176
     0
 90
        1
176
     0
 90
        4
176
     0
 62
     7
176
     0
 62
   257
176
     0
 90
        1
176
     0
 90
        1
176
     0
 40
1.0
176
     0
 90
        8
176
     2
 62
     7
176
     0
 40
1.0
176
     0
 90
        1
176
     0
 90
        6
176
     0
 90
        2
176
     0
 62
     7
176
     0
 90
        5
176
     0
 90
        0
176
     0
 90
        0
176
     0
290
     0
176
     0
 90
        1
176
     0
 40
0.0
176
     0
 90
        0
176
     0
290
     0
176
     0
290
     1
176
     0
290
     1
176
     0
290
     0
176
     0
290
     0
176
     0
290
     0
176
     0
290
     0
176
     0
290
     0
176
     0
290
     0
176
     0
 90
       50
176
     0
 40
0.0
176
     0
 40
1.0
176
     0
 90
        0
176
     0
 62
    18
420
        0
176
     0
 90
       50
176
     0
 90
        3
176
     0
 62
     5
420
      255
176
     0
290
     0
176
     0
 90
       50
176
     0
 90
       50
176
     0
 90
       50
176
     0
290
     0
176
     0
 90
       50
176
     0
 62
   256
176
     0
 40
1.0
176
     0
 90
        2
176
     0
  1
strokes_ogs.tif
176
     0
290
     0
176
     0
 40
1.0
176
     0
 40
1.0
176
     0
  0
VISUALSTYLE
  5
39
102
{ACAD_REACTORS
330
2A
102
}
330
2A
100
AcDbVisualStyle
  2
Facepattern
 70
    15
177
     3
291
     1
 70
    58
 90
        2
176
     1
 90
        2
176
     1
 90
        0
176
     1
 90
        0
176
     1
 40
0.6
176
     1
 40
30.0
176
     1
 62
     7
420
 16777215
176
     1
 90
        1
176
     1
 90
        4
176
     1
 62
     7
176
     1
 62
   257
176
     1
 90
        1
176
     1
 90
        1
176
     1
 40
1.0
176
     1
 90
        8
176
     1
 62
     7
176
     1
 40
1.0
176
     1
 90
        1
176
     1
 90
        6
176
     1
 90
        2
176
     1
 62
     7
176
     1
 90
        5
176
     1
 90
        0
176
     1
 90
        0
176
     1
290
     0
176
     1
 90
        1
176
     1
 40
0.0
176
     1
 90
        0
176
     1
290
     0
176
     1
290
     1
176
     1
290
     1
176
     1
290
     0
176
     1
290
     0
176
     1
290
     0
176
     1
290
     0
176
     1
290
     0
176
     1
290
     0
176
     1
 90
       50
176
     1
 40
0.0
176
     1
 40
1.0
176
     1
 90
        0
176
     1
 62
    18
420
        0
176
     1
 90
       50
176
     1
 90
        3
176
     1
 62
     5
420
      255
176
     1
290
     0
176
     1
 90
       50
176
     1
 90
       50
176
     1
 90
       50
176
     1
290
     0
176
     1
 90
       50
176
     1
 62
   256
176
     0
 40
1.0
176
     0
 90
        2
176
     1
  1
strokes_ogs.tif
176
     1
290
     0
176
     1
 40
1.0
176
     1
 40
1.0
176
     1
  0
VISUALSTYLE
  5
2B
102
{ACAD_REACTORS
330
2A
102
}
330
2A
100
AcDbVisualStyle
  2
Flat
 70
     0
177
     3
291
     1
 70
    58
 90
        2
176
     1
 90
        1
176
     1
 90
        1
176
     1
 90
        2
176
     1
 40
0.6
176
     1
 40
30.0
176
     1
 62
     7
420
 16777215
176
     1
 90
        0
176
     1
 90
        0
176
     1
 62
     7
176
     1
 62
   257
176
     1
 90
        1
176
     1
 90
        1
176
     1
 40
1.0
176
     1
 90
        8
176
     1
 62
     7
176
     1
 40
1.0
176
     1
 90
        1
176
     1
 90
        6
176
     1
 90
        2
176
     1
 62
     7
176
     1
 90
        5
176
     1
 90
        0
176
     1
 90
        0
176
     1
290
     0
176
     1
 90
       13
176
     1
 40
0.0
176
     1
 90
        0
176
     1
290
     0
176
     1
290
     1
176
     1
290
     1
176
     1
290
     0
176
     1
290
     0
176
     1
290
     0
176
     1
290
     0
176
     1
290
     0
176
     1
290
     0
176
     1
 90
       50
176
     1
 40
0.0
176
     1
 40
1.0
176
     1
 90
        0
176
     1
 62
    18
420
        0
176
     1
 90
       50
176
     1
 90
        3
176
     1
 62
     5
420
      255
176
     1
290
     0
176
     1
 90
       50
176
     1
 90
       50
176
     1
 90
       50
176
     1
290
     0
176
     1
 90
       50
176
     1
 62
   256
176
     0
 40
1.0
176
     0
 90
        2
176
     1
  1
strokes_ogs.tif
176
     1
290
     0
176
     1
 40
1.0
176
     1
 40
1.0
176
     1
  0
VISUALSTYLE
  5
2C
102
{ACAD_REACTORS
330
2A
102
}
330
2A
100
AcDbVisualStyle
  2
FlatWithEdges
 70
     1
177
     3
291
     1
 70
    58
 90
        2
176
     1
 90
        1
176
     1
 90
        1
176
     1
 90
        2
176
     1
 40
0.6
176
     1
 40
30.0
176
     1
 62
     7
420
 16777215
176
     1
 90
        1
176
     1
 90
        0
176
     1
 62
     7
176
     1
 62
   257
176
     1
 90
        1
176
     1
 90
        1
176
     1
 40
1.0
176
     1
 90
        0
176
     1
 62
   257
176
     1
 40
1.0
176
     1
 90
        1
176
     1
 90
        6
176
     1
 90
        2
176
     1
 62
     7
176
     1
 90
        5
176
     1
 90
        0
176
     1
 90
        0
176
     1
290
     0
176
     1
 90
       13
176
     1
 40
0.0
176
     1
 90
        0
176
     1
290
     0
176
     1
290
     1
176
     1
290
     1
176
     1
290
     0
176
     1
290
     0
176
     1
290
     0
176
     1
290
     0
176
     1
290
     0
176
     1
290
     0
176
     1
 90
       50
176
     1
 40
0.0
176
     1
 40
1.0
176
     1
 90
        0
176
     1
 62
    18
420
        0
176
     1
 90
       50
176
     1
 90
        3
176
     1
 62
     5
420
      255
176
     1
290
     0
176
     1
 90
       50
176
     1
 90
       50
176
     1
 90
       50
176
     1
290
     0
176
     1
 90
       50
176
     1
 62
   256
176
     0
 40
1.0
176
     0
 90
        2
176
     1
  1
strokes_ogs.tif
176
     1
290
     0
176
     1
 40
1.0
176
     1
 40
1.0
176
     1
  0
VISUALSTYLE
  5
2D
102
{ACAD_REACTORS
330
2A
102
}
330
2A
100
AcDbVisualStyle
  2
Gouraud
 70
     2
177
     3
291
     1
 70
    58
 90
        2
176
     1
 90
        2
176
     1
 90
        1
176
     1
 90
        2
176
     1
 40
0.6
176
     1
 40
30.0
176
     1
 62
     7
420
 16777215
176
     1
 90
        0
176
     1
 90
        0
176
     1
 62
     7
176
     1
 62
   257
176
     1
 90
        1
176
     1
 90
        1
176
     1
 40
1.0
176
     1
 90
        0
176
     1
 62
     7
176
     1
 40
1.0
176
     1
 90
        1
176
     1
 90
        6
176
     1
 90
        2
176
     1
 62
     7
176
     1
 90
        5
176
     1
 90
        0
176
     1
 90
        0
176
     1
290
     0
176
     1
 90
       13
176
     1
 40
0.0
176
     1
 90
        0
176
     1
290
     0
176
     1
290
     1
176
     1
290
     1
176
     1
290
     0
176
     1
290
     0
176
     1
290
     0
176
     1
290
     0
176
     1
290
     0
176
     1
290
     0
176
     1
 90
       50
176
     1
 40
0.0
176
     1
 40
1.0
176
     1
 90
        0
176
     1
 62
    18
420
        0
176
     1
 90
       50
176
     1
 90
        3
176
     1
 62
     5
420
      255
176
     1
290
     0
176
     1
 90
       50
176
     1
 90
       50
176
     1
 90
       50
176
     1
290
     0
176
     1
 90
       50
176
     1
 62
   256
176
     0
 40
1.0
176
     0
 90
        2
176
     1
  1
strokes_ogs.tif
176
     1
290
     0
176
     1
 40
1.0
176
     1
 40
1.0
176
     1
  0
VISUALSTYLE
  5
2E
102
{ACAD_REACTORS
330
2A
102
}
330
2A
100
AcDbVisualStyle
  2
GouraudWithEdges
 70
     3
177
     3
291
     1
 70
    58
 90
        2
176
     1
 90
        2
176
     1
 90
        1
176
     1
 90
        2
176
     1
 40
0.6
176
     1
 40
30.0
176
     1
 62
     7
420
 16777215
176
     1
 90
        1
176
     1
 90
        0
176
     1
 62
     7
176
     1
 62
   257
176
     1
 90
        1
176
     1
 90
        1
176
     1
 40
1.0
176
     1
 90
        0
176
     1
 62
   257
176
     1
 40
1.0
176
     1
 90
        1
176
     1
 90
        6
176
     1
 90
        2
176
     1
 62
     7
176
     1
 90
        5
176
     1
 90
        0
176
     1
 90
        0
176
     1
290
     0
176
     1
 90
       13
176
     1
 40
0.0
176
     1
 90
        0
176
     1
290
     0
176
     1
290
     1
176
     1
290
     1
176
     1
290
     0
176
     1
290
     0
176
     1
290
     0
176
     1
290
     0
176
     1
290
     0
176
     1
290
     0
176
     1
 90
       50
176
     1
 40
0.0
176
     1
 40
1.0
176
     1
 90
        0
176
     1
 62
    18
420
        0
176
     1
 90
       50
176
     1
 90
        3
176
     1
 62
     5
420
      255
176
     1
290
     0
176
     1
 90
       50
176
     1
 90
       50
176
     1
 90
       50
176
     1
290
     0
176
     1
 90
       50
176
     1
 62
   256
176
     0
 40
1.0
176
     0
 90
        2
176
     1
  1
strokes_ogs.tif
176
     1
290
     0
176
     1
 40
1.0
176
     1
 40
1.0
176
     1
  0
VISUALSTYLE
  5
31
102
{ACAD_REACTORS
330
2A
102
}
330
2A
100
AcDbVisualStyle
  2
Hidden
 70
     6
177
     3
291
     0
 70
    58
 90
        1
176
     1
 90
        2
176
     1
 90
        2
176
     1
 90
        0
176
     1
 40
0.6
176
     1
 40
30.0
176
     1
 62
     7
420
 16777215
176
     1
 90
        2
176
     1
 90
        2
176
     1
 62
     7
176
     1
 62
   257
176
     1
 90
        2
176
     1
 90
        1
176
     1
 40
40.0
176
     1
 90
        0
176
     1
 62
   257
176
     1
 40
1.0
176
     1
 90
        1
176
     1
 90
        6
176
     1
 90
        2
176
     1
 62
     7
176
     1
 90
        3
176
     1
 90
        0
176
     1
 90
        0
176
     1
290
     0
176
     1
 90
        1
176
     1
 40
0.0
176
     1
 90
        0
176
     1
290
     0
176
     1
290
     1
176
     1
290
     1
176
     1
290
     0
176
     1
290
     0
176
     1
290
     0
176
     1
290
     0
176
     1
290
     0
176
     1
290
     0
176
     1
 90
       50
176
     1
 40
0.0
176
     1
 40
1.0
176
     1
 90
        0
176
     1
 62
    18
420
        0
176
     1
 90
       50
176
     1
 90
        3
176
     1
 62
     5
420
      255
176
     1
290
     0
176
     1
 90
       50
176
     1
 90
       50
176
     1
 90
       50
176
     1
290
     0
176
     1
 90
       50
176
     1
 62
   256
176
     0
 40
1.0
176
     0
 90
        2
176
     1
  1
strokes_ogs.tif
176
     1
290
     0
176
     1
 40
1.0
176
     1
 40
1.0
176
     1
  0
VISUALSTYLE
  5
3B
102
{ACAD_REACTORS
330
2A
102
}
330
2A
100
AcDbVisualStyle
  2
JitterOff
 70
    20
177
     3
291
     1
 70
    58
 90
        2
176
     0
 90
        2
176
     0
 90
        0
176
     0
 90
        0
176
     0
 40
0.6
176
     0
 40
30.0
176
     0
 62
     7
420
 16777215
176
     0
 90
        1
176
     0
 90
        4
176
     0
 62
     7
176
     0
 62
   257
176
     0
 90
        1
176
     0
 90
        1
176
     0
 40
1.0
176
     0
 90
       10
176
     2
 62
     7
176
     0
 40
1.0
176
     0
 90
        1
176
     0
 90
        6
176
     0
 90
        2
176
     0
 62
     7
176
     0
 90
        5
176
     0
 90
        0
176
     0
 90
        0
176
     0
290
     0
176
     0
 90
        1
176
     0
 40
0.0
176
     0
 90
        0
176
     0
290
     0
176
     0
290
     1
176
     0
290
     1
176
     0
290
     0
176
     0
290
     0
176
     0
290
     0
176
     0
290
     0
176
     0
290
     0
176
     0
290
     0
176
     0
 90
       50
176
     0
 40
0.0
176
     0
 40
1.0
176
     0
 90
        0
176
     0
 62
    18
420
        0
176
     0
 90
       50
176
     0
 90
        3
176
     0
 62
     5
420
      255
176
     0
290
     0
176
     0
 90
       50
176
     0
 90
       50
176
     0
 90
       50
176
     0
290
     0
176
     0
 90
       50
176
     0
 62
   256
176
     0
 40
1.0
176
     0
 90
        2
176
     0
  1
strokes_ogs.tif
176
     0
290
     0
176
     0
 40
1.0
176
     0
 40
1.0
176
     0
  0
VISUALSTYLE
  5
38
102
{ACAD_REACTORS
330
2A
102
}
330
2A
100
AcDbVisualStyle
  2
Linepattern
 70
    14
177
     3
291
     1
 70
    58
 90
        2
176
     1
 90
        2
176
     1
 90
        0
176
     1
 90
        0
176
     1
 40
0.6
176
     1
 40
30.0
176
     1
 62
     7
420
 16777215
176
     1
 90
        1
176
     1
 90
        4
176
     1
 62
     7
176
     1
 62
   257
176
     1
 90
        7
176
     1
 90
        7
176
     1
 40
1.0
176
     1
 90
        8
176
     1
 62
     7
176
     1
 40
1.0
176
     1
 90
        1
176
     1
 90
        6
176
     1
 90
        2
176
     1
 62
     7
176
     1
 90
        5
176
     1
 90
        0
176
     1
 90
        0
176
     1
290
     0
176
     1
 90
        1
176
     1
 40
0.0
176
     1
 90
        0
176
     1
290
     0
176
     1
290
     1
176
     1
290
     1
176
     1
290
     0
176
     1
290
     0
176
     1
290
     0
176
     1
290
     0
176
     1
290
     0
176
     1
290
     0
176
     1
 90
       50
176
     1
 40
0.0
176
     1
 40
1.0
176
     1
 90
        0
176
     1
 62
    18
420
        0
176
     1
 90
       50
176
     1
 90
        3
176
     1
 62
     5
420
      255
176
     1
290
     0
176
     1
 90
       50
176
     1
 90
       50
176
     1
 90
       50
176
     1
290
     0
176
     1
 90
       50
176
     1
 62
   256
176
     0
 40
1.0
176
     0
 90
        2
176
     1
  1
strokes_ogs.tif
176
     1
290
     0
176
     1
 40
1.0
176
     1
 40
1.0
176
     1
  0
VISUALSTYLE
  5
3C
102
{ACAD_REACTORS
330
2A
102
}
330
2A
100
AcDbVisualStyle
  2
OverhangOff
 70
    21
177
     3
291
     1
 70
    58
 90
        2
176
     0
 90
        2
176
     0
 90
        0
176
     0
 90
        0
176
     0
 40
0.6
176
     0
 40
30.0
176
     0
 62
     7
420
 16777215
176
     0
 90
        1
176
     0
 90
        4
176
     0
 62
     7
176
     0
 62
   257
176
     0
 90
        1
176
     0
 90
        1
176
     0
 40
1.0
176
     0
 90
        9
176
     2
 62
     7
176
     0
 40
1.0
176
     0
 90
        1
176
     0
 90
        6
176
     0
 90
        2
176
     0
 62
     7
176
     0
 90
        5
176
     0
 90
        0
176
     0
 90
        0
176
     0
290
     0
176
     0
 90
        1
176
     0
 40
0.0
176
     0
 90
        0
176
     0
290
     0
176
     0
290
     1
176
     0
290
     1
176
     0
290
     0
176
     0
290
     0
176
     0
290
     0
176
     0
290
     0
176
     0
290
     0
176
     0
290
     0
176
     0
 90
       50
176
     0
 40
0.0
176
     0
 40
1.0
176
     0
 90
        0
176
     0
 62
    18
420
        0
176
     0
 90
       50
176
     0
 90
        3
176
     0
 62
     5
420
      255
176
     0
290
     0
176
     0
 90
       50
176
     0
 90
       50
176
     0
 90
       50
176
     0
290
     0
176
     0
 90
       50
176
     0
 62
   256
176
     0
 40
1.0
176
     0
 90
        2
176
     0
  1
strokes_ogs.tif
176
     0
290
     0
176
     0
 40
1.0
176
     0
 40
1.0
176
     0
  0
VISUALSTYLE
  5
33
102
{ACAD_REACTORS
330
2A
102
}
330
2A
100
AcDbVisualStyle
  2
Realistic
 70
     8
177
     3
291
     0
 70
    58
 90
        2
176
     1
 90
        3
176
     1
 90
        0
176
     1
 90
        2
176
     1
 40
0.6
176
     1
 40
30.0
176
     1
 62
     7
420
 16777215
176
     1
 90
        0
176
     1
 90
        0
176
     1
 62
     7
176
     1
 62
   257
176
     1
 90
        1
176
     1
 90
        1
176
     1
 40
1.0
176
     1
 90
        8
176
     1
 62
   257
176
     1
 40
1.0
176
     1
 90
        1
176
     1
 90
        6
176
     1
 90
        2
176
     1
 62
     7
176
     1
 90
        3
176
     1
 90
        0
176
     1
 90
        0
176
     1
290
     0
176
     1
 90
       13
176
     1
 40
0.0
176
     1
 90
        0
176
     1
290
     0
176
     1
290
     1
176
     1
290
     1
176
     1
290
     0
176
     1
290
     0
176
     1
290
     0
176
     1
290
     0
176
     1
290
     0
176
     1
290
     0
176
     1
 90
       50
176
     1
 40
0.0
176
     1
 40
1.0
176
     1
 90
        0
176
     1
 62
    18
420
        0
176
     1
 90
       50
176
     1
 90
        3
176
     1
 62
     5
420
      255
176
     1
290
     0
176
     1
 90
       50
176
     1
 90
       50
176
     1
 90
       50
176
     1
290
     0
176
     1
 90
       50
176
     1
 62
   256
176
     0
 40
1.0
176
     0
 90
        2
176
     1
  1
strokes_ogs.tif
176
     1
290
     0
176
     1
 40
1.0
176
     1
 40
1.0
176
     1
  0
VISUALSTYLE
  5
42
102
{ACAD_REACTORS
330
2A
102
}
330
2A
100
AcDbVisualStyle
  2
Shaded
 70
    27
177
     3
291
     0
 70
    58
 90
        2
176
     1
 90
        2
176
     1
 90
        1
176
     1
 90
        2
176
     1
 40
0.6
176
     1
 40
30.0
176
     1
 62
     7
420
 16777215
176
     1
 90
        0
176
     1
 90
        4
176
     1
 62
     7
176
     1
 62
   257
176
     1
 90
        1
176
     1
 90
        1
176
     1
 40
1.0
176
     1
 90
        8
176
     1
 62
   257
176
     1
 40
1.0
176
     1
 90
        1
176
     1
 90
        6
176
     1
 90
        2
176
     1
 62
     8
420
  7895160
176
     1
 90
        3
176
     1
 90
        0
176
     1
 90
        0
176
     1
290
     0
176
     1
 90
        5
176
     1
 40
0.0
176
     1
 90
        0
176
     1
290
     0
176
     1
290
     1
176
     1
290
     1
176
     1
290
     0
176
     1
290
     0
176
     1
290
     0
176
     1
290
     0
176
     1
290
     0
176
     1
290
     0
176
     1
 90
       50
176
     1
 40
0.0
176
     1
 40
1.0
176
     1
 90
        0
176
     1
 62
    18
420
        0
176
     1
 90
       50
176
     1
 90
        3
176
     1
 62
     5
420
      255
176
     1
290
     0
176
     1
 90
       50
176
     1
 90
       50
176
     1
 90
       50
176
     1
290
     0
176
     1
 90
       50
176
     1
 62
   256
176
     0
 40
1.0
176
     0
 90
        2
176
     1
  1
strokes_ogs.tif
176
     1
290
     0
176
     1
 40
1.0
176
     1
 40
1.0
176
     1
  0
VISUALSTYLE
  5
41
102
{ACAD_REACTORS
330
2A
102
}
330
2A
100
AcDbVisualStyle
  2
Shaded with edges
 70
    26
177
     3
291
     0
 70
    58
 90
        2
176
     1
 90
        2
176
     1
 90
        1
176
     1
 90
        2
176
     1
 40
0.6
176
     1
 40
30.0
176
     1
 62
     7
420
 16777215
176
     1
 90
        1
176
     1
 90
       10
176
     1
 62
     7
176
     1
 62
   257
176
     1
 90
        2
176
     1
 90
        1
176
     1
 40
1.0
176
     1
 90
        8
176
     1
 62
   257
176
     1
 40
1.0
176
     1
 90
        1
176
     1
 90
        6
176
     1
 90
        2
176
     1
 62
     7
176
     1
 90
        3
176
     1
 90
        0
176
     1
 90
        0
176
     1
290
     0
176
     1
 90
        5
176
     1
 40
0.0
176
     1
 90
        0
176
     1
290
     0
176
     1
290
     1
176
     1
290
     1
176
     1
290
     0
176
     1
290
     0
176
     1
290
     0
176
     1
290
     0
176
     1
290
     0
176
     1
290
     0
176
     1
 90
       50
176
     1
 40
0.0
176
     1
 40
1.0
176
     1
 90
        0
176
     1
 62
    18
420
        0
176
     1
 90
       50
176
     1
 90
        3
176
     1
 62
     5
420
      255
176
     1
290
     0
176
     1
 90
       50
176
     1
 90
       50
176
     1
 90
       50
176
     1
290
     0
176
     1
 90
       50
176
     1
 62
   256
176
     0
 40
1.0
176
     0
 90
        2
176
     1
  1
strokes_ogs.tif
176
     1
290
     0
176
     1
 40
1.0
176
     1
 40
1.0
176
     1
  0
VISUALSTYLE
  5
3E
102
{ACAD_REACTORS
330
2A
102
}
330
2A
100
AcDbVisualStyle
  2
Shades of Gray
 70
    23
177
     3
291
     0
 70
    58
 90
        2
176
     1
 90
        2
176
     1
 90
        3
176
     1
 90
        0
176
     1
 40
0.6
176
     1
 40
30.0
176
     1
 62
     7
420
 16777215
176
     1
 90
        2
176
     1
 90
        2
176
     1
 62
     7
176
     1
 62
     7
176
     1
 90
        1
176
     1
 90
        1
176
     1
 40
40.0
176
     1
 90
        8
176
     1
 62
     7
176
     1
 40
1.0
176
     1
 90
        1
176
     1
 90
        6
176
     1
 90
        2
176
     1
 62
     7
176
     1
 90
        3
176
     1
 90
        0
176
     1
 90
        0
176
     1
290
     0
176
     1
 90
        1
176
     1
 40
0.0
176
     1
 90
        0
176
     1
290
     0
176
     1
290
     1
176
     1
290
     1
176
     1
290
     0
176
     1
290
     0
176
     1
290
     0
176
     1
290
     0
176
     1
290
     0
176
     1
290
     0
176
     1
 90
       50
176
     1
 40
0.0
176
     1
 40
1.0
176
     1
 90
        0
176
     1
 62
    18
420
        0
176
     1
 90
       50
176
     1
 90
        3
176
     1
 62
     5
420
      255
176
     1
290
     0
176
     1
 90
       50
176
     1
 90
       50
176
     1
 90
       50
176
     1
290
     0
176
     1
 90
       50
176
     1
 62
   256
176
     0
 40
1.0
176
     0
 90
        2
176
     1
  1
strokes_ogs.tif
176
     1
290
     0
176
     1
 40
1.0
176
     1
 40
1.0
176
     1
  0
VISUALSTYLE
  5
3F
102
{ACAD_REACTORS
330
2A
102
}
330
2A
100
AcDbVisualStyle
  2
Sketchy
 70
    24
177
     3
291
     0
 70
    58
 90
        1
176
     1
 90
        2
176
     1
 90
        2
176
     1
 90
        0
176
     1
 40
0.6
176
     1
 40
30.0
176
     1
 62
     7
420
 16777215
176
     1
 90
        2
176
     1
 90
        2
176
     1
 62
     7
176
     1
 62
     7
176
     1
 90
        1
176
     1
 90
        1
176
     1
 40
40.0
176
     1
 90
       11
176
     1
 62
     7
176
     1
 40
1.0
176
     1
 90
        1
176
     1
 90
        6
176
     1
 90
        2
176
     1
 62
     7
176
     1
 90
        6
176
     1
 90
        0
176
     1
 90
        0
176
     1
290
     0
176
     1
 90
        1
176
     1
 40
0.0
176
     1
 90
        0
176
     1
290
     0
176
     1
290
     1
176
     1
290
     1
176
     1
290
     0
176
     1
290
     0
176
     1
290
     0
176
     1
290
     0
176
     1
290
     0
176
     1
290
     0
176
     1
 90
       50
176
     1
 40
0.0
176
     1
 40
1.0
176
     1
 90
        0
176
     1
 62
    18
420
        0
176
     1
 90
       50
176
     1
 90
        3
176
     1
 62
     5
420
      255
176
     1
290
     0
176
     1
 90
       50
176
     1
 90
       50
176
     1
 90
       50
176
     1
290
     0
176
     1
 90
       50
176
     1
 62
   256
176
     0
 40
1.0
176
     0
 90
        2
176
     1
  1
strokes_ogs.tif
176
     1
290
     0
176
     1
 40
1.0
176
     1
 40
1.0
176
     1
  0
VISUALSTYLE
  5
37
102
{ACAD_REACTORS
330
2A
102
}
330
2A
100
AcDbVisualStyle
  2
Thicken
 70
    13
177
     3
291
     1
 70
    58
 90
        2
176
     1
 90
        2
176
     1
 90
        0
176
     1
 90
        0
176
     1
 40
0.6
176
     1
 40
30.0
176
     1
 62
     7
420
 16777215
176
     1
 90
        1
176
     1
 90
        4
176
     1
 62
     7
176
     1
 62
   257
176
     1
 90
        1
176
     1
 90
        1
176
     1
 40
1.0
176
     1
 90
       12
176
     1
 62
     7
176
     1
 40
1.0
176
     1
 90
        1
176
     1
 90
        6
176
     1
 90
        2
176
     1
 62
     7
176
     1
 90
        5
176
     1
 90
        0
176
     1
 90
        0
176
     1
290
     0
176
     1
 90
        1
176
     1
 40
0.0
176
     1
 90
        0
176
     1
290
     0
176
     1
290
     1
176
     1
290
     1
176
     1
290
     0
176
     1
290
     0
176
     1
290
     0
176
     1
290
     0
176
     1
290
     0
176
     1
290
     0
176
     1
 90
       50
176
     1
 40
0.0
176
     1
 40
1.0
176
     1
 90
        0
176
     1
 62
    18
420
        0
176
     1
 90
       50
176
     1
 90
        3
176
     1
 62
     5
420
      255
176
     1
290
     0
176
     1
 90
       50
176
     1
 90
       50
176
     1
 90
       50
176
     1
290
     0
176
     1
 90
       50
176
     1
 62
   256
176
     0
 40
1.0
176
     0
 90
        2
176
     1
  1
strokes_ogs.tif
176
     1
290
     0
176
     1
 40
1.0
176
     1
 40
1.0
176
     1
  0
VISUALSTYLE
  5
30
102
{ACAD_REACTORS
330
2A
102
}
330
2A
100
AcDbVisualStyle
  2
Wireframe
 70
     5
177
     3
291
     0
 70
    58
 90
        0
176
     1
 90
        2
176
     1
 90
        0
176
     1
 90
        0
176
     1
 40
0.6
176
     1
 40
30.0
176
     1
 62
     7
420
 16777215
176
     1
 90
        1
176
     1
 90
        4
176
     1
 62
     7
176
     1
 62
   257
176
     1
 90
        1
176
     1
 90
        1
176
     1
 40
1.0
176
     1
 90
        0
176
     1
 62
   257
176
     1
 40
1.0
176
     1
 90
        1
176
     1
 90
        6
176
     1
 90
        2
176
     1
 62
     7
176
     1
 90
        3
176
     1
 90
        0
176
     1
 90
        0
176
     1
290
     0
176
     1
 90
        1
176
     1
 40
0.0
176
     1
 90
        0
176
     1
290
     0
176
     1
290
     1
176
     1
290
     1
176
     1
290
     0
176
     1
290
     0
176
     1
290
     0
176
     1
290
     0
176
     1
290
     0
176
     1
290
     0
176
     1
 90
       50
176
     1
 40
0.0
176
     1
 40
1.0
176
     1
 90
        0
176
     1
 62
    18
420
        0
176
     1
 90
       50
176
     1
 90
        3
176
     1
 62
     5
420
      255
176
     1
290
     0
176
     1
 90
       50
176
     1
 90
       50
176
     1
 90
       50
176
     1
290
     0
176
     1
 90
       50
176
     1
 62
   256
176
     0
 40
1.0
176
     0
 90
        2
176
     1
  1
strokes_ogs.tif
176
     1
290
     0
176
     1
 40
1.0
176
     1
 40
1.0
176
     1
  0
VISUALSTYLE
  5
40
102
{ACAD_REACTORS
330
2A
102
}
330
2A
100
AcDbVisualStyle
  2
X-Ray
 70
    25
177
     3
291
     0
 70
    58
 90
        2
176
     1
 90
        2
176
     1
 90
        1
176
     1
 90
        1
176
     1
 40
0.5
176
     1
 40
30.0
176
     1
 62
     7
420
 16777215
176
     1
 90
        1
176
     1
 90
        0
176
     1
 62
     7
176
     1
 62
   257
176
     1
 90
        1
176
     1
 90
        1
176
     1
 40
1.0
176
     1
 90
        8
176
     1
 62
     7
176
     1
 40
1.0
176
     1
 90
        1
176
     1
 90
        6
176
     1
 90
        2
176
     1
 62
     7
176
     1
 90
        3
176
     1
 90
        0
176
     1
 90
        0
176
     1
290
     0
176
     1
 90
       13
176
     1
 40
0.0
176
     1
 90
        0
176
     1
290
     0
176
     1
290
     1
176
     1
290
     1
176
     1
290
     0
176
     1
290
     0
176
     1
290
     0
176
     1
290
     0
176
     1
290
     0
176
     1
290
     0
176
     1
 90
       50
176
     1
 40
0.0
176
     1
 40
1.0
176
     1
 90
        0
176
     1
 62
    18
420
        0
176
     1
 90
       50
176
     1
 90
        3
176
     1
 62
     5
420
      255
176
     1
290
     0
176
     1
 90
       50
176
     1
 90
       50
176
     1
 90
       50
176
     1
290
     0
176
     1
 90
       50
176
     1
 62
   256
176
     0
 40
1.0
176
     0
 90
        2
176
     1
  1
strokes_ogs.tif
176
     1
290
     0
176
     1
 40
1.0
176
     1
 40
1.0
176
     1
  0
DICTIONARYVAR
  5
14C
102
{ACAD_REACTORS
330
14B
102
}
330
14B
100
DictionaryVariables
280
     0
  1
1:1
  0
DICTIONARYVAR
  5
151
102
{ACAD_REACTORS
330
14B
102
}
330
14B
100
DictionaryVariables
280
     0
  1
Standard
  0
DICTIONARYVAR
  5
150
102
{ACAD_REACTORS
330
14B
102
}
330
14B
100
DictionaryVariables
280
     0
  1
Standard
  0
DICTIONARY
  5
14D
330
6A
100
AcDbDictionary
280
     1
281
     1
  3
ACAD_ROUNDTRIP_2008_TABLESTYLE_CELLSTYLEMAP
360
14E
  0
CELLSTYLEMAP
  5
14E
102
{ACAD_REACTORS
330
14D
102
}
330
14D
100
AcDbCellStyleMap
 90
        3
300
CELLSTYLE
  1
TABLEFORMAT_BEGIN
 90
        5
170
     1
 91
        0
 92
    32768
 62
   257
 93
        1
300
CONTENTFORMAT
  1
CONTENTFORMAT_BEGIN
 90
        0
 91
        0
 92
        4
 93
        0
300

 40
0.0
140
1.0
 94
        5
 62
     0
340
11
144
6.0
309
CONTENTFORMAT_END
171
     1
301
MARGIN
  1
CELLMARGIN_BEGIN
 40
1.5
 40
1.5
 40
1.5
 40
1.5
 40
1.5
 40
1.5
309
CELLMARGIN_END
 94
        6
 95
        1
302
GRIDFORMAT
  1
GRIDFORMAT_BEGIN
 90
        0
 91
        1
 62
     0
 92
       -2
340
14
 93
        0
 40
0.045
309
GRIDFORMAT_END
 95
        2
302
GRIDFORMAT
  1
GRIDFORMAT_BEGIN
 90
        0
 91
        1
 62
     0
 92
       -2
340
14
 93
        0
 40
0.045
309
GRIDFORMAT_END
 95
        4
302
GRIDFORMAT
  1
GRIDFORMAT_BEGIN
 90
        0
 91
        1
 62
     0
 92
       -2
340
14
 93
        0
 40
0.045
309
GRIDFORMAT_END
 95
        8
302
GRIDFORMAT
  1
GRIDFORMAT_BEGIN
 90
        0
 91
        1
 62
     0
 92
       -2
340
14
 93
        0
 40
0.045
309
GRIDFORMAT_END
 95
       16
302
GRIDFORMAT
  1
GRIDFORMAT_BEGIN
 90
        0
 91
        1
 62
     0
 92
       -2
340
14
 93
        0
 40
0.045
309
GRIDFORMAT_END
 95
       32
302
GRIDFORMAT
  1
GRIDFORMAT_BEGIN
 90
        0
 91
        1
 62
     0
 92
       -2
340
14
 93
        0
 40
0.045
309
GRIDFORMAT_END
309
TABLEFORMAT_END
  1
CELLSTYLE_BEGIN
 90
        1
 91
        1
300
_TITLE
309
CELLSTYLE_END
300
CELLSTYLE
  1
TABLEFORMAT_BEGIN
 90
        5
170
     1
 91
        0
 92
        0
 62
   257
 93
        1
300
CONTENTFORMAT
  1
CONTENTFORMAT_BEGIN
 90
        0
 91
        0
 92
        4
 93
        0
300

 40
0.0
140
1.0
 94
        5
 62
     0
340
11
144
4.5
309
CONTENTFORMAT_END
171
     1
301
MARGIN
  1
CELLMARGIN_BEGIN
 40
1.5
 40
1.5
 40
1.5
 40
1.5
 40
1.5
 40
1.5
309
CELLMARGIN_END
 94
        6
 95
        1
302
GRIDFORMAT
  1
GRIDFORMAT_BEGIN
 90
        0
 91
        1
 62
     0
 92
       -2
340
14
 93
        0
 40
0.045
309
GRIDFORMAT_END
 95
        2
302
GRIDFORMAT
  1
GRIDFORMAT_BEGIN
 90
        0
 91
        1
 62
     0
 92
       -2
340
14
 93
        0
 40
0.045
309
GRIDFORMAT_END
 95
        4
302
GRIDFORMAT
  1
GRIDFORMAT_BEGIN
 90
        0
 91
        1
 62
     0
 92
       -2
340
14
 93
        0
 40
0.045
309
GRIDFORMAT_END
 95
        8
302
GRIDFORMAT
  1
GRIDFORMAT_BEGIN
 90
        0
 91
        1
 62
     0
 92
       -2
340
14
 93
        0
 40
0.045
309
GRIDFORMAT_END
 95
       16
302
GRIDFORMAT
  1
GRIDFORMAT_BEGIN
 90
        0
 91
        1
 62
     0
 92
       -2
340
14
 93
        0
 40
0.045
309
GRIDFORMAT_END
 95
       32
302
GRIDFORMAT
  1
GRIDFORMAT_BEGIN
 90
        0
 91
        1
 62
     0
 92
       -2
340
14
 93
        0
 40
0.045
309
GRIDFORMAT_END
309
TABLEFORMAT_END
  1
CELLSTYLE_BEGIN
 90
        2
 91
        1
300
_HEADER
309
CELLSTYLE_END
300
CELLSTYLE
  1
TABLEFORMAT_BEGIN
 90
        5
170
     1
 91
        0
 92
        0
 62
   257
 93
        1
300
CONTENTFORMAT
  1
CONTENTFORMAT_BEGIN
 90
        0
 91
        0
 92
        4
 93
        0
300

 40
0.0
140
1.0
 94
        2
 62
     0
340
11
144
4.5
309
CONTENTFORMAT_END
171
     1
301
MARGIN
  1
CELLMARGIN_BEGIN
 40
1.5
 40
1.5
 40
1.5
 40
1.5
 40
1.5
 40
1.5
309
CELLMARGIN_END
 94
        6
 95
        1
302
GRIDFORMAT
  1
GRIDFORMAT_BEGIN
 90
        0
 91
        1
 62
     0
 92
       -2
340
14
 93
        0
 40
0.045
309
GRIDFORMAT_END
 95
        2
302
GRIDFORMAT
  1
GRIDFORMAT_BEGIN
 90
        0
 91
        1
 62
     0
 92
       -2
340
14
 93
        0
 40
0.045
309
GRIDFORMAT_END
 95
        4
302
GRIDFORMAT
  1
GRIDFORMAT_BEGIN
 90
        0
 91
        1
 62
     0
 92
       -2
340
14
 93
        0
 40
0.045
309
GRIDFORMAT_END
 95
        8
302
GRIDFORMAT
  1
GRIDFORMAT_BEGIN
 90
        0
 91
        1
 62
     0
 92
       -2
340
14
 93
        0
 40
0.045
309
GRIDFORMAT_END
 95
       16
302
GRIDFORMAT
  1
GRIDFORMAT_BEGIN
 90
        0
 91
        1
 62
     0
 92
       -2
340
14
 93
        0
 40
0.045
309
GRIDFORMAT_END
 95
       32
302
GRIDFORMAT
  1
GRIDFORMAT_BEGIN
 90
        0
 91
        1
 62
     0
 92
       -2
340
14
 93
        0
 40
0.045
309
GRIDFORMAT_END
309
TABLEFORMAT_END
  1
CELLSTYLE_BEGIN
 90
        3
 91
        2
300
_DATA
309
CELLSTYLE_END
  0
ENDSEC
  0
EOF