0
SECTION
  2
HEADER
  9
$ACADVER
  1
AC1027
  9
$ACADMAINTVER
 70
     8
  9
$DWGCODEPAGE
  3
ANSI_1252
  9
$REQUIREDVERSIONS
160
                 0
  9
$COMMENTS
  1
File was created by Cadenas
  9
$CUSTOMPROPERTYTAG
  1
NN
  9
$CUSTOMPROPERTY
  1
Sleeve Bearings - SOLIDLUBE 20mm thru 75mm LT700 Pillow Blocks
  9
$CUSTOMPROPERTYTAG
  1
NT
  9
$CUSTOMPROPERTY
  1
SOLIDLUBE
  9
$CUSTOMPROPERTYTAG
  1
NB
  9
$CUSTOMPROPERTY
  1
034228
  9
$CUSTOMPROPERTYTAG
  1
NBSYN
  9
$CUSTOMPROPERTY
  1
$PN.
  9
$CUSTOMPROPERTYTAG
  1
LINA
  9
$CUSTOMPROPERTY
  1
034228
  9
$CUSTOMPROPERTYTAG
  1
SERIES
  9
$CUSTOMPROPERTY
  1
207
  9
$CUSTOMPROPERTYTAG
  1
SS
  9
$CUSTOMPROPERTY
  1
35
  9
$CUSTOMPROPERTYTAG
  1
PN
  9
$CUSTOMPROPERTY
  1
034228
  9
$CUSTOMPROPERTYTAG
  1
DESCRIPTION
  9
$CUSTOMPROPERTY
  1
P2B-LT7-35M
  9
$CUSTOMPROPERTYTAG
  1
WEIGHT
  9
$CUSTOMPROPERTY
  1
1.77
  9
$CUSTOMPROPERTYTAG
  1
UF
  9
$CUSTOMPROPERTY
  1
LD-20
  9
$CUSTOMPROPERTYTAG
  1
A
  9
$CUSTOMPROPERTY
  1
33.3
  9
$CUSTOMPROPERTYTAG
  1
B
  9
$CUSTOMPROPERTY
  1
165.1
  9
$CUSTOMPROPERTYTAG
  1
C
  9
$CUSTOMPROPERTY
  1
44.5
  9
$CUSTOMPROPERTYTAG
  1
DMIN
  9
$CUSTOMPROPERTY
  1
119.1
  9
$CUSTOMPROPERTYTAG
  1
DMAX
  9
$CUSTOMPROPERTY
  1
138.1
  9
$CUSTOMPROPERTYTAG
  1
F
  9
$CUSTOMPROPERTY
  1
12
  9
$CUSTOMPROPERTYTAG
  1
G
  9
$CUSTOMPROPERTY
  1
23.8
  9
$CUSTOMPROPERTYTAG
  1
H
  9
$CUSTOMPROPERTY
  1
18.3
  9
$CUSTOMPROPERTYTAG
  1
J
  9
$CUSTOMPROPERTY
  1
95.3
  9
$CUSTOMPROPERTYTAG
  1
L
  9
$CUSTOMPROPERTY
  1
54.0
  9
$CUSTOMPROPERTYTAG
  1
M
  9
$CUSTOMPROPERTY
  1
47.6
  9
$CUSTOMPROPERTYTAG
  1
COMPANY
  9
$CUSTOMPROPERTY
  1
baldor
  9
$INSBASE
 10
0.0
 20
0.0
 30
0.0
  9
$EXTMIN
 10
1.000000000000000E+20
 20
1.000000000000000E+20
 30
1.000000000000000E+20
  9
$EXTMAX
 10
-1.000000000000000E+20
 20
-1.000000000000000E+20
 30
-1.000000000000000E+20
  9
$LIMMIN
 10
0.0
 20
0.0
  9
$LIMMAX
 10
420.0
 20
297.0
  9
$ORTHOMODE
 70
     0
  9
$REGENMODE
 70
     1
  9
$FILLMODE
 70
     1
  9
$QTEXTMODE
 70
     0
  9
$MIRRTEXT
 70
     1
  9
$LTSCALE
 40
1.0
  9
$ATTMODE
 70
     1
  9
$TEXTSIZE
 40
2.5
  9
$TRACEWID
 40
1.0
  9
$TEXTSTYLE
  7
Standard
  9
$CLAYER
  8
0
  9
$CELTYPE
  6
ByLayer
  9
$CECOLOR
 62
   256
  9
$CELTSCALE
 40
1.0
  9
$DISPSILH
 70
     0
  9
$DIMSCALE
 40
1.0
  9
$DIMASZ
 40
2.5
  9
$DIMEXO
 40
0.625
  9
$DIMDLI
 40
3.75
  9
$DIMRND
 40
0.0
  9
$DIMDLE
 40
0.0
  9
$DIMEXE
 40
1.25
  9
$DIMTP
 40
0.0
  9
$DIMTM
 40
0.0
  9
$DIMTXT
 40
2.5
  9
$DIMCEN
 40
2.5
  9
$DIMTSZ
 40
0.0
  9
$DIMTOL
 70
     0
  9
$DIMLIM
 70
     0
  9
$DIMTIH
 70
     0
  9
$DIMTOH
 70
     0
  9
$DIMSE1
 70
     0
  9
$DIMSE2
 70
     0
  9
$DIMTAD
 70
     1
  9
$DIMZIN
 70
     8
  9
$DIMBLK
  1

  9
$DIMASO
 70
     1
  9
$DIMSHO
 70
     1
  9
$DIMPOST
  1

  9
$DIMAPOST
  1

  9
$DIMALT
 70
     0
  9
$DIMALTD
 70
     3
  9
$DIMALTF
 40
0.03937007874016
  9
$DIMLFAC
 40
1.0
  9
$DIMTOFL
 70
     1
  9
$DIMTVP
 40
0.0
  9
$DIMTIX
 70
     0
  9
$DIMSOXD
 70
     0
  9
$DIMSAH
 70
     0
  9
$DIMBLK1
  1

  9
$DIMBLK2
  1

  9
$DIMSTYLE
  2
ISO-25
  9
$DIMCLRD
 70
     0
  9
$DIMCLRE
 70
     0
  9
$DIMCLRT
 70
     0
  9
$DIMTFAC
 40
1.0
  9
$DIMGAP
 40
0.625
  9
$DIMJUST
 70
     0
  9
$DIMSD1
 70
     0
  9
$DIMSD2
 70
     0
  9
$DIMTOLJ
 70
     0
  9
$DIMTZIN
 70
     8
  9
$DIMALTZ
 70
     0
  9
$DIMALTTZ
 70
     0
  9
$DIMUPT
 70
     0
  9
$DIMDEC
 70
     2
  9
$DIMTDEC
 70
     2
  9
$DIMALTU
 70
     2
  9
$DIMALTTD
 70
     3
  9
$DIMTXSTY
  7
Standard
  9
$DIMAUNIT
 70
     0
  9
$DIMADEC
 70
     0
  9
$DIMALTRND
 40
0.0
  9
$DIMAZIN
 70
     0
  9
$DIMDSEP
 70
    44
  9
$DIMATFIT
 70
     3
  9
$DIMFRAC
 70
     0
  9
$DIMLDRBLK
  1

  9
$DIMLUNIT
 70
     2
  9
$DIMLWD
 70
    -2
  9
$DIMLWE
 70
    -2
  9
$DIMTMOVE
 70
     0
  9
$DIMFXL
 40
1.0
  9
$DIMFXLON
 70
     0
  9
$DIMJOGANG
 40
0.7853981633974483
  9
$DIMTFILL
 70
     0
  9
$DIMTFILLCLR
 70
     0
  9
$DIMARCSYM
 70
     0
  9
$DIMLTYPE
  6

  9
$DIMLTEX1
  6

  9
$DIMLTEX2
  6

  9
$DIMTXTDIRECTION
 70
     0
  9
$LUNITS
 70
     2
  9
$LUPREC
 70
     4
  9
$SKETCHINC
 40
1.0
  9
$FILLETRAD
 40
10.0
  9
$AUNITS
 70
     0
  9
$AUPREC
 70
     0
  9
$MENU
  1
.
  9
$ELEVATION
 40
0.0
  9
$PELEVATION
 40
0.0
  9
$THICKNESS
 40
0.0
  9
$LIMCHECK
 70
     0
  9
$CHAMFERA
 40
0.0
  9
$CHAMFERB
 40
0.0
  9
$CHAMFERC
 40
0.0
  9
$CHAMFERD
 40
0.0
  9
$SKPOLY
 70
     0
  9
$TDCREATE
 40
2458169.006656435
  9
$TDUCREATE
 40
2458168.964989768
  9
$TDUPDATE
 40
2458169.006656435
  9
$TDUUPDATE
 40
2458168.964989768
  9
$TDINDWG
 40
0.0000000116
  9
$TDUSRTIMER
 40
0.0000000116
  9
$USRTIMER
 70
     1
  9
$ANGBASE
 50
0.0
  9
$ANGDIR
 70
     0
  9
$PDMODE
 70
     0
  9
$PDSIZE
 40
0.0
  9
$PLINEWID
 40
0.0
  9
$SPLFRAME
 70
     0
  9
$SPLINETYPE
 70
     6
  9
$SPLINESEGS
 70
     8
  9
$HANDSEED
  5
156
  9
$SURFTAB1
 70
     6
  9
$SURFTAB2
 70
     6
  9
$SURFTYPE
 70
     6
  9
$SURFU
 70
     6
  9
$SURFV
 70
     6
  9
$UCSBASE
  2

  9
$UCSNAME
  2

  9
$UCSORG
 10
0.0
 20
0.0
 30
0.0
  9
$UCSXDIR
 10
1.0
 20
0.0
 30
0.0
  9
$UCSYDIR
 10
0.0
 20
1.0
 30
0.0
  9
$UCSORTHOREF
  2

  9
$UCSORTHOVIEW
 70
     0
  9
$UCSORGTOP
 10
0.0
 20
0.0
 30
0.0
  9
$UCSORGBOTTOM
 10
0.0
 20
0.0
 30
0.0
  9
$UCSORGLEFT
 10
0.0
 20
0.0
 30
0.0
  9
$UCSORGRIGHT
 10
0.0
 20
0.0
 30
0.0
  9
$UCSORGFRONT
 10
0.0
 20
0.0
 30
0.0
  9
$UCSORGBACK
 10
0.0
 20
0.0
 30
0.0
  9
$PUCSBASE
  2

  9
$PUCSNAME
  2

  9
$PUCSORG
 10
0.0
 20
0.0
 30
0.0
  9
$PUCSXDIR
 10
1.0
 20
0.0
 30
0.0
  9
$PUCSYDIR
 10
0.0
 20
1.0
 30
0.0
  9
$PUCSORTHOREF
  2

  9
$PUCSORTHOVIEW
 70
     0
  9
$PUCSORGTOP
 10
0.0
 20
0.0
 30
0.0
  9
$PUCSORGBOTTOM
 10
0.0
 20
0.0
 30
0.0
  9
$PUCSORGLEFT
 10
0.0
 20
0.0
 30
0.0
  9
$PUCSORGRIGHT
 10
0.0
 20
0.0
 30
0.0
  9
$PUCSORGFRONT
 10
0.0
 20
0.0
 30
0.0
  9
$PUCSORGBACK
 10
0.0
 20
0.0
 30
0.0
  9
$USERI1
 70
     0
  9
$USERI2
 70
     0
  9
$USERI3
 70
     0
  9
$USERI4
 70
     0
  9
$USERI5
 70
     0
  9
$USERR1
 40
0.0
  9
$USERR2
 40
0.0
  9
$USERR3
 40
0.0
  9
$USERR4
 40
0.0
  9
$USERR5
 40
0.0
  9
$WORLDVIEW
 70
     1
  9
$SHADEDGE
 70
     3
  9
$SHADEDIF
 70
    70
  9
$TILEMODE
 70
     1
  9
$MAXACTVP
 70
    64
  9
$PINSBASE
 10
0.0
 20
0.0
 30
0.0
  9
$PLIMCHECK
 70
     0
  9
$PEXTMIN
 10
1.000000000000000E+20
 20
1.000000000000000E+20
 30
1.000000000000000E+20
  9
$PEXTMAX
 10
-1.000000000000000E+20
 20
-1.000000000000000E+20
 30
-1.000000000000000E+20
  9
$PLIMMIN
 10
0.0
 20
0.0
  9
$PLIMMAX
 10
420.0
 20
297.0
  9
$UNITMODE
 70
     0
  9
$VISRETAIN
 70
     1
  9
$PLINEGEN
 70
     0
  9
$PSLTSCALE
 70
     1
  9
$TREEDEPTH
 70
  3020
  9
$CMLSTYLE
  2
Standard
  9
$CMLJUST
 70
     0
  9
$CMLSCALE
 40
20.0
  9
$PROXYGRAPHICS
 70
     1
  9
$MEASUREMENT
 70
     1
  9
$CELWEIGHT
370
    -1
  9
$ENDCAPS
280
     0
  9
$JOINSTYLE
280
     0
  9
$LWDISPLAY
290
     0
  9
$INSUNITS
 70
     4
  9
$HYPERLINKBASE
  1

  9
$STYLESHEET
  1

  9
$XEDIT
290
     1
  9
$CEPSNTYPE
380
     0
  9
$PSTYLEMODE
290
     1
  9
$FINGERPRINTGUID
  2
{3EAF9A9B-AFC2-4750-ACF2-9957A0F369DA}
  9
$VERSIONGUID
  2
{FAEB1C32-E019-11D5-929B-00C0DF256EC4}
  9
$EXTNAMES
290
     1
  9
$PSVPSCALE
 40
0.0
  9
$OLESTARTUP
290
     0
  9
$SORTENTS
280
   127
  9
$INDEXCTL
280
     0
  9
$HIDETEXT
280
     1
  9
$XCLIPFRAME
280
     2
  9
$HALOGAP
280
     0
  9
$OBSCOLOR
 70
   257
  9
$OBSLTYPE
280
     0
  9
$INTERSECTIONDISPLAY
280
     0
  9
$INTERSECTIONCOLOR
 70
   257
  9
$DIMASSOC
280
     2
  9
$PROJECTNAME
  1

  9
$CAMERADISPLAY
290
     0
  9
$LENSLENGTH
 40
50.0
  9
$CAMERAHEIGHT
 40
0.0
  9
$STEPSPERSEC
 40
2.0
  9
$STEPSIZE
 40
6.0
  9
$3DDWFPREC
 40
2.0
  9
$PSOLWIDTH
 40
5.0
  9
$PSOLHEIGHT
 40
80.0
  9
$LOFTANG1
 40
1.570796326794897
  9
$LOFTANG2
 40
1.570796326794897
  9
$LOFTMAG1
 40
0.0
  9
$LOFTMAG2
 40
0.0
  9
$LOFTPARAM
 70
     7
  9
$LOFTNORMALS
280
     1
  9
$LATITUDE
 40
37.795
  9
$LONGITUDE
 40
-122.394
  9
$NORTHDIRECTION
 40
0.0
  9
$TIMEZONE
 70
 -8000
  9
$LIGHTGLYPHDISPLAY
280
     1
  9
$TILEMODELIGHTSYNCH
280
     1
  9
$CMATERIAL
347
44
  9
$SOLIDHIST
280
     0
  9
$SHOWHIST
280
     1
  9
$DWFFRAME
280
     2
  9
$DGNFRAME
280
     2
  9
$REALWORLDSCALE
290
     1
  9
$INTERFERECOLOR
 62
   256
  9
$CSHADOW
280
     0
  9
$SHADOWPLANELOCATION
 40
0.0
  0
ENDSEC
  0
SECTION
  2
CLASSES
  0
CLASS
  1
ACDBDICTIONARYWDFLT
  2
AcDbDictionaryWithDefault
  3
ObjectDBX Classes
 90
        0
 91
        4
280
     0
281
     0
  0
CLASS
  1
VISUALSTYLE
  2
AcDbVisualStyle
  3
ObjectDBX Classes
 90
     4095
 91
        4
280
     0
281
     0
  0
CLASS
  1
MATERIAL
  2
AcDbMaterial
  3
ObjectDBX Classes
 90
     1153
 91
        4
280
     0
281
     0
  0
CLASS
  1
SCALE
  2
AcDbScale
  3
ObjectDBX Classes
 90
     1153
 91
        4
280
     0
281
     0
  0
CLASS
  1
TABLESTYLE
  2
AcDbTableStyle
  3
ObjectDBX Classes
 90
     4095
 91
        4
280
     0
281
     0
  0
CLASS
  1
MLEADERSTYLE
  2
AcDbMLeaderStyle
  3
ACDB_MLEADERSTYLE_CLASS
 90
     4095
 91
        4
280
     0
281
     0
  0
CLASS
  1
SUN
  2
AcDbSun
  3
SCENEOE
 90
     1153
 91
        4
280
     0
281
     0
  0
CLASS
  1
DICTIONARYVAR
  2
AcDbDictionaryVar
  3
ObjectDBX Classes
 90
        0
 91
        4
280
     0
281
     0
  0
CLASS
  1
CELLSTYLEMAP
  2
AcDbCellStyleMap
  3
ObjectDBX Classes
 90
     1152
 91
        4
280
     0
281
     0
  0
ENDSEC
  0
SECTION
  2
TABLES
  0
TABLE
  2
VPORT
  5
8
330
0
100
AcDbSymbolTable
 70
     1
  0
VPORT
  5
29
330
8
100
AcDbSymbolTableRecord
100
AcDbViewportTableRecord
  2
*Active
 70
     0
 10
0.0
 20
0.0
 11
1.0
 21
1.0
 12
0.0
 22
0.0
 13
0.0
 23
0.0
 14
10.0
 24
10.0
 15
10.0
 25
10.0
 16
0.0
 26
0.0
 36
1.0
 17
0.0
 27
0.0
 37
0.0
 40
49.92899999999995
 41
3.372829417773242
 42
50.0
 43
0.0
 44
0.0
 50
0.0
 51
0.0
 71
     0
 72
   100
 73
     1
 74
     3
 75
     0
 76
     0
 77
     0
 78
     0
281
     0
 65
     1
110
0.0
120
0.0
130
0.0
111
1.0
121
0.0
131
0.0
112
0.0
122
1.0
132
0.0
 79
     0
146
0.0
348
2F
 60
     3
 61
     5
292
     1
282
     1
141
0.0
142
0.0
 63
   250
361
6D
  0
ENDTAB
  0
TABLE
  2
LTYPE
  5
5
330
0
100
AcDbSymbolTable
 70
     3
  0
LTYPE
  5
14
330
5
100
AcDbSymbolTableRecord
100
AcDbLinetypeTableRecord
  2
ByBlock
 70
     0
  3

 72
    65
 73
     0
 40
0.0
  0
LTYPE
  5
15
330
5
100
AcDbSymbolTableRecord
100
AcDbLinetypeTableRecord
  2
ByLayer
 70
     0
  3

 72
    65
 73
     0
 40
0.0
  0
LTYPE
  5
16
330
5
100
AcDbSymbolTableRecord
100
AcDbLinetypeTableRecord
  2
Continuous
 70
     0
  3
Solid line
 72
    65
 73
     0
 40
0.0
  0
LTYPE
  5
9D
330
5
100
AcDbSymbolTableRecord
100
AcDbLinetypeTableRecord
  2
Dashed
 70
     0
  3

 72
    65
 73
     2
 40
2.0
 49
1.0
 74
     0
 49
-1.0
 74
     0
  0
LTYPE
  5
ED
330
5
100
AcDbSymbolTableRecord
100
AcDbLinetypeTableRecord
  2
Center
 70
     0
  3

 72
    65
 73
     4
 40
1.5
 49
0.45
 74
     0
 49
-0.5
 74
     0
 49
0.05
 74
     0
 49
-0.5
 74
     0
  0
ENDTAB
  0
TABLE
  2
LAYER
  5
2
330
0
100
AcDbSymbolTable
 70
     6
  0
LAYER
  5
10
330
2
100
AcDbSymbolTableRecord
100
AcDbLayerTableRecord
  2
0
 70
     0
 62
     7
  6
Continuous
370
    -3
390
F
347
46
348
0
  0
LAYER
  5
72
330
2
100
AcDbSymbolTableRecord
100
AcDbLayerTableRecord
  2
AM_6
 70
     0
 62
    -2
  6
Continuous
370
    35
390
F
347
46
348
0
  0
LAYER
  5
9E
330
2
100
AcDbSymbolTableRecord
100
AcDbLayerTableRecord
  2
AM_9
 70
     0
 62
     6
  6
Dashed
370
    25
390
F
347
46
348
0
  0
LAYER
  5
A9
330
2
100
AcDbSymbolTableRecord
100
AcDbLayerTableRecord
  2
AM_4
 70
     0
 62
     7
  6
Continuous
370
    50
390
F
347
46
348
0
  0
LAYER
  5
EE
330
2
100
AcDbSymbolTableRecord
100
AcDbLayerTableRecord
  2
AM_7
 70
     0
 62
     7
  6
Center
370
    25
390
F
347
46
348
0
  0
LAYER
  5
14A
330
2
100
AcDbSymbolTableRecord
100
AcDbLayerTableRecord
  2
ConnectionPoints
 70
     0
 62
     7
  6
Continuous
370
    50
390
F
347
46
348
0
  0
ENDTAB
  0
TABLE
  2
STYLE
  5
3
330
0
100
AcDbSymbolTable
 70
     1
  0
STYLE
  5
11
330
3
100
AcDbSymbolTableRecord
100
AcDbTextStyleTableRecord
  2
Standard
 70
     0
 40
0.0
 41
1.0
 50
0.0
 71
     0
 42
2.5
  3
txt
  4

  0
ENDTAB
  0
TABLE
  2
VIEW
  5
6
330
0
100
AcDbSymbolTable
 70
     0
  0
ENDTAB
  0
TABLE
  2
UCS
  5
7
330
0
100
AcDbSymbolTable
 70
     0
  0
ENDTAB
  0
TABLE
  2
APPID
  5
9
330
0
100
AcDbSymbolTable
 70
     1
  0
APPID
  5
12
330
9
100
AcDbSymbolTableRecord
100
AcDbRegAppTableRecord
  2
ACAD
 70
     0
  0
ENDTAB
  0
TABLE
  2
DIMSTYLE
  5
A
330
0
100
AcDbSymbolTable
 70
     1
100
AcDbDimStyleTable
  0
DIMSTYLE
105
27
330
A
100
AcDbSymbolTableRecord
100
AcDbDimStyleTableRecord
  2
ISO-25
 70
     0
 41
2.5
 42
0.625
 43
3.75
 44
1.25
 73
     0
 74
     0
 77
     1
 78
     8
140
2.5
141
2.5
143
0.03937007874016
147
0.625
171
     3
172
     1
178
     0
271
     2
272
     2
274
     3
278
    44
283
     0
284
     8
340
11
  0
ENDTAB
  0
TABLE
  2
BLOCK_RECORD
  5
1
330
0
100
AcDbSymbolTable
 70
     4
  0
BLOCK_RECORD
  5
1F
330
1
100
AcDbSymbolTableRecord
100
AcDbBlockTableRecord
  2
*Model_Space
340
22
 70
     0
280
     1
281
     0
  0
BLOCK_RECORD
  5
1B
330
1
100
AcDbSymbolTableRecord
100
AcDbBlockTableRecord
  2
*Paper_Space
340
1E
 70
     0
280
     1
281
     0
  0
BLOCK_RECORD
  5
23
330
1
100
AcDbSymbolTableRecord
100
AcDbBlockTableRecord
  2
*Paper_Space0
340
26
 70
     0
280
     1
281
     0
  0
BLOCK_RECORD
  5
6E
330
1
100
AcDbSymbolTableRecord
100
AcDbBlockTableRecord
  2
1_034228_4
340
0
102
{BLKREFS
331
6F
102
}
 70
     0
280
     1
281
     0
  0
BLOCK_RECORD
  5
8A
330
1
100
AcDbSymbolTableRecord
100
AcDbBlockTableRecord
  2
2_034460_0_in_034228_4
340
0
102
{BLKREFS
331
8B
102
}
 70
     0
280
     1
281
     0
  0
BLOCK_RECORD
  5
B0
330
1
100
AcDbSymbolTableRecord
100
AcDbBlockTableRecord
  2
3_P2B_LT7_35M_0_in_034228_4
340
0
102
{BLKREFS
331
B1
102
}
 70
     0
280
     1
281
     0
  0
ENDTAB
  0
ENDSEC
  0
SECTION
  2
BLOCKS
  0
BLOCK
  5
20
330
1F
100
AcDbEntity
  8
0
100
AcDbBlockBegin
  2
*Model_Space
 70
     0
 10
0.0
 20
0.0
 30
0.0
  3
*Model_Space
  1

  0
ENDBLK
  5
21
330
1F
100
AcDbEntity
  8
0
100
AcDbBlockEnd
  0
BLOCK
  5
1C
330
1B
100
AcDbEntity
 67
     1
  8
0
100
AcDbBlockBegin
  2
*Paper_Space
 70
     0
 10
0.0
 20
0.0
 30
0.0
  3
*Paper_Space
  1

  0
ENDBLK
  5
1D
330
1B
100
AcDbEntity
 67
     1
  8
0
100
AcDbBlockEnd
  0
BLOCK
  5
24
330
23
100
AcDbEntity
  8
0
100
AcDbBlockBegin
  2
*Paper_Space0
 70
     0
 10
0.0
 20
0.0
 30
0.0
  3
*Paper_Space0
  1

  0
ENDBLK
  5
25
330
23
100
AcDbEntity
  8
0
100
AcDbBlockEnd
  0
BLOCK
  5
70
330
6E
100
AcDbEntity
  8
0
100
AcDbBlockBegin
  2
1_034228_4
 70
     2
 10
0.0
 20
0.0
 30
0.0
  3
1_034228_4
  1

  0
ATTDEF
  5
73
330
6E
100
AcDbEntity
  8
AM_6
100
AcDbText
 10
87.55
 20
24.475
 30
0.0
 40
0.5
  1
Sleeve Bearings - SOLIDLUBE 20mm thru 75mm LT700 Pillow Blocks
100
AcDbAttributeDefinition
  3

  2
NN
 70
     8
280
     0
  0
ATTDEF
  5
74
330
6E
100
AcDbEntity
  8
AM_6
100
AcDbText
 10
87.55
 20
23.975
 30
0.0
 40
0.5
  1
SOLIDLUBE
100
AcDbAttributeDefinition
  3

  2
NT
 70
     8
280
     0
  0
ATTDEF
  5
75
330
6E
100
AcDbEntity
  8
AM_6
100
AcDbText
 10
87.55
 20
23.475
 30
0.0
 40
0.5
  1
034228
100
AcDbAttributeDefinition
  3

  2
NB
 70
     8
280
     0
  0
ATTDEF
  5
76
330
6E
100
AcDbEntity
  8
AM_6
100
AcDbText
 10
87.55
 20
22.975
 30
0.0
 40
0.5
  1
$PN.
100
AcDbAttributeDefinition
  3

  2
NBSYN
 70
     8
280
     0
  0
ATTDEF
  5
77
330
6E
100
AcDbEntity
  8
AM_6
100
AcDbText
 10
87.55
 20
22.475
 30
0.0
 40
0.5
  1
034228
100
AcDbAttributeDefinition
  3

  2
LINA
 70
     8
280
     0
  0
ATTDEF
  5
78
330
6E
100
AcDbEntity
  8
AM_6
100
AcDbText
 10
87.55
 20
21.975
 30
0.0
 40
0.5
  1
207
100
AcDbAttributeDefinition
  3

  2
SERIES
 70
     8
280
     0
  0
ATTDEF
  5
79
330
6E
100
AcDbEntity
  8
AM_6
100
AcDbText
 10
87.55
 20
21.475
 30
0.0
 40
0.5
  1
35
100
AcDbAttributeDefinition
  3

  2
SS
 70
     8
280
     0
  0
ATTDEF
  5
7A
330
6E
100
AcDbEntity
  8
AM_6
100
AcDbText
 10
87.55
 20
20.975
 30
0.0
 40
0.5
  1
034228
100
AcDbAttributeDefinition
  3

  2
PN
 70
     8
280
     0
  0
ATTDEF
  5
7B
330
6E
100
AcDbEntity
  8
AM_6
100
AcDbText
 10
87.55
 20
20.475
 30
0.0
 40
0.5
  1
P2B-LT7-35M
100
AcDbAttributeDefinition
  3

  2
DESCRIPTION
 70
     8
280
     0
  0
ATTDEF
  5
7C
330
6E
100
AcDbEntity
  8
AM_6
100
AcDbText
 10
87.55
 20
19.975
 30
0.0
 40
0.5
  1
1.77
100
AcDbAttributeDefinition
  3

  2
WEIGHT
 70
     8
280
     0
  0
ATTDEF
  5
7D
330
6E
100
AcDbEntity
  8
AM_6
100
AcDbText
 10
87.55
 20
19.475
 30
0.0
 40
0.5
  1
LD-20
100
AcDbAttributeDefinition
  3

  2
UF
 70
     8
280
     0
  0
ATTDEF
  5
7E
330
6E
100
AcDbEntity
  8
AM_6
100
AcDbText
 10
87.55
 20
18.975
 30
0.0
 40
0.5
  1
33.3
100
AcDbAttributeDefinition
  3

  2
A
 70
     8
280
     0
  0
ATTDEF
  5
7F
330
6E
100
AcDbEntity
  8
AM_6
100
AcDbText
 10
87.55
 20
18.475
 30
0.0
 40
0.5
  1
165.1
100
AcDbAttributeDefinition
  3

  2
B
 70
     8
280
     0
  0
ATTDEF
  5
80
330
6E
100
AcDbEntity
  8
AM_6
100
AcDbText
 10
87.55
 20
17.975
 30
0.0
 40
0.5
  1
44.5
100
AcDbAttributeDefinition
  3

  2
C
 70
     8
280
     0
  0
ATTDEF
  5
81
330
6E
100
AcDbEntity
  8
AM_6
100
AcDbText
 10
87.55
 20
17.475
 30
0.0
 40
0.5
  1
119.1
100
AcDbAttributeDefinition
  3

  2
DMIN
 70
     8
280
     0
  0
ATTDEF
  5
82
330
6E
100
AcDbEntity
  8
AM_6
100
AcDbText
 10
87.55
 20
16.975
 30
0.0
 40
0.5
  1
138.1
100
AcDbAttributeDefinition
  3

  2
DMAX
 70
     8
280
     0
  0
ATTDEF
  5
83
330
6E
100
AcDbEntity
  8
AM_6
100
AcDbText
 10
87.55
 20
16.475
 30
0.0
 40
0.5
  1
12
100
AcDbAttributeDefinition
  3

  2
F
 70
     8
280
     0
  0
ATTDEF
  5
84
330
6E
100
AcDbEntity
  8
AM_6
100
AcDbText
 10
87.55
 20
15.975
 30
0.0
 40
0.5
  1
23.8
100
AcDbAttributeDefinition
  3

  2
G
 70
     8
280
     0
  0
ATTDEF
  5
85
330
6E
100
AcDbEntity
  8
AM_6
100
AcDbText
 10
87.55
 20
15.475
 30
0.0
 40
0.5
  1
18.3
100
AcDbAttributeDefinition
  3

  2
H
 70
     8
280
     0
  0
ATTDEF
  5
86
330
6E
100
AcDbEntity
  8
AM_6
100
AcDbText
 10
87.55
 20
14.975
 30
0.0
 40
0.5
  1
95.3
100
AcDbAttributeDefinition
  3

  2
J
 70
     8
280
     0
  0
ATTDEF
  5
87
330
6E
100
AcDbEntity
  8
AM_6
100
AcDbText
 10
87.55
 20
14.475
 30
0.0
 40
0.5
  1
54.0
100
AcDbAttributeDefinition
  3

  2
L
 70
     8
280
     0
  0
ATTDEF
  5
88
330
6E
100
AcDbEntity
  8
AM_6
100
AcDbText
 10
87.55
 20
13.975
 30
0.0
 40
0.5
  1
47.6
100
AcDbAttributeDefinition
  3

  2
M
 70
     8
280
     0
  0
ATTDEF
  5
89
330
6E
100
AcDbEntity
  8
AM_6
100
AcDbText
 10
87.55
 20
13.475
 30
0.0
 40
0.5
  1
baldor
100
AcDbAttributeDefinition
  3

  2
COMPANY
 70
     8
280
     0
  0
INSERT
  5
8B
330
6E
100
AcDbEntity
  8
0
100
AcDbBlockReference
  2
2_034460_0_in_034228_4
 10
0.0
 20
0.0
 30
0.0
  0
INSERT
  5
B1
330
6E
100
AcDbEntity
  8
0
100
AcDbBlockReference
  2
3_P2B_LT7_35M_0_in_034228_4
 10
0.0
 20
0.0
 30
0.0
  0
ENDBLK
  5
71
330
6E
100
AcDbEntity
  8
0
100
AcDbBlockEnd
  0
BLOCK
  5
8C
330
8A
100
AcDbEntity
  8
0
100
AcDbBlockBegin
  2
2_034460_0_in_034228_4
 70
     2
 10
0.0
 20
0.0
 30
0.0
  3
2_034460_0_in_034228_4
  1

  0
ATTDEF
  5
8E
330
8A
100
AcDbEntity
  8
AM_6
100
AcDbText
 10
40.92000000000002
 20
16.65
 30
0.0
 40
0.5
  1
Sleeve Bearings - SOLIDLUBE 20mm thru 75mm LT700 Inserts
100
AcDbAttributeDefinition
  3

  2
NN
 70
     8
280
     0
  0
ATTDEF
  5
8F
330
8A
100
AcDbEntity
  8
AM_6
100
AcDbText
 10
40.92000000000002
 20
16.15
 30
0.0
 40
0.5
  1
SOLIDLUBE
100
AcDbAttributeDefinition
  3

  2
NT
 70
     8
280
     0
  0
ATTDEF
  5
90
330
8A
100
AcDbEntity
  8
AM_6
100
AcDbText
 10
40.92000000000002
 20
15.65
 30
0.0
 40
0.5
  1
034460
100
AcDbAttributeDefinition
  3

  2
NB
 70
     8
280
     0
  0
ATTDEF
  5
91
330
8A
100
AcDbEntity
  8
AM_6
100
AcDbText
 10
40.92000000000002
 20
15.15
 30
0.0
 40
0.5
  1
$PN.
100
AcDbAttributeDefinition
  3

  2
NBSYN
 70
     8
280
     0
  0
ATTDEF
  5
92
330
8A
100
AcDbEntity
  8
AM_6
100
AcDbText
 10
40.92000000000002
 20
14.65
 30
0.0
 40
0.5
  1
034460
100
AcDbAttributeDefinition
  3

  2
LINA
 70
     8
280
     0
  0
ATTDEF
  5
93
330
8A
100
AcDbEntity
  8
AM_6
100
AcDbText
 10
40.92000000000002
 20
14.15
 30
0.0
 40
0.5
  1
207
100
AcDbAttributeDefinition
  3

  2
SERIES
 70
     8
280
     0
  0
ATTDEF
  5
94
330
8A
100
AcDbEntity
  8
AM_6
100
AcDbText
 10
40.92000000000002
 20
13.65
 30
0.0
 40
0.5
  1
35
100
AcDbAttributeDefinition
  3

  2
SS
 70
     8
280
     0
  0
ATTDEF
  5
95
330
8A
100
AcDbEntity
  8
AM_6
100
AcDbText
 10
40.92000000000002
 20
13.15
 30
0.0
 40
0.5
  1
034460
100
AcDbAttributeDefinition
  3

  2
PN
 70
     8
280
     0
  0
ATTDEF
  5
96
330
8A
100
AcDbEntity
  8
AM_6
100
AcDbText
 10
40.92000000000002
 20
12.65
 30
0.0
 40
0.5
  1
INS-LT7-35M
100
AcDbAttributeDefinition
  3

  2
DESCRIPTION
 70
     8
280
     0
  0
ATTDEF
  5
97
330
8A
100
AcDbEntity
  8
AM_6
100
AcDbText
 10
40.92000000000002
 20
12.15
 30
0.0
 40
0.5
  1
0.45
100
AcDbAttributeDefinition
  3

  2
WEIGHT
 70
     8
280
     0
  0
ATTDEF
  5
98
330
8A
100
AcDbEntity
  8
AM_6
100
AcDbText
 10
40.92000000000002
 20
11.65
 30
0.0
 40
0.5
  1
33.3
100
AcDbAttributeDefinition
  3

  2
A
 70
     8
280
     0
  0
ATTDEF
  5
99
330
8A
100
AcDbEntity
  8
AM_6
100
AcDbText
 10
40.92000000000002
 20
11.15
 30
0.0
 40
0.5
  1
20.6
100
AcDbAttributeDefinition
  3

  2
C
 70
     8
280
     0
  0
ATTDEF
  5
9A
330
8A
100
AcDbEntity
  8
AM_6
100
AcDbText
 10
40.92000000000002
 20
10.65
 30
0.0
 40
0.5
  1
54.0
100
AcDbAttributeDefinition
  3

  2
L
 70
     8
280
     0
  0
ATTDEF
  5
9B
330
8A
100
AcDbEntity
  8
AM_6
100
AcDbText
 10
40.92000000000002
 20
10.15
 30
0.0
 40
0.5
  1
71.875/71.806
100
AcDbAttributeDefinition
  3

  2
S
 70
     8
280
     0
  0
ATTDEF
  5
9C
330
8A
100
AcDbEntity
  8
AM_6
100
AcDbText
 10
40.92000000000002
 20
9.649999999999999
 30
0.0
 40
0.5
  1
baldor
100
AcDbAttributeDefinition
  3

  2
COMPANY
 70
     8
280
     0
  0
LINE
  5
9F
330
8A
100
AcDbEntity
  8
AM_9
100
AcDbLine
 10
-17.5
 20
16.65
 30
0.0
 11
-17.5
 21
-16.65
 31
0.0
  0
LINE
  5
A0
330
8A
100
AcDbEntity
  8
AM_9
100
AcDbLine
 10
17.5
 20
-16.65
 30
0.0
 11
17.5
 21
16.65
 31
0.0
  0
ARC
  5
A1
330
8A
100
AcDbEntity
  8
AM_9
100
AcDbCircle
 10
-35.92
 20
-16.64999999999999
 30
0.0
 40
6.349999999999995
100
AcDbArc
 50
14.01957735592167
 51
90.0
  0
ARC
  5
A2
330
8A
100
AcDbEntity
  8
AM_9
100
AcDbCircle
 10
35.91999999999999
 20
-16.64999999999998
 30
0.0
 40
6.349999999999987
100
AcDbArc
 50
90.0
 51
165.9804226440785
  0
ARC
  5
A3
330
8A
100
AcDbEntity
  8
AM_9
100
AcDbCircle
 10
-35.91999999999999
 20
16.64999999999999
 30
0.0
 40
6.349999999999987
100
AcDbArc
 50
270.0
 51
345.9804226440742
  0
ARC
  5
A4
330
8A
100
AcDbEntity
  8
AM_9
100
AcDbCircle
 10
35.92000000000002
 20
16.65000000000003
 30
0.0
 40
6.350000000000025
100
AcDbArc
 50
194.0195773559263
 51
270.0
  0
LINE
  5
A5
330
8A
100
AcDbEntity
  8
AM_9
100
AcDbLine
 10
-35.92
 20
10.3
 30
0.0
 11
-35.92
 21
-10.3
 31
0.0
  0
LINE
  5
A6
330
8A
100
AcDbEntity
  8
AM_9
100
AcDbLine
 10
35.92
 20
-10.3
 30
0.0
 11
35.92
 21
10.3
 31
0.0
  0
LINE
  5
A7
330
8A
100
AcDbEntity
  8
AM_9
100
AcDbLine
 10
35.92
 20
10.3
 30
0.0
 11
-35.92
 21
10.3
 31
0.0
  0
LINE
  5
A8
330
8A
100
AcDbEntity
  8
AM_9
100
AcDbLine
 10
35.92
 20
-10.3
 30
0.0
 11
-35.92
 21
-10.3
 31
0.0
  0
ARC
  5
AA
330
8A
100
AcDbEntity
  8
AM_4
100
AcDbCircle
 10
-35.9199999999996
 20
-16.64999999999994
 30
0.0
 40
6.349999999999589
100
AcDbArc
 50
0.0
 51
14.01957735592207
  0
ARC
  5
AB
330
8A
100
AcDbEntity
  8
AM_4
100
AcDbCircle
 10
35.92
 20
-16.64999999999997
 30
0.0
 40
6.349999999999994
100
AcDbArc
 50
165.9804226440787
 51
180.0
  0
LINE
  5
AC
330
8A
100
AcDbEntity
  8
AM_4
100
AcDbLine
 10
29.57000000000001
 20
-16.65
 30
0.0
 11
-29.57000000000001
 21
-16.65
 31
0.0
  0
ARC
  5
AD
330
8A
100
AcDbEntity
  8
AM_4
100
AcDbCircle
 10
-35.92
 20
16.64999999999999
 30
0.0
 40
6.349999999999993
100
AcDbArc
 50
345.9804226440742
 51
0.0
  0
ARC
  5
AE
330
8A
100
AcDbEntity
  8
AM_4
100
AcDbCircle
 10
35.92000000000007
 20
16.64999999999999
 30
0.0
 40
6.350000000000065
100
AcDbArc
 50
180.0
 51
194.0195773559259
  0
LINE
  5
AF
330
8A
100
AcDbEntity
  8
AM_4
100
AcDbLine
 10
29.57000000000001
 20
16.65
 30
0.0
 11
-29.57000000000001
 21
16.65
 31
0.0
  0
ENDBLK
  5
8D
330
8A
100
AcDbEntity
  8
0
100
AcDbBlockEnd
  0
BLOCK
  5
B2
330
B0
100
AcDbEntity
  8
0
100
AcDbBlockBegin
  2
3_P2B_LT7_35M_0_in_034228_4
 70
     2
 10
0.0
 20
0.0
 30
0.0
  3
3_P2B_LT7_35M_0_in_034228_4
  1

  0
ATTDEF
  5
B4
330
B0
100
AcDbEntity
  8
AM_6
100
AcDbText
 10
87.55
 20
24.475
 30
0.0
 40
0.5
  1
20MM THRU 75MM SOLIDLUBE LT PILLOW BLOCKS - METRIC - 700 Series - Body
100
AcDbAttributeDefinition
  3

  2
NN
 70
     8
280
     0
  0
ATTDEF
  5
B5
330
B0
100
AcDbEntity
  8
AM_6
100
AcDbText
 10
87.55
 20
23.975
 30
0.0
 40
0.5
  1
SOLIDLUBE
100
AcDbAttributeDefinition
  3

  2
NT
 70
     8
280
     0
  0
ATTDEF
  5
B6
330
B0
100
AcDbEntity
  8
AM_6
100
AcDbText
 10
87.55
 20
23.475
 30
0.0
 40
0.5
  1
P2B-LT7-35M
100
AcDbAttributeDefinition
  3

  2
NB
 70
     8
280
     0
  0
ATTDEF
  5
B7
330
B0
100
AcDbEntity
  8
AM_6
100
AcDbText
 10
87.55
 20
22.975
 30
0.0
 40
0.5
  1
$PN.
100
AcDbAttributeDefinition
  3

  2
NBSYN
 70
     8
280
     0
  0
ATTDEF
  5
B8
330
B0
100
AcDbEntity
  8
AM_6
100
AcDbText
 10
87.55
 20
22.475
 30
0.0
 40
0.5
  1
P2B-LT7-35M
100
AcDbAttributeDefinition
  3

  2
LINA
 70
     8
280
     0
  0
ATTDEF
  5
B9
330
B0
100
AcDbEntity
  8
AM_6
100
AcDbText
 10
87.55
 20
21.975
 30
0.0
 40
0.5
  1
207
100
AcDbAttributeDefinition
  3

  2
SERIES
 70
     8
280
     0
  0
ATTDEF
  5
BA
330
B0
100
AcDbEntity
  8
AM_6
100
AcDbText
 10
87.55
 20
21.475
 30
0.0
 40
0.5
  1
71.83000
100
AcDbAttributeDefinition
  3

  2
BOD
 70
     8
280
     0
  0
ATTDEF
  5
BB
330
B0
100
AcDbEntity
  8
AM_6
100
AcDbText
 10
87.55
 20
20.975
 30
0.0
 40
0.5
  1
35
100
AcDbAttributeDefinition
  3

  2
SS
 70
     8
280
     0
  0
ATTDEF
  5
BC
330
B0
100
AcDbEntity
  8
AM_6
100
AcDbText
 10
87.55
 20
20.475
 30
0.0
 40
0.5
  1
P2B-LT7-35M
100
AcDbAttributeDefinition
  3

  2
PN
 70
     8
280
     0
  0
ATTDEF
  5
BD
330
B0
100
AcDbEntity
  8
AM_6
100
AcDbText
 10
87.55
 20
19.975
 30
0.0
 40
0.5
  1
P2B-LT7-35M
100
AcDbAttributeDefinition
  3

  2
DESCRIPTION
 70
     8
280
     0
  0
ATTDEF
  5
BE
330
B0
100
AcDbEntity
  8
AM_6
100
AcDbText
 10
87.55
 20
19.475
 30
0.0
 40
0.5
  1
1.77
100
AcDbAttributeDefinition
  3

  2
WEIGHT
 70
     8
280
     0
  0
ATTDEF
  5
BF
330
B0
100
AcDbEntity
  8
AM_6
100
AcDbText
 10
87.55
 20
18.975
 30
0.0
 40
0.5
  1
LD-20
100
AcDbAttributeDefinition
  3

  2
UF
 70
     8
280
     0
  0
ATTDEF
  5
C0
330
B0
100
AcDbEntity
  8
AM_6
100
AcDbText
 10
87.55
 20
18.475
 30
0.0
 40
0.5
  1
33.3
100
AcDbAttributeDefinition
  3

  2
A
 70
     8
280
     0
  0
ATTDEF
  5
C1
330
B0
100
AcDbEntity
  8
AM_6
100
AcDbText
 10
87.55
 20
17.975
 30
0.0
 40
0.5
  1
165.1
100
AcDbAttributeDefinition
  3

  2
B
 70
     8
280
     0
  0
ATTDEF
  5
C2
330
B0
100
AcDbEntity
  8
AM_6
100
AcDbText
 10
87.55
 20
17.475
 30
0.0
 40
0.5
  1
44.5
100
AcDbAttributeDefinition
  3

  2
C
 70
     8
280
     0
  0
ATTDEF
  5
C3
330
B0
100
AcDbEntity
  8
AM_6
100
AcDbText
 10
87.55
 20
16.975
 30
0.0
 40
0.5
  1
119.1
100
AcDbAttributeDefinition
  3

  2
DMIN
 70
     8
280
     0
  0
ATTDEF
  5
C4
330
B0
100
AcDbEntity
  8
AM_6
100
AcDbText
 10
87.55
 20
16.475
 30
0.0
 40
0.5
  1
138.1
100
AcDbAttributeDefinition
  3

  2
DMAX
 70
     8
280
     0
  0
ATTDEF
  5
C5
330
B0
100
AcDbEntity
  8
AM_6
100
AcDbText
 10
87.55
 20
15.975
 30
0.0
 40
0.5
  1
12
100
AcDbAttributeDefinition
  3

  2
F
 70
     8
280
     0
  0
ATTDEF
  5
C6
330
B0
100
AcDbEntity
  8
AM_6
100
AcDbText
 10
87.55
 20
15.475
 30
0.0
 40
0.5
  1
12
100
AcDbAttributeDefinition
  3

  2
F1
 70
     8
280
     0
  0
ATTDEF
  5
C7
330
B0
100
AcDbEntity
  8
AM_6
100
AcDbText
 10
87.55
 20
14.975
 30
0.0
 40
0.5
  1
23.8
100
AcDbAttributeDefinition
  3

  2
G
 70
     8
280
     0
  0
ATTDEF
  5
C8
330
B0
100
AcDbEntity
  8
AM_6
100
AcDbText
 10
87.55
 20
14.475
 30
0.0
 40
0.5
  1
18.3
100
AcDbAttributeDefinition
  3

  2
H
 70
     8
280
     0
  0
ATTDEF
  5
C9
330
B0
100
AcDbEntity
  8
AM_6
100
AcDbText
 10
87.55
 20
13.975
 30
0.0
 40
0.5
  1
95.3
100
AcDbAttributeDefinition
  3

  2
J
 70
     8
280
     0
  0
ATTDEF
  5
CA
330
B0
100
AcDbEntity
  8
AM_6
100
AcDbText
 10
87.55
 20
13.475
 30
0.0
 40
0.5
  1
54.0
100
AcDbAttributeDefinition
  3

  2
L
 70
     8
280
     0
  0
ATTDEF
  5
CB
330
B0
100
AcDbEntity
  8
AM_6
100
AcDbText
 10
87.55
 20
12.975
 30
0.0
 40
0.5
  1
47.6
100
AcDbAttributeDefinition
  3

  2
M
 70
     8
280
     0
  0
ATTDEF
  5
CC
330
B0
100
AcDbEntity
  8
AM_6
100
AcDbText
 10
87.55
 20
12.475
 30
0.0
 40
0.5
  1
baldor
100
AcDbAttributeDefinition
  3

  2
COMPANY
 70
     8
280
     0
  0
LINE
  5
CD
330
B0
100
AcDbEntity
  8
AM_9
100
AcDbLine
 10
-37.66499999999999
 20
-6.675000000000004
 30
0.0
 11
-37.665
 21
19.91904761904761
 31
0.0
  0
LINE
  5
CE
330
B0
100
AcDbEntity
  8
AM_9
100
AcDbLine
 10
-35.835
 20
11.125
 30
0.0
 11
-35.835
 21
17.81980625948119
 31
0.0
  0
LINE
  5
CF
330
B0
100
AcDbEntity
  8
AM_9
100
AcDbLine
 10
37.665
 20
-19.91904761904763
 30
0.0
 11
37.665
 21
-11.125
 31
0.0
  0
LINE
  5
D0
330
B0
100
AcDbEntity
  8
AM_9
100
AcDbLine
 10
35.835
 20
-17.8198062594812
 30
0.0
 11
35.835
 21
-11.125
 31
0.0
  0
LINE
  5
D1
330
B0
100
AcDbEntity
  8
AM_9
100
AcDbLine
 10
-37.665
 20
-19.91904761904761
 30
0.0
 11
-37.665
 21
-11.125
 31
0.0
  0
LINE
  5
D2
330
B0
100
AcDbEntity
  8
AM_9
100
AcDbLine
 10
-35.835
 20
-17.81980625948119
 30
0.0
 11
-35.835
 21
-11.125
 31
0.0
  0
LINE
  5
D3
330
B0
100
AcDbEntity
  8
AM_9
100
AcDbLine
 10
37.66499999999999
 20
-6.675000000000004
 30
0.0
 11
37.665
 21
19.9190476190476
 31
0.0
  0
LINE
  5
D4
330
B0
100
AcDbEntity
  8
AM_9
100
AcDbLine
 10
35.835
 20
11.125
 30
0.0
 11
35.835
 21
17.81980625948119
 31
0.0
  0
LINE
  5
D5
330
B0
100
AcDbEntity
  8
AM_9
100
AcDbLine
 10
-77.29
 20
-11.125
 30
0.0
 11
-77.29
 21
11.125
 31
0.0
  0
LINE
  5
D6
330
B0
100
AcDbEntity
  8
AM_9
100
AcDbLine
 10
-80.95
 20
-11.125
 30
0.0
 11
-80.95
 21
11.125
 31
0.0
  0
LINE
  5
D7
330
B0
100
AcDbEntity
  8
AM_9
100
AcDbLine
 10
-54.79924070584929
 20
3.664735478727037
 30
0.0
 11
-54.79924070584929
 21
11.125
 31
0.0
  0
LINE
  5
D8
330
B0
100
AcDbEntity
  8
AM_9
100
AcDbLine
 10
-54.79924070584929
 20
-11.125
 30
0.0
 11
-54.79924070584929
 21
-3.664735478727036
 31
0.0
  0
LINE
  5
D9
330
B0
100
AcDbEntity
  8
AM_9
100
AcDbLine
 10
54.79924070584934
 20
-11.125
 30
0.0
 11
54.79924070584934
 21
-3.66473547872709
 31
0.0
  0
LINE
  5
DA
330
B0
100
AcDbEntity
  8
AM_9
100
AcDbLine
 10
54.79924070584934
 20
3.664735478727092
 30
0.0
 11
54.79924070584934
 21
11.125
 31
0.0
  0
LINE
  5
DB
330
B0
100
AcDbEntity
  8
AM_9
100
AcDbLine
 10
80.95
 20
-11.125
 30
0.0
 11
80.95
 21
11.125
 31
0.0
  0
LINE
  5
DC
330
B0
100
AcDbEntity
  8
AM_9
100
AcDbLine
 10
77.29
 20
-11.125
 30
0.0
 11
77.29
 21
11.125
 31
0.0
  0
LINE
  5
DD
330
B0
100
AcDbEntity
  8
AM_9
100
AcDbLine
 10
50.06285218047321
 20
-11.125
 30
0.0
 11
50.06285218047321
 21
11.125
 31
0.0
  0
LINE
  5
DE
330
B0
100
AcDbEntity
  8
AM_9
100
AcDbLine
 10
-50.06285218047321
 20
-11.125
 30
0.0
 11
-50.06285218047321
 21
11.125
 31
0.0
  0
LINE
  5
DF
330
B0
100
AcDbEntity
  8
AM_9
100
AcDbLine
 10
25.37635646261958
 20
-11.125
 30
0.0
 11
25.37635646261958
 21
11.125
 31
0.0
  0
LINE
  5
E0
330
B0
100
AcDbEntity
  8
AM_9
100
AcDbLine
 10
-25.3763560931248
 20
-11.125
 30
0.0
 11
-25.3763560931248
 21
11.125
 31
0.0
  0
LINE
  5
E1
330
B0
100
AcDbEntity
  8
AM_9
100
AcDbLine
 10
-32.86995531695387
 20
-11.125
 30
0.0
 11
-32.86995531695387
 21
11.125
 31
0.0
  0
LINE
  5
E2
330
B0
100
AcDbEntity
  8
AM_9
100
AcDbLine
 10
32.86995531695387
 20
-11.125
 30
0.0
 11
32.86995531695387
 21
11.125
 31
0.0
  0
LINE
  5
E3
330
B0
100
AcDbEntity
  8
AM_9
100
AcDbLine
 10
80.95
 20
-11.125
 30
0.0
 11
-80.95
 21
-11.125
 31
0.0
  0
LINE
  5
E4
330
B0
100
AcDbEntity
  8
AM_9
100
AcDbLine
 10
80.95
 20
11.125
 30
0.0
 11
-80.95
 21
11.125
 31
0.0
  0
LINE
  5
E5
330
B0
100
AcDbEntity
  8
AM_9
100
AcDbLine
 10
37.66499999999999
 20
-6.675000000000004
 30
0.0
 11
31.36299132735906
 21
-6.675000000000003
 31
0.0
  0
LINE
  5
E6
330
B0
100
AcDbEntity
  8
AM_9
100
AcDbLine
 10
33.35269441889216
 20
-6.675000000000003
 30
0.0
 11
33.35269441889216
 21
15.48831168831169
 31
0.0
  0
LINE
  5
E7
330
B0
100
AcDbEntity
  8
AM_9
100
AcDbLine
 10
-31.36299132735906
 20
-6.675000000000003
 30
0.0
 11
-37.66499999999999
 21
-6.675000000000004
 31
0.0
  0
LINE
  5
E8
330
B0
100
AcDbEntity
  8
AM_9
100
AcDbLine
 10
-33.35269441889216
 20
-6.675000000000003
 30
0.0
 11
-33.35269441889216
 21
15.48831168831169
 31
0.0
  0
LINE
  5
E9
330
B0
100
AcDbEntity
  8
AM_9
100
AcDbLine
 10
-31.36299132735906
 20
-6.675000000000003
 30
0.0
 11
-31.36299132735907
 21
15.48831168831169
 31
0.0
  0
LINE
  5
EA
330
B0
100
AcDbEntity
  8
AM_9
100
AcDbLine
 10
31.36299132735907
 20
15.48831168831169
 30
0.0
 11
31.36299132735906
 21
-6.675000000000003
 31
0.0
  0
LINE
  5
EB
330
B0
100
AcDbEntity
  8
AM_9
100
AcDbLine
 10
35.915
 20
-17.82955312949741
 30
0.0
 11
35.915
 21
-6.675000000000004
 31
0.0
  0
LINE
  5
EC
330
B0
100
AcDbEntity
  8
AM_9
100
AcDbLine
 10
-35.915
 20
-6.675000000000004
 30
0.0
 11
-35.915
 21
-17.83105720746852
 31
0.0
  0
LINE
  5
EF
330
B0
100
AcDbEntity
  8
AM_7
100
AcDbLine
 10
0.0
 20
24.475
 30
0.0
 11
0.0
 21
-24.475
 31
0.0
  0
LINE
  5
F0
330
B0
100
AcDbEntity
  8
AM_7
100
AcDbLine
 10
53.25000000000001
 20
0.0000000000000013
 30
0.0
 11
75.35000000000001
 21
-0.0000000000000004
 31
0.0
  0
LINE
  5
F1
330
B0
100
AcDbEntity
  8
AM_7
100
AcDbLine
 10
59.55
 20
-6.299999999999992
 30
0.0
 11
59.55
 21
6.299999999999994
 31
0.0
  0
LINE
  5
F2
330
B0
100
AcDbEntity
  8
AM_7
100
AcDbLine
 10
-75.35000000000001
 20
-0.0000000000000036
 30
0.0
 11
-53.25
 21
0.0000000000000027
 31
0.0
  0
LINE
  5
F3
330
B0
100
AcDbEntity
  8
AM_7
100
AcDbLine
 10
-59.54999999999999
 20
-6.29999999999999
 30
0.0
 11
-59.54999999999999
 21
6.299999999999995
 31
0.0
  0
LINE
  5
F4
330
B0
100
AcDbEntity
  8
AM_7
100
AcDbLine
 10
69.04999999999998
 20
-6.300000000000031
 30
0.0
 11
69.04999999999998
 21
6.300000000000029
 31
0.0
  0
LINE
  5
F5
330
B0
100
AcDbEntity
  8
AM_7
100
AcDbLine
 10
-69.04999999999998
 20
-6.300000000000034
 30
0.0
 11
-69.04999999999998
 21
6.300000000000026
 31
0.0
  0
LINE
  5
F6
330
B0
100
AcDbEntity
  8
AM_4
100
AcDbLine
 10
-78.10000000000001
 20
22.25
 30
0.0
 11
-82.55
 21
17.8
 31
0.0
  0
LINE
  5
F7
330
B0
100
AcDbEntity
  8
AM_4
100
AcDbLine
 10
-78.89
 20
11.0281168281381
 30
0.0
 11
-78.89
 21
21.46
 31
0.0
  0
LINE
  5
F8
330
B0
100
AcDbEntity
  8
AM_4
100
AcDbLine
 10
-82.55
 20
-17.8
 30
0.0
 11
-78.10000000000001
 21
-22.24999999999999
 31
0.0
  0
LINE
  5
F9
330
B0
100
AcDbEntity
  8
AM_4
100
AcDbLine
 10
-82.55
 20
-17.8
 30
0.0
 11
-82.55
 21
17.8
 31
0.0
  0
LINE
  5
FA
330
B0
100
AcDbEntity
  8
AM_4
100
AcDbLine
 10
-78.89
 20
-21.46
 30
0.0
 11
-78.89
 21
-11.02811682813811
 31
0.0
  0
LINE
  5
FB
330
B0
100
AcDbEntity
  8
AM_4
100
AcDbLine
 10
78.10000000000005
 20
-22.25
 30
0.0
 11
82.55
 21
-17.80000000000001
 31
0.0
  0
LINE
  5
FC
330
B0
100
AcDbEntity
  8
AM_4
100
AcDbLine
 10
82.55
 20
17.79999999999999
 30
0.0
 11
78.10000000000001
 21
22.25
 31
0.0
  0
LINE
  5
FD
330
B0
100
AcDbEntity
  8
AM_4
100
AcDbLine
 10
78.89000000000001
 20
11.02811682813809
 30
0.0
 11
78.89000000000001
 21
21.45999999999998
 31
0.0
  0
LINE
  5
FE
330
B0
100
AcDbEntity
  8
AM_4
100
AcDbLine
 10
82.55
 20
-17.80000000000001
 30
0.0
 11
82.55
 21
17.79999999999999
 31
0.0
  0
LINE
  5
FF
330
B0
100
AcDbEntity
  8
AM_4
100
AcDbLine
 10
78.89000000000001
 20
-21.46
 30
0.0
 11
78.89000000000001
 21
-11.0281168281381
 31
0.0
  0
LINE
  5
100
330
B0
100
AcDbEntity
  8
AM_4
100
AcDbLine
 10
64.27926232179679
 20
-22.25
 30
0.0
 11
64.27926232179679
 21
-14.4
 31
0.0
  0
LINE
  5
101
330
B0
100
AcDbEntity
  8
AM_4
100
AcDbLine
 10
64.27926232179679
 20
14.4
 30
0.0
 11
64.27926232179679
 21
22.25
 31
0.0
  0
LINE
  5
102
330
B0
100
AcDbEntity
  8
AM_4
100
AcDbLine
 10
-64.2792623217968
 20
-22.25
 30
0.0
 11
-64.2792623217968
 21
-14.4
 31
0.0
  0
LINE
  5
103
330
B0
100
AcDbEntity
  8
AM_4
100
AcDbLine
 10
-64.2792623217968
 20
14.4
 30
0.0
 11
-64.2792623217968
 21
22.25
 31
0.0
  0
ARC
  5
104
330
B0
100
AcDbEntity
  8
AM_4
100
AcDbCircle
 10
59.55
 20
-0.0000000000000009
 30
0.0
 40
5.999999999999999
100
AcDbArc
 50
90.0
 51
270.0
  0
LINE
  5
105
330
B0
100
AcDbEntity
  8
AM_4
100
AcDbLine
 10
59.55
 20
5.999999999999998
 30
0.0
 11
69.05
 21
5.999999999999998
 31
0.0
  0
ARC
  5
106
330
B0
100
AcDbEntity
  8
AM_4
100
AcDbCircle
 10
69.05000000000001
 20
-0.0000000000000018
 30
0.0
 40
6.0
100
AcDbArc
 50
270.0
 51
90.0
  0
LINE
  5
107
330
B0
100
AcDbEntity
  8
AM_4
100
AcDbLine
 10
69.05
 20
-6.000000000000002
 30
0.0
 11
59.55
 21
-5.999999999999998
 31
0.0
  0
LINE
  5
108
330
B0
100
AcDbEntity
  8
AM_4
100
AcDbLine
 10
70.55
 20
14.4
 30
0.0
 11
59.55
 21
14.4
 31
0.0
  0
LINE
  5
109
330
B0
100
AcDbEntity
  8
AM_4
100
AcDbLine
 10
59.55
 20
-14.4
 30
0.0
 11
70.54999999999997
 21
-14.4
 31
0.0
  0
ARC
  5
10A
330
B0
100
AcDbEntity
  8
AM_4
100
AcDbCircle
 10
70.55000000000003
 20
-2.400000000000025
 30
0.0
 40
11.99999999999998
100
AcDbArc
 50
270.0
 51
0.0
  0
ARC
  5
10B
330
B0
100
AcDbEntity
  8
AM_4
100
AcDbCircle
 10
70.55000000000001
 20
2.400000000000007
 30
0.0
 40
11.99999999999999
100
AcDbArc
 50
0.0000008537736463
 51
90.0
  0
ARC
  5
10C
330
B0
100
AcDbEntity
  8
AM_4
100
AcDbCircle
 10
-69.05000000000001
 20
-0.0000000000000022
 30
0.0
 40
6.0
100
AcDbArc
 50
90.0
 51
270.0
  0
LINE
  5
10D
330
B0
100
AcDbEntity
  8
AM_4
100
AcDbLine
 10
-69.05
 20
5.999999999999998
 30
0.0
 11
-59.55
 21
6.000000000000005
 31
0.0
  0
ARC
  5
10E
330
B0
100
AcDbEntity
  8
AM_4
100
AcDbCircle
 10
-59.55
 20
0.0000000000000031
 30
0.0
 40
6.000000000000005
100
AcDbArc
 50
270.0
 51
90.0
  0
LINE
  5
10F
330
B0
100
AcDbEntity
  8
AM_4
100
AcDbLine
 10
-59.55
 20
-6.000000000000002
 30
0.0
 11
-69.05
 21
-6.000000000000002
 31
0.0
  0
LINE
  5
110
330
B0
100
AcDbEntity
  8
AM_4
100
AcDbLine
 10
-70.55
 20
-14.4
 30
0.0
 11
-59.55
 21
-14.39999999999999
 31
0.0
  0
LINE
  5
111
330
B0
100
AcDbEntity
  8
AM_4
100
AcDbLine
 10
-59.55
 20
14.4
 30
0.0
 11
-70.55000000000003
 21
14.4
 31
0.0
  0
ARC
  5
112
330
B0
100
AcDbEntity
  8
AM_4
100
AcDbCircle
 10
-70.54999999999998
 20
2.399999999999995
 30
0.0
 40
12.0
100
AcDbArc
 50
90.0
 51
180.0
  0
ARC
  5
113
330
B0
100
AcDbEntity
  8
AM_4
100
AcDbCircle
 10
-70.55000000000001
 20
-2.400000000000014
 30
0.0
 40
11.99999999999999
100
AcDbArc
 50
179.9999991462263
 51
270.0
  0
LWPOLYLINE
  5
114
330
B0
100
AcDbEntity
  8
AM_4
100
AcDbPolyline
 90
       17
 70
     0
 43
0.0
 10
-45.4031379105278
 20
2.688176523492185
 10
-45.69126101337446
 20
3.910927473194249
 10
-46.08485748804473
 20
5.103913903342733
 10
-46.58093182770633
 20
6.258056466859304
 10
-47.17570860709655
 20
7.364571441945268
 10
-47.86466121578819
 20
8.41503758150821
 10
-48.64254630842815
 20
9.401460203937258
 10
-49.50344370976159
 20
10.31633203745747
 10
-50.44080147074029
 20
11.15269035500103
 10
-51.4474857328111
 20
11.90416996476448
 10
-52.51583502088711
 20
12.56505165316172
 10
-53.63771855179911
 20
13.13030571149278
 10
-54.80459811446505
 20
13.59563021506402
 10
-56.00759305083191
 20
13.95748376343265
 10
-57.23754784304575
 20
14.21311243260243
 10
-58.48510179247079
 20
14.36057073404819
 10
-59.55
 20
14.40000000000001
  0
LINE
  5
115
330
B0
100
AcDbEntity
  8
AM_4
100
AcDbLine
 10
-60.79549953872485
 20
14.4
 30
0.0
 11
-60.79549953872485
 21
22.25
 31
0.0
  0
LWPOLYLINE
  5
116
330
B0
100
AcDbEntity
  8
AM_4
100
AcDbPolyline
 90
       17
 70
     0
 43
0.0
 10
-59.55
 20
-14.39999999999999
 10
-58.29495730443373
 20
-14.34520365252113
 10
-57.04946624159621
 20
-14.18123164337579
 10
-55.82300575052371
 20
-13.90933189856258
 10
-54.62490993611038
 20
-13.53157373931708
 10
-53.46429703093393
 20
-13.05083213332775
 10
-52.35000000000001
 20
-12.47076581449591
 10
-51.29049931654495
 20
-11.79578943776148
 10
-50.29385842051384
 20
-11.03103998091328
 10
-49.36766235091372
 20
-10.18233764908628
 10
-48.51896001908673
 20
-9.256141579486169
 10
-47.75421056223853
 20
-8.259500683455068
 10
-47.07923418550409
 20
-7.200000000000005
 10
-46.49916786667224
 20
-6.085702969066079
 10
-46.01842626068292
 20
-4.925090063889639
 10
-45.64066810143742
 20
-3.72699424947631
 10
-45.4031379105278
 20
-2.688176523492166
  0
LINE
  5
117
330
B0
100
AcDbEntity
  8
AM_4
100
AcDbLine
 10
-60.79549953872485
 20
-22.25
 30
0.0
 11
-60.79549953872485
 21
-14.4
 31
0.0
  0
LWPOLYLINE
  5
118
330
B0
100
AcDbEntity
  8
AM_4
100
AcDbPolyline
 90
       17
 70
     0
 43
0.0
 10
59.55
 20
14.4
 10
58.29495730443372
 20
14.34520365252114
 10
57.04946624159621
 20
14.18123164337579
 10
55.82300575052371
 20
13.90933189856258
 10
54.62490993611038
 20
13.53157373931708
 10
53.46429703093393
 20
13.05083213332776
 10
52.35000000000001
 20
12.47076581449592
 10
51.29049931654495
 20
11.79578943776148
 10
50.29385842051384
 20
11.03103998091329
 10
49.36766235091373
 20
10.18233764908629
 10
48.51896001908673
 20
9.256141579486176
 10
47.75421056223853
 20
8.259500683455075
 10
47.0792341855041
 20
7.200000000000013
 10
46.49916786667226
 20
6.085702969066086
 10
46.01842626068294
 20
4.925090063889646
 10
45.64066810143742
 20
3.726994249476316
 10
45.4031379105278
 20
2.688176523492102
  0
LINE
  5
119
330
B0
100
AcDbEntity
  8
AM_4
100
AcDbLine
 10
60.79549953872485
 20
14.4
 30
0.0
 11
60.79549953872485
 21
22.25
 31
0.0
  0
LWPOLYLINE
  5
11A
330
B0
100
AcDbEntity
  8
AM_4
100
AcDbPolyline
 90
       17
 70
     0
 43
0.0
 10
45.4031379105278
 20
-2.688176523492108
 10
45.69126101337445
 20
-3.910927473194175
 10
46.08485748804473
 20
-5.10391390334266
 10
46.58093182770632
 20
-6.258056466859232
 10
47.17570860709652
 20
-7.364571441945198
 10
47.86466121578816
 20
-8.415037581508145
 10
48.64254630842812
 20
-9.401460203937196
 10
49.50344370976155
 20
-10.31633203745741
 10
50.44080147074025
 20
-11.15269035500098
 10
51.44748573281106
 20
-11.90416996476443
 10
52.51583502088706
 20
-12.56505165316168
 10
53.63771855179905
 20
-13.13030571149274
 10
54.80459811446499
 20
-13.59563021506398
 10
56.00759305083186
 20
-13.95748376343262
 10
57.23754784304569
 20
-14.21311243260241
 10
58.48510179247073
 20
-14.36057073404818
 10
59.55
 20
-14.4
  0
LINE
  5
11B
330
B0
100
AcDbEntity
  8
AM_4
100
AcDbLine
 10
60.79549953872485
 20
-22.25
 30
0.0
 11
60.79549953872485
 21
-14.4
 31
0.0
  0
LINE
  5
11C
330
B0
100
AcDbEntity
  8
AM_4
100
AcDbLine
 10
33.35269441889214
 20
15.48831168831169
 30
0.0
 11
33.35269441889214
 21
17.8
 31
0.0
  0
LWPOLYLINE
  5
11D
330
B0
100
AcDbEntity
  8
AM_4
100
AcDbPolyline
 90
        7
 70
     0
 43
0.0
 10
35.54595238095236
 20
17.8
 10
35.88225910746352
 20
17.82685723633988
 10
36.1903990218538
 20
17.90037197922278
 10
36.47083138770363
 20
18.01249008394353
 10
36.72170687151632
 20
18.15610570573621
 10
37.05554707430224
 20
18.43194080593657
 10
37.31669651757082
 20
18.7550768228406
  0
LWPOLYLINE
  5
11E
330
B0
100
AcDbEntity
  8
AM_4
100
AcDbPolyline
 90
        3
 70
     0
 43
0.0
 10
37.66499999999999
 20
18.01672077922078
 10
37.52167330362559
 20
18.49101002191973
 10
37.31669651757082
 20
18.75507682284059
  0
LINE
  5
11F
330
B0
100
AcDbEntity
  8
AM_4
100
AcDbLine
 10
35.54595238095236
 20
17.8
 30
0.0
 11
-35.54595238095238
 21
17.8
 31
0.0
  0
LWPOLYLINE
  5
120
330
B0
100
AcDbEntity
  8
AM_4
100
AcDbPolyline
 90
        7
 70
     0
 43
0.0
 10
-37.31669651757081
 20
18.7550768228406
 10
-37.05634183975673
 20
18.43274802121276
 10
-36.72170687151633
 20
18.15610570573621
 10
-36.47329383053835
 20
18.01363996873884
 10
-36.19539805133733
 20
17.9019747068777
 10
-35.88543577000571
 20
17.82725330583796
 10
-35.54595238095238
 20
17.8
  0
LINE
  5
121
330
B0
100
AcDbEntity
  8
AM_4
100
AcDbLine
 10
-33.35269441889217
 20
15.48831168831169
 30
0.0
 11
-33.35269441889217
 21
17.8
 31
0.0
  0
LWPOLYLINE
  5
122
330
B0
100
AcDbEntity
  8
AM_4
100
AcDbPolyline
 90
        7
 70
     0
 43
0.0
 10
-37.66499999999999
 20
18.01672077922078
 10
-37.52167330362559
 20
17.54243153652182
 10
-37.09278401720481
 20
17.07175192134347
 10
-36.38159624717775
 20
16.60826408976137
 10
-35.39352256190123
 20
16.15549546403545
 10
-34.13608279873541
 20
15.71689188679667
 10
-33.35269441889216
 20
15.48831168831169
  0
LINE
  5
123
330
B0
100
AcDbEntity
  8
AM_4
100
AcDbLine
 10
35.54595238095238
 20
-17.8
 30
0.0
 11
-35.54595238095239
 21
-17.8
 31
0.0
  0
LWPOLYLINE
  5
124
330
B0
100
AcDbEntity
  8
AM_4
100
AcDbPolyline
 90
        4
 70
     0
 43
0.0
 10
35.54595238095238
 20
-17.8
 10
35.78702553314347
 20
-17.81375748534062
 10
35.90359619396352
 20
-17.83039884177408
 10
35.91499999988386
 20
-17.83238361476893
  0
LINE
  5
125
330
B0
100
AcDbEntity
  8
AM_4
100
AcDbLine
 10
31.36299132735907
 20
15.48831168831168
 30
0.0
 11
31.36299132735907
 21
17.8
 31
0.0
  0
LINE
  5
126
330
B0
100
AcDbEntity
  8
AM_4
100
AcDbLine
 10
-31.36299132735907
 20
17.8
 30
0.0
 11
-31.36299132735907
 21
15.48831168831168
 31
0.0
  0
LWPOLYLINE
  5
127
330
B0
100
AcDbEntity
  8
AM_4
100
AcDbPolyline
 90
        5
 70
     0
 43
0.0
 10
-35.91499999998577
 20
-17.83238361478695
 10
-35.90994325949881
 20
-17.83149559523446
 10
-35.85285030012992
 20
-17.82234151684924
 10
-35.73153509106965
 20
-17.80814215704869
 10
-35.5459523809524
 20
-17.79999999999999
  0
LINE
  5
128
330
B0
100
AcDbEntity
  8
AM_4
100
AcDbLine
 10
-33.35269441889216
 20
15.48831168831169
 30
0.0
 11
-31.36299132735907
 21
15.48831168831169
 31
0.0
  0
LWPOLYLINE
  5
129
330
B0
100
AcDbEntity
  8
AM_4
100
AcDbPolyline
 90
        3
 70
     0
 43
0.0
 10
-37.31669651757082
 20
18.7550768228406
 10
-37.62009761600889
 20
18.28236385685558
 10
-37.66499999999999
 20
18.01672077922078
  0
LWPOLYLINE
  5
12A
330
B0
100
AcDbEntity
  8
AM_4
100
AcDbPolyline
 90
        8
 70
     0
 43
0.0
 10
-37.66499999999999
 20
19.91904761904762
 10
-37.65693638405155
 20
19.73436044989187
 10
-37.63280690519253
 20
19.55107886161055
 10
-37.59279520332682
 20
19.37059773775895
 10
-37.53720579166537
 20
19.19429064866704
 10
-37.4664617391967
 20
19.02349939773995
 10
-37.38110145087654
 20
18.85952380952381
 10
-37.31669651757081
 20
18.7550768228406
  0
LINE
  5
12B
330
B0
100
AcDbEntity
  8
AM_4
100
AcDbLine
 10
-37.66499999999999
 20
19.91904761904762
 30
0.0
 11
-37.66500000000001
 21
20.13095238095226
 31
0.0
  0
LWPOLYLINE
  5
12C
330
B0
100
AcDbEntity
  8
AM_4
100
AcDbPolyline
 90
       19
 70
     0
 43
0.0
 10
-37.665
 20
20.13095238095214
 10
-37.67306361594841
 20
20.31563955010789
 10
-37.69719309480742
 20
20.49892113838921
 10
-37.7372047966731
 20
20.67940226224082
 10
-37.79279420833453
 20
20.85570935133274
 10
-37.86353826080318
 20
21.02650060225983
 10
-37.94889854912333
 20
21.19047619047598
 10
-38.0482254299589
 20
21.34638816274368
 10
-38.16076296577153
 20
21.49304993481176
 10
-38.28565467796166
 20
21.62934532203799
 10
-38.42195006518785
 20
21.75423703422815
 10
-38.56861183725592
 20
21.86677457004082
 10
-38.72452380952359
 20
21.96610145087643
 10
-38.88849939773971
 20
22.05146173919661
 10
-39.0592906486668
 20
22.12220579166529
 10
-39.2355977377587
 20
22.17779520332677
 10
-39.4160788616103
 20
22.21780690519249
 10
-39.59936044989162
 20
22.24193638405154
 10
-39.78404761904736
 20
22.25
  0
LINE
  5
12D
330
B0
100
AcDbEntity
  8
AM_4
100
AcDbLine
 10
-78.10000000000001
 20
22.25
 30
0.0
 11
-39.78404761904761
 21
22.25
 31
0.0
  0
LINE
  5
12E
330
B0
100
AcDbEntity
  8
AM_4
100
AcDbLine
 10
-45.40313791052781
 20
15.90391822343304
 30
0.0
 11
-59.54999999999999
 21
22.25
 31
0.0
  0
LINE
  5
12F
330
B0
100
AcDbEntity
  8
AM_4
100
AcDbLine
 10
59.55
 20
22.25
 30
0.0
 11
45.4031379105278
 21
15.90391822343303
 31
0.0
  0
LINE
  5
130
330
B0
100
AcDbEntity
  8
AM_4
100
AcDbLine
 10
39.78404761904762
 20
22.25
 30
0.0
 11
78.10000000000001
 21
22.25
 31
0.0
  0
LWPOLYLINE
  5
131
330
B0
100
AcDbEntity
  8
AM_4
100
AcDbPolyline
 90
       19
 70
     0
 43
0.0
 10
39.78404761904761
 20
22.25
 10
39.59936044989187
 20
22.24193638405156
 10
39.41607886161054
 20
22.21780690519254
 10
39.23559773775894
 20
22.17779520332683
 10
39.05929064866703
 20
22.12220579166538
 10
38.88849939773994
 20
22.05146173919671
 10
38.72452380952381
 20
21.96610145087655
 10
38.56861183725611
 20
21.86677457004096
 10
38.42195006518804
 20
21.75423703422831
 10
38.28565467796184
 20
21.62934532203816
 10
38.1607629657717
 20
21.49304993481195
 10
38.04822542995905
 20
21.34638816274389
 10
37.94889854912345
 20
21.19047619047619
 10
37.86353826080329
 20
21.02650060226006
 10
37.79279420833463
 20
20.85570935133297
 10
37.73720479667317
 20
20.67940226224106
 10
37.69719309480747
 20
20.49892113838946
 10
37.67306361594844
 20
20.31563955010814
 10
37.66500000000001
 20
20.13095241252865
  0
LINE
  5
132
330
B0
100
AcDbEntity
  8
AM_4
100
AcDbLine
 10
37.66500000000001
 20
20.13095241252865
 30
0.0
 11
37.665
 21
19.91904761904761
 31
0.0
  0
LWPOLYLINE
  5
133
330
B0
100
AcDbEntity
  8
AM_4
100
AcDbPolyline
 90
        8
 70
     0
 43
0.0
 10
37.31669651757081
 20
18.7550768228406
 10
37.41140504080871
 20
18.9138366035756
 10
37.491916342914
 20
19.08024664710135
 10
37.55761768426358
 20
19.25304047250549
 10
37.60800903797826
 20
19.43090301444091
 10
37.64270689542911
 20
19.61248063156717
 10
37.66144718496979
 20
19.79639140857837
 10
37.665
 20
19.91904761904761
  0
LWPOLYLINE
  5
134
330
B0
100
AcDbEntity
  8
AM_4
100
AcDbPolyline
 90
        7
 70
     0
 43
0.0
 10
33.35269441889216
 20
15.48831168831169
 10
34.75100284525853
 20
15.91792041524622
 10
35.88483515674327
 20
16.3635022802409
 10
36.74556220482931
 20
16.82166613625346
 10
37.32663333695951
 20
17.28892507969271
 10
37.623626250958
 20
17.76172298786043
 10
37.66499999999999
 20
18.01672077922078
  0
LINE
  5
135
330
B0
100
AcDbEntity
  8
AM_4
100
AcDbLine
 10
31.36299132735907
 20
15.48831168831169
 30
0.0
 11
33.35269441889216
 21
15.48831168831169
 31
0.0
  0
LWPOLYLINE
  5
136
330
B0
100
AcDbEntity
  8
AM_4
100
AcDbPolyline
 90
       26
 70
     0
 43
0.0
 10
-31.36299132735907
 20
15.48831168831169
 10
-29.71842017852849
 20
15.10300063339747
 10
-27.84767390766658
 20
14.73986474814529
 10
-25.76499002348208
 20
14.40166771590936
 10
-23.48621900789257
 20
14.09098342031396
 10
-21.02870368428621
 20
13.81017635644486
 10
-18.411147228164
 20
13.56138363561405
 10
-15.65347082468082
 20
13.34649872065222
 10
-12.7766620563977
 20
13.16715701551327
 10
-9.802615175105926
 20
13.02472341886279
 10
-6.753964473350718
 20
12.92028193637506
 10
-3.653912023798063
 20
12.85462743079529
 10
-0.526051097451901
 20
12.82825957255423
 10
2.605813395384207
 20
12.84137903697443
 10
5.717846074848293
 20
12.89388597700991
 10
8.786362493152929
 20
12.98538078314244
 10
11.78800938753394
 20
13.11516712465127
 10
14.69994241268115
 20
13.2822572491104
 10
17.49999999999994
 20
13.48537949978091
 10
20.16687202052983
 20
13.72298799368662
 10
22.68026196789323
 20
13.993274386717
 10
25.02104142696435
 20
14.29418163621768
 10
27.1713956526584
 20
14.6234196563272
 10
29.11495915089845
 20
14.97848274691318
 10
30.83694022990716
 20
15.35666866346331
 10
31.36299132735906
 20
15.48831168831169
  0
LINE
  5
137
330
B0
100
AcDbEntity
  8
AM_4
100
AcDbLine
 10
37.66499999999999
 20
-19.91904761904762
 30
0.0
 11
37.66499999999999
 21
-20.13095238095239
 31
0.0
  0
LWPOLYLINE
  5
138
330
B0
100
AcDbEntity
  8
AM_4
100
AcDbPolyline
 90
       19
 70
     0
 43
0.0
 10
37.665
 20
-20.13095238095239
 10
37.67306361594844
 20
-20.31563955010814
 10
37.69719309480747
 20
-20.49892113838946
 10
37.73720479667316
 20
-20.67940226224106
 10
37.79279420833462
 20
-20.85570935133297
 10
37.86353826080328
 20
-21.02650060226006
 10
37.94889854912345
 20
-21.1904761904762
 10
38.04822542995904
 20
-21.34638816274389
 10
38.16076296577169
 20
-21.49304993481196
 10
38.28565467796184
 20
-21.62934532203817
 10
38.42195006518804
 20
-21.75423703422831
 10
38.56861183725611
 20
-21.86677457004096
 10
38.72452380952381
 20
-21.96610145087655
 10
38.88849939773994
 20
-22.05146173919671
 10
39.05929064866703
 20
-22.12220579166538
 10
39.23559773775894
 20
-22.17779520332684
 10
39.41607886161054
 20
-22.21780690519254
 10
39.59936044989186
 20
-22.24193638405156
 10
39.78404761904761
 20
-22.25
  0
LINE
  5
139
330
B0
100
AcDbEntity
  8
AM_4
100
AcDbLine
 10
39.78404761904761
 20
-22.25000000000001
 30
0.0
 11
78.10000000000005
 21
-22.25
 31
0.0
  0
LINE
  5
13A
330
B0
100
AcDbEntity
  8
AM_4
100
AcDbLine
 10
45.4031379105278
 20
-15.90391822343303
 30
0.0
 11
59.55
 21
-22.25
 31
0.0
  0
LINE
  5
13B
330
B0
100
AcDbEntity
  8
AM_4
100
AcDbLine
 10
-59.55
 20
-22.25
 30
0.0
 11
-45.40313791052781
 21
-15.90391822343303
 31
0.0
  0
LINE
  5
13C
330
B0
100
AcDbEntity
  8
AM_4
100
AcDbLine
 10
-78.10000000000001
 20
-22.24999999999999
 30
0.0
 11
-39.78404761904762
 21
-22.25
 31
0.0
  0
LWPOLYLINE
  5
13D
330
B0
100
AcDbEntity
  8
AM_4
100
AcDbPolyline
 90
       19
 70
     0
 43
0.0
 10
-39.78404761904762
 20
-22.25
 10
-39.59936044989187
 20
-22.24193638405155
 10
-39.41607886161055
 20
-22.21780690519253
 10
-39.23559773775894
 20
-22.17779520332683
 10
-39.05929064866703
 20
-22.12220579166538
 10
-38.88849939773994
 20
-22.0514617391967
 10
-38.72452380952381
 20
-21.96610145087654
 10
-38.56861183725611
 20
-21.86677457004095
 10
-38.42195006518804
 20
-21.7542370342283
 10
-38.28565467796184
 20
-21.62934532203816
 10
-38.16076296577169
 20
-21.49304993481195
 10
-38.04822542995904
 20
-21.34638816274387
 10
-37.94889854912345
 20
-21.19047619047618
 10
-37.86353826080328
 20
-21.02650060226004
 10
-37.79279420833462
 20
-20.85570935133295
 10
-37.73720479667316
 20
-20.67940226224104
 10
-37.69719309480746
 20
-20.49892113838944
 10
-37.67306361594844
 20
-20.31563955010812
 10
-37.66499999999999
 20
-20.13095238095237
  0
LINE
  5
13E
330
B0
100
AcDbEntity
  8
AM_4
100
AcDbLine
 10
-37.66499999999999
 20
-20.13095238095237
 30
0.0
 11
-37.66500000000001
 21
-19.91904761904761
 31
0.0
  0
LWPOLYLINE
  5
13F
330
B0
100
AcDbEntity
  8
AM_4
100
AcDbPolyline
 90
       18
 70
     0
 43
0.0
 10
-35.89132349795162
 20
-17.82833443849556
 10
-36.07222691670438
 20
-17.86639130957678
 10
-36.24912506846682
 20
-17.92007013460085
 10
-36.42067165148998
 20
-17.98896238529716
 10
-36.58556109269443
 20
-18.07254375003964
 10
-36.74253848386961
 20
-18.17017812417479
 10
-36.89040913228315
 20
-18.28112245116219
 10
-37.02804765301389
 20
-18.40453237768346
 10
-37.15440653381064
 20
-18.53946867968082
 10
-37.26852410729296
 20
-18.68490441041929
 10
-37.3695318698206
 20
-18.83973271617147
 10
-37.45666109133054
 20
-19.0027752600427
 10
-37.52924866583703
 20
-19.17279118982633
 10
-37.58674215806852
 20
-19.34848658163828
 10
-37.6287040078336
 20
-19.5285242874591
 10
-37.6548148601183
 20
-19.71153411163773
 10
-37.66487599557056
 20
-19.89612323890784
 10
-37.665
 20
-19.91904761904761
  0
LWPOLYLINE
  5
140
330
B0
100
AcDbEntity
  8
AM_4
100
AcDbPolyline
 90
       37
 70
     0
 43
0.0
 10
35.89132349795162
 20
-17.82833443849557
 10
35.64110489421304
 20
-17.37709674170947
 10
35.11963596154198
 20
-16.93072697006438
 10
34.33088539338759
 20
-16.49262226704796
 10
33.28085605783416
 20
-16.06611687398502
 10
31.9775393121503
 20
-15.65445675444776
 10
30.43085418373482
 20
-15.26077489051305
 10
28.65257188032898
 20
-14.88806743887702
 10
26.65622620401791
 20
-14.53917092829355
 10
24.45701055082482
 20
-14.21674067187765
 10
22.07166227979322
 20
-13.92323055856935
 10
19.51833533157834
 20
-13.66087437755717
 10
16.81646206599704
 20
-13.43166881779363
 10
13.98660537003608
 20
-13.23735827198662
 10
11.05030216186593
 20
-13.07942156071764
 10
8.029899481889098
 20
-12.95906067772425
 10
4.948384418269224
 20
-12.87719164200191
 10
1.829209161310115
 20
-12.83443752634635
 10
-1.303887481873253
 20
-12.83112371539335
 10
-4.427060754010779
 20
-12.86727542924519
 10
-7.516541420677913
 20
-12.94261753153046
 10
-10.54881666852189
 20
-13.05657662335796
 10
-13.50080905196876
 20
-13.2082854072285
 10
-16.35005212651876
 20
-13.39658928769256
 10
-19.07486143195455
 20
-13.62005515851883
 10
-21.65449952417693
 20
-13.87698230949792
 10
-24.06933379967602
 20
-14.16541536987403
 10
-26.30098591149848
 20
-14.48315918989706
 10
-28.33247163956493
 20
-14.82779554723766
 10
-30.14833015084018
 20
-15.19670155111936
 10
-31.73474166560807
 20
-15.58706960410107
 10
-33.07963263433977
 20
-15.99592876958893
 10
-34.17276762469584
 20
-16.42016738245767
 10
-35.00582721934673
 20
-16.85655673070108
 10
-35.57247133176201
 20
-17.30177562787992
 10
-35.86838745809712
 20
-17.75243568935616
 10
-35.89132349795161
 20
-17.82833443849556
  0
LWPOLYLINE
  5
141
330
B0
100
AcDbEntity
  8
AM_4
100
AcDbPolyline
 90
       18
 70
     0
 43
0.0
 10
37.66499999999999
 20
-19.91904761904762
 10
37.65693638405155
 20
-19.73436044989187
 10
37.63280690519253
 20
-19.55107886161056
 10
37.59279520332682
 20
-19.37059773775895
 10
37.53720579166537
 20
-19.19429064866704
 10
37.4664617391967
 20
-19.02349939773995
 10
37.38110145087654
 20
-18.85952380952381
 10
37.28177457004096
 20
-18.70361183725612
 10
37.1692370342283
 20
-18.55695006518805
 10
37.04434532203815
 20
-18.42065467796185
 10
36.90804993481195
 20
-18.2957629657717
 10
36.76138816274388
 20
-18.18322542995904
 10
36.60547619047619
 20
-18.08389854912346
 10
36.44150060226005
 20
-17.99853826080329
 10
36.27070935133296
 20
-17.92779420833463
 10
36.09440226224105
 20
-17.87220479667317
 10
35.91392113838944
 20
-17.83219309480747
 10
35.89132349795163
 20
-17.82833443849557
  0
LINE
  5
142
330
B0
100
AcDbEntity
  8
AM_4
100
AcDbLine
 10
-45.40313791052781
 20
-15.90391822343303
 30
0.0
 11
-45.40313791052782
 21
-2.688176523492224
 31
0.0
  0
LWPOLYLINE
  5
143
330
B0
100
AcDbEntity
  8
AM_4
100
AcDbPolyline
 90
       30
 70
     0
 43
0.0
 10
-45.40313791052782
 20
-15.90391822343303
 10
-43.95584827854715
 20
-15.34022782424737
 10
-42.1740280998999
 20
-14.79690715255968
 10
-40.07123810203798
 20
-14.27809120674751
 10
-37.66348178654447
 20
-13.78772848942811
 10
-34.96908363282326
 20
-13.3295509569694
 10
-32.00854963774627
 20
-12.90704561704854
 10
-28.80441125263533
 20
-12.52342799041803
 10
-25.38105390531279
 20
-12.18161763885118
 10
-21.76453141227146
 20
-11.88421594551415
 10
-17.98236769339937
 20
-11.63348631686929
 10
-14.06334729833003
 20
-11.43133695678528
 10
-10.03729633863913
 20
-11.27930634395346
 10
-5.934855493125943
 20
-11.1785515231361
 10
-1.787246813746348
 20
-11.12983929935702
 10
2.373963893054989
 20
-11.13354040205244
 10
6.517107301191587
 20
-11.18962666359606
 10
10.61065158762914
 20
-11.29767123367172
 10
14.62344240859823
 20
-11.45685182786205
 10
18.52494000296195
 20
-11.66595698572938
 10
22.28545161823853
 20
-11.92339529076121
 10
25.87635749037672
 20
-12.22720748201073
 10
29.27032865744129
 20
-12.57508136525574
 10
32.44153494951507
 20
-12.96436941019273
 10
35.36584157188867
 20
-13.39210889974119
 10
38.02099278542121
 20
-13.85504447810949
 10
40.38678128615356
 20
-14.34965292601811
 10
42.44520199509298
 20
-14.8721699745257
 10
44.18058908773607
 20
-15.41861895338871
 10
45.4031379105278
 20
-15.90391822343303
  0
LINE
  5
144
330
B0
100
AcDbEntity
  8
AM_4
100
AcDbLine
 10
45.4031379105278
 20
-15.90391822343303
 30
0.0
 11
45.40313791052782
 21
-2.688176523492189
 31
0.0
  0
LWPOLYLINE
  5
145
330
B0
100
AcDbEntity
  8
AM_4
100
AcDbPolyline
 90
       10
 70
     0
 43
0.0
 10
45.40313791052782
 20
2.68817652349219
 10
45.3174200253091
 20
2.188460857250095
 10
45.24640511093908
 20
1.662165842845796
 10
45.19332747640478
 20
1.116223118487483
 10
45.16084930447698
 20
0.5505884773134827
 10
45.15034218321367
 20
-0.025242057780104
 10
45.16244391815145
 20
-0.5985231755436158
 10
45.21574339848848
 20
-1.372313036018898
 10
45.30562610586861
 20
-2.111353206876569
 10
45.40313791052782
 20
-2.688176523492185
  0
LINE
  5
146
330
B0
100
AcDbEntity
  8
AM_4
100
AcDbLine
 10
45.4031379105278
 20
2.688176523492192
 30
0.0
 11
45.4031379105278
 21
15.90391822343303
 31
0.0
  0
LWPOLYLINE
  5
147
330
B0
100
AcDbEntity
  8
AM_4
100
AcDbPolyline
 90
       30
 70
     0
 43
0.0
 10
45.40313791052782
 20
15.90391822343303
 10
43.95584827854715
 20
15.34022782424736
 10
42.1740280998999
 20
14.79690715255968
 10
40.07123810203798
 20
14.2780912067475
 10
37.66348178654447
 20
13.78772848942811
 10
34.96908363282325
 20
13.3295509569694
 10
32.00854963774626
 20
12.90704561704854
 10
28.80441125263532
 20
12.52342799041803
 10
25.38105390531278
 20
12.18161763885118
 10
21.76453141227145
 20
11.88421594551415
 10
17.98236769339935
 20
11.63348631686929
 10
14.06334729833001
 20
11.43133695678528
 10
10.03729633863911
 20
11.27930634395346
 10
5.934855493125923
 20
11.1785515231361
 10
1.787246813746327
 20
11.12983929935702
 10
-2.373963893055009
 20
11.13354040205245
 10
-6.517107301191608
 20
11.18962666359606
 10
-10.61065158762916
 20
11.29767123367172
 10
-14.62344240859825
 20
11.45685182786205
 10
-18.52494000296197
 20
11.66595698572938
 10
-22.28545161823855
 20
11.92339529076121
 10
-25.87635749037673
 20
12.22720748201074
 10
-29.2703286574413
 20
12.57508136525574
 10
-32.44153494951509
 20
12.96436941019273
 10
-35.36584157188869
 20
13.3921088997412
 10
-38.02099278542123
 20
13.8550444781095
 10
-40.38678128615357
 20
14.34965292601811
 10
-42.44520199509299
 20
14.87216997452571
 10
-44.18058908773609
 20
15.41861895338872
 10
-45.40313791052782
 20
15.90391822343303
  0
LINE
  5
148
330
B0
100
AcDbEntity
  8
AM_4
100
AcDbLine
 10
-45.40313791052782
 20
2.688176523492195
 30
0.0
 11
-45.40313791052781
 21
15.90391822343304
 31
0.0
  0
LWPOLYLINE
  5
149
330
B0
100
AcDbEntity
  8
AM_4
100
AcDbPolyline
 90
       10
 70
     0
 43
0.0
 10
-45.40313791052782
 20
-2.688176523492224
 10
-45.3174200253091
 20
-2.188460857250125
 10
-45.24640511093907
 20
-1.66216584284582
 10
-45.19332747640477
 20
-1.116223118487502
 10
-45.16084930447698
 20
-0.5505884773134992
 10
-45.15034218321366
 20
0.0252420577800899
 10
-45.16244391815145
 20
0.598523175543605
 10
-45.21574339848847
 20
1.37231303601889
 10
-45.3056261058686
 20
2.111353206876563
 10
-45.40313791052782
 20
2.688176523492234
  0
ENDBLK
  5
B3
330
B0
100
AcDbEntity
  8
0
100
AcDbBlockEnd
  0
ENDSEC
  0
SECTION
  2
ENTITIES
  0
INSERT
  5
6F
330
1F
100
AcDbEntity
  8
0
100
AcDbBlockReference
  2
1_034228_4
 10
0.0
 20
0.0
 30
0.0
  0
POINT
  5
14B
330
1F
100
AcDbEntity
  8
ConnectionPoints
100
AcDbPoint
 10
33.72899346259832
 20
0.0000000000000021
 30
33.72899346259831
  0
POINT
  5
14C
330
1F
100
AcDbEntity
  8
ConnectionPoints
100
AcDbPoint
 10
0.0
 20
0.0
 30
0.0
  0
ENDSEC
  0
SECTION
  2
OBJECTS
  0
DICTIONARY
  5
C
330
0
100
AcDbDictionary
281
     1
  3
ACAD_DETAILVIEWSTYLE
350
154
  3
ACAD_GROUP
350
D
  3
ACAD_LAYOUT
350
1A
  3
ACAD_MATERIAL
350
43
  3
ACAD_MLEADERSTYLE
350
6B
  3
ACAD_MLINESTYLE
350
17
  3
ACAD_PLOTSETTINGS
350
19
  3
ACAD_PLOTSTYLENAME
350
E
  3
ACAD_SCALELIST
350
47
  3
ACAD_SECTIONVIEWSTYLE
350
155
  3
ACAD_TABLESTYLE
350
69
  3
ACAD_VISUALSTYLE
350
2A
  3
ACDB_RECOMPOSE_DATA
350
151
  3
AcDbVariableDictionary
350
14D
  0
SUN
  5
6D
330
29
100
AcDbSun
 90
        1
290
     0
 63
     7
421
 16777215
 40
1.0
291
     1
 91
  2455826
 92
 54000000
292
     0
 70
     2
 71
   256
280
     1
  0
DICTIONARY
  5
154
102
{ACAD_REACTORS
330
C
102
}
330
C
100
AcDbDictionary
281
     1
  0
DICTIONARY
  5
D
102
{ACAD_REACTORS
330
C
102
}
330
C
100
AcDbDictionary
281
     1
  0
DICTIONARY
  5
1A
102
{ACAD_REACTORS
330
C
102
}
330
C
100
AcDbDictionary
281
     1
  3
Layout1
350
1E
  3
Layout2
350
26
  3
Model
350
22
  0
DICTIONARY
  5
43
102
{ACAD_REACTORS
330
C
102
}
330
C
100
AcDbDictionary
281
     1
  3
ByBlock
350
45
  3
ByLayer
350
44
  3
Global
350
46
  0
DICTIONARY
  5
6B
102
{ACAD_REACTORS
330
C
102
}
330
C
100
AcDbDictionary
281
     1
  3
Standard
350
6C
  0
DICTIONARY
  5
17
102
{ACAD_REACTORS
330
C
102
}
330
C
100
AcDbDictionary
281
     1
  3
Standard
350
18
  0
DICTIONARY
  5
19
102
{ACAD_REACTORS
330
C
102
}
330
C
100
AcDbDictionary
281
     1
  0
ACDBDICTIONARYWDFLT
  5
E
102
{ACAD_REACTORS
330
C
102
}
330
C
100
AcDbDictionary
281
     1
  3
Normal
350
F
100
AcDbDictionaryWithDefault
340
F
  0
DICTIONARY
  5
47
102
{ACAD_REACTORS
330
C
102
}
330
C
100
AcDbDictionary
281
     1
  3
A0
350
48
  3
A1
350
49
  3
A2
350
4A
  3
A3
350
4B
  3
A4
350
4C
  3
A5
350
4D
  3
A6
350
4E
  3
A7
350
4F
  3
A8
350
50
  3
A9
350
51
  3
B0
350
52
  3
B1
350
53
  3
B2
350
54
  3
B3
350
55
  3
B4
350
56
  3
B5
350
57
  3
B6
350
58
  3
B7
350
59
  3
B8
350
5A
  3
B9
350
5B
  3
C0
350
5C
  3
C1
350
5D
  3
C2
350
5E
  3
C3
350
5F
  3
C4
350
60
  3
C5
350
61
  3
C6
350
62
  3
C7
350
63
  3
C8
350
64
  3
C9
350
65
  3
D0
350
66
  3
D1
350
67
  3
D2
350
68
  0
DICTIONARY
  5
155
102
{ACAD_REACTORS
330
C
102
}
330
C
100
AcDbDictionary
281
     1
  0
DICTIONARY
  5
69
102
{ACAD_REACTORS
330
C
102
}
330
C
100
AcDbDictionary
281
     1
  3
Standard
350
6A
  0
DICTIONARY
  5
2A
102
{ACAD_REACTORS
330
C
102
}
330
C
100
AcDbDictionary
281
     1
  3
2dWireframe
350
2F
  3
Basic
350
32
  3
Brighten
350
36
  3
ColorChange
350
3A
  3
Conceptual
350
34
  3
Dim
350
35
  3
EdgeColorOff
350
3D
  3
Facepattern
350
39
  3
Flat
350
2B
  3
FlatWithEdges
350
2C
  3
Gouraud
350
2D
  3
GouraudWithEdges
350
2E
  3
Hidden
350
31
  3
JitterOff
350
3B
  3
Linepattern
350
38
  3
OverhangOff
350
3C
  3
Realistic
350
33
  3
Shaded
350
42
  3
Shaded with edges
350
41
  3
Shades of Gray
350
3E
  3
Sketchy
350
3F
  3
Thicken
350
37
  3
Wireframe
350
30
  3
X-Ray
350
40
  0
XRECORD
  5
151
102
{ACAD_REACTORS
330
C
102
}
330
C
100
AcDbXrecord
280
     1
 90
        1
330
6A
  0
DICTIONARY
  5
14D
102
{ACAD_REACTORS
330
C
102
}
330
C
100
AcDbDictionary
281
     1
  3
CANNOSCALE
350
14E
  3
CMLEADERSTYLE
350
153
  3
CTABLESTYLE
350
152
  0
LAYOUT
  5
1E
102
{ACAD_REACTORS
330
1A
102
}
330
1A
100
AcDbPlotSettings
  1

  2
none_device
  4

  6

 40
0.0
 41
0.0
 42
0.0
 43
0.0
 44
0.0
 45
0.0
 46
0.0
 47
0.0
 48
0.0
 49
0.0
140
0.0
141
0.0
142
1.0
143
1.0
 70
   688
 72
     1
 73
     0
 74
     5
  7

 75
    16
 76
     0
 77
     2
 78
   300
147
1.0
148
0.0
149
0.0
100
AcDbLayout
  1
Layout1
 70
     1
 71
     1
 10
0.0
 20
0.0
 11
420.0
 21
297.0
 12
0.0
 22
0.0
 32
0.0
 14
1.000000000000000E+20
 24
1.000000000000000E+20
 34
1.000000000000000E+20
 15
-1.000000000000000E+20
 25
-1.000000000000000E+20
 35
-1.000000000000000E+20
146
0.0
 13
0.0
 23
0.0
 33
0.0
 16
1.0
 26
0.0
 36
0.0
 17
0.0
 27
1.0
 37
0.0
 76
     0
330
1B
  0
LAYOUT
  5
26
102
{ACAD_REACTORS
330
1A
102
}
330
1A
100
AcDbPlotSettings
  1

  2
none_device
  4

  6

 40
0.0
 41
0.0
 42
0.0
 43
0.0
 44
0.0
 45
0.0
 46
0.0
 47
0.0
 48
0.0
 49
0.0
140
0.0
141
0.0
142
1.0
143
1.0
 70
   688
 72
     1
 73
     0
 74
     5
  7

 75
    16
 76
     0
 77
     2
 78
   300
147
1.0
148
0.0
149
0.0
100
AcDbLayout
  1
Layout2
 70
     1
 71
     2
 10
0.0
 20
0.0
 11
0.0
 21
0.0
 12
0.0
 22
0.0
 32
0.0
 14
0.0
 24
0.0
 34
0.0
 15
0.0
 25
0.0
 35
0.0
146
0.0
 13
0.0
 23
0.0
 33
0.0
 16
1.0
 26
0.0
 36
0.0
 17
0.0
 27
1.0
 37
0.0
 76
     0
330
23
  0
LAYOUT
  5
22
102
{ACAD_REACTORS
330
1A
102
}
330
1A
100
AcDbPlotSettings
  1

  2
none_device
  4
Letter_(8.50_x_11.00_Inches)
  6

 40
6.35
 41
6.35
 42
6.35000508
 43
6.35000508
 44
215.9
 45
279.4
 46
0.0
 47
0.0
 48
0.0
 49
0.0
140
0.0
141
0.0
142
1.0
143
1.0
 70
  1712
 72
     1
 73
     0
 74
     0
  7

 75
     0
 76
     0
 77
     2
 78
   300
147
1.0
148
0.0
149
0.0
100
AcDbLayout
  1
Model
 70
     1
 71
     0
 10
0.0
 20
0.0
 11
420.0
 21
297.0
 12
0.0
 22
0.0
 32
0.0
 14
1.000000000000000E+20
 24
1.000000000000000E+20
 34
1.000000000000000E+20
 15
-1.000000000000000E+20
 25
-1.000000000000000E+20
 35
-1.000000000000000E+20
146
0.0
 13
0.0
 23
0.0
 33
0.0
 16
1.0
 26
0.0
 36
0.0
 17
0.0
 27
1.0
 37
0.0
 76
     0
330
1F
331
29
  0
MATERIAL
  5
45
102
{ACAD_REACTORS
330
43
102
}
330
43
100
AcDbMaterial
  1
ByBlock
 72
     1
 94
      127
  0
MATERIAL
  5
44
102
{ACAD_REACTORS
330
43
102
}
330
43
100
AcDbMaterial
  1
ByLayer
 72
     1
 94
      127
  0
MATERIAL
  5
46
102
{ACAD_REACTORS
330
43
102
}
330
43
100
AcDbMaterial
  1
Global
 72
     1
 94
      127
  0
MLEADERSTYLE
  5
6C
102
{ACAD_REACTORS
330
6B
102
}
330
6B
100
AcDbMLeaderStyle
179
     2
170
     2
171
     1
172
     0
 90
        2
 40
0.0
 41
0.0
173
     1
 91
-1056964608
340
14
 92
       -2
290
     1
 42
2.0
291
     1
 43
8.0
  3
Standard
341
0
 44
4.0
300

342
11
174
     1
178
     6
175
     1
176
     0
 93
-1056964608
 45
4.0
292
     0
297
     0
 46
4.0
343
0
 94
-1056964608
 47
1.0
 49
1.0
140
1.0
293
     1
141
0.0
294
     1
177
     0
142
1.0
295
     0
296
     0
143
3.75
271
     0
272
     9
273
     9
298
     0
  0
MLINESTYLE
  5
18
102
{ACAD_REACTORS
330
17
102
}
330
17
100
AcDbMlineStyle
  2
Standard
 70
     0
  3

 62
   256
 51
90.0
 52
90.0
 71
     2
 49
0.5
 62
   256
  6
BYLAYER
 49
-0.5
 62
   256
  6
BYLAYER
  0
ACDBPLACEHOLDER
  5
F
102
{ACAD_REACTORS
330
E
102
}
330
E
  0
SCALE
  5
48
102
{ACAD_REACTORS
330
47
102
}
330
47
100
AcDbScale
 70
     0
300
1:1
140
1.0
141
1.0
290
     1
  0
SCALE
  5
49
102
{ACAD_REACTORS
330
47
102
}
330
47
100
AcDbScale
 70
     0
300
1:2
140
1.0
141
2.0
290
     0
  0
SCALE
  5
4A
102
{ACAD_REACTORS
330
47
102
}
330
47
100
AcDbScale
 70
     0
300
1:4
140
1.0
141
4.0
290
     0
  0
SCALE
  5
4B
102
{ACAD_REACTORS
330
47
102
}
330
47
100
AcDbScale
 70
     0
300
1:5
140
1.0
141
5.0
290
     0
  0
SCALE
  5
4C
102
{ACAD_REACTORS
330
47
102
}
330
47
100
AcDbScale
 70
     0
300
1:8
140
1.0
141
8.0
290
     0
  0
SCALE
  5
4D
102
{ACAD_REACTORS
330
47
102
}
330
47
100
AcDbScale
 70
     0
300
1:10
140
1.0
141
10.0
290
     0
  0
SCALE
  5
4E
102
{ACAD_REACTORS
330
47
102
}
330
47
100
AcDbScale
 70
     0
300
1:16
140
1.0
141
16.0
290
     0
  0
SCALE
  5
4F
102
{ACAD_REACTORS
330
47
102
}
330
47
100
AcDbScale
 70
     0
300
1:20
140
1.0
141
20.0
290
     0
  0
SCALE
  5
50
102
{ACAD_REACTORS
330
47
102
}
330
47
100
AcDbScale
 70
     0
300
1:30
140
1.0
141
30.0
290
     0
  0
SCALE
  5
51
102
{ACAD_REACTORS
330
47
102
}
330
47
100
AcDbScale
 70
     0
300
1:40
140
1.0
141
40.0
290
     0
  0
SCALE
  5
52
102
{ACAD_REACTORS
330
47
102
}
330
47
100
AcDbScale
 70
     0
300
1:50
140
1.0
141
50.0
290
     0
  0
SCALE
  5
53
102
{ACAD_REACTORS
330
47
102
}
330
47
100
AcDbScale
 70
     0
300
1:100
140
1.0
141
100.0
290
     0
  0
SCALE
  5
54
102
{ACAD_REACTORS
330
47
102
}
330
47
100
AcDbScale
 70
     0
300
2:1
140
2.0
141
1.0
290
     0
  0
SCALE
  5
55
102
{ACAD_REACTORS
330
47
102
}
330
47
100
AcDbScale
 70
     0
300
4:1
140
4.0
141
1.0
290
     0
  0
SCALE
  5
56
102
{ACAD_REACTORS
330
47
102
}
330
47
100
AcDbScale
 70
     0
300
8:1
140
8.0
141
1.0
290
     0
  0
SCALE
  5
57
102
{ACAD_REACTORS
330
47
102
}
330
47
100
AcDbScale
 70
     0
300
10:1
140
10.0
141
1.0
290
     0
  0
SCALE
  5
58
102
{ACAD_REACTORS
330
47
102
}
330
47
100
AcDbScale
 70
     0
300
100:1
140
100.0
141
1.0
290
     0
  0
SCALE
  5
59
102
{ACAD_REACTORS
330
47
102
}
330
47
100
AcDbScale
 70
     0
300
1/128" = 1'-0"
140
0.0078125
141
12.0
290
     0
  0
SCALE
  5
5A
102
{ACAD_REACTORS
330
47
102
}
330
47
100
AcDbScale
 70
     0
300
1/64" = 1'-0"
140
0.015625
141
12.0
290
     0
  0
SCALE
  5
5B
102
{ACAD_REACTORS
330
47
102
}
330
47
100
AcDbScale
 70
     0
300
1/32" = 1'-0"
140
0.03125
141
12.0
290
     0
  0
SCALE
  5
5C
102
{ACAD_REACTORS
330
47
102
}
330
47
100
AcDbScale
 70
     0
300
1/16" = 1'-0"
140
0.0625
141
12.0
290
     0
  0
SCALE
  5
5D
102
{ACAD_REACTORS
330
47
102
}
330
47
100
AcDbScale
 70
     0
300
3/32" = 1'-0"
140
0.09375
141
12.0
290
     0
  0
SCALE
  5
5E
102
{ACAD_REACTORS
330
47
102
}
330
47
100
AcDbScale
 70
     0
300
1/8" = 1'-0"
140
0.125
141
12.0
290
     0
  0
SCALE
  5
5F
102
{ACAD_REACTORS
330
47
102
}
330
47
100
AcDbScale
 70
     0
300
3/16" = 1'-0"
140
0.1875
141
12.0
290
     0
  0
SCALE
  5
60
102
{ACAD_REACTORS
330
47
102
}
330
47
100
AcDbScale
 70
     0
300
1/4" = 1'-0"
140
0.25
141
12.0
290
     0
  0
SCALE
  5
61
102
{ACAD_REACTORS
330
47
102
}
330
47
100
AcDbScale
 70
     0
300
3/8" = 1'-0"
140
0.375
141
12.0
290
     0
  0
SCALE
  5
62
102
{ACAD_REACTORS
330
47
102
}
330
47
100
AcDbScale
 70
     0
300
1/2" = 1'-0"
140
0.5
141
12.0
290
     0
  0
SCALE
  5
63
102
{ACAD_REACTORS
330
47
102
}
330
47
100
AcDbScale
 70
     0
300
3/4" = 1'-0"
140
0.75
141
12.0
290
     0
  0
SCALE
  5
64
102
{ACAD_REACTORS
330
47
102
}
330
47
100
AcDbScale
 70
     0
300
1" = 1'-0"
140
1.0
141
12.0
290
     0
  0
SCALE
  5
65
102
{ACAD_REACTORS
330
47
102
}
330
47
100
AcDbScale
 70
     0
300
1-1/2" = 1'-0"
140
1.5
141
12.0
290
     0
  0
SCALE
  5
66
102
{ACAD_REACTORS
330
47
102
}
330
47
100
AcDbScale
 70
     0
300
3" = 1'-0"
140
3.0
141
12.0
290
     0
  0
SCALE
  5
67
102
{ACAD_REACTORS
330
47
102
}
330
47
100
AcDbScale
 70
     0
300
6" = 1'-0"
140
6.0
141
12.0
290
     0
  0
SCALE
  5
68
102
{ACAD_REACTORS
330
47
102
}
330
47
100
AcDbScale
 70
     0
300
1'-0" = 1'-0"
140
12.0
141
12.0
290
     0
  0
TABLESTYLE
  5
6A
102
{ACAD_REACTORS
330
69
102
}
102
{ACAD_XDICTIONARY
360
14F
102
}
330
69
100
AcDbTableStyle
  3
Standard
 70
     0
 71
     0
 40
0.06
 41
0.06
280
     0
281
     0
  7
Standard
140
4.5
170
     2
 62
     0
 63
   257
283
     0
 90
        4
 91
        0
  1

274
    -2
284
     1
 64
     0
275
    -2
285
     1
 65
     0
276
    -2
286
     1
 66
     0
277
    -2
287
     1
 67
     0
278
    -2
288
     1
 68
     0
279
    -2
289
     1
 69
     0
  7
Standard
140
6.0
170
     5
 62
     0
 63
   257
283
     0
 90
        4
 91
        0
  1

274
    -2
284
     1
 64
     0
275
    -2
285
     1
 65
     0
276
    -2
286
     1
 66
     0
277
    -2
287
     1
 67
     0
278
    -2
288
     1
 68
     0
279
    -2
289
     1
 69
     0
  7
Standard
140
4.5
170
     5
 62
     0
 63
   257
283
     0
 90
        4
 91
        0
  1

274
    -2
284
     1
 64
     0
275
    -2
285
     1
 65
     0
276
    -2
286
     1
 66
     0
277
    -2
287
     1
 67
     0
278
    -2
288
     1
 68
     0
279
    -2
289
     1
 69
     0
  0
VISUALSTYLE
  5
2F
102
{ACAD_REACTORS
330
2A
102
}
330
2A
100
AcDbVisualStyle
  2
2dWireframe
 70
     4
177
     3
291
     0
 70
    58
 90
        0
176
     1
 90
        2
176
     1
 90
        0
176
     1
 90
        0
176
     1
 40
0.6
176
     1
 40
30.0
176
     1
 62
     7
420
 16777215
176
     1
 90
        1
176
     1
 90
        4
176
     1
 62
     7
176
     1
 62
   257
176
     1
 90
        1
176
     1
 90
        1
176
     1
 40
1.0
176
     1
 90
        0
176
     1
 62
   257
176
     1
 40
1.0
176
     1
 90
        1
176
     1
 90
        6
176
     1
 90
        2
176
     1
 62
     7
176
     1
 90
        5
176
     1
 90
        0
176
     1
 90
        0
176
     1
290
     0
176
     1
 90
        1
176
     1
 40
0.0
176
     1
 90
        0
176
     1
290
     1
176
     1
290
     1
176
     1
290
     0
176
     1
290
     0
176
     1
290
     0
176
     1
290
     0
176
     1
290
     0
176
     1
290
     0
176
     1
290
     0
176
     1
 90
       50
176
     1
 40
0.0
176
     1
 40
1.0
176
     1
 90
        0
176
     1
 62
    18
420
        0
176
     1
 90
       50
176
     1
 90
        3
176
     1
 62
     5
420
      255
176
     1
290
     0
176
     1
 90
       50
176
     1
 90
       50
176
     1
 90
       50
176
     1
290
     0
176
     1
 90
       50
176
     1
 62
   256
176
     0
 40
1.0
176
     0
 90
        2
176
     1
  1
strokes_ogs.tif
176
     1
290
     0
176
     1
 40
1.0
176
     1
 40
1.0
176
     1
  0
VISUALSTYLE
  5
32
102
{ACAD_REACTORS
330
2A
102
}
330
2A
100
AcDbVisualStyle
  2
Basic
 70
     7
177
     3
291
     1
 70
    58
 90
        1
176
     1
 90
        0
176
     1
 90
        1
176
     1
 90
        0
176
     1
 40
0.6
176
     1
 40
30.0
176
     1
 62
     7
420
 16777215
176
     1
 90
        0
176
     1
 90
        4
176
     1
 62
     7
176
     1
 62
   257
176
     1
 90
        1
176
     1
 90
        1
176
     1
 40
1.0
176
     1
 90
        8
176
     1
 62
     7
176
     1
 40
1.0
176
     1
 90
        1
176
     1
 90
        6
176
     1
 90
        2
176
     1
 62
     7
176
     1
 90
        5
176
     1
 90
        0
176
     1
 90
        0
176
     1
290
     0
176
     1
 90
        1
176
     1
 40
0.0
176
     1
 90
        0
176
     1
290
     0
176
     1
290
     1
176
     1
290
     1
176
     1
290
     0
176
     1
290
     0
176
     1
290
     0
176
     1
290
     0
176
     1
290
     0
176
     1
290
     0
176
     1
 90
       50
176
     1
 40
0.0
176
     1
 40
1.0
176
     1
 90
        0
176
     1
 62
    18
420
        0
176
     1
 90
       50
176
     1
 90
        3
176
     1
 62
     5
420
      255
176
     1
290
     0
176
     1
 90
       50
176
     1
 90
       50
176
     1
 90
       50
176
     1
290
     0
176
     1
 90
       50
176
     1
 62
   256
176
     0
 40
1.0
176
     0
 90
        2
176
     1
  1
strokes_ogs.tif
176
     1
290
     0
176
     1
 40
1.0
176
     1
 40
1.0
176
     1
  0
VISUALSTYLE
  5
36
102
{ACAD_REACTORS
330
2A
102
}
330
2A
100
AcDbVisualStyle
  2
Brighten
 70
    12
177
     3
291
     1
 70
    58
 90
        2
176
     1
 90
        2
176
     1
 90
        0
176
     1
 90
        0
176
     1
 40
0.6
176
     1
 40
30.0
176
     1
 62
     7
420
 16777215
176
     1
 90
        1
176
     1
 90
        4
176
     1
 62
     7
176
     1
 62
   257
176
     1
 90
        1
176
     1
 90
        1
176
     1
 40
1.0
176
     1
 90
        8
176
     1
 62
     7
176
     1
 40
1.0
176
     1
 90
        1
176
     1
 90
        6
176
     1
 90
        2
176
     1
 62
     7
176
     1
 90
        5
176
     1
 90
        0
176
     1
 90
        0
176
     1
290
     0
176
     1
 90
        1
176
     1
 40
50.0
176
     1
 90
        0
176
     1
290
     0
176
     1
290
     1
176
     1
290
     1
176
     1
290
     0
176
     1
290
     0
176
     1
290
     0
176
     1
290
     0
176
     1
290
     0
176
     1
290
     0
176
     1
 90
       50
176
     1
 40
0.0
176
     1
 40
1.0
176
     1
 90
        0
176
     1
 62
    18
420
        0
176
     1
 90
       50
176
     1
 90
        3
176
     1
 62
     5
420
      255
176
     1
290
     0
176
     1
 90
       50
176
     1
 90
       50
176
     1
 90
       50
176
     1
290
     0
176
     1
 90
       50
176
     1
 62
   256
176
     0
 40
1.0
176
     0
 90
        2
176
     1
  1
strokes_ogs.tif
176
     1
290
     0
176
     1
 40
1.0
176
     1
 40
1.0
176
     1
  0
VISUALSTYLE
  5
3A
102
{ACAD_REACTORS
330
2A
102
}
330
2A
100
AcDbVisualStyle
  2
ColorChange
 70
    16
177
     3
291
     1
 70
    58
 90
        2
176
     1
 90
        2
176
     1
 90
        3
176
     1
 90
        0
176
     1
 40
0.6
176
     1
 40
30.0
176
     1
 62
     8
420
  8421504
176
     1
 90
        1
176
     1
 90
        4
176
     1
 62
     7
176
     1
 62
   257
176
     1
 90
        1
176
     1
 90
        1
176
     1
 40
1.0
176
     1
 90
        8
176
     1
 62
     8
420
  8421504
176
     1
 40
1.0
176
     1
 90
        1
176
     1
 90
        6
176
     1
 90
        2
176
     1
 62
     7
176
     1
 90
        5
176
     1
 90
        0
176
     1
 90
        0
176
     1
290
     0
176
     1
 90
        1
176
     1
 40
0.0
176
     1
 90
        0
176
     1
290
     0
176
     1
290
     1
176
     1
290
     1
176
     1
290
     0
176
     1
290
     0
176
     1
290
     0
176
     1
290
     0
176
     1
290
     0
176
     1
290
     0
176
     1
 90
       50
176
     1
 40
0.0
176
     1
 40
1.0
176
     1
 90
        0
176
     1
 62
    18
420
        0
176
     1
 90
       50
176
     1
 90
        3
176
     1
 62
     5
420
      255
176
     1
290
     0
176
     1
 90
       50
176
     1
 90
       50
176
     1
 90
       50
176
     1
290
     0
176
     1
 90
       50
176
     1
 62
   256
176
     0
 40
1.0
176
     0
 90
        2
176
     1
  1
strokes_ogs.tif
176
     1
290
     0
176
     1
 40
1.0
176
     1
 40
1.0
176
     1
  0
VISUALSTYLE
  5
34
102
{ACAD_REACTORS
330
2A
102
}
330
2A
100
AcDbVisualStyle
  2
Conceptual
 70
     9
177
     3
291
     0
 70
    58
 90
        3
176
     1
 90
        2
176
     1
 90
        0
176
     1
 90
        0
176
     1
 40
0.6
176
     1
 40
30.0
176
     1
 62
     7
420
 16777215
176
     1
 90
        2
176
     1
 90
        2
176
     1
 62
     7
176
     1
 62
   257
176
     1
 90
        1
176
     1
 90
        1
176
     1
 40
179.0
176
     1
 90
        8
176
     1
 62
     7
176
     1
 40
1.0
176
     1
 90
        1
176
     1
 90
        6
176
     1
 90
        2
176
     1
 62
     7
176
     1
 90
        3
176
     1
 90
        0
176
     1
 90
        0
176
     1
290
     0
176
     1
 90
        1
176
     1
 40
0.0
176
     1
 90
        0
176
     1
290
     0
176
     1
290
     1
176
     1
290
     1
176
     1
290
     0
176
     1
290
     0
176
     1
290
     0
176
     1
290
     0
176
     1
290
     0
176
     1
290
     0
176
     1
 90
       50
176
     1
 40
0.0
176
     1
 40
1.0
176
     1
 90
        0
176
     1
 62
    18
420
        0
176
     1
 90
       50
176
     1
 90
        3
176
     1
 62
     5
420
      255
176
     1
290
     0
176
     1
 90
       50
176
     1
 90
       50
176
     1
 90
       50
176
     1
290
     0
176
     1
 90
       50
176
     1
 62
   256
176
     0
 40
1.0
176
     0
 90
        2
176
     1
  1
strokes_ogs.tif
176
     1
290
     0
176
     1
 40
1.0
176
     1
 40
1.0
176
     1
  0
VISUALSTYLE
  5
35
102
{ACAD_REACTORS
330
2A
102
}
330
2A
100
AcDbVisualStyle
  2
Dim
 70
    11
177
     3
291
     1
 70
    58
 90
        2
176
     1
 90
        2
176
     1
 90
        0
176
     1
 90
        0
176
     1
 40
0.6
176
     1
 40
30.0
176
     1
 62
     7
420
 16777215
176
     1
 90
        1
176
     1
 90
        4
176
     1
 62
     7
176
     1
 62
   257
176
     1
 90
        1
176
     1
 90
        1
176
     1
 40
1.0
176
     1
 90
        8
176
     1
 62
     7
176
     1
 40
1.0
176
     1
 90
        1
176
     1
 90
        6
176
     1
 90
        2
176
     1
 62
     7
176
     1
 90
        5
176
     1
 90
        0
176
     1
 90
        0
176
     1
290
     0
176
     1
 90
        1
176
     1
 40
-50.0
176
     1
 90
        0
176
     1
290
     0
176
     1
290
     1
176
     1
290
     1
176
     1
290
     0
176
     1
290
     0
176
     1
290
     0
176
     1
290
     0
176
     1
290
     0
176
     1
290
     0
176
     1
 90
       50
176
     1
 40
0.0
176
     1
 40
1.0
176
     1
 90
        0
176
     1
 62
    18
420
        0
176
     1
 90
       50
176
     1
 90
        3
176
     1
 62
     5
420
      255
176
     1
290
     0
176
     1
 90
       50
176
     1
 90
       50
176
     1
 90
       50
176
     1
290
     0
176
     1
 90
       50
176
     1
 62
   256
176
     0
 40
1.0
176
     0
 90
        2
176
     1
  1
strokes_ogs.tif
176
     1
290
     0
176
     1
 40
1.0
176
     1
 40
1.0
176
     1
  0
VISUALSTYLE
  5
3D
102
{ACAD_REACTORS
330
2A
102
}
330
2A
100
AcDbVisualStyle
  2
EdgeColorOff
 70
    22
177
     3
291
     1
 70
    58
 90
        2
176
     0
 90
        2
176
     0
 90
        0
176
     0
 90
        0
176
     0
 40
0.6
176
     0
 40
30.0
176
     0
 62
     7
420
 16777215
176
     0
 90
        1
176
     0
 90
        4
176
     0
 62
     7
176
     0
 62
   257
176
     0
 90
        1
176
     0
 90
        1
176
     0
 40
1.0
176
     0
 90
        8
176
     2
 62
     7
176
     0
 40
1.0
176
     0
 90
        1
176
     0
 90
        6
176
     0
 90
        2
176
     0
 62
     7
176
     0
 90
        5
176
     0
 90
        0
176
     0
 90
        0
176
     0
290
     0
176
     0
 90
        1
176
     0
 40
0.0
176
     0
 90
        0
176
     0
290
     0
176
     0
290
     1
176
     0
290
     1
176
     0
290
     0
176
     0
290
     0
176
     0
290
     0
176
     0
290
     0
176
     0
290
     0
176
     0
290
     0
176
     0
 90
       50
176
     0
 40
0.0
176
     0
 40
1.0
176
     0
 90
        0
176
     0
 62
    18
420
        0
176
     0
 90
       50
176
     0
 90
        3
176
     0
 62
     5
420
      255
176
     0
290
     0
176
     0
 90
       50
176
     0
 90
       50
176
     0
 90
       50
176
     0
290
     0
176
     0
 90
       50
176
     0
 62
   256
176
     0
 40
1.0
176
     0
 90
        2
176
     0
  1
strokes_ogs.tif
176
     0
290
     0
176
     0
 40
1.0
176
     0
 40
1.0
176
     0
  0
VISUALSTYLE
  5
39
102
{ACAD_REACTORS
330
2A
102
}
330
2A
100
AcDbVisualStyle
  2
Facepattern
 70
    15
177
     3
291
     1
 70
    58
 90
        2
176
     1
 90
        2
176
     1
 90
        0
176
     1
 90
        0
176
     1
 40
0.6
176
     1
 40
30.0
176
     1
 62
     7
420
 16777215
176
     1
 90
        1
176
     1
 90
        4
176
     1
 62
     7
176
     1
 62
   257
176
     1
 90
        1
176
     1
 90
        1
176
     1
 40
1.0
176
     1
 90
        8
176
     1
 62
     7
176
     1
 40
1.0
176
     1
 90
        1
176
     1
 90
        6
176
     1
 90
        2
176
     1
 62
     7
176
     1
 90
        5
176
     1
 90
        0
176
     1
 90
        0
176
     1
290
     0
176
     1
 90
        1
176
     1
 40
0.0
176
     1
 90
        0
176
     1
290
     0
176
     1
290
     1
176
     1
290
     1
176
     1
290
     0
176
     1
290
     0
176
     1
290
     0
176
     1
290
     0
176
     1
290
     0
176
     1
290
     0
176
     1
 90
       50
176
     1
 40
0.0
176
     1
 40
1.0
176
     1
 90
        0
176
     1
 62
    18
420
        0
176
     1
 90
       50
176
     1
 90
        3
176
     1
 62
     5
420
      255
176
     1
290
     0
176
     1
 90
       50
176
     1
 90
       50
176
     1
 90
       50
176
     1
290
     0
176
     1
 90
       50
176
     1
 62
   256
176
     0
 40
1.0
176
     0
 90
        2
176
     1
  1
strokes_ogs.tif
176
     1
290
     0
176
     1
 40
1.0
176
     1
 40
1.0
176
     1
  0
VISUALSTYLE
  5
2B
102
{ACAD_REACTORS
330
2A
102
}
330
2A
100
AcDbVisualStyle
  2
Flat
 70
     0
177
     3
291
     1
 70
    58
 90
        2
176
     1
 90
        1
176
     1
 90
        1
176
     1
 90
        2
176
     1
 40
0.6
176
     1
 40
30.0
176
     1
 62
     7
420
 16777215
176
     1
 90
        0
176
     1
 90
        0
176
     1
 62
     7
176
     1
 62
   257
176
     1
 90
        1
176
     1
 90
        1
176
     1
 40
1.0
176
     1
 90
        8
176
     1
 62
     7
176
     1
 40
1.0
176
     1
 90
        1
176
     1
 90
        6
176
     1
 90
        2
176
     1
 62
     7
176
     1
 90
        5
176
     1
 90
        0
176
     1
 90
        0
176
     1
290
     0
176
     1
 90
       13
176
     1
 40
0.0
176
     1
 90
        0
176
     1
290
     0
176
     1
290
     1
176
     1
290
     1
176
     1
290
     0
176
     1
290
     0
176
     1
290
     0
176
     1
290
     0
176
     1
290
     0
176
     1
290
     0
176
     1
 90
       50
176
     1
 40
0.0
176
     1
 40
1.0
176
     1
 90
        0
176
     1
 62
    18
420
        0
176
     1
 90
       50
176
     1
 90
        3
176
     1
 62
     5
420
      255
176
     1
290
     0
176
     1
 90
       50
176
     1
 90
       50
176
     1
 90
       50
176
     1
290
     0
176
     1
 90
       50
176
     1
 62
   256
176
     0
 40
1.0
176
     0
 90
        2
176
     1
  1
strokes_ogs.tif
176
     1
290
     0
176
     1
 40
1.0
176
     1
 40
1.0
176
     1
  0
VISUALSTYLE
  5
2C
102
{ACAD_REACTORS
330
2A
102
}
330
2A
100
AcDbVisualStyle
  2
FlatWithEdges
 70
     1
177
     3
291
     1
 70
    58
 90
        2
176
     1
 90
        1
176
     1
 90
        1
176
     1
 90
        2
176
     1
 40
0.6
176
     1
 40
30.0
176
     1
 62
     7
420
 16777215
176
     1
 90
        1
176
     1
 90
        0
176
     1
 62
     7
176
     1
 62
   257
176
     1
 90
        1
176
     1
 90
        1
176
     1
 40
1.0
176
     1
 90
        0
176
     1
 62
   257
176
     1
 40
1.0
176
     1
 90
        1
176
     1
 90
        6
176
     1
 90
        2
176
     1
 62
     7
176
     1
 90
        5
176
     1
 90
        0
176
     1
 90
        0
176
     1
290
     0
176
     1
 90
       13
176
     1
 40
0.0
176
     1
 90
        0
176
     1
290
     0
176
     1
290
     1
176
     1
290
     1
176
     1
290
     0
176
     1
290
     0
176
     1
290
     0
176
     1
290
     0
176
     1
290
     0
176
     1
290
     0
176
     1
 90
       50
176
     1
 40
0.0
176
     1
 40
1.0
176
     1
 90
        0
176
     1
 62
    18
420
        0
176
     1
 90
       50
176
     1
 90
        3
176
     1
 62
     5
420
      255
176
     1
290
     0
176
     1
 90
       50
176
     1
 90
       50
176
     1
 90
       50
176
     1
290
     0
176
     1
 90
       50
176
     1
 62
   256
176
     0
 40
1.0
176
     0
 90
        2
176
     1
  1
strokes_ogs.tif
176
     1
290
     0
176
     1
 40
1.0
176
     1
 40
1.0
176
     1
  0
VISUALSTYLE
  5
2D
102
{ACAD_REACTORS
330
2A
102
}
330
2A
100
AcDbVisualStyle
  2
Gouraud
 70
     2
177
     3
291
     1
 70
    58
 90
        2
176
     1
 90
        2
176
     1
 90
        1
176
     1
 90
        2
176
     1
 40
0.6
176
     1
 40
30.0
176
     1
 62
     7
420
 16777215
176
     1
 90
        0
176
     1
 90
        0
176
     1
 62
     7
176
     1
 62
   257
176
     1
 90
        1
176
     1
 90
        1
176
     1
 40
1.0
176
     1
 90
        0
176
     1
 62
     7
176
     1
 40
1.0
176
     1
 90
        1
176
     1
 90
        6
176
     1
 90
        2
176
     1
 62
     7
176
     1
 90
        5
176
     1
 90
        0
176
     1
 90
        0
176
     1
290
     0
176
     1
 90
       13
176
     1
 40
0.0
176
     1
 90
        0
176
     1
290
     0
176
     1
290
     1
176
     1
290
     1
176
     1
290
     0
176
     1
290
     0
176
     1
290
     0
176
     1
290
     0
176
     1
290
     0
176
     1
290
     0
176
     1
 90
       50
176
     1
 40
0.0
176
     1
 40
1.0
176
     1
 90
        0
176
     1
 62
    18
420
        0
176
     1
 90
       50
176
     1
 90
        3
176
     1
 62
     5
420
      255
176
     1
290
     0
176
     1
 90
       50
176
     1
 90
       50
176
     1
 90
       50
176
     1
290
     0
176
     1
 90
       50
176
     1
 62
   256
176
     0
 40
1.0
176
     0
 90
        2
176
     1
  1
strokes_ogs.tif
176
     1
290
     0
176
     1
 40
1.0
176
     1
 40
1.0
176
     1
  0
VISUALSTYLE
  5
2E
102
{ACAD_REACTORS
330
2A
102
}
330
2A
100
AcDbVisualStyle
  2
GouraudWithEdges
 70
     3
177
     3
291
     1
 70
    58
 90
        2
176
     1
 90
        2
176
     1
 90
        1
176
     1
 90
        2
176
     1
 40
0.6
176
     1
 40
30.0
176
     1
 62
     7
420
 16777215
176
     1
 90
        1
176
     1
 90
        0
176
     1
 62
     7
176
     1
 62
   257
176
     1
 90
        1
176
     1
 90
        1
176
     1
 40
1.0
176
     1
 90
        0
176
     1
 62
   257
176
     1
 40
1.0
176
     1
 90
        1
176
     1
 90
        6
176
     1
 90
        2
176
     1
 62
     7
176
     1
 90
        5
176
     1
 90
        0
176
     1
 90
        0
176
     1
290
     0
176
     1
 90
       13
176
     1
 40
0.0
176
     1
 90
        0
176
     1
290
     0
176
     1
290
     1
176
     1
290
     1
176
     1
290
     0
176
     1
290
     0
176
     1
290
     0
176
     1
290
     0
176
     1
290
     0
176
     1
290
     0
176
     1
 90
       50
176
     1
 40
0.0
176
     1
 40
1.0
176
     1
 90
        0
176
     1
 62
    18
420
        0
176
     1
 90
       50
176
     1
 90
        3
176
     1
 62
     5
420
      255
176
     1
290
     0
176
     1
 90
       50
176
     1
 90
       50
176
     1
 90
       50
176
     1
290
     0
176
     1
 90
       50
176
     1
 62
   256
176
     0
 40
1.0
176
     0
 90
        2
176
     1
  1
strokes_ogs.tif
176
     1
290
     0
176
     1
 40
1.0
176
     1
 40
1.0
176
     1
  0
VISUALSTYLE
  5
31
102
{ACAD_REACTORS
330
2A
102
}
330
2A
100
AcDbVisualStyle
  2
Hidden
 70
     6
177
     3
291
     0
 70
    58
 90
        1
176
     1
 90
        2
176
     1
 90
        2
176
     1
 90
        0
176
     1
 40
0.6
176
     1
 40
30.0
176
     1
 62
     7
420
 16777215
176
     1
 90
        2
176
     1
 90
        2
176
     1
 62
     7
176
     1
 62
   257
176
     1
 90
        2
176
     1
 90
        1
176
     1
 40
40.0
176
     1
 90
        0
176
     1
 62
   257
176
     1
 40
1.0
176
     1
 90
        1
176
     1
 90
        6
176
     1
 90
        2
176
     1
 62
     7
176
     1
 90
        3
176
     1
 90
        0
176
     1
 90
        0
176
     1
290
     0
176
     1
 90
        1
176
     1
 40
0.0
176
     1
 90
        0
176
     1
290
     0
176
     1
290
     1
176
     1
290
     1
176
     1
290
     0
176
     1
290
     0
176
     1
290
     0
176
     1
290
     0
176
     1
290
     0
176
     1
290
     0
176
     1
 90
       50
176
     1
 40
0.0
176
     1
 40
1.0
176
     1
 90
        0
176
     1
 62
    18
420
        0
176
     1
 90
       50
176
     1
 90
        3
176
     1
 62
     5
420
      255
176
     1
290
     0
176
     1
 90
       50
176
     1
 90
       50
176
     1
 90
       50
176
     1
290
     0
176
     1
 90
       50
176
     1
 62
   256
176
     0
 40
1.0
176
     0
 90
        2
176
     1
  1
strokes_ogs.tif
176
     1
290
     0
176
     1
 40
1.0
176
     1
 40
1.0
176
     1
  0
VISUALSTYLE
  5
3B
102
{ACAD_REACTORS
330
2A
102
}
330
2A
100
AcDbVisualStyle
  2
JitterOff
 70
    20
177
     3
291
     1
 70
    58
 90
        2
176
     0
 90
        2
176
     0
 90
        0
176
     0
 90
        0
176
     0
 40
0.6
176
     0
 40
30.0
176
     0
 62
     7
420
 16777215
176
     0
 90
        1
176
     0
 90
        4
176
     0
 62
     7
176
     0
 62
   257
176
     0
 90
        1
176
     0
 90
        1
176
     0
 40
1.0
176
     0
 90
       10
176
     2
 62
     7
176
     0
 40
1.0
176
     0
 90
        1
176
     0
 90
        6
176
     0
 90
        2
176
     0
 62
     7
176
     0
 90
        5
176
     0
 90
        0
176
     0
 90
        0
176
     0
290
     0
176
     0
 90
        1
176
     0
 40
0.0
176
     0
 90
        0
176
     0
290
     0
176
     0
290
     1
176
     0
290
     1
176
     0
290
     0
176
     0
290
     0
176
     0
290
     0
176
     0
290
     0
176
     0
290
     0
176
     0
290
     0
176
     0
 90
       50
176
     0
 40
0.0
176
     0
 40
1.0
176
     0
 90
        0
176
     0
 62
    18
420
        0
176
     0
 90
       50
176
     0
 90
        3
176
     0
 62
     5
420
      255
176
     0
290
     0
176
     0
 90
       50
176
     0
 90
       50
176
     0
 90
       50
176
     0
290
     0
176
     0
 90
       50
176
     0
 62
   256
176
     0
 40
1.0
176
     0
 90
        2
176
     0
  1
strokes_ogs.tif
176
     0
290
     0
176
     0
 40
1.0
176
     0
 40
1.0
176
     0
  0
VISUALSTYLE
  5
38
102
{ACAD_REACTORS
330
2A
102
}
330
2A
100
AcDbVisualStyle
  2
Linepattern
 70
    14
177
     3
291
     1
 70
    58
 90
        2
176
     1
 90
        2
176
     1
 90
        0
176
     1
 90
        0
176
     1
 40
0.6
176
     1
 40
30.0
176
     1
 62
     7
420
 16777215
176
     1
 90
        1
176
     1
 90
        4
176
     1
 62
     7
176
     1
 62
   257
176
     1
 90
        7
176
     1
 90
        7
176
     1
 40
1.0
176
     1
 90
        8
176
     1
 62
     7
176
     1
 40
1.0
176
     1
 90
        1
176
     1
 90
        6
176
     1
 90
        2
176
     1
 62
     7
176
     1
 90
        5
176
     1
 90
        0
176
     1
 90
        0
176
     1
290
     0
176
     1
 90
        1
176
     1
 40
0.0
176
     1
 90
        0
176
     1
290
     0
176
     1
290
     1
176
     1
290
     1
176
     1
290
     0
176
     1
290
     0
176
     1
290
     0
176
     1
290
     0
176
     1
290
     0
176
     1
290
     0
176
     1
 90
       50
176
     1
 40
0.0
176
     1
 40
1.0
176
     1
 90
        0
176
     1
 62
    18
420
        0
176
     1
 90
       50
176
     1
 90
        3
176
     1
 62
     5
420
      255
176
     1
290
     0
176
     1
 90
       50
176
     1
 90
       50
176
     1
 90
       50
176
     1
290
     0
176
     1
 90
       50
176
     1
 62
   256
176
     0
 40
1.0
176
     0
 90
        2
176
     1
  1
strokes_ogs.tif
176
     1
290
     0
176
     1
 40
1.0
176
     1
 40
1.0
176
     1
  0
VISUALSTYLE
  5
3C
102
{ACAD_REACTORS
330
2A
102
}
330
2A
100
AcDbVisualStyle
  2
OverhangOff
 70
    21
177
     3
291
     1
 70
    58
 90
        2
176
     0
 90
        2
176
     0
 90
        0
176
     0
 90
        0
176
     0
 40
0.6
176
     0
 40
30.0
176
     0
 62
     7
420
 16777215
176
     0
 90
        1
176
     0
 90
        4
176
     0
 62
     7
176
     0
 62
   257
176
     0
 90
        1
176
     0
 90
        1
176
     0
 40
1.0
176
     0
 90
        9
176
     2
 62
     7
176
     0
 40
1.0
176
     0
 90
        1
176
     0
 90
        6
176
     0
 90
        2
176
     0
 62
     7
176
     0
 90
        5
176
     0
 90
        0
176
     0
 90
        0
176
     0
290
     0
176
     0
 90
        1
176
     0
 40
0.0
176
     0
 90
        0
176
     0
290
     0
176
     0
290
     1
176
     0
290
     1
176
     0
290
     0
176
     0
290
     0
176
     0
290
     0
176
     0
290
     0
176
     0
290
     0
176
     0
290
     0
176
     0
 90
       50
176
     0
 40
0.0
176
     0
 40
1.0
176
     0
 90
        0
176
     0
 62
    18
420
        0
176
     0
 90
       50
176
     0
 90
        3
176
     0
 62
     5
420
      255
176
     0
290
     0
176
     0
 90
       50
176
     0
 90
       50
176
     0
 90
       50
176
     0
290
     0
176
     0
 90
       50
176
     0
 62
   256
176
     0
 40
1.0
176
     0
 90
        2
176
     0
  1
strokes_ogs.tif
176
     0
290
     0
176
     0
 40
1.0
176
     0
 40
1.0
176
     0
  0
VISUALSTYLE
  5
33
102
{ACAD_REACTORS
330
2A
102
}
330
2A
100
AcDbVisualStyle
  2
Realistic
 70
     8
177
     3
291
     0
 70
    58
 90
        2
176
     1
 90
        3
176
     1
 90
        0
176
     1
 90
        2
176
     1
 40
0.6
176
     1
 40
30.0
176
     1
 62
     7
420
 16777215
176
     1
 90
        0
176
     1
 90
        0
176
     1
 62
     7
176
     1
 62
   257
176
     1
 90
        1
176
     1
 90
        1
176
     1
 40
1.0
176
     1
 90
        8
176
     1
 62
   257
176
     1
 40
1.0
176
     1
 90
        1
176
     1
 90
        6
176
     1
 90
        2
176
     1
 62
     7
176
     1
 90
        3
176
     1
 90
        0
176
     1
 90
        0
176
     1
290
     0
176
     1
 90
       13
176
     1
 40
0.0
176
     1
 90
        0
176
     1
290
     0
176
     1
290
     1
176
     1
290
     1
176
     1
290
     0
176
     1
290
     0
176
     1
290
     0
176
     1
290
     0
176
     1
290
     0
176
     1
290
     0
176
     1
 90
       50
176
     1
 40
0.0
176
     1
 40
1.0
176
     1
 90
        0
176
     1
 62
    18
420
        0
176
     1
 90
       50
176
     1
 90
        3
176
     1
 62
     5
420
      255
176
     1
290
     0
176
     1
 90
       50
176
     1
 90
       50
176
     1
 90
       50
176
     1
290
     0
176
     1
 90
       50
176
     1
 62
   256
176
     0
 40
1.0
176
     0
 90
        2
176
     1
  1
strokes_ogs.tif
176
     1
290
     0
176
     1
 40
1.0
176
     1
 40
1.0
176
     1
  0
VISUALSTYLE
  5
42
102
{ACAD_REACTORS
330
2A
102
}
330
2A
100
AcDbVisualStyle
  2
Shaded
 70
    27
177
     3
291
     0
 70
    58
 90
        2
176
     1
 90
        2
176
     1
 90
        1
176
     1
 90
        2
176
     1
 40
0.6
176
     1
 40
30.0
176
     1
 62
     7
420
 16777215
176
     1
 90
        0
176
     1
 90
        4
176
     1
 62
     7
176
     1
 62
   257
176
     1
 90
        1
176
     1
 90
        1
176
     1
 40
1.0
176
     1
 90
        8
176
     1
 62
   257
176
     1
 40
1.0
176
     1
 90
        1
176
     1
 90
        6
176
     1
 90
        2
176
     1
 62
     8
420
  7895160
176
     1
 90
        3
176
     1
 90
        0
176
     1
 90
        0
176
     1
290
     0
176
     1
 90
        5
176
     1
 40
0.0
176
     1
 90
        0
176
     1
290
     0
176
     1
290
     1
176
     1
290
     1
176
     1
290
     0
176
     1
290
     0
176
     1
290
     0
176
     1
290
     0
176
     1
290
     0
176
     1
290
     0
176
     1
 90
       50
176
     1
 40
0.0
176
     1
 40
1.0
176
     1
 90
        0
176
     1
 62
    18
420
        0
176
     1
 90
       50
176
     1
 90
        3
176
     1
 62
     5
420
      255
176
     1
290
     0
176
     1
 90
       50
176
     1
 90
       50
176
     1
 90
       50
176
     1
290
     0
176
     1
 90
       50
176
     1
 62
   256
176
     0
 40
1.0
176
     0
 90
        2
176
     1
  1
strokes_ogs.tif
176
     1
290
     0
176
     1
 40
1.0
176
     1
 40
1.0
176
     1
  0
VISUALSTYLE
  5
41
102
{ACAD_REACTORS
330
2A
102
}
330
2A
100
AcDbVisualStyle
  2
Shaded with edges
 70
    26
177
     3
291
     0
 70
    58
 90
        2
176
     1
 90
        2
176
     1
 90
        1
176
     1
 90
        2
176
     1
 40
0.6
176
     1
 40
30.0
176
     1
 62
     7
420
 16777215
176
     1
 90
        1
176
     1
 90
       10
176
     1
 62
     7
176
     1
 62
   257
176
     1
 90
        2
176
     1
 90
        1
176
     1
 40
1.0
176
     1
 90
        8
176
     1
 62
   257
176
     1
 40
1.0
176
     1
 90
        1
176
     1
 90
        6
176
     1
 90
        2
176
     1
 62
     7
176
     1
 90
        3
176
     1
 90
        0
176
     1
 90
        0
176
     1
290
     0
176
     1
 90
        5
176
     1
 40
0.0
176
     1
 90
        0
176
     1
290
     0
176
     1
290
     1
176
     1
290
     1
176
     1
290
     0
176
     1
290
     0
176
     1
290
     0
176
     1
290
     0
176
     1
290
     0
176
     1
290
     0
176
     1
 90
       50
176
     1
 40
0.0
176
     1
 40
1.0
176
     1
 90
        0
176
     1
 62
    18
420
        0
176
     1
 90
       50
176
     1
 90
        3
176
     1
 62
     5
420
      255
176
     1
290
     0
176
     1
 90
       50
176
     1
 90
       50
176
     1
 90
       50
176
     1
290
     0
176
     1
 90
       50
176
     1
 62
   256
176
     0
 40
1.0
176
     0
 90
        2
176
     1
  1
strokes_ogs.tif
176
     1
290
     0
176
     1
 40
1.0
176
     1
 40
1.0
176
     1
  0
VISUALSTYLE
  5
3E
102
{ACAD_REACTORS
330
2A
102
}
330
2A
100
AcDbVisualStyle
  2
Shades of Gray
 70
    23
177
     3
291
     0
 70
    58
 90
        2
176
     1
 90
        2
176
     1
 90
        3
176
     1
 90
        0
176
     1
 40
0.6
176
     1
 40
30.0
176
     1
 62
     7
420
 16777215
176
     1
 90
        2
176
     1
 90
        2
176
     1
 62
     7
176
     1
 62
     7
176
     1
 90
        1
176
     1
 90
        1
176
     1
 40
40.0
176
     1
 90
        8
176
     1
 62
     7
176
     1
 40
1.0
176
     1
 90
        1
176
     1
 90
        6
176
     1
 90
        2
176
     1
 62
     7
176
     1
 90
        3
176
     1
 90
        0
176
     1
 90
        0
176
     1
290
     0
176
     1
 90
        1
176
     1
 40
0.0
176
     1
 90
        0
176
     1
290
     0
176
     1
290
     1
176
     1
290
     1
176
     1
290
     0
176
     1
290
     0
176
     1
290
     0
176
     1
290
     0
176
     1
290
     0
176
     1
290
     0
176
     1
 90
       50
176
     1
 40
0.0
176
     1
 40
1.0
176
     1
 90
        0
176
     1
 62
    18
420
        0
176
     1
 90
       50
176
     1
 90
        3
176
     1
 62
     5
420
      255
176
     1
290
     0
176
     1
 90
       50
176
     1
 90
       50
176
     1
 90
       50
176
     1
290
     0
176
     1
 90
       50
176
     1
 62
   256
176
     0
 40
1.0
176
     0
 90
        2
176
     1
  1
strokes_ogs.tif
176
     1
290
     0
176
     1
 40
1.0
176
     1
 40
1.0
176
     1
  0
VISUALSTYLE
  5
3F
102
{ACAD_REACTORS
330
2A
102
}
330
2A
100
AcDbVisualStyle
  2
Sketchy
 70
    24
177
     3
291
     0
 70
    58
 90
        1
176
     1
 90
        2
176
     1
 90
        2
176
     1
 90
        0
176
     1
 40
0.6
176
     1
 40
30.0
176
     1
 62
     7
420
 16777215
176
     1
 90
        2
176
     1
 90
        2
176
     1
 62
     7
176
     1
 62
     7
176
     1
 90
        1
176
     1
 90
        1
176
     1
 40
40.0
176
     1
 90
       11
176
     1
 62
     7
176
     1
 40
1.0
176
     1
 90
        1
176
     1
 90
        6
176
     1
 90
        2
176
     1
 62
     7
176
     1
 90
        6
176
     1
 90
        0
176
     1
 90
        0
176
     1
290
     0
176
     1
 90
        1
176
     1
 40
0.0
176
     1
 90
        0
176
     1
290
     0
176
     1
290
     1
176
     1
290
     1
176
     1
290
     0
176
     1
290
     0
176
     1
290
     0
176
     1
290
     0
176
     1
290
     0
176
     1
290
     0
176
     1
 90
       50
176
     1
 40
0.0
176
     1
 40
1.0
176
     1
 90
        0
176
     1
 62
    18
420
        0
176
     1
 90
       50
176
     1
 90
        3
176
     1
 62
     5
420
      255
176
     1
290
     0
176
     1
 90
       50
176
     1
 90
       50
176
     1
 90
       50
176
     1
290
     0
176
     1
 90
       50
176
     1
 62
   256
176
     0
 40
1.0
176
     0
 90
        2
176
     1
  1
strokes_ogs.tif
176
     1
290
     0
176
     1
 40
1.0
176
     1
 40
1.0
176
     1
  0
VISUALSTYLE
  5
37
102
{ACAD_REACTORS
330
2A
102
}
330
2A
100
AcDbVisualStyle
  2
Thicken
 70
    13
177
     3
291
     1
 70
    58
 90
        2
176
     1
 90
        2
176
     1
 90
        0
176
     1
 90
        0
176
     1
 40
0.6
176
     1
 40
30.0
176
     1
 62
     7
420
 16777215
176
     1
 90
        1
176
     1
 90
        4
176
     1
 62
     7
176
     1
 62
   257
176
     1
 90
        1
176
     1
 90
        1
176
     1
 40
1.0
176
     1
 90
       12
176
     1
 62
     7
176
     1
 40
1.0
176
     1
 90
        1
176
     1
 90
        6
176
     1
 90
        2
176
     1
 62
     7
176
     1
 90
        5
176
     1
 90
        0
176
     1
 90
        0
176
     1
290
     0
176
     1
 90
        1
176
     1
 40
0.0
176
     1
 90
        0
176
     1
290
     0
176
     1
290
     1
176
     1
290
     1
176
     1
290
     0
176
     1
290
     0
176
     1
290
     0
176
     1
290
     0
176
     1
290
     0
176
     1
290
     0
176
     1
 90
       50
176
     1
 40
0.0
176
     1
 40
1.0
176
     1
 90
        0
176
     1
 62
    18
420
        0
176
     1
 90
       50
176
     1
 90
        3
176
     1
 62
     5
420
      255
176
     1
290
     0
176
     1
 90
       50
176
     1
 90
       50
176
     1
 90
       50
176
     1
290
     0
176
     1
 90
       50
176
     1
 62
   256
176
     0
 40
1.0
176
     0
 90
        2
176
     1
  1
strokes_ogs.tif
176
     1
290
     0
176
     1
 40
1.0
176
     1
 40
1.0
176
     1
  0
VISUALSTYLE
  5
30
102
{ACAD_REACTORS
330
2A
102
}
330
2A
100
AcDbVisualStyle
  2
Wireframe
 70
     5
177
     3
291
     0
 70
    58
 90
        0
176
     1
 90
        2
176
     1
 90
        0
176
     1
 90
        0
176
     1
 40
0.6
176
     1
 40
30.0
176
     1
 62
     7
420
 16777215
176
     1
 90
        1
176
     1
 90
        4
176
     1
 62
     7
176
     1
 62
   257
176
     1
 90
        1
176
     1
 90
        1
176
     1
 40
1.0
176
     1
 90
        0
176
     1
 62
   257
176
     1
 40
1.0
176
     1
 90
        1
176
     1
 90
        6
176
     1
 90
        2
176
     1
 62
     7
176
     1
 90
        3
176
     1
 90
        0
176
     1
 90
        0
176
     1
290
     0
176
     1
 90
        1
176
     1
 40
0.0
176
     1
 90
        0
176
     1
290
     0
176
     1
290
     1
176
     1
290
     1
176
     1
290
     0
176
     1
290
     0
176
     1
290
     0
176
     1
290
     0
176
     1
290
     0
176
     1
290
     0
176
     1
 90
       50
176
     1
 40
0.0
176
     1
 40
1.0
176
     1
 90
        0
176
     1
 62
    18
420
        0
176
     1
 90
       50
176
     1
 90
        3
176
     1
 62
     5
420
      255
176
     1
290
     0
176
     1
 90
       50
176
     1
 90
       50
176
     1
 90
       50
176
     1
290
     0
176
     1
 90
       50
176
     1
 62
   256
176
     0
 40
1.0
176
     0
 90
        2
176
     1
  1
strokes_ogs.tif
176
     1
290
     0
176
     1
 40
1.0
176
     1
 40
1.0
176
     1
  0
VISUALSTYLE
  5
40
102
{ACAD_REACTORS
330
2A
102
}
330
2A
100
AcDbVisualStyle
  2
X-Ray
 70
    25
177
     3
291
     0
 70
    58
 90
        2
176
     1
 90
        2
176
     1
 90
        1
176
     1
 90
        1
176
     1
 40
0.5
176
     1
 40
30.0
176
     1
 62
     7
420
 16777215
176
     1
 90
        1
176
     1
 90
        0
176
     1
 62
     7
176
     1
 62
   257
176
     1
 90
        1
176
     1
 90
        1
176
     1
 40
1.0
176
     1
 90
        8
176
     1
 62
     7
176
     1
 40
1.0
176
     1
 90
        1
176
     1
 90
        6
176
     1
 90
        2
176
     1
 62
     7
176
     1
 90
        3
176
     1
 90
        0
176
     1
 90
        0
176
     1
290
     0
176
     1
 90
       13
176
     1
 40
0.0
176
     1
 90
        0
176
     1
290
     0
176
     1
290
     1
176
     1
290
     1
176
     1
290
     0
176
     1
290
     0
176
     1
290
     0
176
     1
290
     0
176
     1
290
     0
176
     1
290
     0
176
     1
 90
       50
176
     1
 40
0.0
176
     1
 40
1.0
176
     1
 90
        0
176
     1
 62
    18
420
        0
176
     1
 90
       50
176
     1
 90
        3
176
     1
 62
     5
420
      255
176
     1
290
     0
176
     1
 90
       50
176
     1
 90
       50
176
     1
 90
       50
176
     1
290
     0
176
     1
 90
       50
176
     1
 62
   256
176
     0
 40
1.0
176
     0
 90
        2
176
     1
  1
strokes_ogs.tif
176
     1
290
     0
176
     1
 40
1.0
176
     1
 40
1.0
176
     1
  0
DICTIONARYVAR
  5
14E
102
{ACAD_REACTORS
330
14D
102
}
330
14D
100
DictionaryVariables
280
     0
  1
1:1
  0
DICTIONARYVAR
  5
153
102
{ACAD_REACTORS
330
14D
102
}
330
14D
100
DictionaryVariables
280
     0
  1
Standard
  0
DICTIONARYVAR
  5
152
102
{ACAD_REACTORS
330
14D
102
}
330
14D
100
DictionaryVariables
280
     0
  1
Standard
  0
DICTIONARY
  5
14F
330
6A
100
AcDbDictionary
280
     1
281
     1
  3
ACAD_ROUNDTRIP_2008_TABLESTYLE_CELLSTYLEMAP
360
150
  0
CELLSTYLEMAP
  5
150
102
{ACAD_REACTORS
330
14F
102
}
330
14F
100
AcDbCellStyleMap
 90
        3
300
CELLSTYLE
  1
TABLEFORMAT_BEGIN
 90
        5
170
     1
 91
        0
 92
    32768
 62
   257
 93
        1
300
CONTENTFORMAT
  1
CONTENTFORMAT_BEGIN
 90
        0
 91
        0
 92
        4
 93
        0
300

 40
0.0
140
1.0
 94
        5
 62
     0
340
11
144
6.0
309
CONTENTFORMAT_END
171
     1
301
MARGIN
  1
CELLMARGIN_BEGIN
 40
1.5
 40
1.5
 40
1.5
 40
1.5
 40
1.5
 40
1.5
309
CELLMARGIN_END
 94
        6
 95
        1
302
GRIDFORMAT
  1
GRIDFORMAT_BEGIN
 90
        0
 91
        1
 62
     0
 92
       -2
340
14
 93
        0
 40
0.045
309
GRIDFORMAT_END
 95
        2
302
GRIDFORMAT
  1
GRIDFORMAT_BEGIN
 90
        0
 91
        1
 62
     0
 92
       -2
340
14
 93
        0
 40
0.045
309
GRIDFORMAT_END
 95
        4
302
GRIDFORMAT
  1
GRIDFORMAT_BEGIN
 90
        0
 91
        1
 62
     0
 92
       -2
340
14
 93
        0
 40
0.045
309
GRIDFORMAT_END
 95
        8
302
GRIDFORMAT
  1
GRIDFORMAT_BEGIN
 90
        0
 91
        1
 62
     0
 92
       -2
340
14
 93
        0
 40
0.045
309
GRIDFORMAT_END
 95
       16
302
GRIDFORMAT
  1
GRIDFORMAT_BEGIN
 90
        0
 91
        1
 62
     0
 92
       -2
340
14
 93
        0
 40
0.045
309
GRIDFORMAT_END
 95
       32
302
GRIDFORMAT
  1
GRIDFORMAT_BEGIN
 90
        0
 91
        1
 62
     0
 92
       -2
340
14
 93
        0
 40
0.045
309
GRIDFORMAT_END
309
TABLEFORMAT_END
  1
CELLSTYLE_BEGIN
 90
        1
 91
        1
300
_TITLE
309
CELLSTYLE_END
300
CELLSTYLE
  1
TABLEFORMAT_BEGIN
 90
        5
170
     1
 91
        0
 92
        0
 62
   257
 93
        1
300
CONTENTFORMAT
  1
CONTENTFORMAT_BEGIN
 90
        0
 91
        0
 92
        4
 93
        0
300

 40
0.0
140
1.0
 94
        5
 62
     0
340
11
144
4.5
309
CONTENTFORMAT_END
171
     1
301
MARGIN
  1
CELLMARGIN_BEGIN
 40
1.5
 40
1.5
 40
1.5
 40
1.5
 40
1.5
 40
1.5
309
CELLMARGIN_END
 94
        6
 95
        1
302
GRIDFORMAT
  1
GRIDFORMAT_BEGIN
 90
        0
 91
        1
 62
     0
 92
       -2
340
14
 93
        0
 40
0.045
309
GRIDFORMAT_END
 95
        2
302
GRIDFORMAT
  1
GRIDFORMAT_BEGIN
 90
        0
 91
        1
 62
     0
 92
       -2
340
14
 93
        0
 40
0.045
309
GRIDFORMAT_END
 95
        4
302
GRIDFORMAT
  1
GRIDFORMAT_BEGIN
 90
        0
 91
        1
 62
     0
 92
       -2
340
14
 93
        0
 40
0.045
309
GRIDFORMAT_END
 95
        8
302
GRIDFORMAT
  1
GRIDFORMAT_BEGIN
 90
        0
 91
        1
 62
     0
 92
       -2
340
14
 93
        0
 40
0.045
309
GRIDFORMAT_END
 95
       16
302
GRIDFORMAT
  1
GRIDFORMAT_BEGIN
 90
        0
 91
        1
 62
     0
 92
       -2
340
14
 93
        0
 40
0.045
309
GRIDFORMAT_END
 95
       32
302
GRIDFORMAT
  1
GRIDFORMAT_BEGIN
 90
        0
 91
        1
 62
     0
 92
       -2
340
14
 93
        0
 40
0.045
309
GRIDFORMAT_END
309
TABLEFORMAT_END
  1
CELLSTYLE_BEGIN
 90
        2
 91
        1
300
_HEADER
309
CELLSTYLE_END
300
CELLSTYLE
  1
TABLEFORMAT_BEGIN
 90
        5
170
     1
 91
        0
 92
        0
 62
   257
 93
        1
300
CONTENTFORMAT
  1
CONTENTFORMAT_BEGIN
 90
        0
 91
        0
 92
        4
 93
        0
300

 40
0.0
140
1.0
 94
        2
 62
     0
340
11
144
4.5
309
CONTENTFORMAT_END
171
     1
301
MARGIN
  1
CELLMARGIN_BEGIN
 40
1.5
 40
1.5
 40
1.5
 40
1.5
 40
1.5
 40
1.5
309
CELLMARGIN_END
 94
        6
 95
        1
302
GRIDFORMAT
  1
GRIDFORMAT_BEGIN
 90
        0
 91
        1
 62
     0
 92
       -2
340
14
 93
        0
 40
0.045
309
GRIDFORMAT_END
 95
        2
302
GRIDFORMAT
  1
GRIDFORMAT_BEGIN
 90
        0
 91
        1
 62
     0
 92
       -2
340
14
 93
        0
 40
0.045
309
GRIDFORMAT_END
 95
        4
302
GRIDFORMAT
  1
GRIDFORMAT_BEGIN
 90
        0
 91
        1
 62
     0
 92
       -2
340
14
 93
        0
 40
0.045
309
GRIDFORMAT_END
 95
        8
302
GRIDFORMAT
  1
GRIDFORMAT_BEGIN
 90
        0
 91
        1
 62
     0
 92
       -2
340
14
 93
        0
 40
0.045
309
GRIDFORMAT_END
 95
       16
302
GRIDFORMAT
  1
GRIDFORMAT_BEGIN
 90
        0
 91
        1
 62
     0
 92
       -2
340
14
 93
        0
 40
0.045
309
GRIDFORMAT_END
 95
       32
302
GRIDFORMAT
  1
GRIDFORMAT_BEGIN
 90
        0
 91
        1
 62
     0
 92
       -2
340
14
 93
        0
 40
0.045
309
GRIDFORMAT_END
309
TABLEFORMAT_END
  1
CELLSTYLE_BEGIN
 90
        3
 91
        2
300
_DATA
309
CELLSTYLE_END
  0
ENDSEC
  0
EOF