0
SECTION
  2
HEADER
  9
$ACADVER
  1
AC1027
  9
$ACADMAINTVER
 70
   105
  9
$DWGCODEPAGE
  3
ANSI_1252
  9
$REQUIREDVERSIONS
160
                 0
  9
$COMMENTS
  1
File was created by Cadenas
  9
$CUSTOMPROPERTYTAG
  1
NN
  9
$CUSTOMPROPERTY
  1
Sleeve Bearings - SOLIDLUBE 3/4 thru 3 LT1000 Pillow Blocks
  9
$CUSTOMPROPERTYTAG
  1
NT
  9
$CUSTOMPROPERTY
  1
SOLIDLUBE
  9
$CUSTOMPROPERTYTAG
  1
NB
  9
$CUSTOMPROPERTY
  1
033990
  9
$CUSTOMPROPERTYTAG
  1
NBSYN
  9
$CUSTOMPROPERTY
  1
$PN.
  9
$CUSTOMPROPERTYTAG
  1
LINA
  9
$CUSTOMPROPERTY
  1
033990
  9
$CUSTOMPROPERTYTAG
  1
SERIES
  9
$CUSTOMPROPERTY
  1
209
  9
$CUSTOMPROPERTYTAG
  1
SS
  9
$CUSTOMPROPERTY
  1
1-11/16
  9
$CUSTOMPROPERTYTAG
  1
PN
  9
$CUSTOMPROPERTY
  1
033990
  9
$CUSTOMPROPERTYTAG
  1
DESCRIPTION
  9
$CUSTOMPROPERTY
  1
P2B-LT10-111
  9
$CUSTOMPROPERTYTAG
  1
WEIGHT
  9
$CUSTOMPROPERTY
  1
6.0
  9
$CUSTOMPROPERTYTAG
  1
A
  9
$CUSTOMPROPERTY
  1
1-9/16
  9
$CUSTOMPROPERTYTAG
  1
B
  9
$CUSTOMPROPERTY
  1
7-7/16
  9
$CUSTOMPROPERTYTAG
  1
C
  9
$CUSTOMPROPERTY
  1
2
  9
$CUSTOMPROPERTYTAG
  1
DMIN
  9
$CUSTOMPROPERTY
  1
5-1/2
  9
$CUSTOMPROPERTYTAG
  1
DMAX
  9
$CUSTOMPROPERTY
  1
6-3/16
  9
$CUSTOMPROPERTYTAG
  1
F
  9
$CUSTOMPROPERTY
  1
1/2
  9
$CUSTOMPROPERTYTAG
  1
G
  9
$CUSTOMPROPERTY
  1
29/32
  9
$CUSTOMPROPERTYTAG
  1
H
  9
$CUSTOMPROPERTY
  1
3/4
  9
$CUSTOMPROPERTYTAG
  1
J
  9
$CUSTOMPROPERTY
  1
4-9/32
  9
$CUSTOMPROPERTYTAG
  1
L
  9
$CUSTOMPROPERTY
  1
2-9/16
  9
$CUSTOMPROPERTYTAG
  1
M
  9
$CUSTOMPROPERTY
  1
2-1/8
  9
$CUSTOMPROPERTYTAG
  1
COMPANY
  9
$CUSTOMPROPERTY
  1
baldor
  9
$INSBASE
 10
0.0
 20
0.0
 30
0.0
  9
$EXTMIN
 10
1.000000000000000E+20
 20
1.000000000000000E+20
 30
1.000000000000000E+20
  9
$EXTMAX
 10
-1.000000000000000E+20
 20
-1.000000000000000E+20
 30
-1.000000000000000E+20
  9
$LIMMIN
 10
0.0
 20
0.0
  9
$LIMMAX
 10
12.0
 20
9.0
  9
$ORTHOMODE
 70
     0
  9
$REGENMODE
 70
     1
  9
$FILLMODE
 70
     1
  9
$QTEXTMODE
 70
     0
  9
$MIRRTEXT
 70
     1
  9
$LTSCALE
 40
1.0
  9
$ATTMODE
 70
     1
  9
$TEXTSIZE
 40
0.2
  9
$TRACEWID
 40
0.05
  9
$TEXTSTYLE
  7
Standard
  9
$CLAYER
  8
0
  9
$CELTYPE
  6
ByLayer
  9
$CECOLOR
 62
   256
  9
$CELTSCALE
 40
1.0
  9
$DISPSILH
 70
     0
  9
$DIMSCALE
 40
1.0
  9
$DIMASZ
 40
0.18
  9
$DIMEXO
 40
0.0625
  9
$DIMDLI
 40
0.38
  9
$DIMRND
 40
0.0
  9
$DIMDLE
 40
0.0
  9
$DIMEXE
 40
0.18
  9
$DIMTP
 40
0.0
  9
$DIMTM
 40
0.0
  9
$DIMTXT
 40
0.18
  9
$DIMCEN
 40
0.09
  9
$DIMTSZ
 40
0.0
  9
$DIMTOL
 70
     0
  9
$DIMLIM
 70
     0
  9
$DIMTIH
 70
     1
  9
$DIMTOH
 70
     1
  9
$DIMSE1
 70
     0
  9
$DIMSE2
 70
     0
  9
$DIMTAD
 70
     0
  9
$DIMZIN
 70
     0
  9
$DIMBLK
  1

  9
$DIMASO
 70
     1
  9
$DIMSHO
 70
     1
  9
$DIMPOST
  1

  9
$DIMAPOST
  1

  9
$DIMALT
 70
     0
  9
$DIMALTD
 70
     2
  9
$DIMALTF
 40
25.4
  9
$DIMLFAC
 40
1.0
  9
$DIMTOFL
 70
     0
  9
$DIMTVP
 40
0.0
  9
$DIMTIX
 70
     0
  9
$DIMSOXD
 70
     0
  9
$DIMSAH
 70
     0
  9
$DIMBLK1
  1

  9
$DIMBLK2
  1

  9
$DIMSTYLE
  2
Standard
  9
$DIMCLRD
 70
     0
  9
$DIMCLRE
 70
     0
  9
$DIMCLRT
 70
     0
  9
$DIMTFAC
 40
1.0
  9
$DIMGAP
 40
0.09
  9
$DIMJUST
 70
     0
  9
$DIMSD1
 70
     0
  9
$DIMSD2
 70
     0
  9
$DIMTOLJ
 70
     1
  9
$DIMTZIN
 70
     0
  9
$DIMALTZ
 70
     0
  9
$DIMALTTZ
 70
     0
  9
$DIMUPT
 70
     0
  9
$DIMDEC
 70
     4
  9
$DIMTDEC
 70
     4
  9
$DIMALTU
 70
     2
  9
$DIMALTTD
 70
     2
  9
$DIMTXSTY
  7
Standard
  9
$DIMAUNIT
 70
     0
  9
$DIMADEC
 70
     0
  9
$DIMALTRND
 40
0.0
  9
$DIMAZIN
 70
     0
  9
$DIMDSEP
 70
    46
  9
$DIMATFIT
 70
     3
  9
$DIMFRAC
 70
     0
  9
$DIMLDRBLK
  1

  9
$DIMLUNIT
 70
     2
  9
$DIMLWD
 70
    -2
  9
$DIMLWE
 70
    -2
  9
$DIMTMOVE
 70
     0
  9
$DIMFXL
 40
1.0
  9
$DIMFXLON
 70
     0
  9
$DIMJOGANG
 40
0.7853981633974483
  9
$DIMTFILL
 70
     0
  9
$DIMTFILLCLR
 70
     0
  9
$DIMARCSYM
 70
     0
  9
$DIMLTYPE
  6

  9
$DIMLTEX1
  6

  9
$DIMLTEX2
  6

  9
$DIMTXTDIRECTION
 70
     0
  9
$LUNITS
 70
     2
  9
$LUPREC
 70
     4
  9
$SKETCHINC
 40
0.1
  9
$FILLETRAD
 40
0.5
  9
$AUNITS
 70
     0
  9
$AUPREC
 70
     0
  9
$MENU
  1
.
  9
$ELEVATION
 40
0.0
  9
$PELEVATION
 40
0.0
  9
$THICKNESS
 40
0.0
  9
$LIMCHECK
 70
     0
  9
$CHAMFERA
 40
0.0
  9
$CHAMFERB
 40
0.0
  9
$CHAMFERC
 40
0.0
  9
$CHAMFERD
 40
0.0
  9
$SKPOLY
 70
     0
  9
$TDCREATE
 40
2458169.006386458
  9
$TDUCREATE
 40
2458168.964719792
  9
$TDUPDATE
 40
2458169.006386644
  9
$TDUUPDATE
 40
2458168.964719977
  9
$TDINDWG
 40
0.0000000116
  9
$TDUSRTIMER
 40
0.0000000116
  9
$USRTIMER
 70
     1
  9
$ANGBASE
 50
0.0
  9
$ANGDIR
 70
     0
  9
$PDMODE
 70
     0
  9
$PDSIZE
 40
0.0
  9
$PLINEWID
 40
0.0
  9
$SPLFRAME
 70
     0
  9
$SPLINETYPE
 70
     6
  9
$SPLINESEGS
 70
     8
  9
$HANDSEED
  5
14C
  9
$SURFTAB1
 70
     6
  9
$SURFTAB2
 70
     6
  9
$SURFTYPE
 70
     6
  9
$SURFU
 70
     6
  9
$SURFV
 70
     6
  9
$UCSBASE
  2

  9
$UCSNAME
  2

  9
$UCSORG
 10
0.0
 20
0.0
 30
0.0
  9
$UCSXDIR
 10
1.0
 20
0.0
 30
0.0
  9
$UCSYDIR
 10
0.0
 20
1.0
 30
0.0
  9
$UCSORTHOREF
  2

  9
$UCSORTHOVIEW
 70
     0
  9
$UCSORGTOP
 10
0.0
 20
0.0
 30
0.0
  9
$UCSORGBOTTOM
 10
0.0
 20
0.0
 30
0.0
  9
$UCSORGLEFT
 10
0.0
 20
0.0
 30
0.0
  9
$UCSORGRIGHT
 10
0.0
 20
0.0
 30
0.0
  9
$UCSORGFRONT
 10
0.0
 20
0.0
 30
0.0
  9
$UCSORGBACK
 10
0.0
 20
0.0
 30
0.0
  9
$PUCSBASE
  2

  9
$PUCSNAME
  2

  9
$PUCSORG
 10
0.0
 20
0.0
 30
0.0
  9
$PUCSXDIR
 10
1.0
 20
0.0
 30
0.0
  9
$PUCSYDIR
 10
0.0
 20
1.0
 30
0.0
  9
$PUCSORTHOREF
  2

  9
$PUCSORTHOVIEW
 70
     0
  9
$PUCSORGTOP
 10
0.0
 20
0.0
 30
0.0
  9
$PUCSORGBOTTOM
 10
0.0
 20
0.0
 30
0.0
  9
$PUCSORGLEFT
 10
0.0
 20
0.0
 30
0.0
  9
$PUCSORGRIGHT
 10
0.0
 20
0.0
 30
0.0
  9
$PUCSORGFRONT
 10
0.0
 20
0.0
 30
0.0
  9
$PUCSORGBACK
 10
0.0
 20
0.0
 30
0.0
  9
$USERI1
 70
     0
  9
$USERI2
 70
     0
  9
$USERI3
 70
     0
  9
$USERI4
 70
     0
  9
$USERI5
 70
     0
  9
$USERR1
 40
0.0
  9
$USERR2
 40
0.0
  9
$USERR3
 40
0.0
  9
$USERR4
 40
0.0
  9
$USERR5
 40
0.0
  9
$WORLDVIEW
 70
     1
  9
$SHADEDGE
 70
     3
  9
$SHADEDIF
 70
    70
  9
$TILEMODE
 70
     1
  9
$MAXACTVP
 70
    64
  9
$PINSBASE
 10
0.0
 20
0.0
 30
0.0
  9
$PLIMCHECK
 70
     0
  9
$PEXTMIN
 10
1.000000000000000E+20
 20
1.000000000000000E+20
 30
1.000000000000000E+20
  9
$PEXTMAX
 10
-1.000000000000000E+20
 20
-1.000000000000000E+20
 30
-1.000000000000000E+20
  9
$PLIMMIN
 10
0.0
 20
0.0
  9
$PLIMMAX
 10
12.0
 20
9.0
  9
$UNITMODE
 70
     0
  9
$VISRETAIN
 70
     1
  9
$PLINEGEN
 70
     0
  9
$PSLTSCALE
 70
     1
  9
$TREEDEPTH
 70
  3020
  9
$CMLSTYLE
  2
Standard
  9
$CMLJUST
 70
     0
  9
$CMLSCALE
 40
1.0
  9
$PROXYGRAPHICS
 70
     1
  9
$MEASUREMENT
 70
     0
  9
$CELWEIGHT
370
    -1
  9
$ENDCAPS
280
     0
  9
$JOINSTYLE
280
     0
  9
$LWDISPLAY
290
     0
  9
$INSUNITS
 70
     1
  9
$HYPERLINKBASE
  1

  9
$STYLESHEET
  1

  9
$XEDIT
290
     1
  9
$CEPSNTYPE
380
     0
  9
$PSTYLEMODE
290
     1
  9
$FINGERPRINTGUID
  2
{337FDC5E-2D0F-4E23-98F4-DD347F0ED7F4}
  9
$VERSIONGUID
  2
{FAEB1C32-E019-11D5-929B-00C0DF256EC4}
  9
$EXTNAMES
290
     1
  9
$PSVPSCALE
 40
0.0
  9
$OLESTARTUP
290
     0
  9
$SORTENTS
280
   127
  9
$INDEXCTL
280
     0
  9
$HIDETEXT
280
     1
  9
$XCLIPFRAME
280
     2
  9
$HALOGAP
280
     0
  9
$OBSCOLOR
 70
   257
  9
$OBSLTYPE
280
     0
  9
$INTERSECTIONDISPLAY
280
     0
  9
$INTERSECTIONCOLOR
 70
   257
  9
$DIMASSOC
280
     2
  9
$PROJECTNAME
  1

  9
$CAMERADISPLAY
290
     0
  9
$LENSLENGTH
 40
50.0
  9
$CAMERAHEIGHT
 40
0.0
  9
$STEPSPERSEC
 40
2.0
  9
$STEPSIZE
 40
6.0
  9
$3DDWFPREC
 40
2.0
  9
$PSOLWIDTH
 40
0.25
  9
$PSOLHEIGHT
 40
4.0
  9
$LOFTANG1
 40
1.570796326794897
  9
$LOFTANG2
 40
1.570796326794897
  9
$LOFTMAG1
 40
0.0
  9
$LOFTMAG2
 40
0.0
  9
$LOFTPARAM
 70
     7
  9
$LOFTNORMALS
280
     1
  9
$LATITUDE
 40
37.795
  9
$LONGITUDE
 40
-122.394
  9
$NORTHDIRECTION
 40
0.0
  9
$TIMEZONE
 70
 -8000
  9
$LIGHTGLYPHDISPLAY
280
     1
  9
$TILEMODELIGHTSYNCH
280
     1
  9
$CMATERIAL
347
44
  9
$SOLIDHIST
280
     0
  9
$SHOWHIST
280
     1
  9
$DWFFRAME
280
     2
  9
$DGNFRAME
280
     2
  9
$REALWORLDSCALE
290
     1
  9
$INTERFERECOLOR
 62
   256
  9
$CSHADOW
280
     0
  9
$SHADOWPLANELOCATION
 40
0.0
  0
ENDSEC
  0
SECTION
  2
CLASSES
  0
CLASS
  1
ACDBDICTIONARYWDFLT
  2
AcDbDictionaryWithDefault
  3
ObjectDBX Classes
 90
        0
 91
        4
280
     0
281
     0
  0
CLASS
  1
VISUALSTYLE
  2
AcDbVisualStyle
  3
ObjectDBX Classes
 90
     4095
 91
        4
280
     0
281
     0
  0
CLASS
  1
MATERIAL
  2
AcDbMaterial
  3
ObjectDBX Classes
 90
     1153
 91
        4
280
     0
281
     0
  0
CLASS
  1
SCALE
  2
AcDbScale
  3
ObjectDBX Classes
 90
     1153
 91
        4
280
     0
281
     0
  0
CLASS
  1
TABLESTYLE
  2
AcDbTableStyle
  3
ObjectDBX Classes
 90
     4095
 91
        4
280
     0
281
     0
  0
CLASS
  1
MLEADERSTYLE
  2
AcDbMLeaderStyle
  3
ACDB_MLEADERSTYLE_CLASS
 90
     4095
 91
        4
280
     0
281
     0
  0
CLASS
  1
SUN
  2
AcDbSun
  3
SCENEOE
 90
     1153
 91
        4
280
     0
281
     0
  0
CLASS
  1
DICTIONARYVAR
  2
AcDbDictionaryVar
  3
ObjectDBX Classes
 90
        0
 91
        4
280
     0
281
     0
  0
CLASS
  1
CELLSTYLEMAP
  2
AcDbCellStyleMap
  3
ObjectDBX Classes
 90
     1152
 91
        4
280
     0
281
     0
  0
ENDSEC
  0
SECTION
  2
TABLES
  0
TABLE
  2
VPORT
  5
8
330
0
100
AcDbSymbolTable
 70
     1
  0
VPORT
  5
29
330
8
100
AcDbSymbolTableRecord
100
AcDbViewportTableRecord
  2
*Active
 70
     0
 10
0.0
 20
0.0
 11
1.0
 21
1.0
 12
4.821428571428571
 22
-3.9
 13
0.0
 23
0.0
 14
0.5
 24
0.5
 15
0.5
 25
0.5
 16
0.0
 26
0.0
 36
1.0
 17
0.0
 27
0.0
 37
0.0
 40
11.22
 41
1.55275974025974
 42
50.0
 43
0.0
 44
0.0
 50
0.0
 51
0.0
 71
     0
 72
   100
 73
     1
 74
     3
 75
     0
 76
     0
 77
     0
 78
     0
281
     0
 65
     1
110
0.0
120
0.0
130
0.0
111
1.0
121
0.0
131
0.0
112
0.0
122
1.0
132
0.0
 79
     0
146
0.0
348
2F
 60
     3
 61
     5
292
     1
282
     1
141
0.0
142
0.0
 63
   250
361
6D
  0
ENDTAB
  0
TABLE
  2
LTYPE
  5
5
330
0
100
AcDbSymbolTable
 70
     3
  0
LTYPE
  5
14
330
5
100
AcDbSymbolTableRecord
100
AcDbLinetypeTableRecord
  2
ByBlock
 70
     0
  3

 72
    65
 73
     0
 40
0.0
  0
LTYPE
  5
15
330
5
100
AcDbSymbolTableRecord
100
AcDbLinetypeTableRecord
  2
ByLayer
 70
     0
  3

 72
    65
 73
     0
 40
0.0
  0
LTYPE
  5
16
330
5
100
AcDbSymbolTableRecord
100
AcDbLinetypeTableRecord
  2
Continuous
 70
     0
  3
Solid line
 72
    65
 73
     0
 40
0.0
  0
LTYPE
  5
98
330
5
100
AcDbSymbolTableRecord
100
AcDbLinetypeTableRecord
  2
Dashed
 70
     0
  3

 72
    65
 73
     2
 40
2.0
 49
1.0
 74
     0
 49
-1.0
 74
     0
  0
LTYPE
  5
F2
330
5
100
AcDbSymbolTableRecord
100
AcDbLinetypeTableRecord
  2
Center
 70
     0
  3

 72
    65
 73
     4
 40
1.5
 49
0.45
 74
     0
 49
-0.5
 74
     0
 49
0.05
 74
     0
 49
-0.5
 74
     0
  0
ENDTAB
  0
TABLE
  2
LAYER
  5
2
330
0
100
AcDbSymbolTable
 70
     7
  0
LAYER
  5
10
330
2
100
AcDbSymbolTableRecord
100
AcDbLayerTableRecord
  2
0
 70
     0
 62
     7
  6
Continuous
370
    -3
390
F
347
46
348
0
  0
LAYER
  5
6E
330
2
100
AcDbSymbolTableRecord
100
AcDbLayerTableRecord
  2
AM_6
 70
     0
 62
    -2
  6
Continuous
370
    35
390
F
347
46
348
0
  0
LAYER
  5
99
330
2
100
AcDbSymbolTableRecord
100
AcDbLayerTableRecord
  2
AM_9
 70
     0
 62
     6
  6
Dashed
370
    25
390
F
347
46
348
0
  0
LAYER
  5
A4
330
2
100
AcDbSymbolTableRecord
100
AcDbLayerTableRecord
  2
AM_0
 70
     0
 62
     7
  6
Continuous
370
    50
390
F
347
46
348
0
  0
LAYER
  5
F3
330
2
100
AcDbSymbolTableRecord
100
AcDbLayerTableRecord
  2
AM_7
 70
     0
 62
     7
  6
Center
370
    25
390
F
347
46
348
0
  0
LAYER
  5
FC
330
2
100
AcDbSymbolTableRecord
100
AcDbLayerTableRecord
  2
AM_4
 70
     0
 62
     3
  6
Continuous
370
    25
390
F
347
46
348
0
  0
LAYER
  5
140
330
2
100
AcDbSymbolTableRecord
100
AcDbLayerTableRecord
  2
ConnectionPoints
 70
     0
 62
     7
  6
Continuous
370
    50
390
F
347
46
348
0
  0
ENDTAB
  0
TABLE
  2
STYLE
  5
3
330
0
100
AcDbSymbolTable
 70
     1
  0
STYLE
  5
11
330
3
100
AcDbSymbolTableRecord
100
AcDbTextStyleTableRecord
  2
Standard
 70
     0
 40
0.0
 41
1.0
 50
0.0
 71
     0
 42
0.2
  3
txt
  4

  0
ENDTAB
  0
TABLE
  2
VIEW
  5
6
330
0
100
AcDbSymbolTable
 70
     0
  0
ENDTAB
  0
TABLE
  2
UCS
  5
7
330
0
100
AcDbSymbolTable
 70
     0
  0
ENDTAB
  0
TABLE
  2
APPID
  5
9
330
0
100
AcDbSymbolTable
 70
     1
  0
APPID
  5
12
330
9
100
AcDbSymbolTableRecord
100
AcDbRegAppTableRecord
  2
ACAD
 70
     0
  0
ENDTAB
  0
TABLE
  2
DIMSTYLE
  5
A
330
0
100
AcDbSymbolTable
 70
     1
100
AcDbDimStyleTable
  0
DIMSTYLE
105
27
330
A
100
AcDbSymbolTableRecord
100
AcDbDimStyleTableRecord
  2
Standard
 70
     0
178
     0
340
11
  0
ENDTAB
  0
TABLE
  2
BLOCK_RECORD
  5
1
330
0
100
AcDbSymbolTable
 70
     3
  0
BLOCK_RECORD
  5
1F
330
1
100
AcDbSymbolTableRecord
100
AcDbBlockTableRecord
  2
*Model_Space
340
22
 70
     0
280
     1
281
     0
  0
BLOCK_RECORD
  5
1B
330
1
100
AcDbSymbolTableRecord
100
AcDbBlockTableRecord
  2
*Paper_Space
340
1E
 70
     0
280
     1
281
     0
  0
BLOCK_RECORD
  5
23
330
1
100
AcDbSymbolTableRecord
100
AcDbBlockTableRecord
  2
*Paper_Space0
340
26
 70
     0
280
     1
281
     0
  0
BLOCK_RECORD
  5
85
330
1
100
AcDbSymbolTableRecord
100
AcDbBlockTableRecord
  2
1_033620_0_in_033990_4
340
0
102
{BLKREFS
331
86
102
}
 70
     0
280
     1
281
     0
  0
BLOCK_RECORD
  5
AB
330
1
100
AcDbSymbolTableRecord
100
AcDbBlockTableRecord
  2
2_P2B_LT10_111_0_in_033990_4
340
0
102
{BLKREFS
331
AC
102
}
 70
     0
280
     1
281
     0
  0
ENDTAB
  0
ENDSEC
  0
SECTION
  2
BLOCKS
  0
BLOCK
  5
20
330
1F
100
AcDbEntity
  8
0
100
AcDbBlockBegin
  2
*Model_Space
 70
     0
 10
0.0
 20
0.0
 30
0.0
  3
*Model_Space
  1

  0
ENDBLK
  5
21
330
1F
100
AcDbEntity
  8
0
100
AcDbBlockEnd
  0
BLOCK
  5
1C
330
1B
100
AcDbEntity
 67
     1
  8
0
100
AcDbBlockBegin
  2
*Paper_Space
 70
     0
 10
0.0
 20
0.0
 30
0.0
  3
*Paper_Space
  1

  0
ENDBLK
  5
1D
330
1B
100
AcDbEntity
 67
     1
  8
0
100
AcDbBlockEnd
  0
BLOCK
  5
24
330
23
100
AcDbEntity
  8
0
100
AcDbBlockBegin
  2
*Paper_Space0
 70
     0
 10
0.0
 20
0.0
 30
0.0
  3
*Paper_Space0
  1

  0
ENDBLK
  5
25
330
23
100
AcDbEntity
  8
0
100
AcDbBlockEnd
  0
BLOCK
  5
87
330
85
100
AcDbEntity
  8
0
100
AcDbBlockBegin
  2
1_033620_0_in_033990_4
 70
     2
 10
0.0
 20
0.0
 30
0.0
  3
1_033620_0_in_033990_4
  1

  0
ATTDEF
  5
89
330
85
100
AcDbEntity
  8
AM_6
100
AcDbText
 10
6.67025
 20
0.7812500000000002
 30
0.0
 40
0.5
  1
Sleeve Bearings - SOLIDLUBE 3/4 thru 3 LT1000 Inserts
100
AcDbAttributeDefinition
  3

  2
NN
 70
     8
280
     0
  0
ATTDEF
  5
8A
330
85
100
AcDbEntity
  8
AM_6
100
AcDbText
 10
6.67025
 20
0.2812500000000002
 30
0.0
 40
0.5
  1
SOLIDLUBE
100
AcDbAttributeDefinition
  3

  2
NT
 70
     8
280
     0
  0
ATTDEF
  5
8B
330
85
100
AcDbEntity
  8
AM_6
100
AcDbText
 10
6.67025
 20
-0.2187499999999998
 30
0.0
 40
0.5
  1
033620
100
AcDbAttributeDefinition
  3

  2
NB
 70
     8
280
     0
  0
ATTDEF
  5
8C
330
85
100
AcDbEntity
  8
AM_6
100
AcDbText
 10
6.67025
 20
-0.7187499999999998
 30
0.0
 40
0.5
  1
$PN.
100
AcDbAttributeDefinition
  3

  2
NBSYN
 70
     8
280
     0
  0
ATTDEF
  5
8D
330
85
100
AcDbEntity
  8
AM_6
100
AcDbText
 10
6.67025
 20
-1.21875
 30
0.0
 40
0.5
  1
033620
100
AcDbAttributeDefinition
  3

  2
LINA
 70
     8
280
     0
  0
ATTDEF
  5
8E
330
85
100
AcDbEntity
  8
AM_6
100
AcDbText
 10
6.67025
 20
-1.71875
 30
0.0
 40
0.5
  1
209
100
AcDbAttributeDefinition
  3

  2
SERIES
 70
     8
280
     0
  0
ATTDEF
  5
8F
330
85
100
AcDbEntity
  8
AM_6
100
AcDbText
 10
6.67025
 20
-2.21875
 30
0.0
 40
0.5
  1
1-11/16
100
AcDbAttributeDefinition
  3

  2
SS
 70
     8
280
     0
  0
ATTDEF
  5
90
330
85
100
AcDbEntity
  8
AM_6
100
AcDbText
 10
6.67025
 20
-2.71875
 30
0.0
 40
0.5
  1
033620
100
AcDbAttributeDefinition
  3

  2
PN
 70
     8
280
     0
  0
ATTDEF
  5
91
330
85
100
AcDbEntity
  8
AM_6
100
AcDbText
 10
6.67025
 20
-3.21875
 30
0.0
 40
0.5
  1
INS-LT10-111
100
AcDbAttributeDefinition
  3

  2
DESCRIPTION
 70
     8
280
     0
  0
ATTDEF
  5
92
330
85
100
AcDbEntity
  8
AM_6
100
AcDbText
 10
6.67025
 20
-3.71875
 30
0.0
 40
0.5
  1
1.6
100
AcDbAttributeDefinition
  3

  2
WEIGHT
 70
     8
280
     0
  0
ATTDEF
  5
93
330
85
100
AcDbEntity
  8
AM_6
100
AcDbText
 10
6.67025
 20
-4.21875
 30
0.0
 40
0.5
  1
1-9/16
100
AcDbAttributeDefinition
  3

  2
A
 70
     8
280
     0
  0
ATTDEF
  5
94
330
85
100
AcDbEntity
  8
AM_6
100
AcDbText
 10
6.67025
 20
-4.71875
 30
0.0
 40
0.5
  1
13/16
100
AcDbAttributeDefinition
  3

  2
C
 70
     8
280
     0
  0
ATTDEF
  5
95
330
85
100
AcDbEntity
  8
AM_6
100
AcDbText
 10
6.67025
 20
-5.21875
 30
0.0
 40
0.5
  1
2-9/16
100
AcDbAttributeDefinition
  3

  2
L
 70
     8
280
     0
  0
ATTDEF
  5
96
330
85
100
AcDbEntity
  8
AM_6
100
AcDbText
 10
6.67025
 20
-5.71875
 30
0.0
 40
0.5
  1
3.3415/3.3395
100
AcDbAttributeDefinition
  3

  2
S
 70
     8
280
     0
  0
ATTDEF
  5
97
330
85
100
AcDbEntity
  8
AM_6
100
AcDbText
 10
6.67025
 20
-6.21875
 30
0.0
 40
0.5
  1
baldor
100
AcDbAttributeDefinition
  3

  2
COMPANY
 70
     8
280
     0
  0
LINE
  5
9A
330
85
100
AcDbEntity
  8
AM_9
 48
0.0084637572432404
100
AcDbLine
 10
-0.84375
 20
0.78125
 30
0.0
 11
-0.84375
 21
-0.7812499999999998
 31
0.0
  0
LINE
  5
9B
330
85
100
AcDbEntity
  8
AM_9
 48
0.0084637572432404
100
AcDbLine
 10
0.84375
 20
-0.7812499999999998
 30
0.0
 11
0.84375
 21
0.78125
 31
0.0
  0
ARC
  5
9C
330
85
100
AcDbEntity
  8
AM_9
 48
0.0084637572432404
100
AcDbCircle
 10
-1.67025
 20
0.7812499999999994
 30
0.0
 40
0.3749999999999994
100
AcDbArc
 50
269.9999999999999
 51
341.0695108898262
  0
ARC
  5
9D
330
85
100
AcDbEntity
  8
AM_9
 48
0.0084637572432404
100
AcDbCircle
 10
1.67025
 20
0.78125
 30
0.0
 40
0.3749999999999999
100
AcDbArc
 50
198.9304891101739
 51
270.0
  0
LINE
  5
9E
330
85
100
AcDbEntity
  8
AM_9
 48
0.0084637572432404
100
AcDbLine
 10
-1.67025
 20
0.4062500000000001
 30
0.0
 11
-1.67025
 21
-0.4062499999999995
 31
0.0
  0
LINE
  5
9F
330
85
100
AcDbEntity
  8
AM_9
 48
0.0084637572432404
100
AcDbLine
 10
1.67025
 20
-0.4062499999999995
 30
0.0
 11
1.67025
 21
0.4062500000000001
 31
0.0
  0
LINE
  5
A0
330
85
100
AcDbEntity
  8
AM_9
 48
0.0084637572432404
100
AcDbLine
 10
1.67025
 20
0.4062500000000001
 30
0.0
 11
-1.67025
 21
0.4062500000000001
 31
0.0
  0
LINE
  5
A1
330
85
100
AcDbEntity
  8
AM_9
 48
0.0084637572432404
100
AcDbLine
 10
1.670249999997133
 20
-0.4062499999999995
 30
0.0
 11
-1.67025
 21
-0.4062499999999995
 31
0.0
  0
ARC
  5
A2
330
85
100
AcDbEntity
  8
AM_9
 48
0.0084637572432404
100
AcDbCircle
 10
-1.67025
 20
-0.7812500000000001
 30
0.0
 40
0.3750000000000007
100
AcDbArc
 50
18.93048911019133
 51
89.99999999999991
  0
ARC
  5
A3
330
85
100
AcDbEntity
  8
AM_9
 48
0.0084637572432404
100
AcDbCircle
 10
1.670249999999999
 20
-0.7812499999999988
 30
0.0
 40
0.3749999999999993
100
AcDbArc
 50
89.9999999999999
 51
161.0695108898089
  0
ARC
  5
A5
330
85
100
AcDbEntity
  8
AM_0
 48
0.0084637572432404
100
AcDbCircle
 10
-1.670249999999997
 20
0.7812500000000001
 30
0.0
 40
0.3749999999999973
100
AcDbArc
 50
341.0695108898259
 51
0.000000000000017
  0
ARC
  5
A6
330
85
100
AcDbEntity
  8
AM_0
 48
0.0084637572432404
100
AcDbCircle
 10
1.670250000000003
 20
0.7812500000000006
 30
0.0
 40
0.3750000000000027
100
AcDbArc
 50
180.0
 51
198.9304891101739
  0
LINE
  5
A7
330
85
100
AcDbEntity
  8
AM_0
 48
0.0084637572432404
100
AcDbLine
 10
1.29525
 20
0.78125
 30
0.0
 11
-1.29525
 21
0.78125
 31
0.0
  0
ARC
  5
A8
330
85
100
AcDbEntity
  8
AM_0
 48
0.0084637572432404
100
AcDbCircle
 10
-1.670249999999999
 20
-0.7812499999999999
 30
0.0
 40
0.3749999999999996
100
AcDbArc
 50
0.0
 51
18.93048911019135
  0
ARC
  5
A9
330
85
100
AcDbEntity
  8
AM_0
 48
0.0084637572432404
100
AcDbCircle
 10
1.670250000000008
 20
-0.7812500000000008
 30
0.0
 40
0.3750000000000084
100
AcDbArc
 50
161.0695108898091
 51
179.9999999999999
  0
LINE
  5
AA
330
85
100
AcDbEntity
  8
AM_0
 48
0.0084637572432404
100
AcDbLine
 10
1.29525
 20
-0.78125
 30
0.0
 11
-1.29525
 21
-0.78125
 31
0.0
  0
ENDBLK
  5
88
330
85
100
AcDbEntity
  8
0
100
AcDbBlockEnd
  0
BLOCK
  5
AD
330
AB
100
AcDbEntity
  8
0
100
AcDbBlockBegin
  2
2_P2B_LT10_111_0_in_033990_4
 70
     2
 10
0.0
 20
0.0
 30
0.0
  3
2_P2B_LT10_111_0_in_033990_4
  1

  0
ATTDEF
  5
AF
330
AB
100
AcDbEntity
  8
AM_6
100
AcDbText
 10
8.71875
 20
1.1
 30
0.0
 40
0.5
  1
3/4" THRU 3" SOLIDLUBE LT PILLOW BLOCKS - Inch - Body - 1000 Series
100
AcDbAttributeDefinition
  3

  2
NN
 70
     8
280
     0
  0
ATTDEF
  5
B0
330
AB
100
AcDbEntity
  8
AM_6
100
AcDbText
 10
8.71875
 20
0.6000000000000001
 30
0.0
 40
0.5
  1
Sleeve Bearings - SOLIDLUBE -
100
AcDbAttributeDefinition
  3

  2
NT
 70
     8
280
     0
  0
ATTDEF
  5
B1
330
AB
100
AcDbEntity
  8
AM_6
100
AcDbText
 10
8.71875
 20
0.1000000000000001
 30
0.0
 40
0.5
  1
P2B-LT10-111
100
AcDbAttributeDefinition
  3

  2
NB
 70
     8
280
     0
  0
ATTDEF
  5
B2
330
AB
100
AcDbEntity
  8
AM_6
100
AcDbText
 10
8.71875
 20
-0.3999999999999999
 30
0.0
 40
0.5
  1
$PN.
100
AcDbAttributeDefinition
  3

  2
NBSYN
 70
     8
280
     0
  0
ATTDEF
  5
B3
330
AB
100
AcDbEntity
  8
AM_6
100
AcDbText
 10
8.71875
 20
-0.8999999999999999
 30
0.0
 40
0.5
  1
P2B-LT10-111
100
AcDbAttributeDefinition
  3

  2
LINA
 70
     8
280
     0
  0
ATTDEF
  5
B4
330
AB
100
AcDbEntity
  8
AM_6
100
AcDbText
 10
8.71875
 20
-1.4
 30
0.0
 40
0.5
  1
209
100
AcDbAttributeDefinition
  3

  2
SERIES
 70
     8
280
     0
  0
ATTDEF
  5
B5
330
AB
100
AcDbEntity
  8
AM_6
100
AcDbText
 10
8.71875
 20
-1.9
 30
0.0
 40
0.5
  1
3.34050
100
AcDbAttributeDefinition
  3

  2
BOD
 70
     8
280
     0
  0
ATTDEF
  5
B6
330
AB
100
AcDbEntity
  8
AM_6
100
AcDbText
 10
8.71875
 20
-2.4
 30
0.0
 40
0.5
  1
1-11/16
100
AcDbAttributeDefinition
  3

  2
SS
 70
     8
280
     0
  0
ATTDEF
  5
B7
330
AB
100
AcDbEntity
  8
AM_6
100
AcDbText
 10
8.71875
 20
-2.9
 30
0.0
 40
0.5
  1
1.68750
100
AcDbAttributeDefinition
  3

  2
SS1
 70
     8
280
     0
  0
ATTDEF
  5
B8
330
AB
100
AcDbEntity
  8
AM_6
100
AcDbText
 10
8.71875
 20
-3.4
 30
0.0
 40
0.5
  1
P2B-LT10-111
100
AcDbAttributeDefinition
  3

  2
PN
 70
     8
280
     0
  0
ATTDEF
  5
B9
330
AB
100
AcDbEntity
  8
AM_6
100
AcDbText
 10
8.71875
 20
-3.9
 30
0.0
 40
0.5
  1
P2B-LT10-111
100
AcDbAttributeDefinition
  3

  2
DESCRIPTION
 70
     8
280
     0
  0
ATTDEF
  5
BA
330
AB
100
AcDbEntity
  8
AM_6
100
AcDbText
 10
8.71875
 20
-4.4
 30
0.0
 40
0.5
  1
6.0
100
AcDbAttributeDefinition
  3

  2
WEIGHT
 70
     8
280
     0
  0
ATTDEF
  5
BB
330
AB
100
AcDbEntity
  8
AM_6
100
AcDbText
 10
8.71875
 20
-4.9
 30
0.0
 40
0.5
  1
1-9/16
100
AcDbAttributeDefinition
  3

  2
A
 70
     8
280
     0
  0
ATTDEF
  5
BC
330
AB
100
AcDbEntity
  8
AM_6
100
AcDbText
 10
8.71875
 20
-5.4
 30
0.0
 40
0.5
  1
1.562500
100
AcDbAttributeDefinition
  3

  2
A1
 70
     8
280
     0
  0
ATTDEF
  5
BD
330
AB
100
AcDbEntity
  8
AM_6
100
AcDbText
 10
8.71875
 20
-5.9
 30
0.0
 40
0.5
  1
7-7/16
100
AcDbAttributeDefinition
  3

  2
B
 70
     8
280
     0
  0
ATTDEF
  5
BE
330
AB
100
AcDbEntity
  8
AM_6
100
AcDbText
 10
8.71875
 20
-6.4
 30
0.0
 40
0.5
  1
7.43750
100
AcDbAttributeDefinition
  3

  2
B1
 70
     8
280
     0
  0
ATTDEF
  5
BF
330
AB
100
AcDbEntity
  8
AM_6
100
AcDbText
 10
8.71875
 20
-6.9
 30
0.0
 40
0.5
  1
2
100
AcDbAttributeDefinition
  3

  2
C
 70
     8
280
     0
  0
ATTDEF
  5
C0
330
AB
100
AcDbEntity
  8
AM_6
100
AcDbText
 10
8.71875
 20
-7.4
 30
0.0
 40
0.5
  1
2.00000
100
AcDbAttributeDefinition
  3

  2
C1
 70
     8
280
     0
  0
ATTDEF
  5
C1
330
AB
100
AcDbEntity
  8
AM_6
100
AcDbText
 10
8.71875
 20
-7.9
 30
0.0
 40
0.5
  1
5-1/2
100
AcDbAttributeDefinition
  3

  2
DMIN
 70
     8
280
     0
  0
ATTDEF
  5
C2
330
AB
100
AcDbEntity
  8
AM_6
100
AcDbText
 10
8.71875
 20
-8.4
 30
0.0
 40
0.5
  1
5.50000
100
AcDbAttributeDefinition
  3

  2
DMIN1
 70
     8
280
     0
  0
ATTDEF
  5
C3
330
AB
100
AcDbEntity
  8
AM_6
100
AcDbText
 10
8.71875
 20
-8.9
 30
0.0
 40
0.5
  1
6-3/16
100
AcDbAttributeDefinition
  3

  2
DMAX
 70
     8
280
     0
  0
ATTDEF
  5
C4
330
AB
100
AcDbEntity
  8
AM_6
100
AcDbText
 10
8.71875
 20
-9.4
 30
0.0
 40
0.5
  1
6.18750
100
AcDbAttributeDefinition
  3

  2
DMAX1
 70
     8
280
     0
  0
ATTDEF
  5
C5
330
AB
100
AcDbEntity
  8
AM_6
100
AcDbText
 10
8.71875
 20
-9.9
 30
0.0
 40
0.5
  1
1/2
100
AcDbAttributeDefinition
  3

  2
F
 70
     8
280
     0
  0
ATTDEF
  5
C6
330
AB
100
AcDbEntity
  8
AM_6
100
AcDbText
 10
8.71875
 20
-10.4
 30
0.0
 40
0.5
  1
0.50000
100
AcDbAttributeDefinition
  3

  2
F1
 70
     8
280
     0
  0
ATTDEF
  5
C7
330
AB
100
AcDbEntity
  8
AM_6
100
AcDbText
 10
8.71875
 20
-10.9
 30
0.0
 40
0.5
  1
29/32
100
AcDbAttributeDefinition
  3

  2
G
 70
     8
280
     0
  0
ATTDEF
  5
C8
330
AB
100
AcDbEntity
  8
AM_6
100
AcDbText
 10
8.71875
 20
-11.4
 30
0.0
 40
0.5
  1
0.90625
100
AcDbAttributeDefinition
  3

  2
G1
 70
     8
280
     0
  0
ATTDEF
  5
C9
330
AB
100
AcDbEntity
  8
AM_6
100
AcDbText
 10
8.71875
 20
-11.9
 30
0.0
 40
0.5
  1
3/4
100
AcDbAttributeDefinition
  3

  2
H
 70
     8
280
     0
  0
ATTDEF
  5
CA
330
AB
100
AcDbEntity
  8
AM_6
100
AcDbText
 10
8.71875
 20
-12.4
 30
0.0
 40
0.5
  1
0.75000
100
AcDbAttributeDefinition
  3

  2
H1
 70
     8
280
     0
  0
ATTDEF
  5
CB
330
AB
100
AcDbEntity
  8
AM_6
100
AcDbText
 10
8.71875
 20
-12.9
 30
0.0
 40
0.5
  1
4-9/32
100
AcDbAttributeDefinition
  3

  2
J
 70
     8
280
     0
  0
ATTDEF
  5
CC
330
AB
100
AcDbEntity
  8
AM_6
100
AcDbText
 10
8.71875
 20
-13.4
 30
0.0
 40
0.5
  1
4.28125
100
AcDbAttributeDefinition
  3

  2
J1
 70
     8
280
     0
  0
ATTDEF
  5
CD
330
AB
100
AcDbEntity
  8
AM_6
100
AcDbText
 10
8.71875
 20
-13.9
 30
0.0
 40
0.5
  1
2-9/16
100
AcDbAttributeDefinition
  3

  2
L
 70
     8
280
     0
  0
ATTDEF
  5
CE
330
AB
100
AcDbEntity
  8
AM_6
100
AcDbText
 10
8.71875
 20
-14.4
 30
0.0
 40
0.5
  1
2.56250
100
AcDbAttributeDefinition
  3

  2
L1
 70
     8
280
     0
  0
ATTDEF
  5
CF
330
AB
100
AcDbEntity
  8
AM_6
100
AcDbText
 10
8.71875
 20
-14.9
 30
0.0
 40
0.5
  1
2-1/8
100
AcDbAttributeDefinition
  3

  2
M
 70
     8
280
     0
  0
ATTDEF
  5
D0
330
AB
100
AcDbEntity
  8
AM_6
100
AcDbText
 10
8.71875
 20
-15.4
 30
0.0
 40
0.5
  1
2.12500
100
AcDbAttributeDefinition
  3

  2
M1
 70
     8
280
     0
  0
ATTDEF
  5
D1
330
AB
100
AcDbEntity
  8
AM_6
100
AcDbText
 10
8.71875
 20
-15.9
 30
0.0
 40
0.5
  1
baldor
100
AcDbAttributeDefinition
  3

  2
COMPANY
 70
     8
280
     0
  0
LINE
  5
D2
330
AB
100
AcDbEntity
  8
AM_9
 48
0.0203246247030496
100
AcDbLine
 10
-1.754625
 20
-0.8000000000000004
 30
0.0
 11
-1.754625
 21
-0.5000000000000001
 31
0.0
  0
LINE
  5
D3
330
AB
100
AcDbEntity
  8
AM_9
 48
0.0203246247030496
100
AcDbLine
 10
-1.679625
 20
-0.8000000000000002
 30
0.0
 11
-1.679625
 21
-0.5000000000000001
 31
0.0
  0
LINE
  5
D4
330
AB
100
AcDbEntity
  8
AM_9
 48
0.0203246247030496
100
AcDbLine
 10
1.754625
 20
-0.8000000000000002
 30
0.0
 11
1.754625
 21
-0.5000000000000001
 31
0.0
  0
LINE
  5
D5
330
AB
100
AcDbEntity
  8
AM_9
 48
0.0203246247030496
100
AcDbLine
 10
1.679625
 20
-0.8000000000000002
 30
0.0
 11
1.679625
 21
-0.5000000000000001
 31
0.0
  0
LINE
  5
D6
330
AB
100
AcDbEntity
  8
AM_9
 48
0.0203246247030496
100
AcDbLine
 10
-1.754625
 20
-0.3000000000000001
 30
0.0
 11
-1.754625
 21
0.8099999999999998
 31
0.0
  0
LINE
  5
D7
330
AB
100
AcDbEntity
  8
AM_9
 48
0.0203246247030496
100
AcDbLine
 10
-1.679625
 20
0.4999999999999998
 30
0.0
 11
-1.679625
 21
0.7999999999999999
 31
0.0
  0
LINE
  5
D8
330
AB
100
AcDbEntity
  8
AM_9
 48
0.0203246247030496
100
AcDbLine
 10
1.754625
 20
-0.3000000000000001
 30
0.0
 11
1.754625
 21
0.8099999999999993
 31
0.0
  0
LINE
  5
D9
330
AB
100
AcDbEntity
  8
AM_9
 48
0.0203246247030496
100
AcDbLine
 10
1.679625
 20
0.4999999999999998
 30
0.0
 11
1.679625
 21
0.7999999999999999
 31
0.0
  0
LINE
  5
DA
330
AB
100
AcDbEntity
  8
AM_9
 48
0.0203246247030496
100
AcDbLine
 10
-2.386239373190546
 20
-0.5000000000000001
 30
0.0
 11
-2.386239373190546
 21
0.4999999999999998
 31
0.0
  0
LINE
  5
DB
330
AB
100
AcDbEntity
  8
AM_9
 48
0.0203246247030496
100
AcDbLine
 10
-3.375
 20
-0.5000000000000001
 30
0.0
 11
-3.375
 21
0.4999999999999998
 31
0.0
  0
LINE
  5
DC
330
AB
100
AcDbEntity
  8
AM_9
 48
0.0203246247030496
100
AcDbLine
 10
-3.225
 20
0.248746859276655
 30
0.0
 11
-3.225
 21
0.4999999999999998
 31
0.0
  0
LINE
  5
DD
330
AB
100
AcDbEntity
  8
AM_9
 48
0.0203246247030496
100
AcDbLine
 10
-3.225
 20
-0.5000000000000001
 30
0.0
 11
-3.225
 21
-0.2487468592766544
 31
0.0
  0
LINE
  5
DE
330
AB
100
AcDbEntity
  8
AM_9
 48
0.0203246247030496
100
AcDbLine
 10
2.386239373190548
 20
-0.5000000000000001
 30
0.0
 11
2.386239373190548
 21
0.4999999999999998
 31
0.0
  0
LINE
  5
DF
330
AB
100
AcDbEntity
  8
AM_9
 48
0.0203246247030496
100
AcDbLine
 10
3.375
 20
-0.5000000000000001
 30
0.0
 11
3.375
 21
0.4999999999999998
 31
0.0
  0
LINE
  5
E0
330
AB
100
AcDbEntity
  8
AM_9
 48
0.0203246247030496
100
AcDbLine
 10
3.225
 20
-0.5000000000000001
 30
0.0
 11
3.225
 21
-0.2487468592766549
 31
0.0
  0
LINE
  5
E1
330
AB
100
AcDbEntity
  8
AM_9
 48
0.0203246247030496
100
AcDbLine
 10
3.225
 20
0.2487468592766546
 30
0.0
 11
3.225
 21
0.4999999999999998
 31
0.0
  0
LINE
  5
E2
330
AB
100
AcDbEntity
  8
AM_9
 48
0.0203246247030496
100
AcDbLine
 10
-2.192125089363656
 20
-0.5000000000000001
 30
0.0
 11
-2.192125089363656
 21
0.4999999999999998
 31
0.0
  0
LINE
  5
E3
330
AB
100
AcDbEntity
  8
AM_9
 48
0.0203246247030496
100
AcDbLine
 10
2.192125089363657
 20
-0.5000000000000001
 30
0.0
 11
2.192125089363657
 21
0.4999999999999998
 31
0.0
  0
LINE
  5
E4
330
AB
100
AcDbEntity
  8
AM_9
 48
0.0203246247030496
100
AcDbLine
 10
1.120292340336723
 20
-0.5000000000000001
 30
0.0
 11
1.120292340336723
 21
0.4999999999999998
 31
0.0
  0
LINE
  5
E5
330
AB
100
AcDbEntity
  8
AM_9
 48
0.0203246247030496
100
AcDbLine
 10
-1.120292327155671
 20
-0.5000000000000001
 30
0.0
 11
-1.120292327155671
 21
0.4999999999999998
 31
0.0
  0
LINE
  5
E6
330
AB
100
AcDbEntity
  8
AM_9
 48
0.0203246247030496
100
AcDbLine
 10
1.42427453873215
 20
-0.5000000000000001
 30
0.0
 11
1.42427453873215
 21
0.4999999999999999
 31
0.0
  0
LINE
  5
E7
330
AB
100
AcDbEntity
  8
AM_9
 48
0.0203246247030496
100
AcDbLine
 10
-1.42427453873215
 20
-0.5000000000000001
 30
0.0
 11
-1.42427453873215
 21
0.4999999999999999
 31
0.0
  0
LINE
  5
E8
330
AB
100
AcDbEntity
  8
AM_9
 48
0.0203246247030496
100
AcDbLine
 10
3.375
 20
-0.5000000000000001
 30
0.0
 11
-3.375
 21
-0.5000000000000001
 31
0.0
  0
LINE
  5
E9
330
AB
100
AcDbEntity
  8
AM_9
 48
0.0203246247030496
100
AcDbLine
 10
3.375
 20
0.4999999999999998
 30
0.0
 11
-3.375
 21
0.4999999999999998
 31
0.0
  0
LINE
  5
EA
330
AB
100
AcDbEntity
  8
AM_9
 48
0.0203246247030496
100
AcDbLine
 10
-1.53843908820759
 20
-0.3
 30
0.0
 11
-1.53843908820759
 21
0.6858407079646015
 31
0.0
  0
LINE
  5
EB
330
AB
100
AcDbEntity
  8
AM_9
 48
0.0203246247030496
100
AcDbLine
 10
-1.441464879905161
 20
-0.3
 30
0.0
 11
-1.754625
 21
-0.3000000000000001
 31
0.0
  0
LINE
  5
EC
330
AB
100
AcDbEntity
  8
AM_9
 48
0.0203246247030496
100
AcDbLine
 10
1.754625
 20
-0.3000000000000001
 30
0.0
 11
1.441464879905161
 21
-0.3
 31
0.0
  0
LINE
  5
ED
330
AB
100
AcDbEntity
  8
AM_9
 48
0.0203246247030496
100
AcDbLine
 10
1.53843908820759
 20
-0.3
 30
0.0
 11
1.53843908820759
 21
0.6858407079646015
 31
0.0
  0
LINE
  5
EE
330
AB
100
AcDbEntity
  8
AM_9
 48
0.0203246247030496
100
AcDbLine
 10
-1.441464879905161
 20
-0.3
 30
0.0
 11
-1.441464879905161
 21
0.6858407079646021
 31
0.0
  0
LINE
  5
EF
330
AB
100
AcDbEntity
  8
AM_9
 48
0.0203246247030496
100
AcDbLine
 10
1.441464879905161
 20
0.6858407079646021
 30
0.0
 11
1.441464879905161
 21
-0.3
 31
0.0
  0
LINE
  5
F0
330
AB
100
AcDbEntity
  8
AM_9
 48
0.0203246247030496
100
AcDbLine
 10
1.67025
 20
-0.8
 30
0.0
 11
1.67025
 21
-0.3000000000000001
 31
0.0
  0
LINE
  5
F1
330
AB
100
AcDbEntity
  8
AM_9
 48
0.0203246247030496
100
AcDbLine
 10
-1.67025
 20
-0.3000000000000001
 30
0.0
 11
-1.67025
 21
-0.7999999999999999
 31
0.0
  0
LINE
  5
F4
330
AB
100
AcDbEntity
  8
AM_7
 48
0.0203246247030496
100
AcDbLine
 10
0.0
 20
1.1
 30
0.0
 11
0.0
 21
-1.1
 31
0.0
  0
LINE
  5
F5
330
AB
100
AcDbEntity
  8
AM_7
 48
0.0203246247030496
100
AcDbLine
 10
-3.3890625
 20
0.0000000000000004
 30
0.0
 11
-2.454687499999999
 21
0.0000000000000002
 31
0.0
  0
LINE
  5
F6
330
AB
100
AcDbEntity
  8
AM_7
 48
0.0203246247030496
100
AcDbLine
 10
-3.09375
 20
-0.2953124999999992
 30
0.0
 11
-3.09375
 21
0.2953124999999999
 31
0.0
  0
LINE
  5
F7
330
AB
100
AcDbEntity
  8
AM_7
 48
0.0203246247030496
100
AcDbLine
 10
2.454687499999999
 20
-0.0000000000000001
 30
0.0
 11
3.3890625
 21
-0.0000000000000001
 31
0.0
  0
LINE
  5
F8
330
AB
100
AcDbEntity
  8
AM_7
 48
0.0203246247030496
100
AcDbLine
 10
2.75
 20
-0.2953125000000001
 30
0.0
 11
2.75
 21
0.2953125
 31
0.0
  0
LINE
  5
F9
330
AB
100
AcDbEntity
  8
AM_7
 48
0.0203246247030496
100
AcDbLine
 10
-2.75
 20
-0.2953124999999998
 30
0.0
 11
-2.75
 21
0.2953125000000003
 31
0.0
  0
LINE
  5
FA
330
AB
100
AcDbEntity
  8
AM_7
 48
0.0203246247030496
100
AcDbLine
 10
3.09375
 20
-0.2953124999999996
 30
0.0
 11
3.09375
 21
0.2953124999999994
 31
0.0
  0
LINE
  5
FB
330
AB
100
AcDbEntity
  8
AM_0
 48
0.0203246247030496
100
AcDbLine
 10
3.71875
 20
-1.0
 30
0.0
 11
3.71875
 21
0.9999999999999999
 31
0.0
  0
LINE
  5
FD
330
AB
100
AcDbEntity
  8
AM_4
 48
0.0203246247030496
100
AcDbLine
 10
3.56875
 20
-1.0
 30
0.0
 11
3.56875
 21
-0.4570714214271425
 31
0.0
  0
LINE
  5
FE
330
AB
100
AcDbEntity
  8
AM_4
 48
0.0203246247030496
100
AcDbLine
 10
3.56875
 20
0.4570714214271424
 30
0.0
 11
3.56875
 21
0.9999999999999999
 31
0.0
  0
LINE
  5
FF
330
AB
100
AcDbEntity
  8
AM_4
 48
0.0203246247030496
100
AcDbLine
 10
-3.56875
 20
-1.0
 30
0.0
 11
-3.56875
 21
-0.4570714214271432
 31
0.0
  0
LINE
  5
100
330
AB
100
AcDbEntity
  8
AM_0
 48
0.0203246247030496
100
AcDbLine
 10
-3.71875
 20
-1.0
 30
0.0
 11
-3.71875
 21
0.9999999999999999
 31
0.0
  0
LINE
  5
101
330
AB
100
AcDbEntity
  8
AM_4
 48
0.0203246247030496
100
AcDbLine
 10
-3.56875
 20
0.4570714214271429
 30
0.0
 11
-3.56875
 21
0.9999999999999999
 31
0.0
  0
LINE
  5
102
330
AB
100
AcDbEntity
  8
AM_4
 48
0.0203246247030496
100
AcDbLine
 10
2.934232493540862
 20
-1.0
 30
0.0
 11
2.934232493540862
 21
-0.6
 31
0.0
  0
LINE
  5
103
330
AB
100
AcDbEntity
  8
AM_4
 48
0.0203246247030496
100
AcDbLine
 10
2.934232493540862
 20
0.5999999999999999
 30
0.0
 11
2.934232493540862
 21
0.9999999999999999
 31
0.0
  0
LINE
  5
104
330
AB
100
AcDbEntity
  8
AM_4
 48
0.0203246247030496
100
AcDbLine
 10
-2.934232493540862
 20
0.5999999999999999
 30
0.0
 11
-2.934232493540862
 21
0.9999999999999999
 31
0.0
  0
LINE
  5
105
330
AB
100
AcDbEntity
  8
AM_4
 48
0.0203246247030496
100
AcDbLine
 10
-2.934232493540862
 20
-1.0
 30
0.0
 11
-2.934232493540862
 21
-0.6
 31
0.0
  0
ARC
  5
106
330
AB
100
AcDbEntity
  8
AM_0
 48
0.0203246247030496
100
AcDbCircle
 10
-3.09375
 20
0.0000000000000004
 30
0.0
 40
0.28125
100
AcDbArc
 50
89.99999999999991
 51
270.0000000000001
  0
LINE
  5
107
330
AB
100
AcDbEntity
  8
AM_0
 48
0.0203246247030496
100
AcDbLine
 10
-3.09375
 20
0.2812500000000003
 30
0.0
 11
-2.75
 21
0.2812500000000002
 31
0.0
  0
ARC
  5
108
330
AB
100
AcDbEntity
  8
AM_0
 48
0.0203246247030496
100
AcDbCircle
 10
-2.75
 20
0.0000000000000002
 30
0.0
 40
0.2812499999999999
100
AcDbArc
 50
270.0
 51
90.0
  0
LINE
  5
109
330
AB
100
AcDbEntity
  8
AM_0
 48
0.0203246247030496
100
AcDbLine
 10
-2.75
 20
-0.2812499999999997
 30
0.0
 11
-3.09375
 21
-0.2812499999999996
 31
0.0
  0
LINE
  5
10A
330
AB
100
AcDbEntity
  8
AM_0
 48
0.0203246247030496
100
AcDbLine
 10
-3.21875
 20
-0.6000000000000002
 30
0.0
 11
-2.75
 21
-0.5999999999999999
 31
0.0
  0
LINE
  5
10B
330
AB
100
AcDbEntity
  8
AM_0
 48
0.0203246247030496
100
AcDbLine
 10
-2.75
 20
0.5999999999999999
 30
0.0
 11
-3.218749999999999
 21
0.5999999999999999
 31
0.0
  0
ARC
  5
10C
330
AB
100
AcDbEntity
  8
AM_0
 48
0.0203246247030496
100
AcDbCircle
 10
-3.21875
 20
0.0999999999999999
 30
0.0
 40
0.4999999999999999
100
AcDbArc
 50
89.99999999999994
 51
180.0
  0
ARC
  5
10D
330
AB
100
AcDbEntity
  8
AM_0
 48
0.0203246247030496
100
AcDbCircle
 10
-3.218749999999999
 20
-0.0999999999999999
 30
0.0
 40
0.5000000000000004
100
AcDbArc
 50
180.0
 51
269.9999999999999
  0
LINE
  5
10E
330
AB
100
AcDbEntity
  8
AM_0
 48
0.0203246247030496
100
AcDbLine
 10
3.09375
 20
-0.2812500000000001
 30
0.0
 11
2.75
 21
-0.2812500000000001
 31
0.0
  0
ARC
  5
10F
330
AB
100
AcDbEntity
  8
AM_0
 48
0.0203246247030496
100
AcDbCircle
 10
3.09375
 20
-0.0000000000000001
 30
0.0
 40
0.2812499999999999
100
AcDbArc
 50
269.9999999999999
 51
90.00000000000009
  0
ARC
  5
110
330
AB
100
AcDbEntity
  8
AM_0
 48
0.0203246247030496
100
AcDbCircle
 10
2.75
 20
-0.0000000000000001
 30
0.0
 40
0.2812499999999999
100
AcDbArc
 50
90.0
 51
270.0
  0
ARC
  5
111
330
AB
100
AcDbEntity
  8
AM_0
 48
0.0203246247030496
100
AcDbCircle
 10
3.21875
 20
-0.1000000000000008
 30
0.0
 40
0.4999999999999992
100
AcDbArc
 50
269.9999999999999
 51
0.0000000000001272
  0
ARC
  5
112
330
AB
100
AcDbEntity
  8
AM_0
 48
0.0203246247030496
100
AcDbCircle
 10
3.21875
 20
0.1000000000000001
 30
0.0
 40
0.5
100
AcDbArc
 50
359.9999999999999
 51
89.99999999999994
  0
LINE
  5
113
330
AB
100
AcDbEntity
  8
AM_0
 48
0.0203246247030496
100
AcDbLine
 10
2.75
 20
0.2812499999999999
 30
0.0
 11
3.09375
 21
0.2812499999999999
 31
0.0
  0
LINE
  5
114
330
AB
100
AcDbEntity
  8
AM_0
 48
0.0203246247030496
100
AcDbLine
 10
3.21875
 20
0.6
 30
0.0
 11
2.75
 21
0.6
 31
0.0
  0
LINE
  5
115
330
AB
100
AcDbEntity
  8
AM_0
 48
0.0203246247030496
100
AcDbLine
 10
2.749999999999998
 20
-0.6
 30
0.0
 11
3.218749999999999
 21
-0.6
 31
0.0
  0
LINE
  5
116
330
AB
100
AcDbEntity
  8
AM_4
 48
0.0203246247030496
100
AcDbLine
 10
-2.792321868781501
 20
0.5999999999999999
 30
0.0
 11
-2.792321868781501
 21
0.9999999999999999
 31
0.0
  0
LWPOLYLINE
  5
117
330
AB
100
AcDbEntity
  8
AM_0
 48
0.0203246247030496
100
AcDbPolyline
 90
       37
 70
     0
 43
0.0
 10
-2.75
 20
-0.5999999999999999
 10
-2.697706554351405
 20
-0.5977168188550471
 10
-2.645811093399841
 20
-0.5908846518073245
 10
-2.594708572938487
 20
-0.5795554957734407
 10
-2.544787914004599
 20
-0.5638155724715447
 10
-2.49642904295558
 20
-0.5437846722219897
 10
-2.45
 20
-0.5196152422706629
 10
-2.405854138189372
 20
-0.4914912265733948
 10
-2.364327434188076
 20
-0.4596266658713866
 10
-2.325735931288071
 20
-0.4242640687119283
 10
-2.290373334128613
 20
-0.3856725658119234
 10
-2.258508773426605
 20
-0.3441458618106275
 10
-2.230384757729337
 20
-0.2999999999999999
 10
-2.20621532777801
 20
-0.2535709570444196
 10
-2.186184427528455
 20
-0.2052120859954013
 10
-2.170444504226559
 20
-0.1552914270615125
 10
-2.159115348192675
 20
-0.1041889066001584
 10
-2.152283181144953
 20
-0.0522934456485951
 10
-2.15
 20
-0.0000000000000003
 10
-2.152283181144953
 20
0.0522934456485946
 10
-2.159115348192675
 20
0.1041889066001578
 10
-2.170444504226559
 20
0.155291427061512
 10
-2.186184427528454
 20
0.2052120859954008
 10
-2.206215327778009
 20
0.2535709570444192
 10
-2.230384757729336
 20
0.2999999999999995
 10
-2.258508773426604
 20
0.3441458618106272
 10
-2.290373334128613
 20
0.3856725658119231
 10
-2.325735931288071
 20
0.424264068711928
 10
-2.364327434188076
 20
0.4596266658713863
 10
-2.405854138189371
 20
0.4914912265733946
 10
-2.449999999999999
 20
0.5196152422706628
 10
-2.496429042955579
 20
0.5437846722219897
 10
-2.544787914004597
 20
0.5638155724715448
 10
-2.594708572938486
 20
0.5795554957734409
 10
-2.64581109339984
 20
0.5908846518073249
 10
-2.697706554351403
 20
0.5977168188550475
 10
-2.749999999999998
 20
0.6000000000000002
  0
LINE
  5
118
330
AB
100
AcDbEntity
  8
AM_4
 48
0.0203246247030496
100
AcDbLine
 10
-2.792321868781501
 20
-1.0
 30
0.0
 11
-2.792321868781501
 21
-0.6
 31
0.0
  0
LINE
  5
119
330
AB
100
AcDbEntity
  8
AM_4
 48
0.0203246247030496
100
AcDbLine
 10
2.792321868781501
 20
-1.0
 30
0.0
 11
2.792321868781501
 21
-0.6
 31
0.0
  0
LWPOLYLINE
  5
11A
330
AB
100
AcDbEntity
  8
AM_0
 48
0.0203246247030496
100
AcDbPolyline
 90
       37
 70
     0
 43
0.0
 10
2.75
 20
0.6
 10
2.697706554351405
 20
0.5977168188550472
 10
2.645811093399841
 20
0.5908846518073249
 10
2.594708572938487
 20
0.579555495773441
 10
2.544787914004599
 20
0.563815572471545
 10
2.49642904295558
 20
0.5437846722219899
 10
2.45
 20
0.5196152422706632
 10
2.405854138189372
 20
0.4914912265733951
 10
2.364327434188076
 20
0.4596266658713869
 10
2.325735931288071
 20
0.4242640687119286
 10
2.290373334128613
 20
0.3856725658119238
 10
2.258508773426605
 20
0.3441458618106279
 10
2.230384757729337
 20
0.3000000000000003
 10
2.20621532777801
 20
0.25357095704442
 10
2.186184427528455
 20
0.2052120859954017
 10
2.170444504226559
 20
0.155291427061513
 10
2.159115348192675
 20
0.1041889066001588
 10
2.152283181144953
 20
0.0522934456485955
 10
2.15
 20
0.0000000000000007
 10
2.152283181144953
 20
-0.0522934456485942
 10
2.159115348192675
 20
-0.1041889066001574
 10
2.170444504226559
 20
-0.1552914270615116
 10
2.186184427528454
 20
-0.2052120859954004
 10
2.206215327778009
 20
-0.2535709570444188
 10
2.230384757729336
 20
-0.2999999999999991
 10
2.258508773426604
 20
-0.3441458618106268
 10
2.290373334128613
 20
-0.3856725658119227
 10
2.325735931288071
 20
-0.4242640687119276
 10
2.364327434188076
 20
-0.459626665871386
 10
2.405854138189371
 20
-0.4914912265733943
 10
2.449999999999999
 20
-0.5196152422706625
 10
2.496429042955579
 20
-0.5437846722219893
 10
2.544787914004597
 20
-0.5638155724715446
 10
2.594708572938486
 20
-0.5795554957734406
 10
2.64581109339984
 20
-0.5908846518073245
 10
2.697706554351403
 20
-0.5977168188550472
 10
2.749999999999998
 20
-0.6
  0
LINE
  5
11B
330
AB
100
AcDbEntity
  8
AM_4
 48
0.0203246247030496
100
AcDbLine
 10
2.792321868781501
 20
0.5999999999999999
 30
0.0
 11
2.792321868781501
 21
0.9999999999999999
 31
0.0
  0
LINE
  5
11C
330
AB
100
AcDbEntity
  8
AM_0
 48
0.0203246247030496
100
AcDbLine
 10
1.744625
 20
0.8000000000000005
 30
0.0
 11
-1.744625
 21
0.8
 31
0.0
  0
LWPOLYLINE
  5
11D
330
AB
100
AcDbEntity
  8
AM_0
 48
0.0203246247030496
100
AcDbPolyline
 90
        4
 70
     0
 43
0.0
 10
-1.753035530723523
 20
0.8045904738702281
 10
-1.752446437150016
 20
0.8037690192659299
 10
-1.746643887145973
 20
0.8002059153213879
 10
-1.744625
 20
0.8
  0
LINE
  5
11E
330
AB
100
AcDbEntity
  8
AM_0
 48
0.0203246247030496
100
AcDbLine
 10
-1.754491667408073
 20
0.8083724637439852
 30
0.0
 11
-1.753449308491119
 21
0.8052955787121501
 31
0.0
  0
LINE
  5
11F
330
AB
100
AcDbEntity
  8
AM_0
 48
0.0203246247030496
100
AcDbLine
 10
-1.53843908820759
 20
0.6858407079646018
 30
0.0
 11
-1.53843908820759
 21
0.8
 31
0.0
  0
LWPOLYLINE
  5
120
330
AB
100
AcDbEntity
  8
AM_0
 48
0.0203246247030496
100
AcDbPolyline
 90
        7
 70
     0
 43
0.0
 10
-1.754625
 20
0.8053097345132743
 10
-1.747948122139229
 20
0.7836565458239136
 10
-1.727968303629046
 20
0.7621681509750318
 10
-1.694837602952457
 20
0.7410080896264765
 10
-1.648808164746475
 20
0.7203374026219043
 10
-1.590230300829183
 20
0.7003134063707223
 10
-1.53843908820759
 20
0.6858407079646017
  0
LINE
  5
121
330
AB
100
AcDbEntity
  8
AM_0
 48
0.0203246247030496
100
AcDbLine
 10
1.53843908820759
 20
0.6858407079646011
 30
0.0
 11
1.53843908820759
 21
0.8
 31
0.0
  0
LINE
  5
122
330
AB
100
AcDbEntity
  8
AM_0
 48
0.0203246247030496
100
AcDbLine
 10
1.753639232121958
 20
0.8056706098291501
 30
0.0
 11
1.754491667408073
 21
0.808372463743986
 31
0.0
  0
LWPOLYLINE
  5
123
330
AB
100
AcDbEntity
  8
AM_0
 48
0.0203246247030496
100
AcDbPolyline
 90
        4
 70
     0
 43
0.0
 10
1.744625
 20
0.8000000000000005
 10
1.746643887145973
 20
0.8002059153213882
 10
1.752446437150016
 20
0.8037690192659299
 10
1.75325772494061
 20
0.8049526184907643
  0
LINE
  5
124
330
AB
100
AcDbEntity
  8
AM_0
 48
0.0203246247030496
100
AcDbLine
 10
1.754625
 20
0.8053097345132743
 30
0.0
 11
1.75449166740807
 21
0.8083724637458619
 31
0.0
  0
LINE
  5
125
330
AB
100
AcDbEntity
  8
AM_0
 48
0.0203246247030496
100
AcDbLine
 10
1.441464879905161
 20
0.6858407079646024
 30
0.0
 11
1.441464879905161
 21
0.7999999999999999
 31
0.0
  0
LINE
  5
126
330
AB
100
AcDbEntity
  8
AM_0
 48
0.0203246247030496
100
AcDbLine
 10
-1.441464879905161
 20
0.7999999999999999
 30
0.0
 11
-1.441464879905161
 21
0.6858407079646024
 31
0.0
  0
LINE
  5
127
330
AB
100
AcDbEntity
  8
AM_4
 48
0.0203246247030496
100
AcDbLine
 10
-2.039965230915812
 20
-0.7064016401589976
 30
0.0
 11
-2.039965230915812
 21
0.7064016401589978
 31
0.0
  0
LINE
  5
128
330
AB
100
AcDbEntity
  8
AM_4
 48
0.0203246247030496
100
AcDbLine
 10
2.039965230915812
 20
-0.7064016401589978
 30
0.0
 11
2.039965230915812
 21
0.706401640158998
 31
0.0
  0
LINE
  5
129
330
AB
100
AcDbEntity
  8
AM_0
 48
0.0203246247030496
100
AcDbLine
 10
1.754624999999994
 20
-0.8
 30
0.0
 11
1.754624999999994
 21
-1.0
 31
0.0
  0
LINE
  5
12A
330
AB
100
AcDbEntity
  8
AM_0
 48
0.0203246247030496
100
AcDbLine
 10
1.754624999999994
 20
-1.0
 30
0.0
 11
3.71875
 21
-1.0
 31
0.0
  0
LINE
  5
12B
330
AB
100
AcDbEntity
  8
AM_0
 48
0.0203246247030496
100
AcDbLine
 10
2.039965230915812
 20
-0.7064016401589978
 30
0.0
 11
2.75
 21
-1.0
 31
0.0
  0
LWPOLYLINE
  5
12C
330
AB
100
AcDbEntity
  8
AM_0
 48
0.0203246247030496
100
AcDbPolyline
 90
       30
 70
     0
 43
0.0
 10
-2.039965230915813
 20
-0.7064016401589978
 10
-1.971320912812719
 20
-0.6816035466636298
 10
-1.887673652247009
 20
-0.6577469319536361
 10
-1.789660055379185
 20
-0.6350133592719773
 10
-1.678026064863638
 20
-0.6135758448336677
 10
-1.553621282774639
 20
-0.593597541067908
 10
-1.417392504621545
 20
-0.5752304949295848
 10
-1.270376513663287
 20
-0.5586144907301368
 10
-1.113692190361741
 20
-0.5438759862945394
 10
-0.9485319970258111
 20
-0.5311271505408997
 10
-0.7761529024532359
 20
-0.5204650098072603
 10
-0.5978668156390554
 20
-0.511970709422581
 10
-0.4150306013560086
 20
-0.505708896141788
 10
-0.2290357535943136
 20
-0.5017272261449344
 10
-0.0412978054521967
 20
-0.500056002344894
 10
0.1467544439257081
 20
-0.500707943763898
 10
0.3336898033725823
 20
-0.5036780887340947
 10
0.518085581928379
 20
-0.5089438326588382
 10
0.6985384163770733
 20
-0.5164651000473182
 10
0.8736749516881102
 20
-0.5261846495132428
 10
1.042162293077441
 20
-0.5380285094163523
 10
1.202718150141655
 20
-0.5519065408312653
 10
1.354120595862217
 20
-0.5677131235591304
 10
1.495217366207896
 20
-0.5853279599611126
 10
1.624934629559803
 20
-0.6046169904960639
 10
1.742285159218405
 20
-0.6254334139945782
 10
1.846375846794812
 20
-0.6476188049045316
 10
1.936414499304893
 20
-0.6710043190051943
 10
2.01171586823622
 20
-0.6954119784137005
 10
2.039965230915812
 20
-0.7064016401589976
  0
LINE
  5
12D
330
AB
100
AcDbEntity
  8
AM_0
 48
0.0203246247030496
100
AcDbLine
 10
-2.75
 20
-1.0
 30
0.0
 11
-2.039965230915812
 21
-0.7064016401589976
 31
0.0
  0
LINE
  5
12E
330
AB
100
AcDbEntity
  8
AM_0
 48
0.0203246247030496
100
AcDbLine
 10
-3.71875
 20
-1.0
 30
0.0
 11
-1.754624999999995
 21
-1.0
 31
0.0
  0
LINE
  5
12F
330
AB
100
AcDbEntity
  8
AM_0
 48
0.0203246247030496
100
AcDbLine
 10
-1.754624999999995
 20
-1.0
 30
0.0
 11
-1.754624999999994
 21
-0.8000000000000002
 31
0.0
  0
LINE
  5
130
330
AB
100
AcDbEntity
  8
AM_0
 48
0.0203246247030496
100
AcDbLine
 10
-1.754624999999994
 20
-0.8000000000000002
 30
0.0
 11
1.754624999999994
 21
-0.8
 31
0.0
  0
LWPOLYLINE
  5
131
330
AB
100
AcDbEntity
  8
AM_0
 48
0.0203246247030496
100
AcDbPolyline
 90
       37
 70
     0
 43
0.0
 10
1.6698289770213
 20
-0.8000000000000002
 10
1.660206433275545
 20
-0.7794134533193213
 10
1.637948716112511
 20
-0.7590239929751306
 10
1.603225220199384
 20
-0.7389867950721402
 10
1.556300212306686
 20
-0.7194543547851823
 10
1.497530820078572
 20
-0.7005753257788511
 10
1.427364314075828
 20
-0.6824933888633536
 10
1.346334703776831
 20
-0.6653461584967892
 10
1.255058673442971
 20
-0.6492641354560282
 10
1.154230888779063
 20
-0.6343697136470018
 10
1.044618710107881
 20
-0.6207762486131742
 10
0.9270563522947551
 20
-0.6085871948314114
 10
0.8024385358687361
 20
-0.5978953183609449
 10
0.6717136776591206
 20
-0.5887819908376464
 10
0.5358766727707114
 20
-0.5813165701867457
 10
0.3959613228313354
 20
-0.5755558727671402
 10
0.2530324681372292
 20
-0.5715437409645975
 10
0.1081778835754171
 20
-0.5693107095247264
 10
-0.0374999999999958
 20
-0.5688737731651257
 10
-0.1828924859322898
 20
-0.570236257235321
 10
-0.3268930496131366
 20
-0.573387792408848
 10
-0.4684057598030075
 20
-0.578304393600087
 10
-0.6063536193296467
 20
-0.5849486425052479
 10
-0.7396867616868619
 20
-0.5932699723782551
 10
-0.8673904411525618
 20
-0.6032050528742188
 10
-0.9884927556164227
 20
-0.6146782720315989
 10
-1.102072043341798
 20
-0.6276023117248888
 10
-1.207263897368048
 20
-0.6418788122082739
 10
-1.303267744169456
 20
-0.657399120692689
 10
-1.389352936503154
 20
-0.6740451182591494
 10
-1.464864314075824
 20
-0.6916901188150458
 10
-1.529227189709121
 20
-0.7101998332518056
 10
-1.581951723056108
 20
-0.7294333914660935
 10
-1.622636648582071
 20
-0.7492444144663591
 10
-1.650972329437529
 20
-0.7694821284053477
 10
-1.666743113981619
 20
-0.7899925120601176
 10
-1.6698289770213
 20
-0.8
  0
LINE
  5
132
330
AB
100
AcDbEntity
  8
AM_0
 48
0.0203246247030496
100
AcDbLine
 10
-1.53843908820759
 20
0.6858407079646015
 30
0.0
 11
-1.441464879905161
 21
0.6858407079646021
 31
0.0
  0
LINE
  5
133
330
AB
100
AcDbEntity
  8
AM_0
 48
0.0203246247030496
100
AcDbLine
 10
-1.75449166740807
 20
0.8083724637458616
 30
0.0
 11
-1.754625
 21
0.8053097345132743
 31
0.0
  0
LWPOLYLINE
  5
134
330
AB
100
AcDbEntity
  8
AM_0
 48
0.0203246247030496
100
AcDbPolyline
 90
        3
 70
     0
 43
0.0
 10
-1.754625
 20
0.81
 10
-1.754586946980918
 20
0.8091284425725235
 10
-1.75449166740807
 20
0.8083724637458619
  0
LINE
  5
135
330
AB
100
AcDbEntity
  8
AM_0
 48
0.0203246247030496
100
AcDbLine
 10
-1.754625
 20
0.81
 30
0.0
 11
-1.754625
 21
0.9999999999999999
 31
0.0
  0
LINE
  5
136
330
AB
100
AcDbEntity
  8
AM_0
 48
0.0203246247030496
100
AcDbLine
 10
-3.71875
 20
0.9999999999999999
 30
0.0
 11
-1.754625
 21
0.9999999999999999
 31
0.0
  0
LINE
  5
137
330
AB
100
AcDbEntity
  8
AM_0
 48
0.0203246247030496
100
AcDbLine
 10
-2.039965230915812
 20
0.7064016401589978
 30
0.0
 11
-2.749999999999999
 21
0.9999999999999999
 31
0.0
  0
LWPOLYLINE
  5
138
330
AB
100
AcDbEntity
  8
AM_0
 48
0.0203246247030496
100
AcDbPolyline
 90
       30
 70
     0
 43
0.0
 10
2.039965230915812
 20
0.706401640158998
 10
1.971320912812718
 20
0.6816035466636299
 10
1.887673652247008
 20
0.6577469319536362
 10
1.789660055379184
 20
0.6350133592719777
 10
1.678026064863637
 20
0.613575844833668
 10
1.553621282774637
 20
0.5935975410679081
 10
1.417392504621544
 20
0.575230494929585
 10
1.270376513663286
 20
0.558614490730137
 10
1.11369219036174
 20
0.5438759862945396
 10
0.9485319970258098
 20
0.5311271505408999
 10
0.7761529024532345
 20
0.5204650098072606
 10
0.5978668156390542
 20
0.5119707094225814
 10
0.4150306013560071
 20
0.5057088961417885
 10
0.2290357535943121
 20
0.5017272261449346
 10
0.0412978054521952
 20
0.5000560023448944
 10
-0.1467544439257096
 20
0.5007079437638984
 10
-0.3336898033725837
 20
0.503678088734095
 10
-0.5180855819283804
 20
0.5089438326588386
 10
-0.6985384163770747
 20
0.5164651000473185
 10
-0.8736749516881115
 20
0.5261846495132433
 10
-1.042162293077443
 20
0.5380285094163527
 10
-1.202718150141657
 20
0.5519065408312659
 10
-1.354120595862218
 20
0.5677131235591308
 10
-1.495217366207898
 20
0.585327959961113
 10
-1.624934629559804
 20
0.6046169904960643
 10
-1.742285159218407
 20
0.6254334139945787
 10
-1.846375846794814
 20
0.6476188049045323
 10
-1.936414499304894
 20
0.6710043190051947
 10
-2.011715868236222
 20
0.6954119784137011
 10
-2.039965230915812
 20
0.706401640158998
  0
LINE
  5
139
330
AB
100
AcDbEntity
  8
AM_0
 48
0.0203246247030496
100
AcDbLine
 10
2.749999999999999
 20
0.9999999999999999
 30
0.0
 11
2.039965230915812
 21
0.706401640158998
 31
0.0
  0
LINE
  5
13A
330
AB
100
AcDbEntity
  8
AM_0
 48
0.0203246247030496
100
AcDbLine
 10
1.754625
 20
0.9999999999999999
 30
0.0
 11
3.71875
 21
0.9999999999999999
 31
0.0
  0
LINE
  5
13B
330
AB
100
AcDbEntity
  8
AM_0
 48
0.0203246247030496
100
AcDbLine
 10
1.754625
 20
0.9999999999999999
 30
0.0
 11
1.754625
 21
0.8099999999999985
 31
0.0
  0
LWPOLYLINE
  5
13C
330
AB
100
AcDbEntity
  8
AM_0
 48
0.0203246247030496
100
AcDbPolyline
 90
        3
 70
     0
 43
0.0
 10
1.75449166740807
 20
0.8083724637458624
 10
1.754595970890832
 20
0.8092385937390704
 10
1.754625
 20
0.809999999999997
  0
LWPOLYLINE
  5
13D
330
AB
100
AcDbEntity
  8
AM_0
 48
0.0203246247030496
100
AcDbPolyline
 90
        7
 70
     0
 43
0.0
 10
1.538439088207589
 20
0.6858407079646015
 10
1.606122520952836
 20
0.7052806406923682
 10
1.661582391510339
 20
0.7254818552233302
 10
1.704396616777569
 20
0.74629060811708
 10
1.734239354648306
 20
0.7675485321994278
 10
1.750883483867817
 20
0.7890938418322212
 10
1.754625
 20
0.8053097345132743
  0
LINE
  5
13E
330
AB
100
AcDbEntity
  8
AM_0
 48
0.0203246247030496
100
AcDbLine
 10
1.441464879905161
 20
0.6858407079646021
 30
0.0
 11
1.53843908820759
 21
0.6858407079646015
 31
0.0
  0
LWPOLYLINE
  5
13F
330
AB
100
AcDbEntity
  8
AM_0
 48
0.0203246247030496
100
AcDbPolyline
 90
       25
 70
     0
 43
0.0
 10
-1.441464879905161
 20
0.6858407079646023
 10
-1.362442012903639
 20
0.6685067300859886
 10
-1.273050139518942
 20
0.6522139056749793
 10
-1.173969585883814
 20
0.6370862329632182
 10
-1.065954414837893
 20
0.6232388426743805
 10
-0.9498266870541823
 20
0.610777121809847
 10
-0.8264702046609552
 20
0.5997959115899897
 10
-0.6968237849739045
 20
0.5903787856552177
 10
-0.5618741155294972
 20
0.5825974140201108
 10
-0.4226482447970437
 20
0.5765110176213327
 10
-0.2802057657196968
 20
0.5721659176105447
 10
-0.1356307515723559
 20
0.569595182822472
 10
0.0099764944905376
 20
0.5688183781011042
 10
0.1555078134063861
 20
0.5698414153994181
 10
0.2998556239640269
 20
0.572656508785847
 10
0.4419213521655254
 20
0.57724223369992
 10
0.5806237920376363
 20
0.5835636900061049
 10
0.7149073342621096
 20
0.5915727676049116
 10
0.8437499999999973
 20
0.6012085125798005
 10
0.966171218767706
 20
0.6123975910932902
 10
1.08123929117046
 20
0.625054847501743
 10
1.188078479697272
 20
0.6390839524412301
 10
1.285875673612189
 20
0.6543781359521569
 10
1.373886577217957
 20
0.6708210000631247
 10
1.44146487990516
 20
0.6858407079646021
  0
ENDBLK
  5
AE
330
AB
100
AcDbEntity
  8
0
100
AcDbBlockEnd
  0
ENDSEC
  0
SECTION
  2
ENTITIES
  0
ATTDEF
  5
6F
330
1F
100
AcDbEntity
  8
AM_6
100
AcDbText
 10
8.71875
 20
1.1
 30
0.0
 40
0.5
  1
Sleeve Bearings - SOLIDLUBE 3/4 thru 3 LT1000 Pillow Blocks
100
AcDbAttributeDefinition
  3

  2
NN
 70
     8
280
     0
  0
ATTDEF
  5
70
330
1F
100
AcDbEntity
  8
AM_6
100
AcDbText
 10
8.71875
 20
0.6000000000000001
 30
0.0
 40
0.5
  1
SOLIDLUBE
100
AcDbAttributeDefinition
  3

  2
NT
 70
     8
280
     0
  0
ATTDEF
  5
71
330
1F
100
AcDbEntity
  8
AM_6
100
AcDbText
 10
8.71875
 20
0.1000000000000001
 30
0.0
 40
0.5
  1
033990
100
AcDbAttributeDefinition
  3

  2
NB
 70
     8
280
     0
  0
ATTDEF
  5
72
330
1F
100
AcDbEntity
  8
AM_6
100
AcDbText
 10
8.71875
 20
-0.3999999999999999
 30
0.0
 40
0.5
  1
$PN.
100
AcDbAttributeDefinition
  3

  2
NBSYN
 70
     8
280
     0
  0
ATTDEF
  5
73
330
1F
100
AcDbEntity
  8
AM_6
100
AcDbText
 10
8.71875
 20
-0.8999999999999999
 30
0.0
 40
0.5
  1
033990
100
AcDbAttributeDefinition
  3

  2
LINA
 70
     8
280
     0
  0
ATTDEF
  5
74
330
1F
100
AcDbEntity
  8
AM_6
100
AcDbText
 10
8.71875
 20
-1.4
 30
0.0
 40
0.5
  1
209
100
AcDbAttributeDefinition
  3

  2
SERIES
 70
     8
280
     0
  0
ATTDEF
  5
75
330
1F
100
AcDbEntity
  8
AM_6
100
AcDbText
 10
8.71875
 20
-1.9
 30
0.0
 40
0.5
  1
1-11/16
100
AcDbAttributeDefinition
  3

  2
SS
 70
     8
280
     0
  0
ATTDEF
  5
76
330
1F
100
AcDbEntity
  8
AM_6
100
AcDbText
 10
8.71875
 20
-2.4
 30
0.0
 40
0.5
  1
033990
100
AcDbAttributeDefinition
  3

  2
PN
 70
     8
280
     0
  0
ATTDEF
  5
77
330
1F
100
AcDbEntity
  8
AM_6
100
AcDbText
 10
8.71875
 20
-2.9
 30
0.0
 40
0.5
  1
P2B-LT10-111
100
AcDbAttributeDefinition
  3

  2
DESCRIPTION
 70
     8
280
     0
  0
ATTDEF
  5
78
330
1F
100
AcDbEntity
  8
AM_6
100
AcDbText
 10
8.71875
 20
-3.4
 30
0.0
 40
0.5
  1
6.0
100
AcDbAttributeDefinition
  3

  2
WEIGHT
 70
     8
280
     0
  0
ATTDEF
  5
79
330
1F
100
AcDbEntity
  8
AM_6
100
AcDbText
 10
8.71875
 20
-3.9
 30
0.0
 40
0.5
  1
1-9/16
100
AcDbAttributeDefinition
  3

  2
A
 70
     8
280
     0
  0
ATTDEF
  5
7A
330
1F
100
AcDbEntity
  8
AM_6
100
AcDbText
 10
8.71875
 20
-4.4
 30
0.0
 40
0.5
  1
7-7/16
100
AcDbAttributeDefinition
  3

  2
B
 70
     8
280
     0
  0
ATTDEF
  5
7B
330
1F
100
AcDbEntity
  8
AM_6
100
AcDbText
 10
8.71875
 20
-4.9
 30
0.0
 40
0.5
  1
2
100
AcDbAttributeDefinition
  3

  2
C
 70
     8
280
     0
  0
ATTDEF
  5
7C
330
1F
100
AcDbEntity
  8
AM_6
100
AcDbText
 10
8.71875
 20
-5.4
 30
0.0
 40
0.5
  1
5-1/2
100
AcDbAttributeDefinition
  3

  2
DMIN
 70
     8
280
     0
  0
ATTDEF
  5
7D
330
1F
100
AcDbEntity
  8
AM_6
100
AcDbText
 10
8.71875
 20
-5.9
 30
0.0
 40
0.5
  1
6-3/16
100
AcDbAttributeDefinition
  3

  2
DMAX
 70
     8
280
     0
  0
ATTDEF
  5
7E
330
1F
100
AcDbEntity
  8
AM_6
100
AcDbText
 10
8.71875
 20
-6.4
 30
0.0
 40
0.5
  1
1/2
100
AcDbAttributeDefinition
  3

  2
F
 70
     8
280
     0
  0
ATTDEF
  5
7F
330
1F
100
AcDbEntity
  8
AM_6
100
AcDbText
 10
8.71875
 20
-6.9
 30
0.0
 40
0.5
  1
29/32
100
AcDbAttributeDefinition
  3

  2
G
 70
     8
280
     0
  0
ATTDEF
  5
80
330
1F
100
AcDbEntity
  8
AM_6
100
AcDbText
 10
8.71875
 20
-7.4
 30
0.0
 40
0.5
  1
3/4
100
AcDbAttributeDefinition
  3

  2
H
 70
     8
280
     0
  0
ATTDEF
  5
81
330
1F
100
AcDbEntity
  8
AM_6
100
AcDbText
 10
8.71875
 20
-7.9
 30
0.0
 40
0.5
  1
4-9/32
100
AcDbAttributeDefinition
  3

  2
J
 70
     8
280
     0
  0
ATTDEF
  5
82
330
1F
100
AcDbEntity
  8
AM_6
100
AcDbText
 10
8.71875
 20
-8.4
 30
0.0
 40
0.5
  1
2-9/16
100
AcDbAttributeDefinition
  3

  2
L
 70
     8
280
     0
  0
ATTDEF
  5
83
330
1F
100
AcDbEntity
  8
AM_6
100
AcDbText
 10
8.71875
 20
-8.9
 30
0.0
 40
0.5
  1
2-1/8
100
AcDbAttributeDefinition
  3

  2
M
 70
     8
280
     0
  0
ATTDEF
  5
84
330
1F
100
AcDbEntity
  8
AM_6
100
AcDbText
 10
8.71875
 20
-9.4
 30
0.0
 40
0.5
  1
baldor
100
AcDbAttributeDefinition
  3

  2
COMPANY
 70
     8
280
     0
  0
INSERT
  5
86
330
1F
100
AcDbEntity
  8
0
100
AcDbBlockReference
  2
1_033620_0_in_033990_4
 10
0.0
 20
0.0
 30
0.0
  0
INSERT
  5
AC
330
1F
100
AcDbEntity
  8
0
100
AcDbBlockReference
  2
2_P2B_LT10_111_0_in_033990_4
 10
0.0
 20
0.0
 30
0.0
  0
POINT
  5
141
330
1F
100
AcDbEntity
  8
ConnectionPoints
100
AcDbPoint
 10
1.524698996933493
 20
0.0000000000000001
 30
1.524698996933493
  0
POINT
  5
142
330
1F
100
AcDbEntity
  8
ConnectionPoints
100
AcDbPoint
 10
0.0
 20
0.0
 30
0.0
  0
ENDSEC
  0
SECTION
  2
OBJECTS
  0
DICTIONARY
  5
C
330
0
100
AcDbDictionary
281
     1
  3
ACAD_DETAILVIEWSTYLE
350
14A
  3
ACAD_GROUP
350
D
  3
ACAD_LAYOUT
350
1A
  3
ACAD_MATERIAL
350
43
  3
ACAD_MLEADERSTYLE
350
6B
  3
ACAD_MLINESTYLE
350
17
  3
ACAD_PLOTSETTINGS
350
19
  3
ACAD_PLOTSTYLENAME
350
E
  3
ACAD_SCALELIST
350
47
  3
ACAD_SECTIONVIEWSTYLE
350
14B
  3
ACAD_TABLESTYLE
350
69
  3
ACAD_VISUALSTYLE
350
2A
  3
ACDB_RECOMPOSE_DATA
350
147
  3
AcDbVariableDictionary
350
143
  0
SUN
  5
6D
330
29
100
AcDbSun
 90
        1
290
     0
 63
     7
421
 16777215
 40
1.0
291
     1
 91
  2455826
 92
 54000000
292
     0
 70
     2
 71
   256
280
     1
  0
DICTIONARY
  5
14A
102
{ACAD_REACTORS
330
C
102
}
330
C
100
AcDbDictionary
281
     1
  0
DICTIONARY
  5
D
102
{ACAD_REACTORS
330
C
102
}
330
C
100
AcDbDictionary
281
     1
  0
DICTIONARY
  5
1A
102
{ACAD_REACTORS
330
C
102
}
330
C
100
AcDbDictionary
281
     1
  3
Layout1
350
1E
  3
Layout2
350
26
  3
Model
350
22
  0
DICTIONARY
  5
43
102
{ACAD_REACTORS
330
C
102
}
330
C
100
AcDbDictionary
281
     1
  3
ByBlock
350
45
  3
ByLayer
350
44
  3
Global
350
46
  0
DICTIONARY
  5
6B
102
{ACAD_REACTORS
330
C
102
}
330
C
100
AcDbDictionary
281
     1
  3
Standard
350
6C
  0
DICTIONARY
  5
17
102
{ACAD_REACTORS
330
C
102
}
330
C
100
AcDbDictionary
281
     1
  3
Standard
350
18
  0
DICTIONARY
  5
19
102
{ACAD_REACTORS
330
C
102
}
330
C
100
AcDbDictionary
281
     1
  0
ACDBDICTIONARYWDFLT
  5
E
102
{ACAD_REACTORS
330
C
102
}
330
C
100
AcDbDictionary
281
     1
  3
Normal
350
F
100
AcDbDictionaryWithDefault
340
F
  0
DICTIONARY
  5
47
102
{ACAD_REACTORS
330
C
102
}
330
C
100
AcDbDictionary
281
     1
  3
A0
350
48
  3
A1
350
49
  3
A2
350
4A
  3
A3
350
4B
  3
A4
350
4C
  3
A5
350
4D
  3
A6
350
4E
  3
A7
350
4F
  3
A8
350
50
  3
A9
350
51
  3
B0
350
52
  3
B1
350
53
  3
B2
350
54
  3
B3
350
55
  3
B4
350
56
  3
B5
350
57
  3
B6
350
58
  3
B7
350
59
  3
B8
350
5A
  3
B9
350
5B
  3
C0
350
5C
  3
C1
350
5D
  3
C2
350
5E
  3
C3
350
5F
  3
C4
350
60
  3
C5
350
61
  3
C6
350
62
  3
C7
350
63
  3
C8
350
64
  3
C9
350
65
  3
D0
350
66
  3
D1
350
67
  3
D2
350
68
  0
DICTIONARY
  5
14B
102
{ACAD_REACTORS
330
C
102
}
330
C
100
AcDbDictionary
281
     1
  0
DICTIONARY
  5
69
102
{ACAD_REACTORS
330
C
102
}
330
C
100
AcDbDictionary
281
     1
  3
Standard
350
6A
  0
DICTIONARY
  5
2A
102
{ACAD_REACTORS
330
C
102
}
330
C
100
AcDbDictionary
281
     1
  3
2dWireframe
350
2F
  3
Basic
350
32
  3
Brighten
350
36
  3
ColorChange
350
3A
  3
Conceptual
350
34
  3
Dim
350
35
  3
EdgeColorOff
350
3D
  3
Facepattern
350
39
  3
Flat
350
2B
  3
FlatWithEdges
350
2C
  3
Gouraud
350
2D
  3
GouraudWithEdges
350
2E
  3
Hidden
350
31
  3
JitterOff
350
3B
  3
Linepattern
350
38
  3
OverhangOff
350
3C
  3
Realistic
350
33
  3
Shaded
350
42
  3
Shaded with edges
350
41
  3
Shades of Gray
350
3E
  3
Sketchy
350
3F
  3
Thicken
350
37
  3
Wireframe
350
30
  3
X-Ray
350
40
  0
XRECORD
  5
147
102
{ACAD_REACTORS
330
C
102
}
330
C
100
AcDbXrecord
280
     1
 90
        1
330
6A
  0
DICTIONARY
  5
143
102
{ACAD_REACTORS
330
C
102
}
330
C
100
AcDbDictionary
281
     1
  3
CANNOSCALE
350
144
  3
CMLEADERSTYLE
350
149
  3
CTABLESTYLE
350
148
  0
LAYOUT
  5
1E
102
{ACAD_REACTORS
330
1A
102
}
330
1A
100
AcDbPlotSettings
  1

  2
none_device
  4

  6

 40
0.0
 41
0.0
 42
0.0
 43
0.0
 44
0.0
 45
0.0
 46
0.0
 47
0.0
 48
0.0
 49
0.0
140
0.0
141
0.0
142
1.0
143
1.0
 70
   688
 72
     0
 73
     0
 74
     5
  7

 75
    16
 76
     0
 77
     2
 78
   300
147
1.0
148
0.0
149
0.0
100
AcDbLayout
  1
Layout1
 70
     1
 71
     1
 10
0.0
 20
0.0
 11
12.0
 21
9.0
 12
0.0
 22
0.0
 32
0.0
 14
1.000000000000000E+20
 24
1.000000000000000E+20
 34
1.000000000000000E+20
 15
-1.000000000000000E+20
 25
-1.000000000000000E+20
 35
-1.000000000000000E+20
146
0.0
 13
0.0
 23
0.0
 33
0.0
 16
1.0
 26
0.0
 36
0.0
 17
0.0
 27
1.0
 37
0.0
 76
     0
330
1B
  0
LAYOUT
  5
26
102
{ACAD_REACTORS
330
1A
102
}
330
1A
100
AcDbPlotSettings
  1

  2
none_device
  4

  6

 40
0.0
 41
0.0
 42
0.0
 43
0.0
 44
0.0
 45
0.0
 46
0.0
 47
0.0
 48
0.0
 49
0.0
140
0.0
141
0.0
142
1.0
143
1.0
 70
   688
 72
     0
 73
     0
 74
     5
  7

 75
    16
 76
     0
 77
     2
 78
   300
147
1.0
148
0.0
149
0.0
100
AcDbLayout
  1
Layout2
 70
     1
 71
     2
 10
0.0
 20
0.0
 11
0.0
 21
0.0
 12
0.0
 22
0.0
 32
0.0
 14
0.0
 24
0.0
 34
0.0
 15
0.0
 25
0.0
 35
0.0
146
0.0
 13
0.0
 23
0.0
 33
0.0
 16
1.0
 26
0.0
 36
0.0
 17
0.0
 27
1.0
 37
0.0
 76
     0
330
23
  0
LAYOUT
  5
22
102
{ACAD_REACTORS
330
1A
102
}
330
1A
100
AcDbPlotSettings
  1

  2
none_device
  4
Letter_(8.50_x_11.00_Inches)
  6

 40
6.35
 41
6.35
 42
6.35000508
 43
6.35000508
 44
215.9
 45
279.4
 46
0.0
 47
0.0
 48
0.0
 49
0.0
140
0.0
141
0.0
142
1.0
143
1.0
 70
  1712
 72
     0
 73
     0
 74
     0
  7

 75
     0
 76
     0
 77
     2
 78
   300
147
1.0
148
0.0
149
0.0
100
AcDbLayout
  1
Model
 70
     1
 71
     0
 10
0.0
 20
0.0
 11
12.0
 21
9.0
 12
0.0
 22
0.0
 32
0.0
 14
1.000000000000000E+20
 24
1.000000000000000E+20
 34
1.000000000000000E+20
 15
-1.000000000000000E+20
 25
-1.000000000000000E+20
 35
-1.000000000000000E+20
146
0.0
 13
0.0
 23
0.0
 33
0.0
 16
1.0
 26
0.0
 36
0.0
 17
0.0
 27
1.0
 37
0.0
 76
     0
330
1F
331
29
  0
MATERIAL
  5
45
102
{ACAD_REACTORS
330
43
102
}
330
43
100
AcDbMaterial
  1
ByBlock
 72
     1
 94
      127
  0
MATERIAL
  5
44
102
{ACAD_REACTORS
330
43
102
}
330
43
100
AcDbMaterial
  1
ByLayer
 72
     1
 94
      127
  0
MATERIAL
  5
46
102
{ACAD_REACTORS
330
43
102
}
330
43
100
AcDbMaterial
  1
Global
 72
     1
 94
      127
  0
MLEADERSTYLE
  5
6C
102
{ACAD_REACTORS
330
6B
102
}
330
6B
100
AcDbMLeaderStyle
179
     2
170
     2
171
     1
172
     0
 90
        2
 40
0.0
 41
0.0
173
     1
 91
-1056964608
340
14
 92
       -2
290
     1
 42
0.09
291
     1
 43
0.36
  3
Standard
341
0
 44
0.18
300

342
11
174
     1
178
     6
175
     1
176
     0
 93
-1056964608
 45
0.18
292
     0
297
     0
 46
0.18
343
0
 94
-1056964608
 47
1.0
 49
1.0
140
1.0
293
     1
141
0.0
294
     1
177
     0
142
1.0
295
     0
296
     0
143
0.125
271
     0
272
     9
273
     9
298
     0
  0
MLINESTYLE
  5
18
102
{ACAD_REACTORS
330
17
102
}
330
17
100
AcDbMlineStyle
  2
Standard
 70
     0
  3

 62
   256
 51
90.0
 52
90.0
 71
     2
 49
0.5
 62
   256
  6
BYLAYER
 49
-0.5
 62
   256
  6
BYLAYER
  0
ACDBPLACEHOLDER
  5
F
102
{ACAD_REACTORS
330
E
102
}
330
E
  0
SCALE
  5
48
102
{ACAD_REACTORS
330
47
102
}
330
47
100
AcDbScale
 70
     0
300
1:1
140
1.0
141
1.0
290
     1
  0
SCALE
  5
49
102
{ACAD_REACTORS
330
47
102
}
330
47
100
AcDbScale
 70
     0
300
1:2
140
1.0
141
2.0
290
     0
  0
SCALE
  5
4A
102
{ACAD_REACTORS
330
47
102
}
330
47
100
AcDbScale
 70
     0
300
1:4
140
1.0
141
4.0
290
     0
  0
SCALE
  5
4B
102
{ACAD_REACTORS
330
47
102
}
330
47
100
AcDbScale
 70
     0
300
1:5
140
1.0
141
5.0
290
     0
  0
SCALE
  5
4C
102
{ACAD_REACTORS
330
47
102
}
330
47
100
AcDbScale
 70
     0
300
1:8
140
1.0
141
8.0
290
     0
  0
SCALE
  5
4D
102
{ACAD_REACTORS
330
47
102
}
330
47
100
AcDbScale
 70
     0
300
1:10
140
1.0
141
10.0
290
     0
  0
SCALE
  5
4E
102
{ACAD_REACTORS
330
47
102
}
330
47
100
AcDbScale
 70
     0
300
1:16
140
1.0
141
16.0
290
     0
  0
SCALE
  5
4F
102
{ACAD_REACTORS
330
47
102
}
330
47
100
AcDbScale
 70
     0
300
1:20
140
1.0
141
20.0
290
     0
  0
SCALE
  5
50
102
{ACAD_REACTORS
330
47
102
}
330
47
100
AcDbScale
 70
     0
300
1:30
140
1.0
141
30.0
290
     0
  0
SCALE
  5
51
102
{ACAD_REACTORS
330
47
102
}
330
47
100
AcDbScale
 70
     0
300
1:40
140
1.0
141
40.0
290
     0
  0
SCALE
  5
52
102
{ACAD_REACTORS
330
47
102
}
330
47
100
AcDbScale
 70
     0
300
1:50
140
1.0
141
50.0
290
     0
  0
SCALE
  5
53
102
{ACAD_REACTORS
330
47
102
}
330
47
100
AcDbScale
 70
     0
300
1:100
140
1.0
141
100.0
290
     0
  0
SCALE
  5
54
102
{ACAD_REACTORS
330
47
102
}
330
47
100
AcDbScale
 70
     0
300
2:1
140
2.0
141
1.0
290
     0
  0
SCALE
  5
55
102
{ACAD_REACTORS
330
47
102
}
330
47
100
AcDbScale
 70
     0
300
4:1
140
4.0
141
1.0
290
     0
  0
SCALE
  5
56
102
{ACAD_REACTORS
330
47
102
}
330
47
100
AcDbScale
 70
     0
300
8:1
140
8.0
141
1.0
290
     0
  0
SCALE
  5
57
102
{ACAD_REACTORS
330
47
102
}
330
47
100
AcDbScale
 70
     0
300
10:1
140
10.0
141
1.0
290
     0
  0
SCALE
  5
58
102
{ACAD_REACTORS
330
47
102
}
330
47
100
AcDbScale
 70
     0
300
100:1
140
100.0
141
1.0
290
     0
  0
SCALE
  5
59
102
{ACAD_REACTORS
330
47
102
}
330
47
100
AcDbScale
 70
     0
300
1/128" = 1'-0"
140
0.0078125
141
12.0
290
     0
  0
SCALE
  5
5A
102
{ACAD_REACTORS
330
47
102
}
330
47
100
AcDbScale
 70
     0
300
1/64" = 1'-0"
140
0.015625
141
12.0
290
     0
  0
SCALE
  5
5B
102
{ACAD_REACTORS
330
47
102
}
330
47
100
AcDbScale
 70
     0
300
1/32" = 1'-0"
140
0.03125
141
12.0
290
     0
  0
SCALE
  5
5C
102
{ACAD_REACTORS
330
47
102
}
330
47
100
AcDbScale
 70
     0
300
1/16" = 1'-0"
140
0.0625
141
12.0
290
     0
  0
SCALE
  5
5D
102
{ACAD_REACTORS
330
47
102
}
330
47
100
AcDbScale
 70
     0
300
3/32" = 1'-0"
140
0.09375
141
12.0
290
     0
  0
SCALE
  5
5E
102
{ACAD_REACTORS
330
47
102
}
330
47
100
AcDbScale
 70
     0
300
1/8" = 1'-0"
140
0.125
141
12.0
290
     0
  0
SCALE
  5
5F
102
{ACAD_REACTORS
330
47
102
}
330
47
100
AcDbScale
 70
     0
300
3/16" = 1'-0"
140
0.1875
141
12.0
290
     0
  0
SCALE
  5
60
102
{ACAD_REACTORS
330
47
102
}
330
47
100
AcDbScale
 70
     0
300
1/4" = 1'-0"
140
0.25
141
12.0
290
     0
  0
SCALE
  5
61
102
{ACAD_REACTORS
330
47
102
}
330
47
100
AcDbScale
 70
     0
300
3/8" = 1'-0"
140
0.375
141
12.0
290
     0
  0
SCALE
  5
62
102
{ACAD_REACTORS
330
47
102
}
330
47
100
AcDbScale
 70
     0
300
1/2" = 1'-0"
140
0.5
141
12.0
290
     0
  0
SCALE
  5
63
102
{ACAD_REACTORS
330
47
102
}
330
47
100
AcDbScale
 70
     0
300
3/4" = 1'-0"
140
0.75
141
12.0
290
     0
  0
SCALE
  5
64
102
{ACAD_REACTORS
330
47
102
}
330
47
100
AcDbScale
 70
     0
300
1" = 1'-0"
140
1.0
141
12.0
290
     0
  0
SCALE
  5
65
102
{ACAD_REACTORS
330
47
102
}
330
47
100
AcDbScale
 70
     0
300
1-1/2" = 1'-0"
140
1.5
141
12.0
290
     0
  0
SCALE
  5
66
102
{ACAD_REACTORS
330
47
102
}
330
47
100
AcDbScale
 70
     0
300
3" = 1'-0"
140
3.0
141
12.0
290
     0
  0
SCALE
  5
67
102
{ACAD_REACTORS
330
47
102
}
330
47
100
AcDbScale
 70
     0
300
6" = 1'-0"
140
6.0
141
12.0
290
     0
  0
SCALE
  5
68
102
{ACAD_REACTORS
330
47
102
}
330
47
100
AcDbScale
 70
     0
300
1'-0" = 1'-0"
140
12.0
141
12.0
290
     0
  0
TABLESTYLE
  5
6A
102
{ACAD_REACTORS
330
69
102
}
102
{ACAD_XDICTIONARY
360
145
102
}
330
69
100
AcDbTableStyle
  3
Standard
 70
     0
 71
     0
 40
0.06
 41
0.06
280
     0
281
     0
  7
Standard
140
0.18
170
     2
 62
     0
 63
   257
283
     0
 90
        4
 91
        0
  1

274
    -2
284
     1
 64
     0
275
    -2
285
     1
 65
     0
276
    -2
286
     1
 66
     0
277
    -2
287
     1
 67
     0
278
    -2
288
     1
 68
     0
279
    -2
289
     1
 69
     0
  7
Standard
140
0.25
170
     5
 62
     0
 63
   257
283
     0
 90
        4
 91
        0
  1

274
    -2
284
     1
 64
     0
275
    -2
285
     1
 65
     0
276
    -2
286
     1
 66
     0
277
    -2
287
     1
 67
     0
278
    -2
288
     1
 68
     0
279
    -2
289
     1
 69
     0
  7
Standard
140
0.18
170
     5
 62
     0
 63
   257
283
     0
 90
        4
 91
        0
  1

274
    -2
284
     1
 64
     0
275
    -2
285
     1
 65
     0
276
    -2
286
     1
 66
     0
277
    -2
287
     1
 67
     0
278
    -2
288
     1
 68
     0
279
    -2
289
     1
 69
     0
  0
VISUALSTYLE
  5
2F
102
{ACAD_REACTORS
330
2A
102
}
330
2A
100
AcDbVisualStyle
  2
2dWireframe
 70
     4
177
     3
291
     0
 70
    58
 90
        0
176
     1
 90
        2
176
     1
 90
        0
176
     1
 90
        0
176
     1
 40
0.6
176
     1
 40
30.0
176
     1
 62
     7
420
 16777215
176
     1
 90
        1
176
     1
 90
        4
176
     1
 62
     7
176
     1
 62
   257
176
     1
 90
        1
176
     1
 90
        1
176
     1
 40
1.0
176
     1
 90
        0
176
     1
 62
   257
176
     1
 40
1.0
176
     1
 90
        1
176
     1
 90
        6
176
     1
 90
        2
176
     1
 62
     7
176
     1
 90
        5
176
     1
 90
        0
176
     1
 90
        0
176
     1
290
     0
176
     1
 90
        1
176
     1
 40
0.0
176
     1
 90
        0
176
     1
290
     1
176
     1
290
     1
176
     1
290
     0
176
     1
290
     0
176
     1
290
     0
176
     1
290
     0
176
     1
290
     0
176
     1
290
     0
176
     1
290
     0
176
     1
 90
       50
176
     1
 40
0.0
176
     1
 40
1.0
176
     1
 90
        0
176
     1
 62
    18
420
        0
176
     1
 90
       50
176
     1
 90
        3
176
     1
 62
     5
420
      255
176
     1
290
     0
176
     1
 90
       50
176
     1
 90
       50
176
     1
 90
       50
176
     1
290
     0
176
     1
 90
       50
176
     1
 62
   256
176
     0
 40
1.0
176
     0
 90
        2
176
     1
  1
strokes_ogs.tif
176
     1
290
     0
176
     1
 40
1.0
176
     1
 40
1.0
176
     1
  0
VISUALSTYLE
  5
32
102
{ACAD_REACTORS
330
2A
102
}
330
2A
100
AcDbVisualStyle
  2
Basic
 70
     7
177
     3
291
     1
 70
    58
 90
        1
176
     1
 90
        0
176
     1
 90
        1
176
     1
 90
        0
176
     1
 40
0.6
176
     1
 40
30.0
176
     1
 62
     7
420
 16777215
176
     1
 90
        0
176
     1
 90
        4
176
     1
 62
     7
176
     1
 62
   257
176
     1
 90
        1
176
     1
 90
        1
176
     1
 40
1.0
176
     1
 90
        8
176
     1
 62
     7
176
     1
 40
1.0
176
     1
 90
        1
176
     1
 90
        6
176
     1
 90
        2
176
     1
 62
     7
176
     1
 90
        5
176
     1
 90
        0
176
     1
 90
        0
176
     1
290
     0
176
     1
 90
        1
176
     1
 40
0.0
176
     1
 90
        0
176
     1
290
     0
176
     1
290
     1
176
     1
290
     1
176
     1
290
     0
176
     1
290
     0
176
     1
290
     0
176
     1
290
     0
176
     1
290
     0
176
     1
290
     0
176
     1
 90
       50
176
     1
 40
0.0
176
     1
 40
1.0
176
     1
 90
        0
176
     1
 62
    18
420
        0
176
     1
 90
       50
176
     1
 90
        3
176
     1
 62
     5
420
      255
176
     1
290
     0
176
     1
 90
       50
176
     1
 90
       50
176
     1
 90
       50
176
     1
290
     0
176
     1
 90
       50
176
     1
 62
   256
176
     0
 40
1.0
176
     0
 90
        2
176
     1
  1
strokes_ogs.tif
176
     1
290
     0
176
     1
 40
1.0
176
     1
 40
1.0
176
     1
  0
VISUALSTYLE
  5
36
102
{ACAD_REACTORS
330
2A
102
}
330
2A
100
AcDbVisualStyle
  2
Brighten
 70
    12
177
     3
291
     1
 70
    58
 90
        2
176
     1
 90
        2
176
     1
 90
        0
176
     1
 90
        0
176
     1
 40
0.6
176
     1
 40
30.0
176
     1
 62
     7
420
 16777215
176
     1
 90
        1
176
     1
 90
        4
176
     1
 62
     7
176
     1
 62
   257
176
     1
 90
        1
176
     1
 90
        1
176
     1
 40
1.0
176
     1
 90
        8
176
     1
 62
     7
176
     1
 40
1.0
176
     1
 90
        1
176
     1
 90
        6
176
     1
 90
        2
176
     1
 62
     7
176
     1
 90
        5
176
     1
 90
        0
176
     1
 90
        0
176
     1
290
     0
176
     1
 90
        1
176
     1
 40
50.0
176
     1
 90
        0
176
     1
290
     0
176
     1
290
     1
176
     1
290
     1
176
     1
290
     0
176
     1
290
     0
176
     1
290
     0
176
     1
290
     0
176
     1
290
     0
176
     1
290
     0
176
     1
 90
       50
176
     1
 40
0.0
176
     1
 40
1.0
176
     1
 90
        0
176
     1
 62
    18
420
        0
176
     1
 90
       50
176
     1
 90
        3
176
     1
 62
     5
420
      255
176
     1
290
     0
176
     1
 90
       50
176
     1
 90
       50
176
     1
 90
       50
176
     1
290
     0
176
     1
 90
       50
176
     1
 62
   256
176
     0
 40
1.0
176
     0
 90
        2
176
     1
  1
strokes_ogs.tif
176
     1
290
     0
176
     1
 40
1.0
176
     1
 40
1.0
176
     1
  0
VISUALSTYLE
  5
3A
102
{ACAD_REACTORS
330
2A
102
}
330
2A
100
AcDbVisualStyle
  2
ColorChange
 70
    16
177
     3
291
     1
 70
    58
 90
        2
176
     1
 90
        2
176
     1
 90
        3
176
     1
 90
        0
176
     1
 40
0.6
176
     1
 40
30.0
176
     1
 62
     8
420
  8421504
176
     1
 90
        1
176
     1
 90
        4
176
     1
 62
     7
176
     1
 62
   257
176
     1
 90
        1
176
     1
 90
        1
176
     1
 40
1.0
176
     1
 90
        8
176
     1
 62
     8
420
  8421504
176
     1
 40
1.0
176
     1
 90
        1
176
     1
 90
        6
176
     1
 90
        2
176
     1
 62
     7
176
     1
 90
        5
176
     1
 90
        0
176
     1
 90
        0
176
     1
290
     0
176
     1
 90
        1
176
     1
 40
0.0
176
     1
 90
        0
176
     1
290
     0
176
     1
290
     1
176
     1
290
     1
176
     1
290
     0
176
     1
290
     0
176
     1
290
     0
176
     1
290
     0
176
     1
290
     0
176
     1
290
     0
176
     1
 90
       50
176
     1
 40
0.0
176
     1
 40
1.0
176
     1
 90
        0
176
     1
 62
    18
420
        0
176
     1
 90
       50
176
     1
 90
        3
176
     1
 62
     5
420
      255
176
     1
290
     0
176
     1
 90
       50
176
     1
 90
       50
176
     1
 90
       50
176
     1
290
     0
176
     1
 90
       50
176
     1
 62
   256
176
     0
 40
1.0
176
     0
 90
        2
176
     1
  1
strokes_ogs.tif
176
     1
290
     0
176
     1
 40
1.0
176
     1
 40
1.0
176
     1
  0
VISUALSTYLE
  5
34
102
{ACAD_REACTORS
330
2A
102
}
330
2A
100
AcDbVisualStyle
  2
Conceptual
 70
     9
177
     3
291
     0
 70
    58
 90
        3
176
     1
 90
        2
176
     1
 90
        0
176
     1
 90
        0
176
     1
 40
0.6
176
     1
 40
30.0
176
     1
 62
     7
420
 16777215
176
     1
 90
        2
176
     1
 90
        2
176
     1
 62
     7
176
     1
 62
   257
176
     1
 90
        1
176
     1
 90
        1
176
     1
 40
179.0
176
     1
 90
        8
176
     1
 62
     7
176
     1
 40
1.0
176
     1
 90
        1
176
     1
 90
        6
176
     1
 90
        2
176
     1
 62
     7
176
     1
 90
        3
176
     1
 90
        0
176
     1
 90
        0
176
     1
290
     0
176
     1
 90
        1
176
     1
 40
0.0
176
     1
 90
        0
176
     1
290
     0
176
     1
290
     1
176
     1
290
     1
176
     1
290
     0
176
     1
290
     0
176
     1
290
     0
176
     1
290
     0
176
     1
290
     0
176
     1
290
     0
176
     1
 90
       50
176
     1
 40
0.0
176
     1
 40
1.0
176
     1
 90
        0
176
     1
 62
    18
420
        0
176
     1
 90
       50
176
     1
 90
        3
176
     1
 62
     5
420
      255
176
     1
290
     0
176
     1
 90
       50
176
     1
 90
       50
176
     1
 90
       50
176
     1
290
     0
176
     1
 90
       50
176
     1
 62
   256
176
     0
 40
1.0
176
     0
 90
        2
176
     1
  1
strokes_ogs.tif
176
     1
290
     0
176
     1
 40
1.0
176
     1
 40
1.0
176
     1
  0
VISUALSTYLE
  5
35
102
{ACAD_REACTORS
330
2A
102
}
330
2A
100
AcDbVisualStyle
  2
Dim
 70
    11
177
     3
291
     1
 70
    58
 90
        2
176
     1
 90
        2
176
     1
 90
        0
176
     1
 90
        0
176
     1
 40
0.6
176
     1
 40
30.0
176
     1
 62
     7
420
 16777215
176
     1
 90
        1
176
     1
 90
        4
176
     1
 62
     7
176
     1
 62
   257
176
     1
 90
        1
176
     1
 90
        1
176
     1
 40
1.0
176
     1
 90
        8
176
     1
 62
     7
176
     1
 40
1.0
176
     1
 90
        1
176
     1
 90
        6
176
     1
 90
        2
176
     1
 62
     7
176
     1
 90
        5
176
     1
 90
        0
176
     1
 90
        0
176
     1
290
     0
176
     1
 90
        1
176
     1
 40
-50.0
176
     1
 90
        0
176
     1
290
     0
176
     1
290
     1
176
     1
290
     1
176
     1
290
     0
176
     1
290
     0
176
     1
290
     0
176
     1
290
     0
176
     1
290
     0
176
     1
290
     0
176
     1
 90
       50
176
     1
 40
0.0
176
     1
 40
1.0
176
     1
 90
        0
176
     1
 62
    18
420
        0
176
     1
 90
       50
176
     1
 90
        3
176
     1
 62
     5
420
      255
176
     1
290
     0
176
     1
 90
       50
176
     1
 90
       50
176
     1
 90
       50
176
     1
290
     0
176
     1
 90
       50
176
     1
 62
   256
176
     0
 40
1.0
176
     0
 90
        2
176
     1
  1
strokes_ogs.tif
176
     1
290
     0
176
     1
 40
1.0
176
     1
 40
1.0
176
     1
  0
VISUALSTYLE
  5
3D
102
{ACAD_REACTORS
330
2A
102
}
330
2A
100
AcDbVisualStyle
  2
EdgeColorOff
 70
    22
177
     3
291
     1
 70
    58
 90
        2
176
     0
 90
        2
176
     0
 90
        0
176
     0
 90
        0
176
     0
 40
0.6
176
     0
 40
30.0
176
     0
 62
     7
420
 16777215
176
     0
 90
        1
176
     0
 90
        4
176
     0
 62
     7
176
     0
 62
   257
176
     0
 90
        1
176
     0
 90
        1
176
     0
 40
1.0
176
     0
 90
        8
176
     2
 62
     7
176
     0
 40
1.0
176
     0
 90
        1
176
     0
 90
        6
176
     0
 90
        2
176
     0
 62
     7
176
     0
 90
        5
176
     0
 90
        0
176
     0
 90
        0
176
     0
290
     0
176
     0
 90
        1
176
     0
 40
0.0
176
     0
 90
        0
176
     0
290
     0
176
     0
290
     1
176
     0
290
     1
176
     0
290
     0
176
     0
290
     0
176
     0
290
     0
176
     0
290
     0
176
     0
290
     0
176
     0
290
     0
176
     0
 90
       50
176
     0
 40
0.0
176
     0
 40
1.0
176
     0
 90
        0
176
     0
 62
    18
420
        0
176
     0
 90
       50
176
     0
 90
        3
176
     0
 62
     5
420
      255
176
     0
290
     0
176
     0
 90
       50
176
     0
 90
       50
176
     0
 90
       50
176
     0
290
     0
176
     0
 90
       50
176
     0
 62
   256
176
     0
 40
1.0
176
     0
 90
        2
176
     0
  1
strokes_ogs.tif
176
     0
290
     0
176
     0
 40
1.0
176
     0
 40
1.0
176
     0
  0
VISUALSTYLE
  5
39
102
{ACAD_REACTORS
330
2A
102
}
330
2A
100
AcDbVisualStyle
  2
Facepattern
 70
    15
177
     3
291
     1
 70
    58
 90
        2
176
     1
 90
        2
176
     1
 90
        0
176
     1
 90
        0
176
     1
 40
0.6
176
     1
 40
30.0
176
     1
 62
     7
420
 16777215
176
     1
 90
        1
176
     1
 90
        4
176
     1
 62
     7
176
     1
 62
   257
176
     1
 90
        1
176
     1
 90
        1
176
     1
 40
1.0
176
     1
 90
        8
176
     1
 62
     7
176
     1
 40
1.0
176
     1
 90
        1
176
     1
 90
        6
176
     1
 90
        2
176
     1
 62
     7
176
     1
 90
        5
176
     1
 90
        0
176
     1
 90
        0
176
     1
290
     0
176
     1
 90
        1
176
     1
 40
0.0
176
     1
 90
        0
176
     1
290
     0
176
     1
290
     1
176
     1
290
     1
176
     1
290
     0
176
     1
290
     0
176
     1
290
     0
176
     1
290
     0
176
     1
290
     0
176
     1
290
     0
176
     1
 90
       50
176
     1
 40
0.0
176
     1
 40
1.0
176
     1
 90
        0
176
     1
 62
    18
420
        0
176
     1
 90
       50
176
     1
 90
        3
176
     1
 62
     5
420
      255
176
     1
290
     0
176
     1
 90
       50
176
     1
 90
       50
176
     1
 90
       50
176
     1
290
     0
176
     1
 90
       50
176
     1
 62
   256
176
     0
 40
1.0
176
     0
 90
        2
176
     1
  1
strokes_ogs.tif
176
     1
290
     0
176
     1
 40
1.0
176
     1
 40
1.0
176
     1
  0
VISUALSTYLE
  5
2B
102
{ACAD_REACTORS
330
2A
102
}
330
2A
100
AcDbVisualStyle
  2
Flat
 70
     0
177
     3
291
     1
 70
    58
 90
        2
176
     1
 90
        1
176
     1
 90
        1
176
     1
 90
        2
176
     1
 40
0.6
176
     1
 40
30.0
176
     1
 62
     7
420
 16777215
176
     1
 90
        0
176
     1
 90
        0
176
     1
 62
     7
176
     1
 62
   257
176
     1
 90
        1
176
     1
 90
        1
176
     1
 40
1.0
176
     1
 90
        8
176
     1
 62
     7
176
     1
 40
1.0
176
     1
 90
        1
176
     1
 90
        6
176
     1
 90
        2
176
     1
 62
     7
176
     1
 90
        5
176
     1
 90
        0
176
     1
 90
        0
176
     1
290
     0
176
     1
 90
       13
176
     1
 40
0.0
176
     1
 90
        0
176
     1
290
     0
176
     1
290
     1
176
     1
290
     1
176
     1
290
     0
176
     1
290
     0
176
     1
290
     0
176
     1
290
     0
176
     1
290
     0
176
     1
290
     0
176
     1
 90
       50
176
     1
 40
0.0
176
     1
 40
1.0
176
     1
 90
        0
176
     1
 62
    18
420
        0
176
     1
 90
       50
176
     1
 90
        3
176
     1
 62
     5
420
      255
176
     1
290
     0
176
     1
 90
       50
176
     1
 90
       50
176
     1
 90
       50
176
     1
290
     0
176
     1
 90
       50
176
     1
 62
   256
176
     0
 40
1.0
176
     0
 90
        2
176
     1
  1
strokes_ogs.tif
176
     1
290
     0
176
     1
 40
1.0
176
     1
 40
1.0
176
     1
  0
VISUALSTYLE
  5
2C
102
{ACAD_REACTORS
330
2A
102
}
330
2A
100
AcDbVisualStyle
  2
FlatWithEdges
 70
     1
177
     3
291
     1
 70
    58
 90
        2
176
     1
 90
        1
176
     1
 90
        1
176
     1
 90
        2
176
     1
 40
0.6
176
     1
 40
30.0
176
     1
 62
     7
420
 16777215
176
     1
 90
        1
176
     1
 90
        0
176
     1
 62
     7
176
     1
 62
   257
176
     1
 90
        1
176
     1
 90
        1
176
     1
 40
1.0
176
     1
 90
        0
176
     1
 62
   257
176
     1
 40
1.0
176
     1
 90
        1
176
     1
 90
        6
176
     1
 90
        2
176
     1
 62
     7
176
     1
 90
        5
176
     1
 90
        0
176
     1
 90
        0
176
     1
290
     0
176
     1
 90
       13
176
     1
 40
0.0
176
     1
 90
        0
176
     1
290
     0
176
     1
290
     1
176
     1
290
     1
176
     1
290
     0
176
     1
290
     0
176
     1
290
     0
176
     1
290
     0
176
     1
290
     0
176
     1
290
     0
176
     1
 90
       50
176
     1
 40
0.0
176
     1
 40
1.0
176
     1
 90
        0
176
     1
 62
    18
420
        0
176
     1
 90
       50
176
     1
 90
        3
176
     1
 62
     5
420
      255
176
     1
290
     0
176
     1
 90
       50
176
     1
 90
       50
176
     1
 90
       50
176
     1
290
     0
176
     1
 90
       50
176
     1
 62
   256
176
     0
 40
1.0
176
     0
 90
        2
176
     1
  1
strokes_ogs.tif
176
     1
290
     0
176
     1
 40
1.0
176
     1
 40
1.0
176
     1
  0
VISUALSTYLE
  5
2D
102
{ACAD_REACTORS
330
2A
102
}
330
2A
100
AcDbVisualStyle
  2
Gouraud
 70
     2
177
     3
291
     1
 70
    58
 90
        2
176
     1
 90
        2
176
     1
 90
        1
176
     1
 90
        2
176
     1
 40
0.6
176
     1
 40
30.0
176
     1
 62
     7
420
 16777215
176
     1
 90
        0
176
     1
 90
        0
176
     1
 62
     7
176
     1
 62
   257
176
     1
 90
        1
176
     1
 90
        1
176
     1
 40
1.0
176
     1
 90
        0
176
     1
 62
     7
176
     1
 40
1.0
176
     1
 90
        1
176
     1
 90
        6
176
     1
 90
        2
176
     1
 62
     7
176
     1
 90
        5
176
     1
 90
        0
176
     1
 90
        0
176
     1
290
     0
176
     1
 90
       13
176
     1
 40
0.0
176
     1
 90
        0
176
     1
290
     0
176
     1
290
     1
176
     1
290
     1
176
     1
290
     0
176
     1
290
     0
176
     1
290
     0
176
     1
290
     0
176
     1
290
     0
176
     1
290
     0
176
     1
 90
       50
176
     1
 40
0.0
176
     1
 40
1.0
176
     1
 90
        0
176
     1
 62
    18
420
        0
176
     1
 90
       50
176
     1
 90
        3
176
     1
 62
     5
420
      255
176
     1
290
     0
176
     1
 90
       50
176
     1
 90
       50
176
     1
 90
       50
176
     1
290
     0
176
     1
 90
       50
176
     1
 62
   256
176
     0
 40
1.0
176
     0
 90
        2
176
     1
  1
strokes_ogs.tif
176
     1
290
     0
176
     1
 40
1.0
176
     1
 40
1.0
176
     1
  0
VISUALSTYLE
  5
2E
102
{ACAD_REACTORS
330
2A
102
}
330
2A
100
AcDbVisualStyle
  2
GouraudWithEdges
 70
     3
177
     3
291
     1
 70
    58
 90
        2
176
     1
 90
        2
176
     1
 90
        1
176
     1
 90
        2
176
     1
 40
0.6
176
     1
 40
30.0
176
     1
 62
     7
420
 16777215
176
     1
 90
        1
176
     1
 90
        0
176
     1
 62
     7
176
     1
 62
   257
176
     1
 90
        1
176
     1
 90
        1
176
     1
 40
1.0
176
     1
 90
        0
176
     1
 62
   257
176
     1
 40
1.0
176
     1
 90
        1
176
     1
 90
        6
176
     1
 90
        2
176
     1
 62
     7
176
     1
 90
        5
176
     1
 90
        0
176
     1
 90
        0
176
     1
290
     0
176
     1
 90
       13
176
     1
 40
0.0
176
     1
 90
        0
176
     1
290
     0
176
     1
290
     1
176
     1
290
     1
176
     1
290
     0
176
     1
290
     0
176
     1
290
     0
176
     1
290
     0
176
     1
290
     0
176
     1
290
     0
176
     1
 90
       50
176
     1
 40
0.0
176
     1
 40
1.0
176
     1
 90
        0
176
     1
 62
    18
420
        0
176
     1
 90
       50
176
     1
 90
        3
176
     1
 62
     5
420
      255
176
     1
290
     0
176
     1
 90
       50
176
     1
 90
       50
176
     1
 90
       50
176
     1
290
     0
176
     1
 90
       50
176
     1
 62
   256
176
     0
 40
1.0
176
     0
 90
        2
176
     1
  1
strokes_ogs.tif
176
     1
290
     0
176
     1
 40
1.0
176
     1
 40
1.0
176
     1
  0
VISUALSTYLE
  5
31
102
{ACAD_REACTORS
330
2A
102
}
330
2A
100
AcDbVisualStyle
  2
Hidden
 70
     6
177
     3
291
     0
 70
    58
 90
        1
176
     1
 90
        2
176
     1
 90
        2
176
     1
 90
        0
176
     1
 40
0.6
176
     1
 40
30.0
176
     1
 62
     7
420
 16777215
176
     1
 90
        2
176
     1
 90
        2
176
     1
 62
     7
176
     1
 62
   257
176
     1
 90
        2
176
     1
 90
        1
176
     1
 40
40.0
176
     1
 90
        0
176
     1
 62
   257
176
     1
 40
1.0
176
     1
 90
        1
176
     1
 90
        6
176
     1
 90
        2
176
     1
 62
     7
176
     1
 90
        3
176
     1
 90
        0
176
     1
 90
        0
176
     1
290
     0
176
     1
 90
        1
176
     1
 40
0.0
176
     1
 90
        0
176
     1
290
     0
176
     1
290
     1
176
     1
290
     1
176
     1
290
     0
176
     1
290
     0
176
     1
290
     0
176
     1
290
     0
176
     1
290
     0
176
     1
290
     0
176
     1
 90
       50
176
     1
 40
0.0
176
     1
 40
1.0
176
     1
 90
        0
176
     1
 62
    18
420
        0
176
     1
 90
       50
176
     1
 90
        3
176
     1
 62
     5
420
      255
176
     1
290
     0
176
     1
 90
       50
176
     1
 90
       50
176
     1
 90
       50
176
     1
290
     0
176
     1
 90
       50
176
     1
 62
   256
176
     0
 40
1.0
176
     0
 90
        2
176
     1
  1
strokes_ogs.tif
176
     1
290
     0
176
     1
 40
1.0
176
     1
 40
1.0
176
     1
  0
VISUALSTYLE
  5
3B
102
{ACAD_REACTORS
330
2A
102
}
330
2A
100
AcDbVisualStyle
  2
JitterOff
 70
    20
177
     3
291
     1
 70
    58
 90
        2
176
     0
 90
        2
176
     0
 90
        0
176
     0
 90
        0
176
     0
 40
0.6
176
     0
 40
30.0
176
     0
 62
     7
420
 16777215
176
     0
 90
        1
176
     0
 90
        4
176
     0
 62
     7
176
     0
 62
   257
176
     0
 90
        1
176
     0
 90
        1
176
     0
 40
1.0
176
     0
 90
       10
176
     2
 62
     7
176
     0
 40
1.0
176
     0
 90
        1
176
     0
 90
        6
176
     0
 90
        2
176
     0
 62
     7
176
     0
 90
        5
176
     0
 90
        0
176
     0
 90
        0
176
     0
290
     0
176
     0
 90
        1
176
     0
 40
0.0
176
     0
 90
        0
176
     0
290
     0
176
     0
290
     1
176
     0
290
     1
176
     0
290
     0
176
     0
290
     0
176
     0
290
     0
176
     0
290
     0
176
     0
290
     0
176
     0
290
     0
176
     0
 90
       50
176
     0
 40
0.0
176
     0
 40
1.0
176
     0
 90
        0
176
     0
 62
    18
420
        0
176
     0
 90
       50
176
     0
 90
        3
176
     0
 62
     5
420
      255
176
     0
290
     0
176
     0
 90
       50
176
     0
 90
       50
176
     0
 90
       50
176
     0
290
     0
176
     0
 90
       50
176
     0
 62
   256
176
     0
 40
1.0
176
     0
 90
        2
176
     0
  1
strokes_ogs.tif
176
     0
290
     0
176
     0
 40
1.0
176
     0
 40
1.0
176
     0
  0
VISUALSTYLE
  5
38
102
{ACAD_REACTORS
330
2A
102
}
330
2A
100
AcDbVisualStyle
  2
Linepattern
 70
    14
177
     3
291
     1
 70
    58
 90
        2
176
     1
 90
        2
176
     1
 90
        0
176
     1
 90
        0
176
     1
 40
0.6
176
     1
 40
30.0
176
     1
 62
     7
420
 16777215
176
     1
 90
        1
176
     1
 90
        4
176
     1
 62
     7
176
     1
 62
   257
176
     1
 90
        7
176
     1
 90
        7
176
     1
 40
1.0
176
     1
 90
        8
176
     1
 62
     7
176
     1
 40
1.0
176
     1
 90
        1
176
     1
 90
        6
176
     1
 90
        2
176
     1
 62
     7
176
     1
 90
        5
176
     1
 90
        0
176
     1
 90
        0
176
     1
290
     0
176
     1
 90
        1
176
     1
 40
0.0
176
     1
 90
        0
176
     1
290
     0
176
     1
290
     1
176
     1
290
     1
176
     1
290
     0
176
     1
290
     0
176
     1
290
     0
176
     1
290
     0
176
     1
290
     0
176
     1
290
     0
176
     1
 90
       50
176
     1
 40
0.0
176
     1
 40
1.0
176
     1
 90
        0
176
     1
 62
    18
420
        0
176
     1
 90
       50
176
     1
 90
        3
176
     1
 62
     5
420
      255
176
     1
290
     0
176
     1
 90
       50
176
     1
 90
       50
176
     1
 90
       50
176
     1
290
     0
176
     1
 90
       50
176
     1
 62
   256
176
     0
 40
1.0
176
     0
 90
        2
176
     1
  1
strokes_ogs.tif
176
     1
290
     0
176
     1
 40
1.0
176
     1
 40
1.0
176
     1
  0
VISUALSTYLE
  5
3C
102
{ACAD_REACTORS
330
2A
102
}
330
2A
100
AcDbVisualStyle
  2
OverhangOff
 70
    21
177
     3
291
     1
 70
    58
 90
        2
176
     0
 90
        2
176
     0
 90
        0
176
     0
 90
        0
176
     0
 40
0.6
176
     0
 40
30.0
176
     0
 62
     7
420
 16777215
176
     0
 90
        1
176
     0
 90
        4
176
     0
 62
     7
176
     0
 62
   257
176
     0
 90
        1
176
     0
 90
        1
176
     0
 40
1.0
176
     0
 90
        9
176
     2
 62
     7
176
     0
 40
1.0
176
     0
 90
        1
176
     0
 90
        6
176
     0
 90
        2
176
     0
 62
     7
176
     0
 90
        5
176
     0
 90
        0
176
     0
 90
        0
176
     0
290
     0
176
     0
 90
        1
176
     0
 40
0.0
176
     0
 90
        0
176
     0
290
     0
176
     0
290
     1
176
     0
290
     1
176
     0
290
     0
176
     0
290
     0
176
     0
290
     0
176
     0
290
     0
176
     0
290
     0
176
     0
290
     0
176
     0
 90
       50
176
     0
 40
0.0
176
     0
 40
1.0
176
     0
 90
        0
176
     0
 62
    18
420
        0
176
     0
 90
       50
176
     0
 90
        3
176
     0
 62
     5
420
      255
176
     0
290
     0
176
     0
 90
       50
176
     0
 90
       50
176
     0
 90
       50
176
     0
290
     0
176
     0
 90
       50
176
     0
 62
   256
176
     0
 40
1.0
176
     0
 90
        2
176
     0
  1
strokes_ogs.tif
176
     0
290
     0
176
     0
 40
1.0
176
     0
 40
1.0
176
     0
  0
VISUALSTYLE
  5
33
102
{ACAD_REACTORS
330
2A
102
}
330
2A
100
AcDbVisualStyle
  2
Realistic
 70
     8
177
     3
291
     0
 70
    58
 90
        2
176
     1
 90
        3
176
     1
 90
        0
176
     1
 90
        2
176
     1
 40
0.6
176
     1
 40
30.0
176
     1
 62
     7
420
 16777215
176
     1
 90
        0
176
     1
 90
        0
176
     1
 62
     7
176
     1
 62
   257
176
     1
 90
        1
176
     1
 90
        1
176
     1
 40
1.0
176
     1
 90
        8
176
     1
 62
   257
176
     1
 40
1.0
176
     1
 90
        1
176
     1
 90
        6
176
     1
 90
        2
176
     1
 62
     7
176
     1
 90
        3
176
     1
 90
        0
176
     1
 90
        0
176
     1
290
     0
176
     1
 90
       13
176
     1
 40
0.0
176
     1
 90
        0
176
     1
290
     0
176
     1
290
     1
176
     1
290
     1
176
     1
290
     0
176
     1
290
     0
176
     1
290
     0
176
     1
290
     0
176
     1
290
     0
176
     1
290
     0
176
     1
 90
       50
176
     1
 40
0.0
176
     1
 40
1.0
176
     1
 90
        0
176
     1
 62
    18
420
        0
176
     1
 90
       50
176
     1
 90
        3
176
     1
 62
     5
420
      255
176
     1
290
     0
176
     1
 90
       50
176
     1
 90
       50
176
     1
 90
       50
176
     1
290
     0
176
     1
 90
       50
176
     1
 62
   256
176
     0
 40
1.0
176
     0
 90
        2
176
     1
  1
strokes_ogs.tif
176
     1
290
     0
176
     1
 40
1.0
176
     1
 40
1.0
176
     1
  0
VISUALSTYLE
  5
42
102
{ACAD_REACTORS
330
2A
102
}
330
2A
100
AcDbVisualStyle
  2
Shaded
 70
    27
177
     3
291
     0
 70
    58
 90
        2
176
     1
 90
        2
176
     1
 90
        1
176
     1
 90
        2
176
     1
 40
0.6
176
     1
 40
30.0
176
     1
 62
     7
420
 16777215
176
     1
 90
        0
176
     1
 90
        4
176
     1
 62
     7
176
     1
 62
   257
176
     1
 90
        1
176
     1
 90
        1
176
     1
 40
1.0
176
     1
 90
        8
176
     1
 62
   257
176
     1
 40
1.0
176
     1
 90
        1
176
     1
 90
        6
176
     1
 90
        2
176
     1
 62
     8
420
  7895160
176
     1
 90
        3
176
     1
 90
        0
176
     1
 90
        0
176
     1
290
     0
176
     1
 90
        5
176
     1
 40
0.0
176
     1
 90
        0
176
     1
290
     0
176
     1
290
     1
176
     1
290
     1
176
     1
290
     0
176
     1
290
     0
176
     1
290
     0
176
     1
290
     0
176
     1
290
     0
176
     1
290
     0
176
     1
 90
       50
176
     1
 40
0.0
176
     1
 40
1.0
176
     1
 90
        0
176
     1
 62
    18
420
        0
176
     1
 90
       50
176
     1
 90
        3
176
     1
 62
     5
420
      255
176
     1
290
     0
176
     1
 90
       50
176
     1
 90
       50
176
     1
 90
       50
176
     1
290
     0
176
     1
 90
       50
176
     1
 62
   256
176
     0
 40
1.0
176
     0
 90
        2
176
     1
  1
strokes_ogs.tif
176
     1
290
     0
176
     1
 40
1.0
176
     1
 40
1.0
176
     1
  0
VISUALSTYLE
  5
41
102
{ACAD_REACTORS
330
2A
102
}
330
2A
100
AcDbVisualStyle
  2
Shaded with edges
 70
    26
177
     3
291
     0
 70
    58
 90
        2
176
     1
 90
        2
176
     1
 90
        1
176
     1
 90
        2
176
     1
 40
0.6
176
     1
 40
30.0
176
     1
 62
     7
420
 16777215
176
     1
 90
        1
176
     1
 90
       10
176
     1
 62
     7
176
     1
 62
   257
176
     1
 90
        2
176
     1
 90
        1
176
     1
 40
1.0
176
     1
 90
        8
176
     1
 62
   257
176
     1
 40
1.0
176
     1
 90
        1
176
     1
 90
        6
176
     1
 90
        2
176
     1
 62
     7
176
     1
 90
        3
176
     1
 90
        0
176
     1
 90
        0
176
     1
290
     0
176
     1
 90
        5
176
     1
 40
0.0
176
     1
 90
        0
176
     1
290
     0
176
     1
290
     1
176
     1
290
     1
176
     1
290
     0
176
     1
290
     0
176
     1
290
     0
176
     1
290
     0
176
     1
290
     0
176
     1
290
     0
176
     1
 90
       50
176
     1
 40
0.0
176
     1
 40
1.0
176
     1
 90
        0
176
     1
 62
    18
420
        0
176
     1
 90
       50
176
     1
 90
        3
176
     1
 62
     5
420
      255
176
     1
290
     0
176
     1
 90
       50
176
     1
 90
       50
176
     1
 90
       50
176
     1
290
     0
176
     1
 90
       50
176
     1
 62
   256
176
     0
 40
1.0
176
     0
 90
        2
176
     1
  1
strokes_ogs.tif
176
     1
290
     0
176
     1
 40
1.0
176
     1
 40
1.0
176
     1
  0
VISUALSTYLE
  5
3E
102
{ACAD_REACTORS
330
2A
102
}
330
2A
100
AcDbVisualStyle
  2
Shades of Gray
 70
    23
177
     3
291
     0
 70
    58
 90
        2
176
     1
 90
        2
176
     1
 90
        3
176
     1
 90
        0
176
     1
 40
0.6
176
     1
 40
30.0
176
     1
 62
     7
420
 16777215
176
     1
 90
        2
176
     1
 90
        2
176
     1
 62
     7
176
     1
 62
     7
176
     1
 90
        1
176
     1
 90
        1
176
     1
 40
40.0
176
     1
 90
        8
176
     1
 62
     7
176
     1
 40
1.0
176
     1
 90
        1
176
     1
 90
        6
176
     1
 90
        2
176
     1
 62
     7
176
     1
 90
        3
176
     1
 90
        0
176
     1
 90
        0
176
     1
290
     0
176
     1
 90
        1
176
     1
 40
0.0
176
     1
 90
        0
176
     1
290
     0
176
     1
290
     1
176
     1
290
     1
176
     1
290
     0
176
     1
290
     0
176
     1
290
     0
176
     1
290
     0
176
     1
290
     0
176
     1
290
     0
176
     1
 90
       50
176
     1
 40
0.0
176
     1
 40
1.0
176
     1
 90
        0
176
     1
 62
    18
420
        0
176
     1
 90
       50
176
     1
 90
        3
176
     1
 62
     5
420
      255
176
     1
290
     0
176
     1
 90
       50
176
     1
 90
       50
176
     1
 90
       50
176
     1
290
     0
176
     1
 90
       50
176
     1
 62
   256
176
     0
 40
1.0
176
     0
 90
        2
176
     1
  1
strokes_ogs.tif
176
     1
290
     0
176
     1
 40
1.0
176
     1
 40
1.0
176
     1
  0
VISUALSTYLE
  5
3F
102
{ACAD_REACTORS
330
2A
102
}
330
2A
100
AcDbVisualStyle
  2
Sketchy
 70
    24
177
     3
291
     0
 70
    58
 90
        1
176
     1
 90
        2
176
     1
 90
        2
176
     1
 90
        0
176
     1
 40
0.6
176
     1
 40
30.0
176
     1
 62
     7
420
 16777215
176
     1
 90
        2
176
     1
 90
        2
176
     1
 62
     7
176
     1
 62
     7
176
     1
 90
        1
176
     1
 90
        1
176
     1
 40
40.0
176
     1
 90
       11
176
     1
 62
     7
176
     1
 40
1.0
176
     1
 90
        1
176
     1
 90
        6
176
     1
 90
        2
176
     1
 62
     7
176
     1
 90
        6
176
     1
 90
        0
176
     1
 90
        0
176
     1
290
     0
176
     1
 90
        1
176
     1
 40
0.0
176
     1
 90
        0
176
     1
290
     0
176
     1
290
     1
176
     1
290
     1
176
     1
290
     0
176
     1
290
     0
176
     1
290
     0
176
     1
290
     0
176
     1
290
     0
176
     1
290
     0
176
     1
 90
       50
176
     1
 40
0.0
176
     1
 40
1.0
176
     1
 90
        0
176
     1
 62
    18
420
        0
176
     1
 90
       50
176
     1
 90
        3
176
     1
 62
     5
420
      255
176
     1
290
     0
176
     1
 90
       50
176
     1
 90
       50
176
     1
 90
       50
176
     1
290
     0
176
     1
 90
       50
176
     1
 62
   256
176
     0
 40
1.0
176
     0
 90
        2
176
     1
  1
strokes_ogs.tif
176
     1
290
     0
176
     1
 40
1.0
176
     1
 40
1.0
176
     1
  0
VISUALSTYLE
  5
37
102
{ACAD_REACTORS
330
2A
102
}
330
2A
100
AcDbVisualStyle
  2
Thicken
 70
    13
177
     3
291
     1
 70
    58
 90
        2
176
     1
 90
        2
176
     1
 90
        0
176
     1
 90
        0
176
     1
 40
0.6
176
     1
 40
30.0
176
     1
 62
     7
420
 16777215
176
     1
 90
        1
176
     1
 90
        4
176
     1
 62
     7
176
     1
 62
   257
176
     1
 90
        1
176
     1
 90
        1
176
     1
 40
1.0
176
     1
 90
       12
176
     1
 62
     7
176
     1
 40
1.0
176
     1
 90
        1
176
     1
 90
        6
176
     1
 90
        2
176
     1
 62
     7
176
     1
 90
        5
176
     1
 90
        0
176
     1
 90
        0
176
     1
290
     0
176
     1
 90
        1
176
     1
 40
0.0
176
     1
 90
        0
176
     1
290
     0
176
     1
290
     1
176
     1
290
     1
176
     1
290
     0
176
     1
290
     0
176
     1
290
     0
176
     1
290
     0
176
     1
290
     0
176
     1
290
     0
176
     1
 90
       50
176
     1
 40
0.0
176
     1
 40
1.0
176
     1
 90
        0
176
     1
 62
    18
420
        0
176
     1
 90
       50
176
     1
 90
        3
176
     1
 62
     5
420
      255
176
     1
290
     0
176
     1
 90
       50
176
     1
 90
       50
176
     1
 90
       50
176
     1
290
     0
176
     1
 90
       50
176
     1
 62
   256
176
     0
 40
1.0
176
     0
 90
        2
176
     1
  1
strokes_ogs.tif
176
     1
290
     0
176
     1
 40
1.0
176
     1
 40
1.0
176
     1
  0
VISUALSTYLE
  5
30
102
{ACAD_REACTORS
330
2A
102
}
330
2A
100
AcDbVisualStyle
  2
Wireframe
 70
     5
177
     3
291
     0
 70
    58
 90
        0
176
     1
 90
        2
176
     1
 90
        0
176
     1
 90
        0
176
     1
 40
0.6
176
     1
 40
30.0
176
     1
 62
     7
420
 16777215
176
     1
 90
        1
176
     1
 90
        4
176
     1
 62
     7
176
     1
 62
   257
176
     1
 90
        1
176
     1
 90
        1
176
     1
 40
1.0
176
     1
 90
        0
176
     1
 62
   257
176
     1
 40
1.0
176
     1
 90
        1
176
     1
 90
        6
176
     1
 90
        2
176
     1
 62
     7
176
     1
 90
        3
176
     1
 90
        0
176
     1
 90
        0
176
     1
290
     0
176
     1
 90
        1
176
     1
 40
0.0
176
     1
 90
        0
176
     1
290
     0
176
     1
290
     1
176
     1
290
     1
176
     1
290
     0
176
     1
290
     0
176
     1
290
     0
176
     1
290
     0
176
     1
290
     0
176
     1
290
     0
176
     1
 90
       50
176
     1
 40
0.0
176
     1
 40
1.0
176
     1
 90
        0
176
     1
 62
    18
420
        0
176
     1
 90
       50
176
     1
 90
        3
176
     1
 62
     5
420
      255
176
     1
290
     0
176
     1
 90
       50
176
     1
 90
       50
176
     1
 90
       50
176
     1
290
     0
176
     1
 90
       50
176
     1
 62
   256
176
     0
 40
1.0
176
     0
 90
        2
176
     1
  1
strokes_ogs.tif
176
     1
290
     0
176
     1
 40
1.0
176
     1
 40
1.0
176
     1
  0
VISUALSTYLE
  5
40
102
{ACAD_REACTORS
330
2A
102
}
330
2A
100
AcDbVisualStyle
  2
X-Ray
 70
    25
177
     3
291
     0
 70
    58
 90
        2
176
     1
 90
        2
176
     1
 90
        1
176
     1
 90
        1
176
     1
 40
0.5
176
     1
 40
30.0
176
     1
 62
     7
420
 16777215
176
     1
 90
        1
176
     1
 90
        0
176
     1
 62
     7
176
     1
 62
   257
176
     1
 90
        1
176
     1
 90
        1
176
     1
 40
1.0
176
     1
 90
        8
176
     1
 62
     7
176
     1
 40
1.0
176
     1
 90
        1
176
     1
 90
        6
176
     1
 90
        2
176
     1
 62
     7
176
     1
 90
        3
176
     1
 90
        0
176
     1
 90
        0
176
     1
290
     0
176
     1
 90
       13
176
     1
 40
0.0
176
     1
 90
        0
176
     1
290
     0
176
     1
290
     1
176
     1
290
     1
176
     1
290
     0
176
     1
290
     0
176
     1
290
     0
176
     1
290
     0
176
     1
290
     0
176
     1
290
     0
176
     1
 90
       50
176
     1
 40
0.0
176
     1
 40
1.0
176
     1
 90
        0
176
     1
 62
    18
420
        0
176
     1
 90
       50
176
     1
 90
        3
176
     1
 62
     5
420
      255
176
     1
290
     0
176
     1
 90
       50
176
     1
 90
       50
176
     1
 90
       50
176
     1
290
     0
176
     1
 90
       50
176
     1
 62
   256
176
     0
 40
1.0
176
     0
 90
        2
176
     1
  1
strokes_ogs.tif
176
     1
290
     0
176
     1
 40
1.0
176
     1
 40
1.0
176
     1
  0
DICTIONARYVAR
  5
144
102
{ACAD_REACTORS
330
143
102
}
330
143
100
DictionaryVariables
280
     0
  1
1:1
  0
DICTIONARYVAR
  5
149
102
{ACAD_REACTORS
330
143
102
}
330
143
100
DictionaryVariables
280
     0
  1
Standard
  0
DICTIONARYVAR
  5
148
102
{ACAD_REACTORS
330
143
102
}
330
143
100
DictionaryVariables
280
     0
  1
Standard
  0
DICTIONARY
  5
145
330
6A
100
AcDbDictionary
280
     1
281
     1
  3
ACAD_ROUNDTRIP_2008_TABLESTYLE_CELLSTYLEMAP
360
146
  0
CELLSTYLEMAP
  5
146
102
{ACAD_REACTORS
330
145
102
}
330
145
100
AcDbCellStyleMap
 90
        3
300
CELLSTYLE
  1
TABLEFORMAT_BEGIN
 90
        5
170
     1
 91
        0
 92
    32768
 62
   257
 93
        1
300
CONTENTFORMAT
  1
CONTENTFORMAT_BEGIN
 90
        0
 91
        0
 92
        4
 93
        0
300

 40
0.0
140
1.0
 94
        5
 62
     0
340
11
144
0.25
309
CONTENTFORMAT_END
171
     1
301
MARGIN
  1
CELLMARGIN_BEGIN
 40
0.06
 40
0.06
 40
0.06
 40
0.06
 40
0.06
 40
0.06
309
CELLMARGIN_END
 94
        6
 95
        1
302
GRIDFORMAT
  1
GRIDFORMAT_BEGIN
 90
        0
 91
        1
 62
     0
 92
       -2
340
14
 93
        0
 40
0.045
309
GRIDFORMAT_END
 95
        2
302
GRIDFORMAT
  1
GRIDFORMAT_BEGIN
 90
        0
 91
        1
 62
     0
 92
       -2
340
14
 93
        0
 40
0.045
309
GRIDFORMAT_END
 95
        4
302
GRIDFORMAT
  1
GRIDFORMAT_BEGIN
 90
        0
 91
        1
 62
     0
 92
       -2
340
14
 93
        0
 40
0.045
309
GRIDFORMAT_END
 95
        8
302
GRIDFORMAT
  1
GRIDFORMAT_BEGIN
 90
        0
 91
        1
 62
     0
 92
       -2
340
14
 93
        0
 40
0.045
309
GRIDFORMAT_END
 95
       16
302
GRIDFORMAT
  1
GRIDFORMAT_BEGIN
 90
        0
 91
        1
 62
     0
 92
       -2
340
14
 93
        0
 40
0.045
309
GRIDFORMAT_END
 95
       32
302
GRIDFORMAT
  1
GRIDFORMAT_BEGIN
 90
        0
 91
        1
 62
     0
 92
       -2
340
14
 93
        0
 40
0.045
309
GRIDFORMAT_END
309
TABLEFORMAT_END
  1
CELLSTYLE_BEGIN
 90
        1
 91
        1
300
_TITLE
309
CELLSTYLE_END
300
CELLSTYLE
  1
TABLEFORMAT_BEGIN
 90
        5
170
     1
 91
        0
 92
        0
 62
   257
 93
        1
300
CONTENTFORMAT
  1
CONTENTFORMAT_BEGIN
 90
        0
 91
        0
 92
        4
 93
        0
300

 40
0.0
140
1.0
 94
        5
 62
     0
340
11
144
0.18
309
CONTENTFORMAT_END
171
     1
301
MARGIN
  1
CELLMARGIN_BEGIN
 40
0.06
 40
0.06
 40
0.06
 40
0.06
 40
0.06
 40
0.06
309
CELLMARGIN_END
 94
        6
 95
        1
302
GRIDFORMAT
  1
GRIDFORMAT_BEGIN
 90
        0
 91
        1
 62
     0
 92
       -2
340
14
 93
        0
 40
0.045
309
GRIDFORMAT_END
 95
        2
302
GRIDFORMAT
  1
GRIDFORMAT_BEGIN
 90
        0
 91
        1
 62
     0
 92
       -2
340
14
 93
        0
 40
0.045
309
GRIDFORMAT_END
 95
        4
302
GRIDFORMAT
  1
GRIDFORMAT_BEGIN
 90
        0
 91
        1
 62
     0
 92
       -2
340
14
 93
        0
 40
0.045
309
GRIDFORMAT_END
 95
        8
302
GRIDFORMAT
  1
GRIDFORMAT_BEGIN
 90
        0
 91
        1
 62
     0
 92
       -2
340
14
 93
        0
 40
0.045
309
GRIDFORMAT_END
 95
       16
302
GRIDFORMAT
  1
GRIDFORMAT_BEGIN
 90
        0
 91
        1
 62
     0
 92
       -2
340
14
 93
        0
 40
0.045
309
GRIDFORMAT_END
 95
       32
302
GRIDFORMAT
  1
GRIDFORMAT_BEGIN
 90
        0
 91
        1
 62
     0
 92
       -2
340
14
 93
        0
 40
0.045
309
GRIDFORMAT_END
309
TABLEFORMAT_END
  1
CELLSTYLE_BEGIN
 90
        2
 91
        1
300
_HEADER
309
CELLSTYLE_END
300
CELLSTYLE
  1
TABLEFORMAT_BEGIN
 90
        5
170
     1
 91
        0
 92
        0
 62
   257
 93
        1
300
CONTENTFORMAT
  1
CONTENTFORMAT_BEGIN
 90
        0
 91
        0
 92
        4
 93
        0
300

 40
0.0
140
1.0
 94
        2
 62
     0
340
11
144
0.18
309
CONTENTFORMAT_END
171
     1
301
MARGIN
  1
CELLMARGIN_BEGIN
 40
0.06
 40
0.06
 40
0.06
 40
0.06
 40
0.06
 40
0.06
309
CELLMARGIN_END
 94
        6
 95
        1
302
GRIDFORMAT
  1
GRIDFORMAT_BEGIN
 90
        0
 91
        1
 62
     0
 92
       -2
340
14
 93
        0
 40
0.045
309
GRIDFORMAT_END
 95
        2
302
GRIDFORMAT
  1
GRIDFORMAT_BEGIN
 90
        0
 91
        1
 62
     0
 92
       -2
340
14
 93
        0
 40
0.045
309
GRIDFORMAT_END
 95
        4
302
GRIDFORMAT
  1
GRIDFORMAT_BEGIN
 90
        0
 91
        1
 62
     0
 92
       -2
340
14
 93
        0
 40
0.045
309
GRIDFORMAT_END
 95
        8
302
GRIDFORMAT
  1
GRIDFORMAT_BEGIN
 90
        0
 91
        1
 62
     0
 92
       -2
340
14
 93
        0
 40
0.045
309
GRIDFORMAT_END
 95
       16
302
GRIDFORMAT
  1
GRIDFORMAT_BEGIN
 90
        0
 91
        1
 62
     0
 92
       -2
340
14
 93
        0
 40
0.045
309
GRIDFORMAT_END
 95
       32
302
GRIDFORMAT
  1
GRIDFORMAT_BEGIN
 90
        0
 91
        1
 62
     0
 92
       -2
340
14
 93
        0
 40
0.045
309
GRIDFORMAT_END
309
TABLEFORMAT_END
  1
CELLSTYLE_BEGIN
 90
        3
 91
        2
300
_DATA
309
CELLSTYLE_END
  0
ENDSEC
  0
EOF