0
SECTION
  2
HEADER
  9
$ACADVER
  1
AC1027
  9
$ACADMAINTVER
 70
     8
  9
$DWGCODEPAGE
  3
ANSI_1252
  9
$REQUIREDVERSIONS
160
                 0
  9
$COMMENTS
  1
File was created by Cadenas
  9
$CUSTOMPROPERTYTAG
  1
NN
  9
$CUSTOMPROPERTY
  1
Sleeve Bearings -SOLIDLUBE 1-1/8 thru 2 LT1000 Hanger Bearing
  9
$CUSTOMPROPERTYTAG
  1
NT
  9
$CUSTOMPROPERTY
  1
SOLIDLUBE
  9
$CUSTOMPROPERTYTAG
  1
NB
  9
$CUSTOMPROPERTY
  1
033901
  9
$CUSTOMPROPERTYTAG
  1
NBSYN
  9
$CUSTOMPROPERTY
  1
$PN.
  9
$CUSTOMPROPERTYTAG
  1
LINA
  9
$CUSTOMPROPERTY
  1
033901
  9
$CUSTOMPROPERTYTAG
  1
SS
  9
$CUSTOMPROPERTY
  1
1-3/16
  9
$CUSTOMPROPERTYTAG
  1
PN
  9
$CUSTOMPROPERTY
  1
033901
  9
$CUSTOMPROPERTYTAG
  1
DESCRIPTION
  9
$CUSTOMPROPERTY
  1
HNG-LT10-103
  9
$CUSTOMPROPERTYTAG
  1
A
  9
$CUSTOMPROPERTY
  1
1-3/16
  9
$CUSTOMPROPERTYTAG
  1
B
  9
$CUSTOMPROPERTY
  1
3-5/8
  9
$CUSTOMPROPERTYTAG
  1
F
  9
$CUSTOMPROPERTY
  1
3
  9
$CUSTOMPROPERTYTAG
  1
L
  9
$CUSTOMPROPERTY
  1
1-13/16
  9
$CUSTOMPROPERTYTAG
  1
M
  9
$CUSTOMPROPERTY
  1
1/2
  9
$CUSTOMPROPERTYTAG
  1
COMPANY
  9
$CUSTOMPROPERTY
  1
baldor
  9
$INSBASE
 10
0.0
 20
0.0
 30
0.0
  9
$EXTMIN
 10
1.000000000000000E+20
 20
1.000000000000000E+20
 30
1.000000000000000E+20
  9
$EXTMAX
 10
-1.000000000000000E+20
 20
-1.000000000000000E+20
 30
-1.000000000000000E+20
  9
$LIMMIN
 10
0.0
 20
0.0
  9
$LIMMAX
 10
12.0
 20
9.0
  9
$ORTHOMODE
 70
     0
  9
$REGENMODE
 70
     1
  9
$FILLMODE
 70
     1
  9
$QTEXTMODE
 70
     0
  9
$MIRRTEXT
 70
     1
  9
$LTSCALE
 40
1.0
  9
$ATTMODE
 70
     1
  9
$TEXTSIZE
 40
0.2
  9
$TRACEWID
 40
0.05
  9
$TEXTSTYLE
  7
Standard
  9
$CLAYER
  8
0
  9
$CELTYPE
  6
ByLayer
  9
$CECOLOR
 62
   256
  9
$CELTSCALE
 40
1.0
  9
$DISPSILH
 70
     0
  9
$DIMSCALE
 40
1.0
  9
$DIMASZ
 40
0.18
  9
$DIMEXO
 40
0.0625
  9
$DIMDLI
 40
0.38
  9
$DIMRND
 40
0.0
  9
$DIMDLE
 40
0.0
  9
$DIMEXE
 40
0.18
  9
$DIMTP
 40
0.0
  9
$DIMTM
 40
0.0
  9
$DIMTXT
 40
0.18
  9
$DIMCEN
 40
0.09
  9
$DIMTSZ
 40
0.0
  9
$DIMTOL
 70
     0
  9
$DIMLIM
 70
     0
  9
$DIMTIH
 70
     1
  9
$DIMTOH
 70
     1
  9
$DIMSE1
 70
     0
  9
$DIMSE2
 70
     0
  9
$DIMTAD
 70
     0
  9
$DIMZIN
 70
     0
  9
$DIMBLK
  1

  9
$DIMASO
 70
     1
  9
$DIMSHO
 70
     1
  9
$DIMPOST
  1

  9
$DIMAPOST
  1

  9
$DIMALT
 70
     0
  9
$DIMALTD
 70
     2
  9
$DIMALTF
 40
25.4
  9
$DIMLFAC
 40
1.0
  9
$DIMTOFL
 70
     0
  9
$DIMTVP
 40
0.0
  9
$DIMTIX
 70
     0
  9
$DIMSOXD
 70
     0
  9
$DIMSAH
 70
     0
  9
$DIMBLK1
  1

  9
$DIMBLK2
  1

  9
$DIMSTYLE
  2
Standard
  9
$DIMCLRD
 70
     0
  9
$DIMCLRE
 70
     0
  9
$DIMCLRT
 70
     0
  9
$DIMTFAC
 40
1.0
  9
$DIMGAP
 40
0.09
  9
$DIMJUST
 70
     0
  9
$DIMSD1
 70
     0
  9
$DIMSD2
 70
     0
  9
$DIMTOLJ
 70
     1
  9
$DIMTZIN
 70
     0
  9
$DIMALTZ
 70
     0
  9
$DIMALTTZ
 70
     0
  9
$DIMUPT
 70
     0
  9
$DIMDEC
 70
     4
  9
$DIMTDEC
 70
     4
  9
$DIMALTU
 70
     2
  9
$DIMALTTD
 70
     2
  9
$DIMTXSTY
  7
Standard
  9
$DIMAUNIT
 70
     0
  9
$DIMADEC
 70
     0
  9
$DIMALTRND
 40
0.0
  9
$DIMAZIN
 70
     0
  9
$DIMDSEP
 70
    46
  9
$DIMATFIT
 70
     3
  9
$DIMFRAC
 70
     0
  9
$DIMLDRBLK
  1

  9
$DIMLUNIT
 70
     2
  9
$DIMLWD
 70
    -2
  9
$DIMLWE
 70
    -2
  9
$DIMTMOVE
 70
     0
  9
$DIMFXL
 40
1.0
  9
$DIMFXLON
 70
     0
  9
$DIMJOGANG
 40
0.7853981633974483
  9
$DIMTFILL
 70
     0
  9
$DIMTFILLCLR
 70
     0
  9
$DIMARCSYM
 70
     0
  9
$DIMLTYPE
  6

  9
$DIMLTEX1
  6

  9
$DIMLTEX2
  6

  9
$DIMTXTDIRECTION
 70
     0
  9
$LUNITS
 70
     2
  9
$LUPREC
 70
     4
  9
$SKETCHINC
 40
0.1
  9
$FILLETRAD
 40
0.5
  9
$AUNITS
 70
     0
  9
$AUPREC
 70
     0
  9
$MENU
  1
.
  9
$ELEVATION
 40
0.0
  9
$PELEVATION
 40
0.0
  9
$THICKNESS
 40
0.0
  9
$LIMCHECK
 70
     0
  9
$CHAMFERA
 40
0.0
  9
$CHAMFERB
 40
0.0
  9
$CHAMFERC
 40
0.0
  9
$CHAMFERD
 40
0.0
  9
$SKPOLY
 70
     0
  9
$TDCREATE
 40
2458169.007070336
  9
$TDUCREATE
 40
2458168.965403669
  9
$TDUPDATE
 40
2458169.007070336
  9
$TDUUPDATE
 40
2458168.965403669
  9
$TDINDWG
 40
0.0000000116
  9
$TDUSRTIMER
 40
0.0000000116
  9
$USRTIMER
 70
     1
  9
$ANGBASE
 50
0.0
  9
$ANGDIR
 70
     0
  9
$PDMODE
 70
     0
  9
$PDSIZE
 40
0.0
  9
$PLINEWID
 40
0.0
  9
$SPLFRAME
 70
     0
  9
$SPLINETYPE
 70
     6
  9
$SPLINESEGS
 70
     8
  9
$HANDSEED
  5
126
  9
$SURFTAB1
 70
     6
  9
$SURFTAB2
 70
     6
  9
$SURFTYPE
 70
     6
  9
$SURFU
 70
     6
  9
$SURFV
 70
     6
  9
$UCSBASE
  2

  9
$UCSNAME
  2

  9
$UCSORG
 10
0.0
 20
0.0
 30
0.0
  9
$UCSXDIR
 10
1.0
 20
0.0
 30
0.0
  9
$UCSYDIR
 10
0.0
 20
1.0
 30
0.0
  9
$UCSORTHOREF
  2

  9
$UCSORTHOVIEW
 70
     0
  9
$UCSORGTOP
 10
0.0
 20
0.0
 30
0.0
  9
$UCSORGBOTTOM
 10
0.0
 20
0.0
 30
0.0
  9
$UCSORGLEFT
 10
0.0
 20
0.0
 30
0.0
  9
$UCSORGRIGHT
 10
0.0
 20
0.0
 30
0.0
  9
$UCSORGFRONT
 10
0.0
 20
0.0
 30
0.0
  9
$UCSORGBACK
 10
0.0
 20
0.0
 30
0.0
  9
$PUCSBASE
  2

  9
$PUCSNAME
  2

  9
$PUCSORG
 10
0.0
 20
0.0
 30
0.0
  9
$PUCSXDIR
 10
1.0
 20
0.0
 30
0.0
  9
$PUCSYDIR
 10
0.0
 20
1.0
 30
0.0
  9
$PUCSORTHOREF
  2

  9
$PUCSORTHOVIEW
 70
     0
  9
$PUCSORGTOP
 10
0.0
 20
0.0
 30
0.0
  9
$PUCSORGBOTTOM
 10
0.0
 20
0.0
 30
0.0
  9
$PUCSORGLEFT
 10
0.0
 20
0.0
 30
0.0
  9
$PUCSORGRIGHT
 10
0.0
 20
0.0
 30
0.0
  9
$PUCSORGFRONT
 10
0.0
 20
0.0
 30
0.0
  9
$PUCSORGBACK
 10
0.0
 20
0.0
 30
0.0
  9
$USERI1
 70
     0
  9
$USERI2
 70
     0
  9
$USERI3
 70
     0
  9
$USERI4
 70
     0
  9
$USERI5
 70
     0
  9
$USERR1
 40
0.0
  9
$USERR2
 40
0.0
  9
$USERR3
 40
0.0
  9
$USERR4
 40
0.0
  9
$USERR5
 40
0.0
  9
$WORLDVIEW
 70
     1
  9
$SHADEDGE
 70
     3
  9
$SHADEDIF
 70
    70
  9
$TILEMODE
 70
     1
  9
$MAXACTVP
 70
    64
  9
$PINSBASE
 10
0.0
 20
0.0
 30
0.0
  9
$PLIMCHECK
 70
     0
  9
$PEXTMIN
 10
1.000000000000000E+20
 20
1.000000000000000E+20
 30
1.000000000000000E+20
  9
$PEXTMAX
 10
-1.000000000000000E+20
 20
-1.000000000000000E+20
 30
-1.000000000000000E+20
  9
$PLIMMIN
 10
0.0
 20
0.0
  9
$PLIMMAX
 10
12.0
 20
9.0
  9
$UNITMODE
 70
     0
  9
$VISRETAIN
 70
     1
  9
$PLINEGEN
 70
     0
  9
$PSLTSCALE
 70
     1
  9
$TREEDEPTH
 70
  3020
  9
$CMLSTYLE
  2
Standard
  9
$CMLJUST
 70
     0
  9
$CMLSCALE
 40
1.0
  9
$PROXYGRAPHICS
 70
     1
  9
$MEASUREMENT
 70
     0
  9
$CELWEIGHT
370
    -1
  9
$ENDCAPS
280
     0
  9
$JOINSTYLE
280
     0
  9
$LWDISPLAY
290
     0
  9
$INSUNITS
 70
     1
  9
$HYPERLINKBASE
  1

  9
$STYLESHEET
  1

  9
$XEDIT
290
     1
  9
$CEPSNTYPE
380
     0
  9
$PSTYLEMODE
290
     1
  9
$FINGERPRINTGUID
  2
{AA596A71-DC8D-4F3D-9EFE-BF7F97CBBD39}
  9
$VERSIONGUID
  2
{FAEB1C32-E019-11D5-929B-00C0DF256EC4}
  9
$EXTNAMES
290
     1
  9
$PSVPSCALE
 40
0.0
  9
$OLESTARTUP
290
     0
  9
$SORTENTS
280
   127
  9
$INDEXCTL
280
     0
  9
$HIDETEXT
280
     1
  9
$XCLIPFRAME
280
     2
  9
$HALOGAP
280
     0
  9
$OBSCOLOR
 70
   257
  9
$OBSLTYPE
280
     0
  9
$INTERSECTIONDISPLAY
280
     0
  9
$INTERSECTIONCOLOR
 70
   257
  9
$DIMASSOC
280
     2
  9
$PROJECTNAME
  1

  9
$CAMERADISPLAY
290
     0
  9
$LENSLENGTH
 40
50.0
  9
$CAMERAHEIGHT
 40
0.0
  9
$STEPSPERSEC
 40
2.0
  9
$STEPSIZE
 40
6.0
  9
$3DDWFPREC
 40
2.0
  9
$PSOLWIDTH
 40
0.25
  9
$PSOLHEIGHT
 40
4.0
  9
$LOFTANG1
 40
1.570796326794897
  9
$LOFTANG2
 40
1.570796326794897
  9
$LOFTMAG1
 40
0.0
  9
$LOFTMAG2
 40
0.0
  9
$LOFTPARAM
 70
     7
  9
$LOFTNORMALS
280
     1
  9
$LATITUDE
 40
37.795
  9
$LONGITUDE
 40
-122.394
  9
$NORTHDIRECTION
 40
0.0
  9
$TIMEZONE
 70
 -8000
  9
$LIGHTGLYPHDISPLAY
280
     1
  9
$TILEMODELIGHTSYNCH
280
     1
  9
$CMATERIAL
347
44
  9
$SOLIDHIST
280
     0
  9
$SHOWHIST
280
     1
  9
$DWFFRAME
280
     2
  9
$DGNFRAME
280
     2
  9
$REALWORLDSCALE
290
     1
  9
$INTERFERECOLOR
 62
   256
  9
$CSHADOW
280
     0
  9
$SHADOWPLANELOCATION
 40
0.0
  0
ENDSEC
  0
SECTION
  2
CLASSES
  0
CLASS
  1
ACDBDICTIONARYWDFLT
  2
AcDbDictionaryWithDefault
  3
ObjectDBX Classes
 90
        0
 91
        4
280
     0
281
     0
  0
CLASS
  1
VISUALSTYLE
  2
AcDbVisualStyle
  3
ObjectDBX Classes
 90
     4095
 91
        4
280
     0
281
     0
  0
CLASS
  1
MATERIAL
  2
AcDbMaterial
  3
ObjectDBX Classes
 90
     1153
 91
        4
280
     0
281
     0
  0
CLASS
  1
SCALE
  2
AcDbScale
  3
ObjectDBX Classes
 90
     1153
 91
        4
280
     0
281
     0
  0
CLASS
  1
TABLESTYLE
  2
AcDbTableStyle
  3
ObjectDBX Classes
 90
     4095
 91
        4
280
     0
281
     0
  0
CLASS
  1
MLEADERSTYLE
  2
AcDbMLeaderStyle
  3
ACDB_MLEADERSTYLE_CLASS
 90
     4095
 91
        4
280
     0
281
     0
  0
CLASS
  1
SUN
  2
AcDbSun
  3
SCENEOE
 90
     1153
 91
        4
280
     0
281
     0
  0
CLASS
  1
DICTIONARYVAR
  2
AcDbDictionaryVar
  3
ObjectDBX Classes
 90
        0
 91
        4
280
     0
281
     0
  0
CLASS
  1
CELLSTYLEMAP
  2
AcDbCellStyleMap
  3
ObjectDBX Classes
 90
     1152
 91
        4
280
     0
281
     0
  0
ENDSEC
  0
SECTION
  2
TABLES
  0
TABLE
  2
VPORT
  5
8
330
0
100
AcDbSymbolTable
 70
     1
  0
VPORT
  5
29
330
8
100
AcDbSymbolTableRecord
100
AcDbViewportTableRecord
  2
*Active
 70
     0
 10
0.0
 20
0.0
 11
1.0
 21
1.0
 12
0.0
 22
0.0
 13
0.0
 23
0.0
 14
0.5
 24
0.5
 15
0.5
 25
0.5
 16
0.0
 26
0.0
 36
1.0
 17
0.0
 27
0.0
 37
0.0
 40
1.332374999999999
 41
2.296650717703351
 42
50.0
 43
0.0
 44
0.0
 50
0.0
 51
0.0
 71
     0
 72
   100
 73
     1
 74
     3
 75
     0
 76
     0
 77
     0
 78
     0
281
     0
 65
     1
110
0.0
120
0.0
130
0.0
111
1.0
121
0.0
131
0.0
112
0.0
122
1.0
132
0.0
 79
     0
146
0.0
348
2F
 60
     3
 61
     5
292
     1
282
     1
141
0.0
142
0.0
 63
   250
361
6D
  0
ENDTAB
  0
TABLE
  2
LTYPE
  5
5
330
0
100
AcDbSymbolTable
 70
     3
  0
LTYPE
  5
14
330
5
100
AcDbSymbolTableRecord
100
AcDbLinetypeTableRecord
  2
ByBlock
 70
     0
  3

 72
    65
 73
     0
 40
0.0
  0
LTYPE
  5
15
330
5
100
AcDbSymbolTableRecord
100
AcDbLinetypeTableRecord
  2
ByLayer
 70
     0
  3

 72
    65
 73
     0
 40
0.0
  0
LTYPE
  5
16
330
5
100
AcDbSymbolTableRecord
100
AcDbLinetypeTableRecord
  2
Continuous
 70
     0
  3
Solid line
 72
    65
 73
     0
 40
0.0
  0
LTYPE
  5
94
330
5
100
AcDbSymbolTableRecord
100
AcDbLinetypeTableRecord
  2
Dashed
 70
     0
  3

 72
    65
 73
     2
 40
2.0
 49
1.0
 74
     0
 49
-1.0
 74
     0
  0
LTYPE
  5
9E
330
5
100
AcDbSymbolTableRecord
100
AcDbLinetypeTableRecord
  2
Center
 70
     0
  3

 72
    65
 73
     4
 40
1.5
 49
0.45
 74
     0
 49
-0.5
 74
     0
 49
0.05
 74
     0
 49
-0.5
 74
     0
  0
ENDTAB
  0
TABLE
  2
LAYER
  5
2
330
0
100
AcDbSymbolTable
 70
     7
  0
LAYER
  5
10
330
2
100
AcDbSymbolTableRecord
100
AcDbLayerTableRecord
  2
0
 70
     0
 62
     7
  6
Continuous
370
    -3
390
F
347
46
348
0
  0
LAYER
  5
72
330
2
100
AcDbSymbolTableRecord
100
AcDbLayerTableRecord
  2
AM_6
 70
     0
 62
    -2
  6
Continuous
370
    35
390
F
347
46
348
0
  0
LAYER
  5
95
330
2
100
AcDbSymbolTableRecord
100
AcDbLayerTableRecord
  2
AM_9
 70
     0
 62
     6
  6
Dashed
370
    25
390
F
347
46
348
0
  0
LAYER
  5
9F
330
2
100
AcDbSymbolTableRecord
100
AcDbLayerTableRecord
  2
AM_7
 70
     0
 62
     7
  6
Center
370
    25
390
F
347
46
348
0
  0
LAYER
  5
EA
330
2
100
AcDbSymbolTableRecord
100
AcDbLayerTableRecord
  2
AM_4
 70
     0
 62
     7
  6
Continuous
370
    50
390
F
347
46
348
0
  0
LAYER
  5
118
330
2
100
AcDbSymbolTableRecord
100
AcDbLayerTableRecord
  2
AM_5
 70
     0
 62
     3
  6
Continuous
370
    25
390
F
347
46
348
0
  0
LAYER
  5
11A
330
2
100
AcDbSymbolTableRecord
100
AcDbLayerTableRecord
  2
ConnectionPoints
 70
     0
 62
     7
  6
Continuous
370
    50
390
F
347
46
348
0
  0
ENDTAB
  0
TABLE
  2
STYLE
  5
3
330
0
100
AcDbSymbolTable
 70
     1
  0
STYLE
  5
11
330
3
100
AcDbSymbolTableRecord
100
AcDbTextStyleTableRecord
  2
Standard
 70
     0
 40
0.0
 41
1.0
 50
0.0
 71
     0
 42
0.2
  3
txt
  4

  0
ENDTAB
  0
TABLE
  2
VIEW
  5
6
330
0
100
AcDbSymbolTable
 70
     0
  0
ENDTAB
  0
TABLE
  2
UCS
  5
7
330
0
100
AcDbSymbolTable
 70
     0
  0
ENDTAB
  0
TABLE
  2
APPID
  5
9
330
0
100
AcDbSymbolTable
 70
     1
  0
APPID
  5
12
330
9
100
AcDbSymbolTableRecord
100
AcDbRegAppTableRecord
  2
ACAD
 70
     0
  0
ENDTAB
  0
TABLE
  2
DIMSTYLE
  5
A
330
0
100
AcDbSymbolTable
 70
     1
100
AcDbDimStyleTable
  0
DIMSTYLE
105
27
330
A
100
AcDbSymbolTableRecord
100
AcDbDimStyleTableRecord
  2
Standard
 70
     0
178
     0
340
11
  0
ENDTAB
  0
TABLE
  2
BLOCK_RECORD
  5
1
330
0
100
AcDbSymbolTable
 70
     4
  0
BLOCK_RECORD
  5
1F
330
1
100
AcDbSymbolTableRecord
100
AcDbBlockTableRecord
  2
*Model_Space
340
22
 70
     0
280
     1
281
     0
  0
BLOCK_RECORD
  5
1B
330
1
100
AcDbSymbolTableRecord
100
AcDbBlockTableRecord
  2
*Paper_Space
340
1E
 70
     0
280
     1
281
     0
  0
BLOCK_RECORD
  5
23
330
1
100
AcDbSymbolTableRecord
100
AcDbBlockTableRecord
  2
*Paper_Space0
340
26
 70
     0
280
     1
281
     0
  0
BLOCK_RECORD
  5
6E
330
1
100
AcDbSymbolTableRecord
100
AcDbBlockTableRecord
  2
1_033901_4
340
0
102
{BLKREFS
331
6F
102
}
 70
     0
280
     1
281
     0
  0
BLOCK_RECORD
  5
81
330
1
100
AcDbSymbolTableRecord
100
AcDbBlockTableRecord
  2
2_033615_0_in_033901_4
340
0
102
{BLKREFS
331
82
102
}
 70
     0
280
     1
281
     0
  0
BLOCK_RECORD
  5
A1
330
1
100
AcDbSymbolTableRecord
100
AcDbBlockTableRecord
  2
3_HNG_LT10_103_0_in_033901_4
340
0
102
{BLKREFS
331
A2
102
}
 70
     0
280
     1
281
     0
  0
ENDTAB
  0
ENDSEC
  0
SECTION
  2
BLOCKS
  0
BLOCK
  5
20
330
1F
100
AcDbEntity
  8
0
100
AcDbBlockBegin
  2
*Model_Space
 70
     0
 10
0.0
 20
0.0
 30
0.0
  3
*Model_Space
  1

  0
ENDBLK
  5
21
330
1F
100
AcDbEntity
  8
0
100
AcDbBlockEnd
  0
BLOCK
  5
1C
330
1B
100
AcDbEntity
 67
     1
  8
0
100
AcDbBlockBegin
  2
*Paper_Space
 70
     0
 10
0.0
 20
0.0
 30
0.0
  3
*Paper_Space
  1

  0
ENDBLK
  5
1D
330
1B
100
AcDbEntity
 67
     1
  8
0
100
AcDbBlockEnd
  0
BLOCK
  5
24
330
23
100
AcDbEntity
  8
0
100
AcDbBlockBegin
  2
*Paper_Space0
 70
     0
 10
0.0
 20
0.0
 30
0.0
  3
*Paper_Space0
  1

  0
ENDBLK
  5
25
330
23
100
AcDbEntity
  8
0
100
AcDbBlockEnd
  0
BLOCK
  5
70
330
6E
100
AcDbEntity
  8
0
100
AcDbBlockBegin
  2
1_033901_4
 70
     2
 10
0.0
 20
0.0
 30
0.0
  3
1_033901_4
  1

  0
ATTDEF
  5
73
330
6E
100
AcDbEntity
  8
AM_6
100
AcDbText
 10
6.5
 20
0.653125
 30
0.0
 40
0.5
  1
Sleeve Bearings -SOLIDLUBE 1-1/8 thru 2 LT1000 Hanger Bearing
100
AcDbAttributeDefinition
  3

  2
NN
 70
     8
280
     0
  0
ATTDEF
  5
74
330
6E
100
AcDbEntity
  8
AM_6
100
AcDbText
 10
6.5
 20
0.153125
 30
0.0
 40
0.5
  1
SOLIDLUBE
100
AcDbAttributeDefinition
  3

  2
NT
 70
     8
280
     0
  0
ATTDEF
  5
75
330
6E
100
AcDbEntity
  8
AM_6
100
AcDbText
 10
6.5
 20
-0.346875
 30
0.0
 40
0.5
  1
033901
100
AcDbAttributeDefinition
  3

  2
NB
 70
     8
280
     0
  0
ATTDEF
  5
76
330
6E
100
AcDbEntity
  8
AM_6
100
AcDbText
 10
6.5
 20
-0.846875
 30
0.0
 40
0.5
  1
$PN.
100
AcDbAttributeDefinition
  3

  2
NBSYN
 70
     8
280
     0
  0
ATTDEF
  5
77
330
6E
100
AcDbEntity
  8
AM_6
100
AcDbText
 10
6.5
 20
-1.346875
 30
0.0
 40
0.5
  1
033901
100
AcDbAttributeDefinition
  3

  2
LINA
 70
     8
280
     0
  0
ATTDEF
  5
78
330
6E
100
AcDbEntity
  8
AM_6
100
AcDbText
 10
6.5
 20
-1.846875
 30
0.0
 40
0.5
  1
1-3/16
100
AcDbAttributeDefinition
  3

  2
SS
 70
     8
280
     0
  0
ATTDEF
  5
79
330
6E
100
AcDbEntity
  8
AM_6
100
AcDbText
 10
6.5
 20
-2.346875
 30
0.0
 40
0.5
  1
033901
100
AcDbAttributeDefinition
  3

  2
PN
 70
     8
280
     0
  0
ATTDEF
  5
7A
330
6E
100
AcDbEntity
  8
AM_6
100
AcDbText
 10
6.5
 20
-2.846875
 30
0.0
 40
0.5
  1
HNG-LT10-103
100
AcDbAttributeDefinition
  3

  2
DESCRIPTION
 70
     8
280
     0
  0
ATTDEF
  5
7B
330
6E
100
AcDbEntity
  8
AM_6
100
AcDbText
 10
6.5
 20
-3.346875
 30
0.0
 40
0.5
  1
1-3/16
100
AcDbAttributeDefinition
  3

  2
A
 70
     8
280
     0
  0
ATTDEF
  5
7C
330
6E
100
AcDbEntity
  8
AM_6
100
AcDbText
 10
6.5
 20
-3.846875
 30
0.0
 40
0.5
  1
3-5/8
100
AcDbAttributeDefinition
  3

  2
B
 70
     8
280
     0
  0
ATTDEF
  5
7D
330
6E
100
AcDbEntity
  8
AM_6
100
AcDbText
 10
6.5
 20
-4.346875
 30
0.0
 40
0.5
  1
3
100
AcDbAttributeDefinition
  3

  2
F
 70
     8
280
     0
  0
ATTDEF
  5
7E
330
6E
100
AcDbEntity
  8
AM_6
100
AcDbText
 10
6.5
 20
-4.846875
 30
0.0
 40
0.5
  1
1-13/16
100
AcDbAttributeDefinition
  3

  2
L
 70
     8
280
     0
  0
ATTDEF
  5
7F
330
6E
100
AcDbEntity
  8
AM_6
100
AcDbText
 10
6.5
 20
-5.346875
 30
0.0
 40
0.5
  1
1/2
100
AcDbAttributeDefinition
  3

  2
M
 70
     8
280
     0
  0
ATTDEF
  5
80
330
6E
100
AcDbEntity
  8
AM_6
100
AcDbText
 10
6.5
 20
-5.846875
 30
0.0
 40
0.5
  1
baldor
100
AcDbAttributeDefinition
  3

  2
COMPANY
 70
     8
280
     0
  0
INSERT
  5
82
330
6E
100
AcDbEntity
  8
0
100
AcDbBlockReference
  2
2_033615_0_in_033901_4
 10
0.0
 20
0.0
 30
0.0
  0
INSERT
  5
A2
330
6E
100
AcDbEntity
  8
0
100
AcDbBlockReference
  2
3_HNG_LT10_103_0_in_033901_4
 10
0.0
 20
0.0
 30
0.0
  0
ENDBLK
  5
71
330
6E
100
AcDbEntity
  8
0
100
AcDbBlockEnd
  0
BLOCK
  5
83
330
81
100
AcDbEntity
  8
0
100
AcDbBlockBegin
  2
2_033615_0_in_033901_4
 70
     2
 10
0.0
 20
0.0
 30
0.0
  3
2_033615_0_in_033901_4
  1

  0
ATTDEF
  5
85
330
81
100
AcDbEntity
  8
AM_6
100
AcDbText
 10
6.217
 20
0.653125
 30
0.0
 40
0.5
  1
Sleeve Bearings - SOLIDLUBE 3/4 thru 3 LT1000 Inserts
100
AcDbAttributeDefinition
  3

  2
NN
 70
     8
280
     0
  0
ATTDEF
  5
86
330
81
100
AcDbEntity
  8
AM_6
100
AcDbText
 10
6.217
 20
0.153125
 30
0.0
 40
0.5
  1
SOLIDLUBE
100
AcDbAttributeDefinition
  3

  2
NT
 70
     8
280
     0
  0
ATTDEF
  5
87
330
81
100
AcDbEntity
  8
AM_6
100
AcDbText
 10
6.217
 20
-0.346875
 30
0.0
 40
0.5
  1
033615
100
AcDbAttributeDefinition
  3

  2
NB
 70
     8
280
     0
  0
ATTDEF
  5
88
330
81
100
AcDbEntity
  8
AM_6
100
AcDbText
 10
6.217
 20
-0.846875
 30
0.0
 40
0.5
  1
$PN.
100
AcDbAttributeDefinition
  3

  2
NBSYN
 70
     8
280
     0
  0
ATTDEF
  5
89
330
81
100
AcDbEntity
  8
AM_6
100
AcDbText
 10
6.217
 20
-1.346875
 30
0.0
 40
0.5
  1
033615
100
AcDbAttributeDefinition
  3

  2
LINA
 70
     8
280
     0
  0
ATTDEF
  5
8A
330
81
100
AcDbEntity
  8
AM_6
100
AcDbText
 10
6.217
 20
-1.846875
 30
0.0
 40
0.5
  1
206
100
AcDbAttributeDefinition
  3

  2
SERIES
 70
     8
280
     0
  0
ATTDEF
  5
8B
330
81
100
AcDbEntity
  8
AM_6
100
AcDbText
 10
6.217
 20
-2.346875
 30
0.0
 40
0.5
  1
1-3/16
100
AcDbAttributeDefinition
  3

  2
SS
 70
     8
280
     0
  0
ATTDEF
  5
8C
330
81
100
AcDbEntity
  8
AM_6
100
AcDbText
 10
6.217
 20
-2.846875
 30
0.0
 40
0.5
  1
033615
100
AcDbAttributeDefinition
  3

  2
PN
 70
     8
280
     0
  0
ATTDEF
  5
8D
330
81
100
AcDbEntity
  8
AM_6
100
AcDbText
 10
6.217
 20
-3.346875
 30
0.0
 40
0.5
  1
INS-LT10-103
100
AcDbAttributeDefinition
  3

  2
DESCRIPTION
 70
     8
280
     0
  0
ATTDEF
  5
8E
330
81
100
AcDbEntity
  8
AM_6
100
AcDbText
 10
6.217
 20
-3.846875
 30
0.0
 40
0.5
  1
0.6
100
AcDbAttributeDefinition
  3

  2
WEIGHT
 70
     8
280
     0
  0
ATTDEF
  5
8F
330
81
100
AcDbEntity
  8
AM_6
100
AcDbText
 10
6.217
 20
-4.346875
 30
0.0
 40
0.5
  1
1-3/16
100
AcDbAttributeDefinition
  3

  2
A
 70
     8
280
     0
  0
ATTDEF
  5
90
330
81
100
AcDbEntity
  8
AM_6
100
AcDbText
 10
6.217
 20
-4.846875
 30
0.0
 40
0.5
  1
11/16
100
AcDbAttributeDefinition
  3

  2
C
 70
     8
280
     0
  0
ATTDEF
  5
91
330
81
100
AcDbEntity
  8
AM_6
100
AcDbText
 10
6.217
 20
-5.346875
 30
0.0
 40
0.5
  1
1-13/16
100
AcDbAttributeDefinition
  3

  2
L
 70
     8
280
     0
  0
ATTDEF
  5
92
330
81
100
AcDbEntity
  8
AM_6
100
AcDbText
 10
6.217
 20
-5.846875
 30
0.0
 40
0.5
  1
2.435/2.433
100
AcDbAttributeDefinition
  3

  2
S
 70
     8
280
     0
  0
ATTDEF
  5
93
330
81
100
AcDbEntity
  8
AM_6
100
AcDbText
 10
6.217
 20
-6.346875
 30
0.0
 40
0.5
  1
baldor
100
AcDbAttributeDefinition
  3

  2
COMPANY
 70
     8
280
     0
  0
ARC
  5
96
330
81
100
AcDbEntity
  8
AM_9
100
AcDbCircle
 10
-1.217
 20
-0.5937499999999999
 30
0.0
 40
0.2499999999999996
100
AcDbArc
 50
0.0
 51
90.0
  0
ARC
  5
97
330
81
100
AcDbEntity
  8
AM_9
100
AcDbCircle
 10
1.217
 20
-0.5937499999999997
 30
0.0
 40
0.2499999999999996
100
AcDbArc
 50
90.0
 51
180.0
  0
LINE
  5
98
330
81
100
AcDbEntity
  8
AM_9
100
AcDbLine
 10
-1.217
 20
0.3437500000000001
 30
0.0
 11
-1.217
 21
-0.3437500000000001
 31
0.0
  0
LINE
  5
99
330
81
100
AcDbEntity
  8
AM_9
100
AcDbLine
 10
1.217
 20
-0.3437500000000001
 30
0.0
 11
1.217
 21
0.3437500000000001
 31
0.0
  0
LINE
  5
9A
330
81
100
AcDbEntity
  8
AM_9
100
AcDbLine
 10
1.217
 20
-0.3437500000000001
 30
0.0
 11
-1.217
 21
-0.3437500000000001
 31
0.0
  0
LINE
  5
9B
330
81
100
AcDbEntity
  8
AM_9
100
AcDbLine
 10
1.216999999998818
 20
0.3437500000000001
 30
0.0
 11
-1.217
 21
0.3437500000000001
 31
0.0
  0
ARC
  5
9C
330
81
100
AcDbEntity
  8
AM_9
100
AcDbCircle
 10
-1.217
 20
0.5937499999999999
 30
0.0
 40
0.2499999999999999
100
AcDbArc
 50
270.0
 51
0.0
  0
ARC
  5
9D
330
81
100
AcDbEntity
  8
AM_9
100
AcDbCircle
 10
1.217
 20
0.5937499999999999
 30
0.0
 40
0.2499999999999997
100
AcDbArc
 50
180.0
 51
270.0
  0
LINE
  5
A0
330
81
100
AcDbEntity
  8
AM_7
100
AcDbLine
 10
0.0
 20
0.653125
 30
0.0
 11
0.0
 21
-0.6531249999999996
 31
0.0
  0
ENDBLK
  5
84
330
81
100
AcDbEntity
  8
0
100
AcDbBlockEnd
  0
BLOCK
  5
A3
330
A1
100
AcDbEntity
  8
0
100
AcDbBlockBegin
  2
3_HNG_LT10_103_0_in_033901_4
 70
     2
 10
0.0
 20
0.0
 30
0.0
  3
3_HNG_LT10_103_0_in_033901_4
  1

  0
ATTDEF
  5
A5
330
A1
100
AcDbEntity
  8
AM_6
100
AcDbText
 10
6.5
 20
0.5937500000000001
 30
0.0
 40
0.5
  1
1-1/8" THRU 2" SOLIDLUBE LT HANGER BEARINGS - LT1000 - Body
100
AcDbAttributeDefinition
  3

  2
NN
 70
     8
280
     0
  0
ATTDEF
  5
A6
330
A1
100
AcDbEntity
  8
AM_6
100
AcDbText
 10
6.5
 20
0.0937500000000001
 30
0.0
 40
0.5
  1
SOLIDLUBE
100
AcDbAttributeDefinition
  3

  2
NT
 70
     8
280
     0
  0
ATTDEF
  5
A7
330
A1
100
AcDbEntity
  8
AM_6
100
AcDbText
 10
6.5
 20
-0.4062499999999999
 30
0.0
 40
0.5
  1
HNG-LT10-103
100
AcDbAttributeDefinition
  3

  2
NB
 70
     8
280
     0
  0
ATTDEF
  5
A8
330
A1
100
AcDbEntity
  8
AM_6
100
AcDbText
 10
6.5
 20
-0.9062499999999999
 30
0.0
 40
0.5
  1
$PN.
100
AcDbAttributeDefinition
  3

  2
NBSYN
 70
     8
280
     0
  0
ATTDEF
  5
A9
330
A1
100
AcDbEntity
  8
AM_6
100
AcDbText
 10
6.5
 20
-1.40625
 30
0.0
 40
0.5
  1
HNG-LT10-103
100
AcDbAttributeDefinition
  3

  2
LINA
 70
     8
280
     0
  0
ATTDEF
  5
AA
330
A1
100
AcDbEntity
  8
AM_6
100
AcDbText
 10
6.5
 20
-1.90625
 30
0.0
 40
0.5
  1
1-3/16
100
AcDbAttributeDefinition
  3

  2
SS
 70
     8
280
     0
  0
ATTDEF
  5
AB
330
A1
100
AcDbEntity
  8
AM_6
100
AcDbText
 10
6.5
 20
-2.40625
 30
0.0
 40
0.5
  1
2.43400
100
AcDbAttributeDefinition
  3

  2
BOD
 70
     8
280
     0
  0
ATTDEF
  5
AC
330
A1
100
AcDbEntity
  8
AM_6
100
AcDbText
 10
6.5
 20
-2.90625
 30
0.0
 40
0.5
  1
1.18750
100
AcDbAttributeDefinition
  3

  2
SS1
 70
     8
280
     0
  0
ATTDEF
  5
AD
330
A1
100
AcDbEntity
  8
AM_6
100
AcDbText
 10
6.5
 20
-3.40625
 30
0.0
 40
0.5
  1
HNG-LT10-103
100
AcDbAttributeDefinition
  3

  2
PN
 70
     8
280
     0
  0
ATTDEF
  5
AE
330
A1
100
AcDbEntity
  8
AM_6
100
AcDbText
 10
6.5
 20
-3.90625
 30
0.0
 40
0.5
  1
HNG-LT10-103
100
AcDbAttributeDefinition
  3

  2
DESCRIPTION
 70
     8
280
     0
  0
ATTDEF
  5
AF
330
A1
100
AcDbEntity
  8
AM_6
100
AcDbText
 10
6.5
 20
-4.40625
 30
0.0
 40
0.5
  1
1-3/16
100
AcDbAttributeDefinition
  3

  2
A
 70
     8
280
     0
  0
ATTDEF
  5
B0
330
A1
100
AcDbEntity
  8
AM_6
100
AcDbText
 10
6.5
 20
-4.90625
 30
0.0
 40
0.5
  1
1.18750
100
AcDbAttributeDefinition
  3

  2
A1
 70
     8
280
     0
  0
ATTDEF
  5
B1
330
A1
100
AcDbEntity
  8
AM_6
100
AcDbText
 10
6.5
 20
-5.40625
 30
0.0
 40
0.5
  1
3-5/8
100
AcDbAttributeDefinition
  3

  2
B
 70
     8
280
     0
  0
ATTDEF
  5
B2
330
A1
100
AcDbEntity
  8
AM_6
100
AcDbText
 10
6.5
 20
-5.90625
 30
0.0
 40
0.5
  1
3.62500
100
AcDbAttributeDefinition
  3

  2
B1
 70
     8
280
     0
  0
ATTDEF
  5
B3
330
A1
100
AcDbEntity
  8
AM_6
100
AcDbText
 10
6.5
 20
-6.40625
 30
0.0
 40
0.5
  1
3
100
AcDbAttributeDefinition
  3

  2
F
 70
     8
280
     0
  0
ATTDEF
  5
B4
330
A1
100
AcDbEntity
  8
AM_6
100
AcDbText
 10
6.5
 20
-6.90625
 30
0.0
 40
0.5
  1
3.00000
100
AcDbAttributeDefinition
  3

  2
F1
 70
     8
280
     0
  0
ATTDEF
  5
B5
330
A1
100
AcDbEntity
  8
AM_6
100
AcDbText
 10
6.5
 20
-7.40625
 30
0.0
 40
0.5
  1
1-13/16
100
AcDbAttributeDefinition
  3

  2
L
 70
     8
280
     0
  0
ATTDEF
  5
B6
330
A1
100
AcDbEntity
  8
AM_6
100
AcDbText
 10
6.5
 20
-7.90625
 30
0.0
 40
0.5
  1
1.81250
100
AcDbAttributeDefinition
  3

  2
L1
 70
     8
280
     0
  0
ATTDEF
  5
B7
330
A1
100
AcDbEntity
  8
AM_6
100
AcDbText
 10
6.5
 20
-8.40625
 30
0.0
 40
0.5
  1
1/2
100
AcDbAttributeDefinition
  3

  2
M
 70
     8
280
     0
  0
ATTDEF
  5
B8
330
A1
100
AcDbEntity
  8
AM_6
100
AcDbText
 10
6.5
 20
-8.90625
 30
0.0
 40
0.5
  1
0.50000
100
AcDbAttributeDefinition
  3

  2
M1
 70
     8
280
     0
  0
ATTDEF
  5
B9
330
A1
100
AcDbEntity
  8
AM_6
100
AcDbText
 10
6.5
 20
-9.40625
 30
0.0
 40
0.5
  1
0.50000
100
AcDbAttributeDefinition
  3

  2
NDM
 70
     8
280
     0
  0
ATTDEF
  5
BA
330
A1
100
AcDbEntity
  8
AM_6
100
AcDbText
 10
6.5
 20
-9.90625
 30
0.0
 40
0.5
  1
0.41700
100
AcDbAttributeDefinition
  3

  2
KDM
 70
     8
280
     0
  0
ATTDEF
  5
BB
330
A1
100
AcDbEntity
  8
AM_6
100
AcDbText
 10
6.5
 20
-10.40625
 30
0.0
 40
0.5
  1
baldor
100
AcDbAttributeDefinition
  3

  2
COMPANY
 70
     8
280
     0
  0
LINE
  5
BC
330
A1
100
AcDbEntity
  8
AM_9
100
AcDbLine
 10
-1.187832307256205
 20
-0.51953125
 30
0.0
 11
-0.59375
 21
-0.5195312500000001
 31
0.0
  0
LWPOLYLINE
  5
BD
330
A1
100
AcDbEntity
  8
AM_9
100
AcDbPolyline
 90
       12
 70
     0
 43
0.0
 10
-1.098256597831231
 20
-0.5937500000000002
 10
-1.112418675295392
 20
-0.5928362254001586
 10
-1.130345622351096
 20
-0.5889049267004591
 10
-1.139223286729831
 20
-0.5856494718743777
 10
-1.14782080212117
 20
-0.5815017306170841
 10
-1.159291044517758
 20
-0.5740364965601261
 10
-1.169652701371718
 20
-0.5645441189782925
 10
-1.176799010829617
 20
-0.5553914875087494
 10
-1.182492481800424
 20
-0.54491101371077
 10
-1.185037889548129
 20
-0.5380295364131581
 10
-1.187110769497426
 20
-0.5289879306784291
 10
-1.187832307256205
 20
-0.51953125
  0
LINE
  5
BE
330
A1
100
AcDbEntity
  8
AM_9
100
AcDbLine
 10
-1.187832307256205
 20
-0.221666666666666
 30
0.0
 11
-1.187832307256205
 21
-0.51953125
 31
0.0
  0
LINE
  5
BF
330
A1
100
AcDbEntity
  8
AM_9
100
AcDbLine
 10
1.188338099154144
 20
0.2171983636147466
 30
0.0
 11
1.187832307255915
 21
0.2216666666666886
 31
0.0
  0
LINE
  5
C0
330
A1
100
AcDbEntity
  8
AM_9
100
AcDbLine
 10
-1.418055177344991
 20
-0.0989583333333334
 30
0.0
 11
-0.59375
 21
-0.0989583333333538
 31
0.0
  0
LWPOLYLINE
  5
C1
330
A1
100
AcDbEntity
  8
AM_9
100
AcDbPolyline
 90
       15
 70
     0
 43
0.0
 10
-1.304270020487382
 20
-0.1979166666666668
 10
-1.32122337652754
 20
-0.1968316977497903
 10
-1.338176732567698
 20
-0.1934873218823342
 10
-1.348610506464493
 20
-0.1901947648381971
 10
-1.358710953191089
 20
-0.1859916449748249
 10
-1.368716492770752
 20
-0.1806812739063201
 10
-1.378150006710904
 20
-0.1744133732274553
 10
-1.385789662920934
 20
-0.1682038201008736
 10
-1.392878975477386
 20
-0.161250849897551
 10
-1.399435687684226
 20
-0.1534104415066918
 10
-1.405201081399819
 20
-0.1448370799547196
 10
-1.411338192306333
 20
-0.1326063337038027
 10
-1.415651712871767
 20
-0.1192868754203273
 10
-1.417442552557478
 20
-0.1092634511304749
 10
-1.418055177344991
 20
-0.0989583333333334
  0
LINE
  5
C2
330
A1
100
AcDbEntity
  8
AM_9
100
AcDbLine
 10
-1.187832307256205
 20
-0.221666666666666
 30
0.0
 11
-0.5937499999999999
 21
-0.2216666666666661
 31
0.0
  0
LWPOLYLINE
  5
C3
330
A1
100
AcDbEntity
  8
AM_9
100
AcDbPolyline
 90
        7
 70
     0
 43
0.0
 10
-1.216059751545241
 20
-0.1979166666666266
 10
-1.208402270570679
 20
-0.1988117935673676
 10
-1.203182255842449
 20
-0.2005425043960335
 10
-1.198203859214396
 20
-0.2032877691620686
 10
-1.192096075265289
 20
-0.2091323052332554
 10
-1.188432652256582
 20
-0.2168026657719792
 10
-1.187832307256205
 20
-0.221666666666666
  0
LINE
  5
C4
330
A1
100
AcDbEntity
  8
AM_9
100
AcDbLine
 10
-1.304270020487382
 20
-0.1979166666666668
 30
0.0
 11
-0.59375
 21
-0.1979166666666616
 31
0.0
  0
LINE
  5
C5
330
A1
100
AcDbEntity
  8
AM_9
100
AcDbLine
 10
-1.150827950747731
 20
-0.296875
 30
0.0
 11
-1.276375
 21
-0.296875
 31
0.0
  0
LINE
  5
C6
330
A1
100
AcDbEntity
  8
AM_9
100
AcDbLine
 10
-1.213445142083985
 20
-0.296875
 30
0.0
 11
-1.213445142083985
 21
0.59375
 31
0.0
  0
LINE
  5
C7
330
A1
100
AcDbEntity
  8
AM_9
100
AcDbLine
 10
-1.276375
 20
0.59375
 30
0.0
 11
-1.276375
 21
-0.296875
 31
0.0
  0
LINE
  5
C8
330
A1
100
AcDbEntity
  8
AM_9
100
AcDbLine
 10
1.276375
 20
-0.296875
 30
0.0
 11
1.150827950747731
 21
-0.296875
 31
0.0
  0
LINE
  5
C9
330
A1
100
AcDbEntity
  8
AM_9
100
AcDbLine
 10
1.213445142083984
 20
-0.296875
 30
0.0
 11
1.213445142083984
 21
0.59375
 31
0.0
  0
LINE
  5
CA
330
A1
100
AcDbEntity
  8
AM_9
100
AcDbLine
 10
1.276375
 20
-0.296875
 30
0.0
 11
1.276375
 21
0.59375
 31
0.0
  0
LINE
  5
CB
330
A1
100
AcDbEntity
  8
AM_9
100
AcDbLine
 10
-0.7657161745756198
 20
-0.3116844369216842
 30
0.0
 11
-0.6980404190567643
 21
-0.3116844369216842
 31
0.0
  0
LINE
  5
CC
330
A1
100
AcDbEntity
  8
AM_9
100
AcDbLine
 10
-0.6980273405512161
 20
-0.1116844369216841
 30
0.0
 11
-0.7977406300860889
 21
-0.1116844369216841
 31
0.0
  0
LWPOLYLINE
  5
CD
330
A1
100
AcDbEntity
  8
AM_9
100
AcDbPolyline
 90
        4
 70
     0
 43
0.0
 10
-0.7330581399247357
 20
-0.3018308673431782
 10
-0.7244894766685032
 20
-0.3062243808080289
 10
-0.7112935195319394
 20
-0.3103443755640428
 10
-0.6980396081808308
 20
-0.3116844368583748
  0
LWPOLYLINE
  5
CE
330
A1
100
AcDbEntity
  8
AM_9
100
AcDbPolyline
 90
       15
 70
     0
 43
0.0
 10
-0.7419576636362079
 20
-0.1278176182056524
 10
-0.7447650438235199
 20
-0.1302397468818931
 10
-0.7548806551478344
 20
-0.1410943480367947
 10
-0.7633696188100779
 20
-0.1539964884251281
 10
-0.7700165042641591
 20
-0.1685280020218948
 10
-0.7746355147590648
 20
-0.1843005137788018
 10
-0.7771427724656446
 20
-0.2008499862626308
 10
-0.7774518090499032
 20
-0.2176623003451255
 10
-0.7755947915206168
 20
-0.2343057188722586
 10
-0.7715943588991215
 20
-0.2502796276002979
 10
-0.7655720785018058
 20
-0.2651694752983554
 10
-0.7576247638986998
 20
-0.2785682563352823
 10
-0.747980830297805
 20
-0.2900872246682286
 10
-0.7368273471859026
 20
-0.2993934053461937
 10
-0.7330581399247357
 20
-0.3018308673431782
  0
LWPOLYLINE
  5
CF
330
A1
100
AcDbEntity
  8
AM_9
100
AcDbPolyline
 90
        5
 70
     0
 43
0.0
 10
-0.6980348447065551
 20
-0.1116844373609955
 10
-0.7073637108262308
 20
-0.1123382641928881
 10
-0.7206942481134511
 20
-0.1156591339944207
 10
-0.7332724946215142
 20
-0.1216673698309539
 10
-0.7419576636362079
 20
-0.1278176182056524
  0
LWPOLYLINE
  5
D0
330
A1
100
AcDbEntity
  8
AM_9
100
AcDbPolyline
 90
       12
 70
     0
 43
0.0
 10
-0.6980396081808308
 20
-0.3116844368583748
 10
-0.6975959454541181
 20
-0.3116829513218526
 10
-0.6838172299783022
 20
-0.3101701068202732
 10
-0.6703149915652551
 20
-0.3058971213049845
 10
-0.6574936725984654
 20
-0.2989493390058728
 10
-0.645726602394424
 20
-0.2895597453684667
 10
-0.6353628695195661
 20
-0.2779240985074073
 10
-0.6267418900123085
 20
-0.264422664924881
 10
-0.6201588301289357
 20
-0.2493903202518058
 10
-0.6158116764656377
 20
-0.2332886906314937
 10
-0.6142814402530069
 20
-0.2225511230191823
 10
-0.61376680963183
 20
-0.2116844369216841
  0
LWPOLYLINE
  5
D1
330
A1
100
AcDbEntity
  8
AM_9
100
AcDbPolyline
 90
       12
 70
     0
 43
0.0
 10
-0.7656231305183715
 20
-0.3116844365573114
 10
-0.7748607805581349
 20
-0.3110706715267058
 10
-0.7876960093858515
 20
-0.3082958808284458
 10
-0.8008575466686488
 20
-0.3032259382261271
 10
-0.8136504374844967
 20
-0.296049419471193
 10
-0.825917557300539
 20
-0.2867439906427048
 10
-0.8376422465079046
 20
-0.2748607408037024
 10
-0.847709641274335
 20
-0.2607878580346232
 10
-0.854130981947085
 20
-0.2478171666125634
 10
-0.8584354069948716
 20
-0.2335737699097889
 10
-0.8597674492563863
 20
-0.2245154710625735
 10
-0.8600283379655599
 20
-0.2152431314986136
  0
LWPOLYLINE
  5
D2
330
A1
100
AcDbEntity
  8
AM_9
100
AcDbPolyline
 90
       13
 70
     0
 43
0.0
 10
-0.7977852767680637
 20
-0.1116844369243117
 10
-0.7986088590178997
 20
-0.1116895932654624
 10
-0.8037035965767372
 20
-0.1119857347272145
 10
-0.8082128339962026
 20
-0.1127365704943246
 10
-0.8163167563639618
 20
-0.1157041422146029
 10
-0.8236389198531866
 20
-0.1205573100745988
 10
-0.8315990410956271
 20
-0.1284564605463782
 10
-0.8392682264279818
 20
-0.1391119252322247
 10
-0.8460859102378939
 20
-0.1519926074990882
 10
-0.8520223957283549
 20
-0.1674855000954159
 10
-0.855952865214322
 20
-0.1821526248329405
 10
-0.8586924758983335
 20
-0.1981307770319777
 10
-0.8600283379655599
 20
-0.2152431314986135
  0
LINE
  5
D3
330
A1
100
AcDbEntity
  8
AM_9
100
AcDbLine
 10
-1.150827950747731
 20
-0.296875
 30
0.0
 11
-1.150827950747731
 21
0.59375
 31
0.0
  0
LINE
  5
D4
330
A1
100
AcDbEntity
  8
AM_9
100
AcDbLine
 10
1.150827950747731
 20
0.59375
 30
0.0
 11
1.150827950747731
 21
-0.296875
 31
0.0
  0
LWPOLYLINE
  5
D5
330
A1
100
AcDbEntity
  8
AM_9
100
AcDbPolyline
 90
       11
 70
     0
 43
0.0
 10
-0.61376680963183
 20
-0.2116844369216841
 10
-0.6150004887362996
 20
-0.1949293053453195
 10
-0.6186243131066891
 20
-0.1786472299242848
 10
-0.624551411255327
 20
-0.1633113681561541
 10
-0.6325566531976168
 20
-0.1493355280032105
 10
-0.6424337884195452
 20
-0.137109807202245
 10
-0.6538327093316354
 20
-0.126982968580104
 10
-0.6664375946757507
 20
-0.1192636872814496
 10
-0.6798358428755084
 20
-0.1141538655844711
 10
-0.6936020220928832
 20
-0.1118411383202699
 10
-0.6980348447065551
 20
-0.1116844373609955
  0
LINE
  5
D6
330
A1
100
AcDbEntity
  8
AM_9
100
AcDbLine
 10
1.217
 20
-0.59375
 30
0.0
 11
1.217
 21
-0.296875
 31
0.0
  0
LINE
  5
D7
330
A1
100
AcDbEntity
  8
AM_9
100
AcDbLine
 10
-1.217
 20
-0.296875
 30
0.0
 11
-1.217
 21
-0.59375
 31
0.0
  0
ELLIPSE
  5
D8
330
A1
100
AcDbEntity
  8
AM_9
100
AcDbEllipse
 10
-0.9442781872233683
 20
-0.2116844369216841
 30
0.0
 11
-4.707848945648260E-18
 21
-0.0256283359900234
 31
0.0
210
0.0
220
0.0
230
1.0
 40
0.8191520442889887
 41
0.8348136984626873
 42
5.448371608716892
  0
LWPOLYLINE
  5
D9
330
A1
100
AcDbEntity
  8
AM_9
100
AcDbPolyline
 90
       12
 70
     0
 43
0.0
 10
-0.8874009358670896
 20
-0.1679513117097245
 10
-0.890221441038305
 20
-0.1651970746035184
 10
-0.9018378602837748
 20
-0.1555856971846311
 10
-0.9081388537743074
 20
-0.1515786515972641
 10
-0.914726303379542
 20
-0.1483300733103876
 10
-0.9237532955498612
 20
-0.145467867231838
 10
-0.933363304415922
 20
-0.1444462440914072
 10
-0.9426846560655607
 20
-0.1454413371350974
 10
-0.9519781699453591
 20
-0.1484081618262196
 10
-0.9604965508357176
 20
-0.1529823508061589
 10
-0.9683760784967609
 20
-0.1590608442149036
 10
-0.9766015130006772
 20
-0.1679513117098832
  0
LWPOLYLINE
  5
DA
330
A1
100
AcDbEntity
  8
AM_9
100
AcDbPolyline
 90
       14
 70
     0
 43
0.0
 10
-0.6963017019038567
 20
-0.2152431314986177
 10
-0.6960142918835577
 20
-0.2032317047643163
 10
-0.6973512892362256
 20
-0.191092635234112
 10
-0.7011971546452439
 20
-0.1766620335600295
 10
-0.7075625243572106
 20
-0.1627251363416688
 10
-0.715929988967463
 20
-0.1503506008674712
 10
-0.7264404183410167
 20
-0.1392155318116124
 10
-0.7388928067292105
 20
-0.1296548116104467
 10
-0.7530023024123822
 20
-0.1219371158996403
 10
-0.7692948745816945
 20
-0.115992884697084
 10
-0.7778426381492672
 20
-0.1139096065919776
 10
-0.786448988836911
 20
-0.1124702208397979
 10
-0.7926792486633758
 20
-0.1118598048886037
 10
-0.7977852767680637
 20
-0.1116844369243117
  0
ELLIPSE
  5
DB
330
A1
100
AcDbEntity
  8
AM_9
100
AcDbEllipse
 10
-0.8381511646060833
 20
-0.0984315453252801
 30
0.0
 11
-0.05844777658844936
 21
0.005911232852559081
 31
0.0
210
0.0
220
0.0
230
1.0
 40
0.142244259722924
 41
0.0
 42
6.283185307179586
  0
LWPOLYLINE
  5
DC
330
A1
100
AcDbEntity
  8
AM_9
100
AcDbPolyline
 90
       27
 70
     0
 43
0.0
 10
-0.8382524631531404
 20
-0.0890014505358454
 10
-0.8428620158196588
 20
-0.0885658155172729
 10
-0.8515954108390408
 20
-0.0878568144540257
 10
-0.8602807209641721
 20
-0.0873079075053213
 10
-0.8689318118489645
 20
-0.086927414443672
 10
-0.8776039123484807
 20
-0.086731512624313
 10
-0.8864386450862519
 20
-0.0867531762499364
 10
-0.8957816430268783
 20
-0.0870697632654333
 10
-0.9065658701162372
 20
-0.0879120885874447
 10
-0.9146418366922006
 20
-0.0889694608739266
 10
-0.9219989932801521
 20
-0.0903251462177059
 10
-0.9291910048987964
 20
-0.0920738229146096
 10
-0.9364109618447589
 20
-0.0943094817908221
 10
-0.9436661451025824
 20
-0.0971024445933979
 10
-0.9509497775271769
 20
-0.1005280106098328
 10
-0.9581581409573297
 20
-0.1046177443183287
 10
-0.9651619070047259
 20
-0.1093666422490206
 10
-0.9718450650241334
 20
-0.1147485285363515
 10
-0.9781122316811451
 20
-0.1207254202689756
 10
-0.9838854590386745
 20
-0.1272516172741885
 10
-0.9891005656561086
 20
-0.1342758998407577
 10
-0.9937052735413408
 20
-0.1417444053436439
 10
-0.9976555626133051
 20
-0.1495993552831093
 10
-1.000914946573807
 20
-0.1577797973255166
 10
-1.003671372149587
 20
-0.1670947224192347
 10
-1.005500346051613
 20
-0.176480567652364
 10
-1.00567955824988
 20
-0.1777635152079941
  0
LWPOLYLINE
  5
DD
330
A1
100
AcDbEntity
  8
AM_9
100
AcDbPolyline
 90
       27
 70
     0
 43
0.0
 10
-0.6898986124213939
 20
-0.209686545221175
 10
-0.6896791742506679
 20
-0.2006035937472355
 10
-0.6902791535263813
 20
-0.1915012193988496
 10
-0.6916677074970357
 20
-0.182627958396323
 10
-0.6937975705820577
 20
-0.1740432634964955
 10
-0.6966178963436802
 20
-0.165801394447975
 10
-0.7000742709445554
 20
-0.1579511141544431
 10
-0.7041087213237236
 20
-0.1505354361002858
 10
-0.7086596066809044
 20
-0.1435914367681081
 10
-0.7136604230301851
 20
-0.1371511062974793
 10
-0.7190387771196811
 20
-0.1312407489705791
 10
-0.7247155955222234
 20
-0.1258797204768375
 10
-0.7306044615700098
 20
-0.1210789381048317
 10
-0.7366170431305606
 20
-0.1168354137956171
 10
-0.7426822141686016
 20
-0.1131223751063699
 10
-0.7487833736364624
 20
-0.1098787244325431
 10
-0.7549781464129232
 20
-0.1070180020558251
 10
-0.7614461974743935
 20
-0.1044274938685077
 10
-0.7686247640659284
 20
-0.1019480931174654
 10
-0.777437073642782
 20
-0.0993614104859357
 10
-0.7869782444594815
 20
-0.0970005691261566
 10
-0.7956191362897685
 20
-0.0951679352487979
 10
-0.8039508036627411
 20
-0.0936221427322527
 10
-0.812939412612716
 20
-0.092160004560177
 10
-0.8217870355185258
 20
-0.0909039039075948
 10
-0.8305815869274018
 20
-0.0898197669749528
 10
-0.8382524631531404
 20
-0.0890014505358454
  0
LWPOLYLINE
  5
DE
330
A1
100
AcDbEntity
  8
AM_9
100
AcDbPolyline
 90
        6
 70
     0
 43
0.0
 10
-0.9598379730446739
 20
-0.2288891431764981
 10
-0.9526479425236803
 20
-0.2294096344967543
 10
-0.9426576858112793
 20
-0.2297226440310976
 10
-0.940234773296067
 20
-0.229618993012229
 10
-0.9345493654283619
 20
-0.2292257524689819
 10
-0.9287184014020629
 20
-0.2288891431764981
  0
LWPOLYLINE
  5
DF
330
A1
100
AcDbEntity
  8
AM_9
100
AcDbPolyline
 90
       13
 70
     0
 43
0.0
 10
-0.8874009358670896
 20
-0.1679513117097245
 10
-0.8804832774510924
 20
-0.1769608952990528
 10
-0.8782849149881162
 20
-0.1816391382591846
 10
-0.87683880730452
 20
-0.1867696450695771
 10
-0.8763685145545868
 20
-0.1919877760742604
 10
-0.8769707314478096
 20
-0.1974370395477902
 10
-0.8803881407811038
 20
-0.2059884460849401
 10
-0.8862583106879418
 20
-0.2132847621315269
 10
-0.8917185722357505
 20
-0.2177360996449347
 10
-0.8978993388640842
 20
-0.2214239028199607
 10
-0.9064717914097644
 20
-0.2250182495736324
 10
-0.9154807194752673
 20
-0.2274116650865357
 10
-0.9287184014020629
 20
-0.2288891431764981
  0
ELLIPSE
  5
E0
330
A1
100
AcDbEntity
  8
AM_9
100
AcDbEllipse
 10
-0.8478000996621331
 20
-0.1938361444231953
 30
0.0
 11
0.1578916826749462
 21
-0.01596869130447749
 31
0.0
210
0.0
220
0.0
230
1.0
 40
0.142244259723899
 41
6.011673716160104
 42
8.121857055033605
  0
LWPOLYLINE
  5
E1
330
A1
100
AcDbEntity
  8
AM_9
100
AcDbPolyline
 90
       12
 70
     0
 43
0.0
 10
-0.6963017019038718
 20
-0.2152431314986115
 10
-0.697315281644476
 20
-0.2247088084213492
 10
-0.6993148142143226
 20
-0.2378845093810179
 10
-0.7021107108871109
 20
-0.2508539475041421
 10
-0.7057529108410111
 20
-0.2630338497722046
 10
-0.710414507155836
 20
-0.2743800930357172
 10
-0.7171144058808424
 20
-0.2859638559692261
 10
-0.7255301908920992
 20
-0.2958953840199559
 10
-0.73599620606455
 20
-0.3038827099217136
 10
-0.7485633289228197
 20
-0.3093184351762883
 10
-0.761052451993753
 20
-0.3115251548467787
 10
-0.7656231305183715
 20
-0.3116844365573114
  0
ELLIPSE
  5
E2
330
A1
100
AcDbEntity
  8
AM_9
100
AcDbEllipse
 10
-0.8478000996621107
 20
-0.1938361444231964
 30
0.0
 11
0.157891682674981
 21
-0.01596869130448029
 31
0.0
210
0.0
220
0.0
230
1.0
 40
0.14224425972294
 41
2.539074205482635
 42
4.649257544356227
  0
LWPOLYLINE
  5
E3
330
A1
100
AcDbEntity
  8
AM_9
100
AcDbPolyline
 90
       14
 70
     0
 43
0.0
 10
-0.9598379730446739
 20
-0.2288891431764981
 10
-0.9668517657446494
 20
-0.2281432835533393
 10
-0.9726363015398476
 20
-0.2265124909105248
 10
-0.9777146496430416
 20
-0.2238418318655823
 10
-0.9819895392666487
 20
-0.2199452707499655
 10
-0.9852523571581514
 20
-0.2147075920128243
 10
-0.986637689848669
 20
-0.2108568904698541
 10
-0.9875350721955324
 20
-0.2064847591958706
 10
-0.987889508577876
 20
-0.2015834760046509
 10
-0.9876700735700754
 20
-0.1963377837327802
 10
-0.9859706079129055
 20
-0.1870951356939068
 10
-0.9829357230809478
 20
-0.1785825224999376
 10
-0.9799985509390666
 20
-0.1729376504371201
 10
-0.9766015130006772
 20
-0.1679513117098832
  0
LINE
  5
E4
330
A1
100
AcDbEntity
  8
AM_9
100
AcDbLine
 10
-1.005679988896007
 20
-0.1777667494656828
 30
0.0
 11
-1.049291563249642
 21
-0.5053406999421707
 31
0.0
  0
LINE
  5
E5
330
A1
100
AcDbEntity
  8
AM_9
100
AcDbLine
 10
-0.7127601854564218
 20
-0.5393764743110689
 30
0.0
 11
-0.6898998081232481
 21
-0.2097038099960549
 31
0.0
  0
ELLIPSE
  5
E6
330
A1
100
AcDbEntity
  8
AM_9
100
AcDbEllipse
 10
-0.8810367458646683
 20
-0.522466080047158
 30
0.0
 11
0.1682673858209266
 21
-0.01701805880628546
 31
0.0
210
0.0
220
0.0
230
1.0
 40
0.1422442597229245
 41
5.865490636480858
 42
9.817246324556093
  0
LINE
  5
E7
330
A1
100
AcDbEntity
  8
AM_9
100
AcDbLine
 10
-1.046953258639114
 20
-0.501986806107758
 30
0.0
 11
-1.074934735377646
 21
-0.5229231618672936
 31
0.0
  0
LINE
  5
E8
330
A1
100
AcDbEntity
  8
AM_9
100
AcDbLine
 10
-0.6879515291760747
 20
-0.5653417237042175
 30
0.0
 11
-0.7143796022202683
 21
-0.5356223084051589
 31
0.0
  0
LINE
  5
E9
330
A1
100
AcDbEntity
  8
AM_7
100
AcDbLine
 10
-0.2625
 20
0.0000000000000001
 30
0.0
 11
0.2625
 21
0.0000000000000001
 31
0.0
  0
LINE
  5
EB
330
A1
100
AcDbEntity
  8
AM_4
100
AcDbLine
 10
-1.5
 20
-0.5937499999999999
 30
0.0
 11
-1.5
 21
0.59375
 31
0.0
  0
LINE
  5
EC
330
A1
100
AcDbEntity
  8
AM_4
100
AcDbLine
 10
1.460416666666667
 20
-0.5937499999999999
 30
0.0
 11
1.460416666666667
 21
0.59375
 31
0.0
  0
LINE
  5
ED
330
A1
100
AcDbEntity
  8
AM_4
100
AcDbLine
 10
1.5
 20
-0.5937499999999999
 30
0.0
 11
1.5
 21
0.59375
 31
0.0
  0
LINE
  5
EE
330
A1
100
AcDbEntity
  8
AM_4
100
AcDbLine
 10
-1.460416666666667
 20
-0.5937499999999999
 30
0.0
 11
-1.460416666666667
 21
0.59375
 31
0.0
  0
ELLIPSE
  5
EF
330
A1
100
AcDbEntity
  8
AM_4
100
AcDbEllipse
 10
-0.8810367458646682
 20
-0.5224660800471577
 30
0.0
 11
0.1682673858209263
 21
-0.01701805880628634
 31
0.0
210
0.0
220
0.0
230
1.0
 40
0.1422442597229246
 41
3.534061017376555
 42
5.865490636480879
  0
LWPOLYLINE
  5
F0
330
A1
100
AcDbEntity
  8
AM_4
100
AcDbPolyline
 90
       28
 70
     0
 43
0.0
 10
-0.6878629356834145
 20
-0.5654413506382207
 10
-0.6884498521528749
 20
-0.5648341412424763
 10
-0.6931560499611967
 20
-0.5612181034730684
 10
-0.7003383196196432
 20
-0.5574258192444816
 10
-0.7098420465562649
 20
-0.5535503843928846
 10
-0.7214893416239159
 20
-0.5496658434992231
 10
-0.7353131439718179
 20
-0.5457800560367424
 10
-0.751074853931258
 20
-0.5419559851045651
 10
-0.7684799823734184
 20
-0.5382615917159299
 10
-0.7873638389308107
 20
-0.5347332958827363
 10
-0.8075483286832679
 20
-0.5313908334846612
 10
-0.8286504018328813
 20
-0.5282907589875435
 10
-0.8503017876814327
 20
-0.525480697125546
 10
-0.8724508322277744
 20
-0.5229505448371239
 10
-0.8946716846216654
 20
-0.5207417654456115
 10
-0.9165068796442988
 20
-0.5188920990287018
 10
-0.9379892627569164
 20
-0.5173833734364133
 10
-0.9587049626681937
 20
-0.516239734907172
 10
-0.978255027010091
 20
-0.51547875364759
 10
-0.9966665827922836
 20
-0.5150878440540279
 10
-1.013589219614277
 20
-0.5150730860243329
 10
-1.028768562619218
 20
-0.5154365247535594
 10
-1.042171905558512
 20
-0.5161701675349244
 10
-1.053551007049931
 20
-0.5172625228244638
 10
-1.062783743328271
 20
-0.5187132202234634
 10
-1.069803957115301
 20
-0.5205075599488193
 10
-1.074488576794332
 20
-0.5226176381490599
 10
-1.075031559932808
 20
-0.5229956081282839
  0
LWPOLYLINE
  5
F1
330
A1
100
AcDbEntity
  8
AM_4
100
AcDbPolyline
 90
        9
 70
     0
 43
0.0
 10
-1.075031559932808
 20
-0.5229956081282839
 10
-1.076776246363267
 20
-0.5250509305660466
 10
-1.076648825737292
 20
-0.5277747526507833
 10
-1.074117475644319
 20
-0.5307460631787113
 10
-1.069123161823914
 20
-0.5339796074931671
 10
-1.061765902311929
 20
-0.5374219976483003
 10
-1.052188459943161
 20
-0.541016356734665
 10
-1.037959540666039
 20
-0.545468365822433
 10
-1.020965295534246
 20
-0.5500270867510167
  0
LINE
  5
F2
330
A1
100
AcDbEntity
  8
AM_4
100
AcDbLine
 10
1.187832307255915
 20
-0.2216666666666885
 30
0.0
 11
1.187832307256205
 21
-0.5195312500000002
 31
0.0
  0
LINE
  5
F3
330
A1
100
AcDbEntity
  8
AM_4
100
AcDbLine
 10
-1.187832307255691
 20
0.2216666666667099
 30
0.0
 11
-1.187832307256205
 21
0.5195312500000003
 31
0.0
  0
LINE
  5
F4
330
A1
100
AcDbEntity
  8
AM_4
100
AcDbLine
 10
1.187832307256381
 20
0.519531249999955
 30
0.0
 11
1.187832307256205
 21
0.2216666666666661
 31
0.0
  0
LWPOLYLINE
  5
F5
330
A1
100
AcDbEntity
  8
AM_4
100
AcDbPolyline
 90
       11
 70
     0
 43
0.0
 10
1.098256597831231
 20
-0.5937499999999999
 10
1.102826982727507
 20
-0.5936556272286622
 10
1.121021976507513
 20
-0.5913588701098618
 10
1.139078374479112
 20
-0.5857105074159705
 10
1.151974583736438
 20
-0.5790858216703556
 10
1.163921117031977
 20
-0.5702012765883296
 10
1.172387677858619
 20
-0.5613816144853003
 10
1.179468442292356
 20
-0.5510082132207733
 10
1.184455560849452
 20
-0.5398310990891492
 10
1.187324636395886
 20
-0.5274684864961674
 10
1.187832307256205
 20
-0.5195312500000002
  0
LINE
  5
F6
330
A1
100
AcDbEntity
  8
AM_4
100
AcDbLine
 10
0.5937499999999999
 20
-0.5195312500000002
 30
0.0
 11
1.187832307256205
 21
-0.5195312500000002
 31
0.0
  0
LINE
  5
F7
330
A1
100
AcDbEntity
  8
AM_4
100
AcDbLine
 10
-1.187832307256205
 20
0.5195312500000003
 30
0.0
 11
-0.59375
 21
0.5195312500000003
 31
0.0
  0
LWPOLYLINE
  5
F8
330
A1
100
AcDbEntity
  8
AM_4
100
AcDbPolyline
 90
       12
 70
     0
 43
0.0
 10
-1.098256599183077
 20
0.59375
 10
-1.098683322355526
 20
0.5937491788499609
 10
-1.116891269637339
 20
0.5921585232243598
 10
-1.135086585078931
 20
0.5872859216459194
 10
-1.148589321201698
 20
0.5810766666469853
 10
-1.161219577887369
 20
0.5725074903319005
 10
-1.171425425000908
 20
0.562534906993467
 10
-1.178041043696242
 20
0.5534412938536013
 10
-1.183233530677566
 20
0.5431360037989615
 10
-1.186498658762359
 20
0.5323651381077854
 10
-1.187819058541256
 20
0.5208153114618366
 10
-1.187832307256205
 20
0.5195312500000003
  0
LINE
  5
F9
330
A1
100
AcDbEntity
  8
AM_4
100
AcDbLine
 10
0.59375
 20
0.5195312500000041
 30
0.0
 11
1.187832307256381
 21
0.519531249999955
 31
0.0
  0
LWPOLYLINE
  5
FA
330
A1
100
AcDbEntity
  8
AM_4
100
AcDbPolyline
 90
       12
 70
     0
 43
0.0
 10
1.187832307256381
 20
0.519531249999955
 10
1.187346263989348
 20
0.527298063111575
 10
1.185871398900144
 20
0.5350648762231958
 10
1.182496147868339
 20
0.5449025763006552
 10
1.177490090767723
 20
0.5543237772895468
 10
1.170845565429093
 20
0.5632079176930819
 10
1.162786611864473
 20
0.5711944517152946
 10
1.152635198219938
 20
0.5786737040676941
 10
1.141280609802363
 20
0.5847527114002123
 10
1.127425062356862
 20
0.5897741776661628
 10
1.112673089038547
 20
0.5928028139494315
 10
1.098256599183077
 20
0.59375
  0
LINE
  5
FB
330
A1
100
AcDbEntity
  8
AM_4
100
AcDbLine
 10
-1.187832307255691
 20
0.2216666666667099
 30
0.0
 11
-0.59375
 21
0.2216666666666661
 31
0.0
  0
LWPOLYLINE
  5
FC
330
A1
100
AcDbEntity
  8
AM_4
100
AcDbPolyline
 90
        7
 70
     0
 43
0.0
 10
-1.216059751545238
 20
0.1979166666666667
 10
-1.20840227057068
 20
0.1988117935673673
 10
-1.203182255842451
 20
0.2005425043960329
 10
-1.198203859214397
 20
0.2032877691620678
 10
-1.19209607526529
 20
0.2091323052332545
 10
-1.188432652256583
 20
0.2168026657719787
 10
-1.187832307255691
 20
0.2216666666667099
  0
LWPOLYLINE
  5
FD
330
A1
100
AcDbEntity
  8
AM_4
100
AcDbPolyline
 90
        7
 70
     0
 43
0.0
 10
1.216059751545238
 20
-0.1979166666666666
 10
1.20782975940483
 20
-0.1989536607643892
 10
1.202649233376282
 20
-0.2007791071550778
 10
1.197730401262104
 20
-0.203620827855136
 10
1.191809756167846
 20
-0.2095276126211201
 10
1.188338099154144
 20
-0.2171983636147465
 10
1.187832307255915
 20
-0.2216666666666885
  0
LINE
  5
FE
330
A1
100
AcDbEntity
  8
AM_4
100
AcDbLine
 10
0.59375
 20
-0.2216666666666665
 30
0.0
 11
1.187832307255915
 21
-0.2216666666666885
 31
0.0
  0
LWPOLYLINE
  5
FF
330
A1
100
AcDbEntity
  8
AM_4
100
AcDbPolyline
 90
        7
 70
     0
 43
0.0
 10
1.187832307256205
 20
0.2216666666666661
 10
1.188338099154144
 20
0.2171983636147466
 10
1.191297994139924
 20
0.2102808296752748
 10
1.196313176414118
 20
0.2047121928133331
 10
1.203395553986224
 20
0.2004512117444101
 10
1.212715058931844
 20
0.1980849922929392
 10
1.216059751545227
 20
0.1979166666665597
  0
LINE
  5
100
330
A1
100
AcDbEntity
  8
AM_4
100
AcDbLine
 10
0.5937499999999999
 20
0.2216666666666661
 30
0.0
 11
1.187832307256205
 21
0.2216666666666661
 31
0.0
  0
LINE
  5
101
330
A1
100
AcDbEntity
  8
AM_4
100
AcDbLine
 10
-0.8280312548579581
 20
-0.5937499999999999
 30
0.0
 11
-1.395668478156306
 21
-0.5121345082965195
 31
0.0
  0
LWPOLYLINE
  5
102
330
A1
100
AcDbEntity
  8
AM_4
100
AcDbPolyline
 90
       24
 70
     0
 43
0.0
 10
-1.020965295534246
 20
-0.5500270867510167
 10
-1.007333682998638
 20
-0.5532958393712855
 10
-0.9925375466285535
 20
-0.5565591511003793
 10
-0.9767709665382118
 20
-0.5597729447275643
 10
-0.9567616519478499
 20
-0.5635197919120826
 10
-0.9356975830368683
 20
-0.5671194873459634
 10
-0.913975370121994
 20
-0.5704943903101507
 10
-0.8919022065116544
 20
-0.5735830814440183
 10
-0.8695897632500071
 20
-0.5763625524896386
 10
-0.8474672715422177
 20
-0.5787646555387465
 10
-0.8260290490177215
 20
-0.5807223805314444
 10
-0.8051956156748942
 20
-0.5822428190419052
 10
-0.7853736347032305
 20
-0.5832850762474064
 10
-0.7670532718846467
 20
-0.5838173003720837
 10
-0.7500824784960624
 20
-0.5838582716924502
 10
-0.7347861274975986
 20
-0.5834067569923853
 10
-0.7214380866094766
 20
-0.5824718098082159
 10
-0.7100014081781023
 20
-0.5810760504737222
 10
-0.7006820549612224
 20
-0.5792554927509922
 10
-0.6935576070080788
 20
-0.5770205983646367
 10
-0.6887064117059595
 20
-0.574419731668977
 10
-0.6862059292661706
 20
-0.5715137752036606
 10
-0.686116161800067
 20
-0.5682902410576137
 10
-0.6878629356834145
 20
-0.5654413506382207
  0
LINE
  5
103
330
A1
100
AcDbEntity
  8
AM_4
100
AcDbLine
 10
1.418055177344991
 20
0.0989583333333333
 30
0.0
 11
1.418055177344991
 21
-0.0989583333333337
 31
0.0
  0
LINE
  5
104
330
A1
100
AcDbEntity
  8
AM_4
100
AcDbLine
 10
-1.418055177345183
 20
-0.4887453241624524
 30
0.0
 11
-1.418055177344991
 21
0.0989583333333336
 31
0.0
  0
LINE
  5
105
330
A1
100
AcDbEntity
  8
AM_4
100
AcDbLine
 10
-1.395668478156306
 20
-0.5121345082965195
 30
0.0
 11
-0.59375
 21
-0.5121345082965196
 31
0.0
  0
LINE
  5
106
330
A1
100
AcDbEntity
  8
AM_4
100
AcDbLine
 10
-1.418055177345183
 20
-0.4887453241624524
 30
0.0
 11
-0.59375
 21
-0.4887453241624798
 31
0.0
  0
LWPOLYLINE
  5
107
330
A1
100
AcDbEntity
  8
AM_4
100
AcDbPolyline
 90
        7
 70
     0
 43
0.0
 10
-1.418055177345183
 20
-0.4887453241624524
 10
-1.41747045089096
 20
-0.4936574431554639
 10
-1.416661887835114
 20
-0.4962700828765463
 10
-1.41257057782494
 20
-0.5030814155284948
 10
-1.406523671322005
 20
-0.50819377491127
 10
-1.398557957145826
 20
-0.5115443915356127
 10
-1.395668478156306
 20
-0.5121345082965195
  0
LINE
  5
108
330
A1
100
AcDbEntity
  8
AM_4
100
AcDbLine
 10
-1.418055177344991
 20
0.0989583333333336
 30
0.0
 11
-0.59375
 21
0.0989583333333336
 31
0.0
  0
LINE
  5
109
330
A1
100
AcDbEntity
  8
AM_4
100
AcDbLine
 10
-1.304270020487382
 20
0.1979166666666669
 30
0.0
 11
-0.59375
 21
0.1979166666666669
 31
0.0
  0
LWPOLYLINE
  5
10A
330
A1
100
AcDbEntity
  8
AM_4
100
AcDbPolyline
 90
       14
 70
     0
 43
0.0
 10
-1.304270020487382
 20
0.1979166666666669
 10
-1.319471017023304
 20
0.197045643260438
 10
-1.334672013559226
 20
0.1943742890671187
 10
-1.345237784902003
 20
0.1913693471159647
 10
-1.355497211692691
 20
0.1874462105598592
 10
-1.365692241261543
 20
0.182418587006576
 10
-1.37534718082069
 20
0.1764214465368873
 10
-1.389660966550219
 20
0.1645720747836353
 10
-1.396149101499337
 20
0.1575433184262564
 10
-1.401987941816138
 20
0.1498566724308724
 10
-1.409473943597439
 20
0.1368249762160551
 10
-1.414859816951808
 20
0.1223553812076228
 10
-1.417235532937591
 20
0.1108725279695736
 10
-1.418055177344991
 20
0.0989583333333336
  0
LINE
  5
10B
330
A1
100
AcDbEntity
  8
AM_4
100
AcDbLine
 10
0.59375
 20
-0.1979166666667193
 30
0.0
 11
1.304270020487382
 21
-0.1979166666666666
 31
0.0
  0
LWPOLYLINE
  5
10C
330
A1
100
AcDbEntity
  8
AM_4
100
AcDbPolyline
 90
       15
 70
     0
 43
0.0
 10
1.304270020487382
 20
-0.1979166666666666
 10
1.318245864895088
 20
-0.1971810704698476
 10
1.329215107790133
 20
-0.1955479943501907
 10
1.340003835522296
 20
-0.1929825124740648
 10
1.350861408931612
 20
-0.1893490710953121
 10
1.361331733259312
 20
-0.1847191987169769
 10
1.37046372431271
 20
-0.1796212533955637
 10
1.379090019339688
 20
-0.1737096966922658
 10
1.387406871121218
 20
-0.1667292671619674
 10
1.39496141075198
 20
-0.1589324134470416
 10
1.405594454169899
 20
-0.1441720445048024
 10
1.40995828971869
 20
-0.1357790705127414
 10
1.413440321013983
 20
-0.1269845309679512
 10
1.416857993428745
 20
-0.1133450069649987
 10
1.418055177344991
 20
-0.0989583333333337
  0
LINE
  5
10D
330
A1
100
AcDbEntity
  8
AM_4
100
AcDbLine
 10
0.5937499999999999
 20
-0.0989583333333336
 30
0.0
 11
1.418055177344991
 21
-0.0989583333333337
 31
0.0
  0
LINE
  5
10E
330
A1
100
AcDbEntity
  8
AM_4
100
AcDbLine
 10
0.59375
 20
0.0989583333333334
 30
0.0
 11
1.418055177344991
 21
0.0989583333333333
 31
0.0
  0
LWPOLYLINE
  5
10F
330
A1
100
AcDbEntity
  8
AM_4
100
AcDbPolyline
 90
       12
 70
     0
 43
0.0
 10
1.418055177344991
 20
0.0989583333333333
 10
1.41802751979136
 20
0.1011508215142339
 10
1.416436583987611
 20
0.1156705056674807
 10
1.412317958800944
 20
0.1301264098254344
 10
1.406060862921189
 20
0.1433671070953527
 10
1.397599872322207
 20
0.1557743043605885
 10
1.386866168695672
 20
0.1672303917584313
 10
1.37424593362354
 20
0.1771751696526209
 10
1.359023260181902
 20
0.1858441596153474
 10
1.342307570690442
 20
0.1923036052487997
 10
1.323708897791527
 20
0.1964870507556951
 10
1.304270020487382
 20
0.1979166666666669
  0
LINE
  5
110
330
A1
100
AcDbEntity
  8
AM_4
100
AcDbLine
 10
0.59375
 20
0.1979166666666669
 30
0.0
 11
1.304270020487382
 21
0.1979166666666669
 31
0.0
  0
LINE
  5
111
330
A1
100
AcDbEntity
  8
AM_4
100
AcDbLine
 10
0.59375
 20
-0.5937499999999999
 30
0.0
 11
0.59375
 21
0.5937500000000001
 31
0.0
  0
LINE
  5
112
330
A1
100
AcDbEntity
  8
AM_4
100
AcDbLine
 10
1.5
 20
0.59375
 30
0.0
 11
-1.5
 21
0.59375
 31
0.0
  0
LINE
  5
113
330
A1
100
AcDbEntity
  8
AM_4
100
AcDbLine
 10
-0.5937500000000002
 20
-0.5937499999999999
 30
0.0
 11
-0.5937500000000002
 21
0.5937500000000001
 31
0.0
  0
LINE
  5
114
330
A1
100
AcDbEntity
  8
AM_4
100
AcDbLine
 10
1.5
 20
-0.5937499999999999
 30
0.0
 11
-1.5
 21
-0.5937499999999999
 31
0.0
  0
CIRCLE
  5
115
330
A1
100
AcDbEntity
  8
AM_4
100
AcDbCircle
 10
0.0
 20
0.0000000000000001
 30
0.0
 40
0.205
  0
LINE
  5
116
330
A1
100
AcDbEntity
  8
AM_4
100
AcDbLine
 10
-0.5541666666666667
 20
-0.5937499999999999
 30
0.0
 11
-0.5541666666666667
 21
0.5937500000000001
 31
0.0
  0
LINE
  5
117
330
A1
100
AcDbEntity
  8
AM_4
100
AcDbLine
 10
0.554166666666667
 20
-0.5937499999999999
 30
0.0
 11
0.554166666666667
 21
0.5937500000000001
 31
0.0
  0
CIRCLE
  5
119
330
A1
100
AcDbEntity
  8
AM_5
100
AcDbCircle
 10
0.0
 20
0.0000000000000001
 30
0.0
 40
0.25
  0
ENDBLK
  5
A4
330
A1
100
AcDbEntity
  8
0
100
AcDbBlockEnd
  0
ENDSEC
  0
SECTION
  2
ENTITIES
  0
INSERT
  5
6F
330
1F
100
AcDbEntity
  8
0
100
AcDbBlockReference
  2
1_033901_4
 10
0.0
 20
0.0
 30
0.0
  0
POINT
  5
11B
330
1F
100
AcDbEntity
  8
ConnectionPoints
100
AcDbPoint
 10
-0.878875613097582
 20
-0.5580855439007858
 30
1.255164455019566
  0
POINT
  5
11C
330
1F
100
AcDbEntity
  8
ConnectionPoints
100
AcDbPoint
 10
0.0
 20
0.0
 30
0.0
  0
ENDSEC
  0
SECTION
  2
OBJECTS
  0
DICTIONARY
  5
C
330
0
100
AcDbDictionary
281
     1
  3
ACAD_DETAILVIEWSTYLE
350
124
  3
ACAD_GROUP
350
D
  3
ACAD_LAYOUT
350
1A
  3
ACAD_MATERIAL
350
43
  3
ACAD_MLEADERSTYLE
350
6B
  3
ACAD_MLINESTYLE
350
17
  3
ACAD_PLOTSETTINGS
350
19
  3
ACAD_PLOTSTYLENAME
350
E
  3
ACAD_SCALELIST
350
47
  3
ACAD_SECTIONVIEWSTYLE
350
125
  3
ACAD_TABLESTYLE
350
69
  3
ACAD_VISUALSTYLE
350
2A
  3
ACDB_RECOMPOSE_DATA
350
121
  3
AcDbVariableDictionary
350
11D
  0
SUN
  5
6D
330
29
100
AcDbSun
 90
        1
290
     0
 63
     7
421
 16777215
 40
1.0
291
     1
 91
  2455826
 92
 54000000
292
     0
 70
     2
 71
   256
280
     1
  0
DICTIONARY
  5
124
102
{ACAD_REACTORS
330
C
102
}
330
C
100
AcDbDictionary
281
     1
  0
DICTIONARY
  5
D
102
{ACAD_REACTORS
330
C
102
}
330
C
100
AcDbDictionary
281
     1
  0
DICTIONARY
  5
1A
102
{ACAD_REACTORS
330
C
102
}
330
C
100
AcDbDictionary
281
     1
  3
Layout1
350
1E
  3
Layout2
350
26
  3
Model
350
22
  0
DICTIONARY
  5
43
102
{ACAD_REACTORS
330
C
102
}
330
C
100
AcDbDictionary
281
     1
  3
ByBlock
350
45
  3
ByLayer
350
44
  3
Global
350
46
  0
DICTIONARY
  5
6B
102
{ACAD_REACTORS
330
C
102
}
330
C
100
AcDbDictionary
281
     1
  3
Standard
350
6C
  0
DICTIONARY
  5
17
102
{ACAD_REACTORS
330
C
102
}
330
C
100
AcDbDictionary
281
     1
  3
Standard
350
18
  0
DICTIONARY
  5
19
102
{ACAD_REACTORS
330
C
102
}
330
C
100
AcDbDictionary
281
     1
  0
ACDBDICTIONARYWDFLT
  5
E
102
{ACAD_REACTORS
330
C
102
}
330
C
100
AcDbDictionary
281
     1
  3
Normal
350
F
100
AcDbDictionaryWithDefault
340
F
  0
DICTIONARY
  5
47
102
{ACAD_REACTORS
330
C
102
}
330
C
100
AcDbDictionary
281
     1
  3
A0
350
48
  3
A1
350
49
  3
A2
350
4A
  3
A3
350
4B
  3
A4
350
4C
  3
A5
350
4D
  3
A6
350
4E
  3
A7
350
4F
  3
A8
350
50
  3
A9
350
51
  3
B0
350
52
  3
B1
350
53
  3
B2
350
54
  3
B3
350
55
  3
B4
350
56
  3
B5
350
57
  3
B6
350
58
  3
B7
350
59
  3
B8
350
5A
  3
B9
350
5B
  3
C0
350
5C
  3
C1
350
5D
  3
C2
350
5E
  3
C3
350
5F
  3
C4
350
60
  3
C5
350
61
  3
C6
350
62
  3
C7
350
63
  3
C8
350
64
  3
C9
350
65
  3
D0
350
66
  3
D1
350
67
  3
D2
350
68
  0
DICTIONARY
  5
125
102
{ACAD_REACTORS
330
C
102
}
330
C
100
AcDbDictionary
281
     1
  0
DICTIONARY
  5
69
102
{ACAD_REACTORS
330
C
102
}
330
C
100
AcDbDictionary
281
     1
  3
Standard
350
6A
  0
DICTIONARY
  5
2A
102
{ACAD_REACTORS
330
C
102
}
330
C
100
AcDbDictionary
281
     1
  3
2dWireframe
350
2F
  3
Basic
350
32
  3
Brighten
350
36
  3
ColorChange
350
3A
  3
Conceptual
350
34
  3
Dim
350
35
  3
EdgeColorOff
350
3D
  3
Facepattern
350
39
  3
Flat
350
2B
  3
FlatWithEdges
350
2C
  3
Gouraud
350
2D
  3
GouraudWithEdges
350
2E
  3
Hidden
350
31
  3
JitterOff
350
3B
  3
Linepattern
350
38
  3
OverhangOff
350
3C
  3
Realistic
350
33
  3
Shaded
350
42
  3
Shaded with edges
350
41
  3
Shades of Gray
350
3E
  3
Sketchy
350
3F
  3
Thicken
350
37
  3
Wireframe
350
30
  3
X-Ray
350
40
  0
XRECORD
  5
121
102
{ACAD_REACTORS
330
C
102
}
330
C
100
AcDbXrecord
280
     1
 90
        1
330
6A
  0
DICTIONARY
  5
11D
102
{ACAD_REACTORS
330
C
102
}
330
C
100
AcDbDictionary
281
     1
  3
CANNOSCALE
350
11E
  3
CMLEADERSTYLE
350
123
  3
CTABLESTYLE
350
122
  0
LAYOUT
  5
1E
102
{ACAD_REACTORS
330
1A
102
}
330
1A
100
AcDbPlotSettings
  1

  2
none_device
  4

  6

 40
0.0
 41
0.0
 42
0.0
 43
0.0
 44
0.0
 45
0.0
 46
0.0
 47
0.0
 48
0.0
 49
0.0
140
0.0
141
0.0
142
1.0
143
1.0
 70
   688
 72
     0
 73
     0
 74
     5
  7

 75
    16
 76
     0
 77
     2
 78
   300
147
1.0
148
0.0
149
0.0
100
AcDbLayout
  1
Layout1
 70
     1
 71
     1
 10
0.0
 20
0.0
 11
12.0
 21
9.0
 12
0.0
 22
0.0
 32
0.0
 14
1.000000000000000E+20
 24
1.000000000000000E+20
 34
1.000000000000000E+20
 15
-1.000000000000000E+20
 25
-1.000000000000000E+20
 35
-1.000000000000000E+20
146
0.0
 13
0.0
 23
0.0
 33
0.0
 16
1.0
 26
0.0
 36
0.0
 17
0.0
 27
1.0
 37
0.0
 76
     0
330
1B
  0
LAYOUT
  5
26
102
{ACAD_REACTORS
330
1A
102
}
330
1A
100
AcDbPlotSettings
  1

  2
none_device
  4

  6

 40
0.0
 41
0.0
 42
0.0
 43
0.0
 44
0.0
 45
0.0
 46
0.0
 47
0.0
 48
0.0
 49
0.0
140
0.0
141
0.0
142
1.0
143
1.0
 70
   688
 72
     0
 73
     0
 74
     5
  7

 75
    16
 76
     0
 77
     2
 78
   300
147
1.0
148
0.0
149
0.0
100
AcDbLayout
  1
Layout2
 70
     1
 71
     2
 10
0.0
 20
0.0
 11
0.0
 21
0.0
 12
0.0
 22
0.0
 32
0.0
 14
0.0
 24
0.0
 34
0.0
 15
0.0
 25
0.0
 35
0.0
146
0.0
 13
0.0
 23
0.0
 33
0.0
 16
1.0
 26
0.0
 36
0.0
 17
0.0
 27
1.0
 37
0.0
 76
     0
330
23
  0
LAYOUT
  5
22
102
{ACAD_REACTORS
330
1A
102
}
330
1A
100
AcDbPlotSettings
  1

  2
none_device
  4
Letter_(8.50_x_11.00_Inches)
  6

 40
6.35
 41
6.35
 42
6.35000508
 43
6.35000508
 44
215.9
 45
279.4
 46
0.0
 47
0.0
 48
0.0
 49
0.0
140
0.0
141
0.0
142
1.0
143
1.0
 70
  1712
 72
     0
 73
     0
 74
     0
  7

 75
     0
 76
     0
 77
     2
 78
   300
147
1.0
148
0.0
149
0.0
100
AcDbLayout
  1
Model
 70
     1
 71
     0
 10
0.0
 20
0.0
 11
12.0
 21
9.0
 12
0.0
 22
0.0
 32
0.0
 14
1.000000000000000E+20
 24
1.000000000000000E+20
 34
1.000000000000000E+20
 15
-1.000000000000000E+20
 25
-1.000000000000000E+20
 35
-1.000000000000000E+20
146
0.0
 13
0.0
 23
0.0
 33
0.0
 16
1.0
 26
0.0
 36
0.0
 17
0.0
 27
1.0
 37
0.0
 76
     0
330
1F
331
29
  0
MATERIAL
  5
45
102
{ACAD_REACTORS
330
43
102
}
330
43
100
AcDbMaterial
  1
ByBlock
 72
     1
 94
      127
  0
MATERIAL
  5
44
102
{ACAD_REACTORS
330
43
102
}
330
43
100
AcDbMaterial
  1
ByLayer
 72
     1
 94
      127
  0
MATERIAL
  5
46
102
{ACAD_REACTORS
330
43
102
}
330
43
100
AcDbMaterial
  1
Global
 72
     1
 94
      127
  0
MLEADERSTYLE
  5
6C
102
{ACAD_REACTORS
330
6B
102
}
330
6B
100
AcDbMLeaderStyle
179
     2
170
     2
171
     1
172
     0
 90
        2
 40
0.0
 41
0.0
173
     1
 91
-1056964608
340
14
 92
       -2
290
     1
 42
0.09
291
     1
 43
0.36
  3
Standard
341
0
 44
0.18
300

342
11
174
     1
178
     6
175
     1
176
     0
 93
-1056964608
 45
0.18
292
     0
297
     0
 46
0.18
343
0
 94
-1056964608
 47
1.0
 49
1.0
140
1.0
293
     1
141
0.0
294
     1
177
     0
142
1.0
295
     0
296
     0
143
0.125
271
     0
272
     9
273
     9
298
     0
  0
MLINESTYLE
  5
18
102
{ACAD_REACTORS
330
17
102
}
330
17
100
AcDbMlineStyle
  2
Standard
 70
     0
  3

 62
   256
 51
90.0
 52
90.0
 71
     2
 49
0.5
 62
   256
  6
BYLAYER
 49
-0.5
 62
   256
  6
BYLAYER
  0
ACDBPLACEHOLDER
  5
F
102
{ACAD_REACTORS
330
E
102
}
330
E
  0
SCALE
  5
48
102
{ACAD_REACTORS
330
47
102
}
330
47
100
AcDbScale
 70
     0
300
1:1
140
1.0
141
1.0
290
     1
  0
SCALE
  5
49
102
{ACAD_REACTORS
330
47
102
}
330
47
100
AcDbScale
 70
     0
300
1:2
140
1.0
141
2.0
290
     0
  0
SCALE
  5
4A
102
{ACAD_REACTORS
330
47
102
}
330
47
100
AcDbScale
 70
     0
300
1:4
140
1.0
141
4.0
290
     0
  0
SCALE
  5
4B
102
{ACAD_REACTORS
330
47
102
}
330
47
100
AcDbScale
 70
     0
300
1:5
140
1.0
141
5.0
290
     0
  0
SCALE
  5
4C
102
{ACAD_REACTORS
330
47
102
}
330
47
100
AcDbScale
 70
     0
300
1:8
140
1.0
141
8.0
290
     0
  0
SCALE
  5
4D
102
{ACAD_REACTORS
330
47
102
}
330
47
100
AcDbScale
 70
     0
300
1:10
140
1.0
141
10.0
290
     0
  0
SCALE
  5
4E
102
{ACAD_REACTORS
330
47
102
}
330
47
100
AcDbScale
 70
     0
300
1:16
140
1.0
141
16.0
290
     0
  0
SCALE
  5
4F
102
{ACAD_REACTORS
330
47
102
}
330
47
100
AcDbScale
 70
     0
300
1:20
140
1.0
141
20.0
290
     0
  0
SCALE
  5
50
102
{ACAD_REACTORS
330
47
102
}
330
47
100
AcDbScale
 70
     0
300
1:30
140
1.0
141
30.0
290
     0
  0
SCALE
  5
51
102
{ACAD_REACTORS
330
47
102
}
330
47
100
AcDbScale
 70
     0
300
1:40
140
1.0
141
40.0
290
     0
  0
SCALE
  5
52
102
{ACAD_REACTORS
330
47
102
}
330
47
100
AcDbScale
 70
     0
300
1:50
140
1.0
141
50.0
290
     0
  0
SCALE
  5
53
102
{ACAD_REACTORS
330
47
102
}
330
47
100
AcDbScale
 70
     0
300
1:100
140
1.0
141
100.0
290
     0
  0
SCALE
  5
54
102
{ACAD_REACTORS
330
47
102
}
330
47
100
AcDbScale
 70
     0
300
2:1
140
2.0
141
1.0
290
     0
  0
SCALE
  5
55
102
{ACAD_REACTORS
330
47
102
}
330
47
100
AcDbScale
 70
     0
300
4:1
140
4.0
141
1.0
290
     0
  0
SCALE
  5
56
102
{ACAD_REACTORS
330
47
102
}
330
47
100
AcDbScale
 70
     0
300
8:1
140
8.0
141
1.0
290
     0
  0
SCALE
  5
57
102
{ACAD_REACTORS
330
47
102
}
330
47
100
AcDbScale
 70
     0
300
10:1
140
10.0
141
1.0
290
     0
  0
SCALE
  5
58
102
{ACAD_REACTORS
330
47
102
}
330
47
100
AcDbScale
 70
     0
300
100:1
140
100.0
141
1.0
290
     0
  0
SCALE
  5
59
102
{ACAD_REACTORS
330
47
102
}
330
47
100
AcDbScale
 70
     0
300
1/128" = 1'-0"
140
0.0078125
141
12.0
290
     0
  0
SCALE
  5
5A
102
{ACAD_REACTORS
330
47
102
}
330
47
100
AcDbScale
 70
     0
300
1/64" = 1'-0"
140
0.015625
141
12.0
290
     0
  0
SCALE
  5
5B
102
{ACAD_REACTORS
330
47
102
}
330
47
100
AcDbScale
 70
     0
300
1/32" = 1'-0"
140
0.03125
141
12.0
290
     0
  0
SCALE
  5
5C
102
{ACAD_REACTORS
330
47
102
}
330
47
100
AcDbScale
 70
     0
300
1/16" = 1'-0"
140
0.0625
141
12.0
290
     0
  0
SCALE
  5
5D
102
{ACAD_REACTORS
330
47
102
}
330
47
100
AcDbScale
 70
     0
300
3/32" = 1'-0"
140
0.09375
141
12.0
290
     0
  0
SCALE
  5
5E
102
{ACAD_REACTORS
330
47
102
}
330
47
100
AcDbScale
 70
     0
300
1/8" = 1'-0"
140
0.125
141
12.0
290
     0
  0
SCALE
  5
5F
102
{ACAD_REACTORS
330
47
102
}
330
47
100
AcDbScale
 70
     0
300
3/16" = 1'-0"
140
0.1875
141
12.0
290
     0
  0
SCALE
  5
60
102
{ACAD_REACTORS
330
47
102
}
330
47
100
AcDbScale
 70
     0
300
1/4" = 1'-0"
140
0.25
141
12.0
290
     0
  0
SCALE
  5
61
102
{ACAD_REACTORS
330
47
102
}
330
47
100
AcDbScale
 70
     0
300
3/8" = 1'-0"
140
0.375
141
12.0
290
     0
  0
SCALE
  5
62
102
{ACAD_REACTORS
330
47
102
}
330
47
100
AcDbScale
 70
     0
300
1/2" = 1'-0"
140
0.5
141
12.0
290
     0
  0
SCALE
  5
63
102
{ACAD_REACTORS
330
47
102
}
330
47
100
AcDbScale
 70
     0
300
3/4" = 1'-0"
140
0.75
141
12.0
290
     0
  0
SCALE
  5
64
102
{ACAD_REACTORS
330
47
102
}
330
47
100
AcDbScale
 70
     0
300
1" = 1'-0"
140
1.0
141
12.0
290
     0
  0
SCALE
  5
65
102
{ACAD_REACTORS
330
47
102
}
330
47
100
AcDbScale
 70
     0
300
1-1/2" = 1'-0"
140
1.5
141
12.0
290
     0
  0
SCALE
  5
66
102
{ACAD_REACTORS
330
47
102
}
330
47
100
AcDbScale
 70
     0
300
3" = 1'-0"
140
3.0
141
12.0
290
     0
  0
SCALE
  5
67
102
{ACAD_REACTORS
330
47
102
}
330
47
100
AcDbScale
 70
     0
300
6" = 1'-0"
140
6.0
141
12.0
290
     0
  0
SCALE
  5
68
102
{ACAD_REACTORS
330
47
102
}
330
47
100
AcDbScale
 70
     0
300
1'-0" = 1'-0"
140
12.0
141
12.0
290
     0
  0
TABLESTYLE
  5
6A
102
{ACAD_REACTORS
330
69
102
}
102
{ACAD_XDICTIONARY
360
11F
102
}
330
69
100
AcDbTableStyle
  3
Standard
 70
     0
 71
     0
 40
0.06
 41
0.06
280
     0
281
     0
  7
Standard
140
0.18
170
     2
 62
     0
 63
   257
283
     0
 90
        4
 91
        0
  1

274
    -2
284
     1
 64
     0
275
    -2
285
     1
 65
     0
276
    -2
286
     1
 66
     0
277
    -2
287
     1
 67
     0
278
    -2
288
     1
 68
     0
279
    -2
289
     1
 69
     0
  7
Standard
140
0.25
170
     5
 62
     0
 63
   257
283
     0
 90
        4
 91
        0
  1

274
    -2
284
     1
 64
     0
275
    -2
285
     1
 65
     0
276
    -2
286
     1
 66
     0
277
    -2
287
     1
 67
     0
278
    -2
288
     1
 68
     0
279
    -2
289
     1
 69
     0
  7
Standard
140
0.18
170
     5
 62
     0
 63
   257
283
     0
 90
        4
 91
        0
  1

274
    -2
284
     1
 64
     0
275
    -2
285
     1
 65
     0
276
    -2
286
     1
 66
     0
277
    -2
287
     1
 67
     0
278
    -2
288
     1
 68
     0
279
    -2
289
     1
 69
     0
  0
VISUALSTYLE
  5
2F
102
{ACAD_REACTORS
330
2A
102
}
330
2A
100
AcDbVisualStyle
  2
2dWireframe
 70
     4
177
     3
291
     0
 70
    58
 90
        0
176
     1
 90
        2
176
     1
 90
        0
176
     1
 90
        0
176
     1
 40
0.6
176
     1
 40
30.0
176
     1
 62
     7
420
 16777215
176
     1
 90
        1
176
     1
 90
        4
176
     1
 62
     7
176
     1
 62
   257
176
     1
 90
        1
176
     1
 90
        1
176
     1
 40
1.0
176
     1
 90
        0
176
     1
 62
   257
176
     1
 40
1.0
176
     1
 90
        1
176
     1
 90
        6
176
     1
 90
        2
176
     1
 62
     7
176
     1
 90
        5
176
     1
 90
        0
176
     1
 90
        0
176
     1
290
     0
176
     1
 90
        1
176
     1
 40
0.0
176
     1
 90
        0
176
     1
290
     1
176
     1
290
     1
176
     1
290
     0
176
     1
290
     0
176
     1
290
     0
176
     1
290
     0
176
     1
290
     0
176
     1
290
     0
176
     1
290
     0
176
     1
 90
       50
176
     1
 40
0.0
176
     1
 40
1.0
176
     1
 90
        0
176
     1
 62
    18
420
        0
176
     1
 90
       50
176
     1
 90
        3
176
     1
 62
     5
420
      255
176
     1
290
     0
176
     1
 90
       50
176
     1
 90
       50
176
     1
 90
       50
176
     1
290
     0
176
     1
 90
       50
176
     1
 62
   256
176
     0
 40
1.0
176
     0
 90
        2
176
     1
  1
strokes_ogs.tif
176
     1
290
     0
176
     1
 40
1.0
176
     1
 40
1.0
176
     1
  0
VISUALSTYLE
  5
32
102
{ACAD_REACTORS
330
2A
102
}
330
2A
100
AcDbVisualStyle
  2
Basic
 70
     7
177
     3
291
     1
 70
    58
 90
        1
176
     1
 90
        0
176
     1
 90
        1
176
     1
 90
        0
176
     1
 40
0.6
176
     1
 40
30.0
176
     1
 62
     7
420
 16777215
176
     1
 90
        0
176
     1
 90
        4
176
     1
 62
     7
176
     1
 62
   257
176
     1
 90
        1
176
     1
 90
        1
176
     1
 40
1.0
176
     1
 90
        8
176
     1
 62
     7
176
     1
 40
1.0
176
     1
 90
        1
176
     1
 90
        6
176
     1
 90
        2
176
     1
 62
     7
176
     1
 90
        5
176
     1
 90
        0
176
     1
 90
        0
176
     1
290
     0
176
     1
 90
        1
176
     1
 40
0.0
176
     1
 90
        0
176
     1
290
     0
176
     1
290
     1
176
     1
290
     1
176
     1
290
     0
176
     1
290
     0
176
     1
290
     0
176
     1
290
     0
176
     1
290
     0
176
     1
290
     0
176
     1
 90
       50
176
     1
 40
0.0
176
     1
 40
1.0
176
     1
 90
        0
176
     1
 62
    18
420
        0
176
     1
 90
       50
176
     1
 90
        3
176
     1
 62
     5
420
      255
176
     1
290
     0
176
     1
 90
       50
176
     1
 90
       50
176
     1
 90
       50
176
     1
290
     0
176
     1
 90
       50
176
     1
 62
   256
176
     0
 40
1.0
176
     0
 90
        2
176
     1
  1
strokes_ogs.tif
176
     1
290
     0
176
     1
 40
1.0
176
     1
 40
1.0
176
     1
  0
VISUALSTYLE
  5
36
102
{ACAD_REACTORS
330
2A
102
}
330
2A
100
AcDbVisualStyle
  2
Brighten
 70
    12
177
     3
291
     1
 70
    58
 90
        2
176
     1
 90
        2
176
     1
 90
        0
176
     1
 90
        0
176
     1
 40
0.6
176
     1
 40
30.0
176
     1
 62
     7
420
 16777215
176
     1
 90
        1
176
     1
 90
        4
176
     1
 62
     7
176
     1
 62
   257
176
     1
 90
        1
176
     1
 90
        1
176
     1
 40
1.0
176
     1
 90
        8
176
     1
 62
     7
176
     1
 40
1.0
176
     1
 90
        1
176
     1
 90
        6
176
     1
 90
        2
176
     1
 62
     7
176
     1
 90
        5
176
     1
 90
        0
176
     1
 90
        0
176
     1
290
     0
176
     1
 90
        1
176
     1
 40
50.0
176
     1
 90
        0
176
     1
290
     0
176
     1
290
     1
176
     1
290
     1
176
     1
290
     0
176
     1
290
     0
176
     1
290
     0
176
     1
290
     0
176
     1
290
     0
176
     1
290
     0
176
     1
 90
       50
176
     1
 40
0.0
176
     1
 40
1.0
176
     1
 90
        0
176
     1
 62
    18
420
        0
176
     1
 90
       50
176
     1
 90
        3
176
     1
 62
     5
420
      255
176
     1
290
     0
176
     1
 90
       50
176
     1
 90
       50
176
     1
 90
       50
176
     1
290
     0
176
     1
 90
       50
176
     1
 62
   256
176
     0
 40
1.0
176
     0
 90
        2
176
     1
  1
strokes_ogs.tif
176
     1
290
     0
176
     1
 40
1.0
176
     1
 40
1.0
176
     1
  0
VISUALSTYLE
  5
3A
102
{ACAD_REACTORS
330
2A
102
}
330
2A
100
AcDbVisualStyle
  2
ColorChange
 70
    16
177
     3
291
     1
 70
    58
 90
        2
176
     1
 90
        2
176
     1
 90
        3
176
     1
 90
        0
176
     1
 40
0.6
176
     1
 40
30.0
176
     1
 62
     8
420
  8421504
176
     1
 90
        1
176
     1
 90
        4
176
     1
 62
     7
176
     1
 62
   257
176
     1
 90
        1
176
     1
 90
        1
176
     1
 40
1.0
176
     1
 90
        8
176
     1
 62
     8
420
  8421504
176
     1
 40
1.0
176
     1
 90
        1
176
     1
 90
        6
176
     1
 90
        2
176
     1
 62
     7
176
     1
 90
        5
176
     1
 90
        0
176
     1
 90
        0
176
     1
290
     0
176
     1
 90
        1
176
     1
 40
0.0
176
     1
 90
        0
176
     1
290
     0
176
     1
290
     1
176
     1
290
     1
176
     1
290
     0
176
     1
290
     0
176
     1
290
     0
176
     1
290
     0
176
     1
290
     0
176
     1
290
     0
176
     1
 90
       50
176
     1
 40
0.0
176
     1
 40
1.0
176
     1
 90
        0
176
     1
 62
    18
420
        0
176
     1
 90
       50
176
     1
 90
        3
176
     1
 62
     5
420
      255
176
     1
290
     0
176
     1
 90
       50
176
     1
 90
       50
176
     1
 90
       50
176
     1
290
     0
176
     1
 90
       50
176
     1
 62
   256
176
     0
 40
1.0
176
     0
 90
        2
176
     1
  1
strokes_ogs.tif
176
     1
290
     0
176
     1
 40
1.0
176
     1
 40
1.0
176
     1
  0
VISUALSTYLE
  5
34
102
{ACAD_REACTORS
330
2A
102
}
330
2A
100
AcDbVisualStyle
  2
Conceptual
 70
     9
177
     3
291
     0
 70
    58
 90
        3
176
     1
 90
        2
176
     1
 90
        0
176
     1
 90
        0
176
     1
 40
0.6
176
     1
 40
30.0
176
     1
 62
     7
420
 16777215
176
     1
 90
        2
176
     1
 90
        2
176
     1
 62
     7
176
     1
 62
   257
176
     1
 90
        1
176
     1
 90
        1
176
     1
 40
179.0
176
     1
 90
        8
176
     1
 62
     7
176
     1
 40
1.0
176
     1
 90
        1
176
     1
 90
        6
176
     1
 90
        2
176
     1
 62
     7
176
     1
 90
        3
176
     1
 90
        0
176
     1
 90
        0
176
     1
290
     0
176
     1
 90
        1
176
     1
 40
0.0
176
     1
 90
        0
176
     1
290
     0
176
     1
290
     1
176
     1
290
     1
176
     1
290
     0
176
     1
290
     0
176
     1
290
     0
176
     1
290
     0
176
     1
290
     0
176
     1
290
     0
176
     1
 90
       50
176
     1
 40
0.0
176
     1
 40
1.0
176
     1
 90
        0
176
     1
 62
    18
420
        0
176
     1
 90
       50
176
     1
 90
        3
176
     1
 62
     5
420
      255
176
     1
290
     0
176
     1
 90
       50
176
     1
 90
       50
176
     1
 90
       50
176
     1
290
     0
176
     1
 90
       50
176
     1
 62
   256
176
     0
 40
1.0
176
     0
 90
        2
176
     1
  1
strokes_ogs.tif
176
     1
290
     0
176
     1
 40
1.0
176
     1
 40
1.0
176
     1
  0
VISUALSTYLE
  5
35
102
{ACAD_REACTORS
330
2A
102
}
330
2A
100
AcDbVisualStyle
  2
Dim
 70
    11
177
     3
291
     1
 70
    58
 90
        2
176
     1
 90
        2
176
     1
 90
        0
176
     1
 90
        0
176
     1
 40
0.6
176
     1
 40
30.0
176
     1
 62
     7
420
 16777215
176
     1
 90
        1
176
     1
 90
        4
176
     1
 62
     7
176
     1
 62
   257
176
     1
 90
        1
176
     1
 90
        1
176
     1
 40
1.0
176
     1
 90
        8
176
     1
 62
     7
176
     1
 40
1.0
176
     1
 90
        1
176
     1
 90
        6
176
     1
 90
        2
176
     1
 62
     7
176
     1
 90
        5
176
     1
 90
        0
176
     1
 90
        0
176
     1
290
     0
176
     1
 90
        1
176
     1
 40
-50.0
176
     1
 90
        0
176
     1
290
     0
176
     1
290
     1
176
     1
290
     1
176
     1
290
     0
176
     1
290
     0
176
     1
290
     0
176
     1
290
     0
176
     1
290
     0
176
     1
290
     0
176
     1
 90
       50
176
     1
 40
0.0
176
     1
 40
1.0
176
     1
 90
        0
176
     1
 62
    18
420
        0
176
     1
 90
       50
176
     1
 90
        3
176
     1
 62
     5
420
      255
176
     1
290
     0
176
     1
 90
       50
176
     1
 90
       50
176
     1
 90
       50
176
     1
290
     0
176
     1
 90
       50
176
     1
 62
   256
176
     0
 40
1.0
176
     0
 90
        2
176
     1
  1
strokes_ogs.tif
176
     1
290
     0
176
     1
 40
1.0
176
     1
 40
1.0
176
     1
  0
VISUALSTYLE
  5
3D
102
{ACAD_REACTORS
330
2A
102
}
330
2A
100
AcDbVisualStyle
  2
EdgeColorOff
 70
    22
177
     3
291
     1
 70
    58
 90
        2
176
     0
 90
        2
176
     0
 90
        0
176
     0
 90
        0
176
     0
 40
0.6
176
     0
 40
30.0
176
     0
 62
     7
420
 16777215
176
     0
 90
        1
176
     0
 90
        4
176
     0
 62
     7
176
     0
 62
   257
176
     0
 90
        1
176
     0
 90
        1
176
     0
 40
1.0
176
     0
 90
        8
176
     2
 62
     7
176
     0
 40
1.0
176
     0
 90
        1
176
     0
 90
        6
176
     0
 90
        2
176
     0
 62
     7
176
     0
 90
        5
176
     0
 90
        0
176
     0
 90
        0
176
     0
290
     0
176
     0
 90
        1
176
     0
 40
0.0
176
     0
 90
        0
176
     0
290
     0
176
     0
290
     1
176
     0
290
     1
176
     0
290
     0
176
     0
290
     0
176
     0
290
     0
176
     0
290
     0
176
     0
290
     0
176
     0
290
     0
176
     0
 90
       50
176
     0
 40
0.0
176
     0
 40
1.0
176
     0
 90
        0
176
     0
 62
    18
420
        0
176
     0
 90
       50
176
     0
 90
        3
176
     0
 62
     5
420
      255
176
     0
290
     0
176
     0
 90
       50
176
     0
 90
       50
176
     0
 90
       50
176
     0
290
     0
176
     0
 90
       50
176
     0
 62
   256
176
     0
 40
1.0
176
     0
 90
        2
176
     0
  1
strokes_ogs.tif
176
     0
290
     0
176
     0
 40
1.0
176
     0
 40
1.0
176
     0
  0
VISUALSTYLE
  5
39
102
{ACAD_REACTORS
330
2A
102
}
330
2A
100
AcDbVisualStyle
  2
Facepattern
 70
    15
177
     3
291
     1
 70
    58
 90
        2
176
     1
 90
        2
176
     1
 90
        0
176
     1
 90
        0
176
     1
 40
0.6
176
     1
 40
30.0
176
     1
 62
     7
420
 16777215
176
     1
 90
        1
176
     1
 90
        4
176
     1
 62
     7
176
     1
 62
   257
176
     1
 90
        1
176
     1
 90
        1
176
     1
 40
1.0
176
     1
 90
        8
176
     1
 62
     7
176
     1
 40
1.0
176
     1
 90
        1
176
     1
 90
        6
176
     1
 90
        2
176
     1
 62
     7
176
     1
 90
        5
176
     1
 90
        0
176
     1
 90
        0
176
     1
290
     0
176
     1
 90
        1
176
     1
 40
0.0
176
     1
 90
        0
176
     1
290
     0
176
     1
290
     1
176
     1
290
     1
176
     1
290
     0
176
     1
290
     0
176
     1
290
     0
176
     1
290
     0
176
     1
290
     0
176
     1
290
     0
176
     1
 90
       50
176
     1
 40
0.0
176
     1
 40
1.0
176
     1
 90
        0
176
     1
 62
    18
420
        0
176
     1
 90
       50
176
     1
 90
        3
176
     1
 62
     5
420
      255
176
     1
290
     0
176
     1
 90
       50
176
     1
 90
       50
176
     1
 90
       50
176
     1
290
     0
176
     1
 90
       50
176
     1
 62
   256
176
     0
 40
1.0
176
     0
 90
        2
176
     1
  1
strokes_ogs.tif
176
     1
290
     0
176
     1
 40
1.0
176
     1
 40
1.0
176
     1
  0
VISUALSTYLE
  5
2B
102
{ACAD_REACTORS
330
2A
102
}
330
2A
100
AcDbVisualStyle
  2
Flat
 70
     0
177
     3
291
     1
 70
    58
 90
        2
176
     1
 90
        1
176
     1
 90
        1
176
     1
 90
        2
176
     1
 40
0.6
176
     1
 40
30.0
176
     1
 62
     7
420
 16777215
176
     1
 90
        0
176
     1
 90
        0
176
     1
 62
     7
176
     1
 62
   257
176
     1
 90
        1
176
     1
 90
        1
176
     1
 40
1.0
176
     1
 90
        8
176
     1
 62
     7
176
     1
 40
1.0
176
     1
 90
        1
176
     1
 90
        6
176
     1
 90
        2
176
     1
 62
     7
176
     1
 90
        5
176
     1
 90
        0
176
     1
 90
        0
176
     1
290
     0
176
     1
 90
       13
176
     1
 40
0.0
176
     1
 90
        0
176
     1
290
     0
176
     1
290
     1
176
     1
290
     1
176
     1
290
     0
176
     1
290
     0
176
     1
290
     0
176
     1
290
     0
176
     1
290
     0
176
     1
290
     0
176
     1
 90
       50
176
     1
 40
0.0
176
     1
 40
1.0
176
     1
 90
        0
176
     1
 62
    18
420
        0
176
     1
 90
       50
176
     1
 90
        3
176
     1
 62
     5
420
      255
176
     1
290
     0
176
     1
 90
       50
176
     1
 90
       50
176
     1
 90
       50
176
     1
290
     0
176
     1
 90
       50
176
     1
 62
   256
176
     0
 40
1.0
176
     0
 90
        2
176
     1
  1
strokes_ogs.tif
176
     1
290
     0
176
     1
 40
1.0
176
     1
 40
1.0
176
     1
  0
VISUALSTYLE
  5
2C
102
{ACAD_REACTORS
330
2A
102
}
330
2A
100
AcDbVisualStyle
  2
FlatWithEdges
 70
     1
177
     3
291
     1
 70
    58
 90
        2
176
     1
 90
        1
176
     1
 90
        1
176
     1
 90
        2
176
     1
 40
0.6
176
     1
 40
30.0
176
     1
 62
     7
420
 16777215
176
     1
 90
        1
176
     1
 90
        0
176
     1
 62
     7
176
     1
 62
   257
176
     1
 90
        1
176
     1
 90
        1
176
     1
 40
1.0
176
     1
 90
        0
176
     1
 62
   257
176
     1
 40
1.0
176
     1
 90
        1
176
     1
 90
        6
176
     1
 90
        2
176
     1
 62
     7
176
     1
 90
        5
176
     1
 90
        0
176
     1
 90
        0
176
     1
290
     0
176
     1
 90
       13
176
     1
 40
0.0
176
     1
 90
        0
176
     1
290
     0
176
     1
290
     1
176
     1
290
     1
176
     1
290
     0
176
     1
290
     0
176
     1
290
     0
176
     1
290
     0
176
     1
290
     0
176
     1
290
     0
176
     1
 90
       50
176
     1
 40
0.0
176
     1
 40
1.0
176
     1
 90
        0
176
     1
 62
    18
420
        0
176
     1
 90
       50
176
     1
 90
        3
176
     1
 62
     5
420
      255
176
     1
290
     0
176
     1
 90
       50
176
     1
 90
       50
176
     1
 90
       50
176
     1
290
     0
176
     1
 90
       50
176
     1
 62
   256
176
     0
 40
1.0
176
     0
 90
        2
176
     1
  1
strokes_ogs.tif
176
     1
290
     0
176
     1
 40
1.0
176
     1
 40
1.0
176
     1
  0
VISUALSTYLE
  5
2D
102
{ACAD_REACTORS
330
2A
102
}
330
2A
100
AcDbVisualStyle
  2
Gouraud
 70
     2
177
     3
291
     1
 70
    58
 90
        2
176
     1
 90
        2
176
     1
 90
        1
176
     1
 90
        2
176
     1
 40
0.6
176
     1
 40
30.0
176
     1
 62
     7
420
 16777215
176
     1
 90
        0
176
     1
 90
        0
176
     1
 62
     7
176
     1
 62
   257
176
     1
 90
        1
176
     1
 90
        1
176
     1
 40
1.0
176
     1
 90
        0
176
     1
 62
     7
176
     1
 40
1.0
176
     1
 90
        1
176
     1
 90
        6
176
     1
 90
        2
176
     1
 62
     7
176
     1
 90
        5
176
     1
 90
        0
176
     1
 90
        0
176
     1
290
     0
176
     1
 90
       13
176
     1
 40
0.0
176
     1
 90
        0
176
     1
290
     0
176
     1
290
     1
176
     1
290
     1
176
     1
290
     0
176
     1
290
     0
176
     1
290
     0
176
     1
290
     0
176
     1
290
     0
176
     1
290
     0
176
     1
 90
       50
176
     1
 40
0.0
176
     1
 40
1.0
176
     1
 90
        0
176
     1
 62
    18
420
        0
176
     1
 90
       50
176
     1
 90
        3
176
     1
 62
     5
420
      255
176
     1
290
     0
176
     1
 90
       50
176
     1
 90
       50
176
     1
 90
       50
176
     1
290
     0
176
     1
 90
       50
176
     1
 62
   256
176
     0
 40
1.0
176
     0
 90
        2
176
     1
  1
strokes_ogs.tif
176
     1
290
     0
176
     1
 40
1.0
176
     1
 40
1.0
176
     1
  0
VISUALSTYLE
  5
2E
102
{ACAD_REACTORS
330
2A
102
}
330
2A
100
AcDbVisualStyle
  2
GouraudWithEdges
 70
     3
177
     3
291
     1
 70
    58
 90
        2
176
     1
 90
        2
176
     1
 90
        1
176
     1
 90
        2
176
     1
 40
0.6
176
     1
 40
30.0
176
     1
 62
     7
420
 16777215
176
     1
 90
        1
176
     1
 90
        0
176
     1
 62
     7
176
     1
 62
   257
176
     1
 90
        1
176
     1
 90
        1
176
     1
 40
1.0
176
     1
 90
        0
176
     1
 62
   257
176
     1
 40
1.0
176
     1
 90
        1
176
     1
 90
        6
176
     1
 90
        2
176
     1
 62
     7
176
     1
 90
        5
176
     1
 90
        0
176
     1
 90
        0
176
     1
290
     0
176
     1
 90
       13
176
     1
 40
0.0
176
     1
 90
        0
176
     1
290
     0
176
     1
290
     1
176
     1
290
     1
176
     1
290
     0
176
     1
290
     0
176
     1
290
     0
176
     1
290
     0
176
     1
290
     0
176
     1
290
     0
176
     1
 90
       50
176
     1
 40
0.0
176
     1
 40
1.0
176
     1
 90
        0
176
     1
 62
    18
420
        0
176
     1
 90
       50
176
     1
 90
        3
176
     1
 62
     5
420
      255
176
     1
290
     0
176
     1
 90
       50
176
     1
 90
       50
176
     1
 90
       50
176
     1
290
     0
176
     1
 90
       50
176
     1
 62
   256
176
     0
 40
1.0
176
     0
 90
        2
176
     1
  1
strokes_ogs.tif
176
     1
290
     0
176
     1
 40
1.0
176
     1
 40
1.0
176
     1
  0
VISUALSTYLE
  5
31
102
{ACAD_REACTORS
330
2A
102
}
330
2A
100
AcDbVisualStyle
  2
Hidden
 70
     6
177
     3
291
     0
 70
    58
 90
        1
176
     1
 90
        2
176
     1
 90
        2
176
     1
 90
        0
176
     1
 40
0.6
176
     1
 40
30.0
176
     1
 62
     7
420
 16777215
176
     1
 90
        2
176
     1
 90
        2
176
     1
 62
     7
176
     1
 62
   257
176
     1
 90
        2
176
     1
 90
        1
176
     1
 40
40.0
176
     1
 90
        0
176
     1
 62
   257
176
     1
 40
1.0
176
     1
 90
        1
176
     1
 90
        6
176
     1
 90
        2
176
     1
 62
     7
176
     1
 90
        3
176
     1
 90
        0
176
     1
 90
        0
176
     1
290
     0
176
     1
 90
        1
176
     1
 40
0.0
176
     1
 90
        0
176
     1
290
     0
176
     1
290
     1
176
     1
290
     1
176
     1
290
     0
176
     1
290
     0
176
     1
290
     0
176
     1
290
     0
176
     1
290
     0
176
     1
290
     0
176
     1
 90
       50
176
     1
 40
0.0
176
     1
 40
1.0
176
     1
 90
        0
176
     1
 62
    18
420
        0
176
     1
 90
       50
176
     1
 90
        3
176
     1
 62
     5
420
      255
176
     1
290
     0
176
     1
 90
       50
176
     1
 90
       50
176
     1
 90
       50
176
     1
290
     0
176
     1
 90
       50
176
     1
 62
   256
176
     0
 40
1.0
176
     0
 90
        2
176
     1
  1
strokes_ogs.tif
176
     1
290
     0
176
     1
 40
1.0
176
     1
 40
1.0
176
     1
  0
VISUALSTYLE
  5
3B
102
{ACAD_REACTORS
330
2A
102
}
330
2A
100
AcDbVisualStyle
  2
JitterOff
 70
    20
177
     3
291
     1
 70
    58
 90
        2
176
     0
 90
        2
176
     0
 90
        0
176
     0
 90
        0
176
     0
 40
0.6
176
     0
 40
30.0
176
     0
 62
     7
420
 16777215
176
     0
 90
        1
176
     0
 90
        4
176
     0
 62
     7
176
     0
 62
   257
176
     0
 90
        1
176
     0
 90
        1
176
     0
 40
1.0
176
     0
 90
       10
176
     2
 62
     7
176
     0
 40
1.0
176
     0
 90
        1
176
     0
 90
        6
176
     0
 90
        2
176
     0
 62
     7
176
     0
 90
        5
176
     0
 90
        0
176
     0
 90
        0
176
     0
290
     0
176
     0
 90
        1
176
     0
 40
0.0
176
     0
 90
        0
176
     0
290
     0
176
     0
290
     1
176
     0
290
     1
176
     0
290
     0
176
     0
290
     0
176
     0
290
     0
176
     0
290
     0
176
     0
290
     0
176
     0
290
     0
176
     0
 90
       50
176
     0
 40
0.0
176
     0
 40
1.0
176
     0
 90
        0
176
     0
 62
    18
420
        0
176
     0
 90
       50
176
     0
 90
        3
176
     0
 62
     5
420
      255
176
     0
290
     0
176
     0
 90
       50
176
     0
 90
       50
176
     0
 90
       50
176
     0
290
     0
176
     0
 90
       50
176
     0
 62
   256
176
     0
 40
1.0
176
     0
 90
        2
176
     0
  1
strokes_ogs.tif
176
     0
290
     0
176
     0
 40
1.0
176
     0
 40
1.0
176
     0
  0
VISUALSTYLE
  5
38
102
{ACAD_REACTORS
330
2A
102
}
330
2A
100
AcDbVisualStyle
  2
Linepattern
 70
    14
177
     3
291
     1
 70
    58
 90
        2
176
     1
 90
        2
176
     1
 90
        0
176
     1
 90
        0
176
     1
 40
0.6
176
     1
 40
30.0
176
     1
 62
     7
420
 16777215
176
     1
 90
        1
176
     1
 90
        4
176
     1
 62
     7
176
     1
 62
   257
176
     1
 90
        7
176
     1
 90
        7
176
     1
 40
1.0
176
     1
 90
        8
176
     1
 62
     7
176
     1
 40
1.0
176
     1
 90
        1
176
     1
 90
        6
176
     1
 90
        2
176
     1
 62
     7
176
     1
 90
        5
176
     1
 90
        0
176
     1
 90
        0
176
     1
290
     0
176
     1
 90
        1
176
     1
 40
0.0
176
     1
 90
        0
176
     1
290
     0
176
     1
290
     1
176
     1
290
     1
176
     1
290
     0
176
     1
290
     0
176
     1
290
     0
176
     1
290
     0
176
     1
290
     0
176
     1
290
     0
176
     1
 90
       50
176
     1
 40
0.0
176
     1
 40
1.0
176
     1
 90
        0
176
     1
 62
    18
420
        0
176
     1
 90
       50
176
     1
 90
        3
176
     1
 62
     5
420
      255
176
     1
290
     0
176
     1
 90
       50
176
     1
 90
       50
176
     1
 90
       50
176
     1
290
     0
176
     1
 90
       50
176
     1
 62
   256
176
     0
 40
1.0
176
     0
 90
        2
176
     1
  1
strokes_ogs.tif
176
     1
290
     0
176
     1
 40
1.0
176
     1
 40
1.0
176
     1
  0
VISUALSTYLE
  5
3C
102
{ACAD_REACTORS
330
2A
102
}
330
2A
100
AcDbVisualStyle
  2
OverhangOff
 70
    21
177
     3
291
     1
 70
    58
 90
        2
176
     0
 90
        2
176
     0
 90
        0
176
     0
 90
        0
176
     0
 40
0.6
176
     0
 40
30.0
176
     0
 62
     7
420
 16777215
176
     0
 90
        1
176
     0
 90
        4
176
     0
 62
     7
176
     0
 62
   257
176
     0
 90
        1
176
     0
 90
        1
176
     0
 40
1.0
176
     0
 90
        9
176
     2
 62
     7
176
     0
 40
1.0
176
     0
 90
        1
176
     0
 90
        6
176
     0
 90
        2
176
     0
 62
     7
176
     0
 90
        5
176
     0
 90
        0
176
     0
 90
        0
176
     0
290
     0
176
     0
 90
        1
176
     0
 40
0.0
176
     0
 90
        0
176
     0
290
     0
176
     0
290
     1
176
     0
290
     1
176
     0
290
     0
176
     0
290
     0
176
     0
290
     0
176
     0
290
     0
176
     0
290
     0
176
     0
290
     0
176
     0
 90
       50
176
     0
 40
0.0
176
     0
 40
1.0
176
     0
 90
        0
176
     0
 62
    18
420
        0
176
     0
 90
       50
176
     0
 90
        3
176
     0
 62
     5
420
      255
176
     0
290
     0
176
     0
 90
       50
176
     0
 90
       50
176
     0
 90
       50
176
     0
290
     0
176
     0
 90
       50
176
     0
 62
   256
176
     0
 40
1.0
176
     0
 90
        2
176
     0
  1
strokes_ogs.tif
176
     0
290
     0
176
     0
 40
1.0
176
     0
 40
1.0
176
     0
  0
VISUALSTYLE
  5
33
102
{ACAD_REACTORS
330
2A
102
}
330
2A
100
AcDbVisualStyle
  2
Realistic
 70
     8
177
     3
291
     0
 70
    58
 90
        2
176
     1
 90
        3
176
     1
 90
        0
176
     1
 90
        2
176
     1
 40
0.6
176
     1
 40
30.0
176
     1
 62
     7
420
 16777215
176
     1
 90
        0
176
     1
 90
        0
176
     1
 62
     7
176
     1
 62
   257
176
     1
 90
        1
176
     1
 90
        1
176
     1
 40
1.0
176
     1
 90
        8
176
     1
 62
   257
176
     1
 40
1.0
176
     1
 90
        1
176
     1
 90
        6
176
     1
 90
        2
176
     1
 62
     7
176
     1
 90
        3
176
     1
 90
        0
176
     1
 90
        0
176
     1
290
     0
176
     1
 90
       13
176
     1
 40
0.0
176
     1
 90
        0
176
     1
290
     0
176
     1
290
     1
176
     1
290
     1
176
     1
290
     0
176
     1
290
     0
176
     1
290
     0
176
     1
290
     0
176
     1
290
     0
176
     1
290
     0
176
     1
 90
       50
176
     1
 40
0.0
176
     1
 40
1.0
176
     1
 90
        0
176
     1
 62
    18
420
        0
176
     1
 90
       50
176
     1
 90
        3
176
     1
 62
     5
420
      255
176
     1
290
     0
176
     1
 90
       50
176
     1
 90
       50
176
     1
 90
       50
176
     1
290
     0
176
     1
 90
       50
176
     1
 62
   256
176
     0
 40
1.0
176
     0
 90
        2
176
     1
  1
strokes_ogs.tif
176
     1
290
     0
176
     1
 40
1.0
176
     1
 40
1.0
176
     1
  0
VISUALSTYLE
  5
42
102
{ACAD_REACTORS
330
2A
102
}
330
2A
100
AcDbVisualStyle
  2
Shaded
 70
    27
177
     3
291
     0
 70
    58
 90
        2
176
     1
 90
        2
176
     1
 90
        1
176
     1
 90
        2
176
     1
 40
0.6
176
     1
 40
30.0
176
     1
 62
     7
420
 16777215
176
     1
 90
        0
176
     1
 90
        4
176
     1
 62
     7
176
     1
 62
   257
176
     1
 90
        1
176
     1
 90
        1
176
     1
 40
1.0
176
     1
 90
        8
176
     1
 62
   257
176
     1
 40
1.0
176
     1
 90
        1
176
     1
 90
        6
176
     1
 90
        2
176
     1
 62
     8
420
  7895160
176
     1
 90
        3
176
     1
 90
        0
176
     1
 90
        0
176
     1
290
     0
176
     1
 90
        5
176
     1
 40
0.0
176
     1
 90
        0
176
     1
290
     0
176
     1
290
     1
176
     1
290
     1
176
     1
290
     0
176
     1
290
     0
176
     1
290
     0
176
     1
290
     0
176
     1
290
     0
176
     1
290
     0
176
     1
 90
       50
176
     1
 40
0.0
176
     1
 40
1.0
176
     1
 90
        0
176
     1
 62
    18
420
        0
176
     1
 90
       50
176
     1
 90
        3
176
     1
 62
     5
420
      255
176
     1
290
     0
176
     1
 90
       50
176
     1
 90
       50
176
     1
 90
       50
176
     1
290
     0
176
     1
 90
       50
176
     1
 62
   256
176
     0
 40
1.0
176
     0
 90
        2
176
     1
  1
strokes_ogs.tif
176
     1
290
     0
176
     1
 40
1.0
176
     1
 40
1.0
176
     1
  0
VISUALSTYLE
  5
41
102
{ACAD_REACTORS
330
2A
102
}
330
2A
100
AcDbVisualStyle
  2
Shaded with edges
 70
    26
177
     3
291
     0
 70
    58
 90
        2
176
     1
 90
        2
176
     1
 90
        1
176
     1
 90
        2
176
     1
 40
0.6
176
     1
 40
30.0
176
     1
 62
     7
420
 16777215
176
     1
 90
        1
176
     1
 90
       10
176
     1
 62
     7
176
     1
 62
   257
176
     1
 90
        2
176
     1
 90
        1
176
     1
 40
1.0
176
     1
 90
        8
176
     1
 62
   257
176
     1
 40
1.0
176
     1
 90
        1
176
     1
 90
        6
176
     1
 90
        2
176
     1
 62
     7
176
     1
 90
        3
176
     1
 90
        0
176
     1
 90
        0
176
     1
290
     0
176
     1
 90
        5
176
     1
 40
0.0
176
     1
 90
        0
176
     1
290
     0
176
     1
290
     1
176
     1
290
     1
176
     1
290
     0
176
     1
290
     0
176
     1
290
     0
176
     1
290
     0
176
     1
290
     0
176
     1
290
     0
176
     1
 90
       50
176
     1
 40
0.0
176
     1
 40
1.0
176
     1
 90
        0
176
     1
 62
    18
420
        0
176
     1
 90
       50
176
     1
 90
        3
176
     1
 62
     5
420
      255
176
     1
290
     0
176
     1
 90
       50
176
     1
 90
       50
176
     1
 90
       50
176
     1
290
     0
176
     1
 90
       50
176
     1
 62
   256
176
     0
 40
1.0
176
     0
 90
        2
176
     1
  1
strokes_ogs.tif
176
     1
290
     0
176
     1
 40
1.0
176
     1
 40
1.0
176
     1
  0
VISUALSTYLE
  5
3E
102
{ACAD_REACTORS
330
2A
102
}
330
2A
100
AcDbVisualStyle
  2
Shades of Gray
 70
    23
177
     3
291
     0
 70
    58
 90
        2
176
     1
 90
        2
176
     1
 90
        3
176
     1
 90
        0
176
     1
 40
0.6
176
     1
 40
30.0
176
     1
 62
     7
420
 16777215
176
     1
 90
        2
176
     1
 90
        2
176
     1
 62
     7
176
     1
 62
     7
176
     1
 90
        1
176
     1
 90
        1
176
     1
 40
40.0
176
     1
 90
        8
176
     1
 62
     7
176
     1
 40
1.0
176
     1
 90
        1
176
     1
 90
        6
176
     1
 90
        2
176
     1
 62
     7
176
     1
 90
        3
176
     1
 90
        0
176
     1
 90
        0
176
     1
290
     0
176
     1
 90
        1
176
     1
 40
0.0
176
     1
 90
        0
176
     1
290
     0
176
     1
290
     1
176
     1
290
     1
176
     1
290
     0
176
     1
290
     0
176
     1
290
     0
176
     1
290
     0
176
     1
290
     0
176
     1
290
     0
176
     1
 90
       50
176
     1
 40
0.0
176
     1
 40
1.0
176
     1
 90
        0
176
     1
 62
    18
420
        0
176
     1
 90
       50
176
     1
 90
        3
176
     1
 62
     5
420
      255
176
     1
290
     0
176
     1
 90
       50
176
     1
 90
       50
176
     1
 90
       50
176
     1
290
     0
176
     1
 90
       50
176
     1
 62
   256
176
     0
 40
1.0
176
     0
 90
        2
176
     1
  1
strokes_ogs.tif
176
     1
290
     0
176
     1
 40
1.0
176
     1
 40
1.0
176
     1
  0
VISUALSTYLE
  5
3F
102
{ACAD_REACTORS
330
2A
102
}
330
2A
100
AcDbVisualStyle
  2
Sketchy
 70
    24
177
     3
291
     0
 70
    58
 90
        1
176
     1
 90
        2
176
     1
 90
        2
176
     1
 90
        0
176
     1
 40
0.6
176
     1
 40
30.0
176
     1
 62
     7
420
 16777215
176
     1
 90
        2
176
     1
 90
        2
176
     1
 62
     7
176
     1
 62
     7
176
     1
 90
        1
176
     1
 90
        1
176
     1
 40
40.0
176
     1
 90
       11
176
     1
 62
     7
176
     1
 40
1.0
176
     1
 90
        1
176
     1
 90
        6
176
     1
 90
        2
176
     1
 62
     7
176
     1
 90
        6
176
     1
 90
        0
176
     1
 90
        0
176
     1
290
     0
176
     1
 90
        1
176
     1
 40
0.0
176
     1
 90
        0
176
     1
290
     0
176
     1
290
     1
176
     1
290
     1
176
     1
290
     0
176
     1
290
     0
176
     1
290
     0
176
     1
290
     0
176
     1
290
     0
176
     1
290
     0
176
     1
 90
       50
176
     1
 40
0.0
176
     1
 40
1.0
176
     1
 90
        0
176
     1
 62
    18
420
        0
176
     1
 90
       50
176
     1
 90
        3
176
     1
 62
     5
420
      255
176
     1
290
     0
176
     1
 90
       50
176
     1
 90
       50
176
     1
 90
       50
176
     1
290
     0
176
     1
 90
       50
176
     1
 62
   256
176
     0
 40
1.0
176
     0
 90
        2
176
     1
  1
strokes_ogs.tif
176
     1
290
     0
176
     1
 40
1.0
176
     1
 40
1.0
176
     1
  0
VISUALSTYLE
  5
37
102
{ACAD_REACTORS
330
2A
102
}
330
2A
100
AcDbVisualStyle
  2
Thicken
 70
    13
177
     3
291
     1
 70
    58
 90
        2
176
     1
 90
        2
176
     1
 90
        0
176
     1
 90
        0
176
     1
 40
0.6
176
     1
 40
30.0
176
     1
 62
     7
420
 16777215
176
     1
 90
        1
176
     1
 90
        4
176
     1
 62
     7
176
     1
 62
   257
176
     1
 90
        1
176
     1
 90
        1
176
     1
 40
1.0
176
     1
 90
       12
176
     1
 62
     7
176
     1
 40
1.0
176
     1
 90
        1
176
     1
 90
        6
176
     1
 90
        2
176
     1
 62
     7
176
     1
 90
        5
176
     1
 90
        0
176
     1
 90
        0
176
     1
290
     0
176
     1
 90
        1
176
     1
 40
0.0
176
     1
 90
        0
176
     1
290
     0
176
     1
290
     1
176
     1
290
     1
176
     1
290
     0
176
     1
290
     0
176
     1
290
     0
176
     1
290
     0
176
     1
290
     0
176
     1
290
     0
176
     1
 90
       50
176
     1
 40
0.0
176
     1
 40
1.0
176
     1
 90
        0
176
     1
 62
    18
420
        0
176
     1
 90
       50
176
     1
 90
        3
176
     1
 62
     5
420
      255
176
     1
290
     0
176
     1
 90
       50
176
     1
 90
       50
176
     1
 90
       50
176
     1
290
     0
176
     1
 90
       50
176
     1
 62
   256
176
     0
 40
1.0
176
     0
 90
        2
176
     1
  1
strokes_ogs.tif
176
     1
290
     0
176
     1
 40
1.0
176
     1
 40
1.0
176
     1
  0
VISUALSTYLE
  5
30
102
{ACAD_REACTORS
330
2A
102
}
330
2A
100
AcDbVisualStyle
  2
Wireframe
 70
     5
177
     3
291
     0
 70
    58
 90
        0
176
     1
 90
        2
176
     1
 90
        0
176
     1
 90
        0
176
     1
 40
0.6
176
     1
 40
30.0
176
     1
 62
     7
420
 16777215
176
     1
 90
        1
176
     1
 90
        4
176
     1
 62
     7
176
     1
 62
   257
176
     1
 90
        1
176
     1
 90
        1
176
     1
 40
1.0
176
     1
 90
        0
176
     1
 62
   257
176
     1
 40
1.0
176
     1
 90
        1
176
     1
 90
        6
176
     1
 90
        2
176
     1
 62
     7
176
     1
 90
        3
176
     1
 90
        0
176
     1
 90
        0
176
     1
290
     0
176
     1
 90
        1
176
     1
 40
0.0
176
     1
 90
        0
176
     1
290
     0
176
     1
290
     1
176
     1
290
     1
176
     1
290
     0
176
     1
290
     0
176
     1
290
     0
176
     1
290
     0
176
     1
290
     0
176
     1
290
     0
176
     1
 90
       50
176
     1
 40
0.0
176
     1
 40
1.0
176
     1
 90
        0
176
     1
 62
    18
420
        0
176
     1
 90
       50
176
     1
 90
        3
176
     1
 62
     5
420
      255
176
     1
290
     0
176
     1
 90
       50
176
     1
 90
       50
176
     1
 90
       50
176
     1
290
     0
176
     1
 90
       50
176
     1
 62
   256
176
     0
 40
1.0
176
     0
 90
        2
176
     1
  1
strokes_ogs.tif
176
     1
290
     0
176
     1
 40
1.0
176
     1
 40
1.0
176
     1
  0
VISUALSTYLE
  5
40
102
{ACAD_REACTORS
330
2A
102
}
330
2A
100
AcDbVisualStyle
  2
X-Ray
 70
    25
177
     3
291
     0
 70
    58
 90
        2
176
     1
 90
        2
176
     1
 90
        1
176
     1
 90
        1
176
     1
 40
0.5
176
     1
 40
30.0
176
     1
 62
     7
420
 16777215
176
     1
 90
        1
176
     1
 90
        0
176
     1
 62
     7
176
     1
 62
   257
176
     1
 90
        1
176
     1
 90
        1
176
     1
 40
1.0
176
     1
 90
        8
176
     1
 62
     7
176
     1
 40
1.0
176
     1
 90
        1
176
     1
 90
        6
176
     1
 90
        2
176
     1
 62
     7
176
     1
 90
        3
176
     1
 90
        0
176
     1
 90
        0
176
     1
290
     0
176
     1
 90
       13
176
     1
 40
0.0
176
     1
 90
        0
176
     1
290
     0
176
     1
290
     1
176
     1
290
     1
176
     1
290
     0
176
     1
290
     0
176
     1
290
     0
176
     1
290
     0
176
     1
290
     0
176
     1
290
     0
176
     1
 90
       50
176
     1
 40
0.0
176
     1
 40
1.0
176
     1
 90
        0
176
     1
 62
    18
420
        0
176
     1
 90
       50
176
     1
 90
        3
176
     1
 62
     5
420
      255
176
     1
290
     0
176
     1
 90
       50
176
     1
 90
       50
176
     1
 90
       50
176
     1
290
     0
176
     1
 90
       50
176
     1
 62
   256
176
     0
 40
1.0
176
     0
 90
        2
176
     1
  1
strokes_ogs.tif
176
     1
290
     0
176
     1
 40
1.0
176
     1
 40
1.0
176
     1
  0
DICTIONARYVAR
  5
11E
102
{ACAD_REACTORS
330
11D
102
}
330
11D
100
DictionaryVariables
280
     0
  1
1:1
  0
DICTIONARYVAR
  5
123
102
{ACAD_REACTORS
330
11D
102
}
330
11D
100
DictionaryVariables
280
     0
  1
Standard
  0
DICTIONARYVAR
  5
122
102
{ACAD_REACTORS
330
11D
102
}
330
11D
100
DictionaryVariables
280
     0
  1
Standard
  0
DICTIONARY
  5
11F
330
6A
100
AcDbDictionary
280
     1
281
     1
  3
ACAD_ROUNDTRIP_2008_TABLESTYLE_CELLSTYLEMAP
360
120
  0
CELLSTYLEMAP
  5
120
102
{ACAD_REACTORS
330
11F
102
}
330
11F
100
AcDbCellStyleMap
 90
        3
300
CELLSTYLE
  1
TABLEFORMAT_BEGIN
 90
        5
170
     1
 91
        0
 92
    32768
 62
   257
 93
        1
300
CONTENTFORMAT
  1
CONTENTFORMAT_BEGIN
 90
        0
 91
        0
 92
        4
 93
        0
300

 40
0.0
140
1.0
 94
        5
 62
     0
340
11
144
0.25
309
CONTENTFORMAT_END
171
     1
301
MARGIN
  1
CELLMARGIN_BEGIN
 40
0.06
 40
0.06
 40
0.06
 40
0.06
 40
0.06
 40
0.06
309
CELLMARGIN_END
 94
        6
 95
        1
302
GRIDFORMAT
  1
GRIDFORMAT_BEGIN
 90
        0
 91
        1
 62
     0
 92
       -2
340
14
 93
        0
 40
0.045
309
GRIDFORMAT_END
 95
        2
302
GRIDFORMAT
  1
GRIDFORMAT_BEGIN
 90
        0
 91
        1
 62
     0
 92
       -2
340
14
 93
        0
 40
0.045
309
GRIDFORMAT_END
 95
        4
302
GRIDFORMAT
  1
GRIDFORMAT_BEGIN
 90
        0
 91
        1
 62
     0
 92
       -2
340
14
 93
        0
 40
0.045
309
GRIDFORMAT_END
 95
        8
302
GRIDFORMAT
  1
GRIDFORMAT_BEGIN
 90
        0
 91
        1
 62
     0
 92
       -2
340
14
 93
        0
 40
0.045
309
GRIDFORMAT_END
 95
       16
302
GRIDFORMAT
  1
GRIDFORMAT_BEGIN
 90
        0
 91
        1
 62
     0
 92
       -2
340
14
 93
        0
 40
0.045
309
GRIDFORMAT_END
 95
       32
302
GRIDFORMAT
  1
GRIDFORMAT_BEGIN
 90
        0
 91
        1
 62
     0
 92
       -2
340
14
 93
        0
 40
0.045
309
GRIDFORMAT_END
309
TABLEFORMAT_END
  1
CELLSTYLE_BEGIN
 90
        1
 91
        1
300
_TITLE
309
CELLSTYLE_END
300
CELLSTYLE
  1
TABLEFORMAT_BEGIN
 90
        5
170
     1
 91
        0
 92
        0
 62
   257
 93
        1
300
CONTENTFORMAT
  1
CONTENTFORMAT_BEGIN
 90
        0
 91
        0
 92
        4
 93
        0
300

 40
0.0
140
1.0
 94
        5
 62
     0
340
11
144
0.18
309
CONTENTFORMAT_END
171
     1
301
MARGIN
  1
CELLMARGIN_BEGIN
 40
0.06
 40
0.06
 40
0.06
 40
0.06
 40
0.06
 40
0.06
309
CELLMARGIN_END
 94
        6
 95
        1
302
GRIDFORMAT
  1
GRIDFORMAT_BEGIN
 90
        0
 91
        1
 62
     0
 92
       -2
340
14
 93
        0
 40
0.045
309
GRIDFORMAT_END
 95
        2
302
GRIDFORMAT
  1
GRIDFORMAT_BEGIN
 90
        0
 91
        1
 62
     0
 92
       -2
340
14
 93
        0
 40
0.045
309
GRIDFORMAT_END
 95
        4
302
GRIDFORMAT
  1
GRIDFORMAT_BEGIN
 90
        0
 91
        1
 62
     0
 92
       -2
340
14
 93
        0
 40
0.045
309
GRIDFORMAT_END
 95
        8
302
GRIDFORMAT
  1
GRIDFORMAT_BEGIN
 90
        0
 91
        1
 62
     0
 92
       -2
340
14
 93
        0
 40
0.045
309
GRIDFORMAT_END
 95
       16
302
GRIDFORMAT
  1
GRIDFORMAT_BEGIN
 90
        0
 91
        1
 62
     0
 92
       -2
340
14
 93
        0
 40
0.045
309
GRIDFORMAT_END
 95
       32
302
GRIDFORMAT
  1
GRIDFORMAT_BEGIN
 90
        0
 91
        1
 62
     0
 92
       -2
340
14
 93
        0
 40
0.045
309
GRIDFORMAT_END
309
TABLEFORMAT_END
  1
CELLSTYLE_BEGIN
 90
        2
 91
        1
300
_HEADER
309
CELLSTYLE_END
300
CELLSTYLE
  1
TABLEFORMAT_BEGIN
 90
        5
170
     1
 91
        0
 92
        0
 62
   257
 93
        1
300
CONTENTFORMAT
  1
CONTENTFORMAT_BEGIN
 90
        0
 91
        0
 92
        4
 93
        0
300

 40
0.0
140
1.0
 94
        2
 62
     0
340
11
144
0.18
309
CONTENTFORMAT_END
171
     1
301
MARGIN
  1
CELLMARGIN_BEGIN
 40
0.06
 40
0.06
 40
0.06
 40
0.06
 40
0.06
 40
0.06
309
CELLMARGIN_END
 94
        6
 95
        1
302
GRIDFORMAT
  1
GRIDFORMAT_BEGIN
 90
        0
 91
        1
 62
     0
 92
       -2
340
14
 93
        0
 40
0.045
309
GRIDFORMAT_END
 95
        2
302
GRIDFORMAT
  1
GRIDFORMAT_BEGIN
 90
        0
 91
        1
 62
     0
 92
       -2
340
14
 93
        0
 40
0.045
309
GRIDFORMAT_END
 95
        4
302
GRIDFORMAT
  1
GRIDFORMAT_BEGIN
 90
        0
 91
        1
 62
     0
 92
       -2
340
14
 93
        0
 40
0.045
309
GRIDFORMAT_END
 95
        8
302
GRIDFORMAT
  1
GRIDFORMAT_BEGIN
 90
        0
 91
        1
 62
     0
 92
       -2
340
14
 93
        0
 40
0.045
309
GRIDFORMAT_END
 95
       16
302
GRIDFORMAT
  1
GRIDFORMAT_BEGIN
 90
        0
 91
        1
 62
     0
 92
       -2
340
14
 93
        0
 40
0.045
309
GRIDFORMAT_END
 95
       32
302
GRIDFORMAT
  1
GRIDFORMAT_BEGIN
 90
        0
 91
        1
 62
     0
 92
       -2
340
14
 93
        0
 40
0.045
309
GRIDFORMAT_END
309
TABLEFORMAT_END
  1
CELLSTYLE_BEGIN
 90
        3
 91
        2
300
_DATA
309
CELLSTYLE_END
  0
ENDSEC
  0
EOF