0
SECTION
  2
HEADER
  9
$ACADVER
  1
AC1027
  9
$ACADMAINTVER
 70
     8
  9
$DWGCODEPAGE
  3
ANSI_1252
  9
$REQUIREDVERSIONS
160
                 0
  9
$COMMENTS
  1
File was created by Cadenas
  9
$CUSTOMPROPERTYTAG
  1
NN
  9
$CUSTOMPROPERTY
  1
Sleeve Bearings -SOLIDLUBE 1-1/8 thru 2 LT700 Hanger Bearing
  9
$CUSTOMPROPERTYTAG
  1
NT
  9
$CUSTOMPROPERTY
  1
SOLIDLUBE
  9
$CUSTOMPROPERTYTAG
  1
NB
  9
$CUSTOMPROPERTY
  1
033897
  9
$CUSTOMPROPERTYTAG
  1
NBSYN
  9
$CUSTOMPROPERTY
  1
$PN.
  9
$CUSTOMPROPERTYTAG
  1
LINA
  9
$CUSTOMPROPERTY
  1
033897
  9
$CUSTOMPROPERTYTAG
  1
SS
  9
$CUSTOMPROPERTY
  1
2
  9
$CUSTOMPROPERTYTAG
  1
PN
  9
$CUSTOMPROPERTY
  1
033897
  9
$CUSTOMPROPERTYTAG
  1
DESCRIPTION
  9
$CUSTOMPROPERTY
  1
HNG-LT7-200
  9
$CUSTOMPROPERTYTAG
  1
A
  9
$CUSTOMPROPERTY
  1
1-5/8
  9
$CUSTOMPROPERTYTAG
  1
B
  9
$CUSTOMPROPERTY
  1
5
  9
$CUSTOMPROPERTYTAG
  1
F
  9
$CUSTOMPROPERTY
  1
4-3/16
  9
$CUSTOMPROPERTYTAG
  1
L
  9
$CUSTOMPROPERTY
  1
2-13/16
  9
$CUSTOMPROPERTYTAG
  1
M
  9
$CUSTOMPROPERTY
  1
5/8
  9
$CUSTOMPROPERTYTAG
  1
COMPANY
  9
$CUSTOMPROPERTY
  1
baldor
  9
$INSBASE
 10
0.0
 20
0.0
 30
0.0
  9
$EXTMIN
 10
1.000000000000000E+20
 20
1.000000000000000E+20
 30
1.000000000000000E+20
  9
$EXTMAX
 10
-1.000000000000000E+20
 20
-1.000000000000000E+20
 30
-1.000000000000000E+20
  9
$LIMMIN
 10
0.0
 20
0.0
  9
$LIMMAX
 10
12.0
 20
9.0
  9
$ORTHOMODE
 70
     0
  9
$REGENMODE
 70
     1
  9
$FILLMODE
 70
     1
  9
$QTEXTMODE
 70
     0
  9
$MIRRTEXT
 70
     1
  9
$LTSCALE
 40
1.0
  9
$ATTMODE
 70
     1
  9
$TEXTSIZE
 40
0.2
  9
$TRACEWID
 40
0.05
  9
$TEXTSTYLE
  7
Standard
  9
$CLAYER
  8
0
  9
$CELTYPE
  6
ByLayer
  9
$CECOLOR
 62
   256
  9
$CELTSCALE
 40
1.0
  9
$DISPSILH
 70
     0
  9
$DIMSCALE
 40
1.0
  9
$DIMASZ
 40
0.18
  9
$DIMEXO
 40
0.0625
  9
$DIMDLI
 40
0.38
  9
$DIMRND
 40
0.0
  9
$DIMDLE
 40
0.0
  9
$DIMEXE
 40
0.18
  9
$DIMTP
 40
0.0
  9
$DIMTM
 40
0.0
  9
$DIMTXT
 40
0.18
  9
$DIMCEN
 40
0.09
  9
$DIMTSZ
 40
0.0
  9
$DIMTOL
 70
     0
  9
$DIMLIM
 70
     0
  9
$DIMTIH
 70
     1
  9
$DIMTOH
 70
     1
  9
$DIMSE1
 70
     0
  9
$DIMSE2
 70
     0
  9
$DIMTAD
 70
     0
  9
$DIMZIN
 70
     0
  9
$DIMBLK
  1

  9
$DIMASO
 70
     1
  9
$DIMSHO
 70
     1
  9
$DIMPOST
  1

  9
$DIMAPOST
  1

  9
$DIMALT
 70
     0
  9
$DIMALTD
 70
     2
  9
$DIMALTF
 40
25.4
  9
$DIMLFAC
 40
1.0
  9
$DIMTOFL
 70
     0
  9
$DIMTVP
 40
0.0
  9
$DIMTIX
 70
     0
  9
$DIMSOXD
 70
     0
  9
$DIMSAH
 70
     0
  9
$DIMBLK1
  1

  9
$DIMBLK2
  1

  9
$DIMSTYLE
  2
Standard
  9
$DIMCLRD
 70
     0
  9
$DIMCLRE
 70
     0
  9
$DIMCLRT
 70
     0
  9
$DIMTFAC
 40
1.0
  9
$DIMGAP
 40
0.09
  9
$DIMJUST
 70
     0
  9
$DIMSD1
 70
     0
  9
$DIMSD2
 70
     0
  9
$DIMTOLJ
 70
     1
  9
$DIMTZIN
 70
     0
  9
$DIMALTZ
 70
     0
  9
$DIMALTTZ
 70
     0
  9
$DIMUPT
 70
     0
  9
$DIMDEC
 70
     4
  9
$DIMTDEC
 70
     4
  9
$DIMALTU
 70
     2
  9
$DIMALTTD
 70
     2
  9
$DIMTXSTY
  7
Standard
  9
$DIMAUNIT
 70
     0
  9
$DIMADEC
 70
     0
  9
$DIMALTRND
 40
0.0
  9
$DIMAZIN
 70
     0
  9
$DIMDSEP
 70
    46
  9
$DIMATFIT
 70
     3
  9
$DIMFRAC
 70
     0
  9
$DIMLDRBLK
  1

  9
$DIMLUNIT
 70
     2
  9
$DIMLWD
 70
    -2
  9
$DIMLWE
 70
    -2
  9
$DIMTMOVE
 70
     0
  9
$DIMFXL
 40
1.0
  9
$DIMFXLON
 70
     0
  9
$DIMJOGANG
 40
0.7853981633974483
  9
$DIMTFILL
 70
     0
  9
$DIMTFILLCLR
 70
     0
  9
$DIMARCSYM
 70
     0
  9
$DIMLTYPE
  6

  9
$DIMLTEX1
  6

  9
$DIMLTEX2
  6

  9
$DIMTXTDIRECTION
 70
     0
  9
$LUNITS
 70
     2
  9
$LUPREC
 70
     4
  9
$SKETCHINC
 40
0.1
  9
$FILLETRAD
 40
0.5
  9
$AUNITS
 70
     0
  9
$AUPREC
 70
     0
  9
$MENU
  1
.
  9
$ELEVATION
 40
0.0
  9
$PELEVATION
 40
0.0
  9
$THICKNESS
 40
0.0
  9
$LIMCHECK
 70
     0
  9
$CHAMFERA
 40
0.0
  9
$CHAMFERB
 40
0.0
  9
$CHAMFERC
 40
0.0
  9
$CHAMFERD
 40
0.0
  9
$SKPOLY
 70
     0
  9
$TDCREATE
 40
2458168.968260417
  9
$TDUCREATE
 40
2458168.92659375
  9
$TDUPDATE
 40
2458168.968260417
  9
$TDUUPDATE
 40
2458168.92659375
  9
$TDINDWG
 40
0.0000000116
  9
$TDUSRTIMER
 40
0.0000000116
  9
$USRTIMER
 70
     1
  9
$ANGBASE
 50
0.0
  9
$ANGDIR
 70
     0
  9
$PDMODE
 70
     0
  9
$PDSIZE
 40
0.0
  9
$PLINEWID
 40
0.0
  9
$SPLFRAME
 70
     0
  9
$SPLINETYPE
 70
     6
  9
$SPLINESEGS
 70
     8
  9
$HANDSEED
  5
128
  9
$SURFTAB1
 70
     6
  9
$SURFTAB2
 70
     6
  9
$SURFTYPE
 70
     6
  9
$SURFU
 70
     6
  9
$SURFV
 70
     6
  9
$UCSBASE
  2

  9
$UCSNAME
  2

  9
$UCSORG
 10
0.0
 20
0.0
 30
0.0
  9
$UCSXDIR
 10
1.0
 20
0.0
 30
0.0
  9
$UCSYDIR
 10
0.0
 20
1.0
 30
0.0
  9
$UCSORTHOREF
  2

  9
$UCSORTHOVIEW
 70
     0
  9
$UCSORGTOP
 10
0.0
 20
0.0
 30
0.0
  9
$UCSORGBOTTOM
 10
0.0
 20
0.0
 30
0.0
  9
$UCSORGLEFT
 10
0.0
 20
0.0
 30
0.0
  9
$UCSORGRIGHT
 10
0.0
 20
0.0
 30
0.0
  9
$UCSORGFRONT
 10
0.0
 20
0.0
 30
0.0
  9
$UCSORGBACK
 10
0.0
 20
0.0
 30
0.0
  9
$PUCSBASE
  2

  9
$PUCSNAME
  2

  9
$PUCSORG
 10
0.0
 20
0.0
 30
0.0
  9
$PUCSXDIR
 10
1.0
 20
0.0
 30
0.0
  9
$PUCSYDIR
 10
0.0
 20
1.0
 30
0.0
  9
$PUCSORTHOREF
  2

  9
$PUCSORTHOVIEW
 70
     0
  9
$PUCSORGTOP
 10
0.0
 20
0.0
 30
0.0
  9
$PUCSORGBOTTOM
 10
0.0
 20
0.0
 30
0.0
  9
$PUCSORGLEFT
 10
0.0
 20
0.0
 30
0.0
  9
$PUCSORGRIGHT
 10
0.0
 20
0.0
 30
0.0
  9
$PUCSORGFRONT
 10
0.0
 20
0.0
 30
0.0
  9
$PUCSORGBACK
 10
0.0
 20
0.0
 30
0.0
  9
$USERI1
 70
     0
  9
$USERI2
 70
     0
  9
$USERI3
 70
     0
  9
$USERI4
 70
     0
  9
$USERI5
 70
     0
  9
$USERR1
 40
0.0
  9
$USERR2
 40
0.0
  9
$USERR3
 40
0.0
  9
$USERR4
 40
0.0
  9
$USERR5
 40
0.0
  9
$WORLDVIEW
 70
     1
  9
$SHADEDGE
 70
     3
  9
$SHADEDIF
 70
    70
  9
$TILEMODE
 70
     1
  9
$MAXACTVP
 70
    64
  9
$PINSBASE
 10
0.0
 20
0.0
 30
0.0
  9
$PLIMCHECK
 70
     0
  9
$PEXTMIN
 10
1.000000000000000E+20
 20
1.000000000000000E+20
 30
1.000000000000000E+20
  9
$PEXTMAX
 10
-1.000000000000000E+20
 20
-1.000000000000000E+20
 30
-1.000000000000000E+20
  9
$PLIMMIN
 10
0.0
 20
0.0
  9
$PLIMMAX
 10
12.0
 20
9.0
  9
$UNITMODE
 70
     0
  9
$VISRETAIN
 70
     1
  9
$PLINEGEN
 70
     0
  9
$PSLTSCALE
 70
     1
  9
$TREEDEPTH
 70
  3020
  9
$CMLSTYLE
  2
Standard
  9
$CMLJUST
 70
     0
  9
$CMLSCALE
 40
1.0
  9
$PROXYGRAPHICS
 70
     1
  9
$MEASUREMENT
 70
     0
  9
$CELWEIGHT
370
    -1
  9
$ENDCAPS
280
     0
  9
$JOINSTYLE
280
     0
  9
$LWDISPLAY
290
     0
  9
$INSUNITS
 70
     1
  9
$HYPERLINKBASE
  1

  9
$STYLESHEET
  1

  9
$XEDIT
290
     1
  9
$CEPSNTYPE
380
     0
  9
$PSTYLEMODE
290
     1
  9
$FINGERPRINTGUID
  2
{D0E332D4-F57C-41AF-A19B-EEBB7801E779}
  9
$VERSIONGUID
  2
{FAEB1C32-E019-11D5-929B-00C0DF256EC4}
  9
$EXTNAMES
290
     1
  9
$PSVPSCALE
 40
0.0
  9
$OLESTARTUP
290
     0
  9
$SORTENTS
280
   127
  9
$INDEXCTL
280
     0
  9
$HIDETEXT
280
     1
  9
$XCLIPFRAME
280
     2
  9
$HALOGAP
280
     0
  9
$OBSCOLOR
 70
   257
  9
$OBSLTYPE
280
     0
  9
$INTERSECTIONDISPLAY
280
     0
  9
$INTERSECTIONCOLOR
 70
   257
  9
$DIMASSOC
280
     2
  9
$PROJECTNAME
  1

  9
$CAMERADISPLAY
290
     0
  9
$LENSLENGTH
 40
50.0
  9
$CAMERAHEIGHT
 40
0.0
  9
$STEPSPERSEC
 40
2.0
  9
$STEPSIZE
 40
6.0
  9
$3DDWFPREC
 40
2.0
  9
$PSOLWIDTH
 40
0.25
  9
$PSOLHEIGHT
 40
4.0
  9
$LOFTANG1
 40
1.570796326794897
  9
$LOFTANG2
 40
1.570796326794897
  9
$LOFTMAG1
 40
0.0
  9
$LOFTMAG2
 40
0.0
  9
$LOFTPARAM
 70
     7
  9
$LOFTNORMALS
280
     1
  9
$LATITUDE
 40
37.795
  9
$LONGITUDE
 40
-122.394
  9
$NORTHDIRECTION
 40
0.0
  9
$TIMEZONE
 70
 -8000
  9
$LIGHTGLYPHDISPLAY
280
     1
  9
$TILEMODELIGHTSYNCH
280
     1
  9
$CMATERIAL
347
44
  9
$SOLIDHIST
280
     0
  9
$SHOWHIST
280
     1
  9
$DWFFRAME
280
     2
  9
$DGNFRAME
280
     2
  9
$REALWORLDSCALE
290
     1
  9
$INTERFERECOLOR
 62
   256
  9
$CSHADOW
280
     0
  9
$SHADOWPLANELOCATION
 40
0.0
  0
ENDSEC
  0
SECTION
  2
CLASSES
  0
CLASS
  1
ACDBDICTIONARYWDFLT
  2
AcDbDictionaryWithDefault
  3
ObjectDBX Classes
 90
        0
 91
        4
280
     0
281
     0
  0
CLASS
  1
VISUALSTYLE
  2
AcDbVisualStyle
  3
ObjectDBX Classes
 90
     4095
 91
        4
280
     0
281
     0
  0
CLASS
  1
MATERIAL
  2
AcDbMaterial
  3
ObjectDBX Classes
 90
     1153
 91
        4
280
     0
281
     0
  0
CLASS
  1
SCALE
  2
AcDbScale
  3
ObjectDBX Classes
 90
     1153
 91
        4
280
     0
281
     0
  0
CLASS
  1
TABLESTYLE
  2
AcDbTableStyle
  3
ObjectDBX Classes
 90
     4095
 91
        4
280
     0
281
     0
  0
CLASS
  1
MLEADERSTYLE
  2
AcDbMLeaderStyle
  3
ACDB_MLEADERSTYLE_CLASS
 90
     4095
 91
        4
280
     0
281
     0
  0
CLASS
  1
SUN
  2
AcDbSun
  3
SCENEOE
 90
     1153
 91
        4
280
     0
281
     0
  0
CLASS
  1
DICTIONARYVAR
  2
AcDbDictionaryVar
  3
ObjectDBX Classes
 90
        0
 91
        4
280
     0
281
     0
  0
CLASS
  1
CELLSTYLEMAP
  2
AcDbCellStyleMap
  3
ObjectDBX Classes
 90
     1152
 91
        4
280
     0
281
     0
  0
ENDSEC
  0
SECTION
  2
TABLES
  0
TABLE
  2
VPORT
  5
8
330
0
100
AcDbSymbolTable
 70
     1
  0
VPORT
  5
29
330
8
100
AcDbSymbolTableRecord
100
AcDbViewportTableRecord
  2
*Active
 70
     0
 10
0.0
 20
0.0
 11
1.0
 21
1.0
 12
0.0
 22
0.0
 13
0.0
 23
0.0
 14
0.5
 24
0.5
 15
0.5
 25
0.5
 16
0.0
 26
0.0
 36
1.0
 17
0.0
 27
0.0
 37
0.0
 40
1.823250000000001
 41
2.342657342657342
 42
50.0
 43
0.0
 44
0.0
 50
0.0
 51
0.0
 71
     0
 72
   100
 73
     1
 74
     3
 75
     0
 76
     0
 77
     0
 78
     0
281
     0
 65
     1
110
0.0
120
0.0
130
0.0
111
1.0
121
0.0
131
0.0
112
0.0
122
1.0
132
0.0
 79
     0
146
0.0
348
2F
 60
     3
 61
     5
292
     1
282
     1
141
0.0
142
0.0
 63
   250
361
6D
  0
ENDTAB
  0
TABLE
  2
LTYPE
  5
5
330
0
100
AcDbSymbolTable
 70
     3
  0
LTYPE
  5
14
330
5
100
AcDbSymbolTableRecord
100
AcDbLinetypeTableRecord
  2
ByBlock
 70
     0
  3

 72
    65
 73
     0
 40
0.0
  0
LTYPE
  5
15
330
5
100
AcDbSymbolTableRecord
100
AcDbLinetypeTableRecord
  2
ByLayer
 70
     0
  3

 72
    65
 73
     0
 40
0.0
  0
LTYPE
  5
16
330
5
100
AcDbSymbolTableRecord
100
AcDbLinetypeTableRecord
  2
Continuous
 70
     0
  3
Solid line
 72
    65
 73
     0
 40
0.0
  0
LTYPE
  5
94
330
5
100
AcDbSymbolTableRecord
100
AcDbLinetypeTableRecord
  2
Dashed
 70
     0
  3

 72
    65
 73
     2
 40
2.0
 49
1.0
 74
     0
 49
-1.0
 74
     0
  0
LTYPE
  5
A0
330
5
100
AcDbSymbolTableRecord
100
AcDbLinetypeTableRecord
  2
Center
 70
     0
  3

 72
    65
 73
     4
 40
1.5
 49
0.45
 74
     0
 49
-0.5
 74
     0
 49
0.05
 74
     0
 49
-0.5
 74
     0
  0
ENDTAB
  0
TABLE
  2
LAYER
  5
2
330
0
100
AcDbSymbolTable
 70
     7
  0
LAYER
  5
10
330
2
100
AcDbSymbolTableRecord
100
AcDbLayerTableRecord
  2
0
 70
     0
 62
     7
  6
Continuous
370
    -3
390
F
347
46
348
0
  0
LAYER
  5
72
330
2
100
AcDbSymbolTableRecord
100
AcDbLayerTableRecord
  2
AM_6
 70
     0
 62
    -2
  6
Continuous
370
    35
390
F
347
46
348
0
  0
LAYER
  5
95
330
2
100
AcDbSymbolTableRecord
100
AcDbLayerTableRecord
  2
AM_9
 70
     0
 62
     6
  6
Dashed
370
    25
390
F
347
46
348
0
  0
LAYER
  5
A1
330
2
100
AcDbSymbolTableRecord
100
AcDbLayerTableRecord
  2
AM_7
 70
     0
 62
     7
  6
Center
370
    25
390
F
347
46
348
0
  0
LAYER
  5
EC
330
2
100
AcDbSymbolTableRecord
100
AcDbLayerTableRecord
  2
AM_4
 70
     0
 62
     3
  6
Continuous
370
    25
390
F
347
46
348
0
  0
LAYER
  5
11A
330
2
100
AcDbSymbolTableRecord
100
AcDbLayerTableRecord
  2
AM_5
 70
     0
 62
     3
  6
Continuous
370
    25
390
F
347
46
348
0
  0
LAYER
  5
11C
330
2
100
AcDbSymbolTableRecord
100
AcDbLayerTableRecord
  2
ConnectionPoints
 70
     0
 62
     7
  6
Continuous
370
    50
390
F
347
46
348
0
  0
ENDTAB
  0
TABLE
  2
STYLE
  5
3
330
0
100
AcDbSymbolTable
 70
     1
  0
STYLE
  5
11
330
3
100
AcDbSymbolTableRecord
100
AcDbTextStyleTableRecord
  2
Standard
 70
     0
 40
0.0
 41
1.0
 50
0.0
 71
     0
 42
0.2
  3
txt
  4

  0
ENDTAB
  0
TABLE
  2
VIEW
  5
6
330
0
100
AcDbSymbolTable
 70
     0
  0
ENDTAB
  0
TABLE
  2
UCS
  5
7
330
0
100
AcDbSymbolTable
 70
     0
  0
ENDTAB
  0
TABLE
  2
APPID
  5
9
330
0
100
AcDbSymbolTable
 70
     1
  0
APPID
  5
12
330
9
100
AcDbSymbolTableRecord
100
AcDbRegAppTableRecord
  2
ACAD
 70
     0
  0
ENDTAB
  0
TABLE
  2
DIMSTYLE
  5
A
330
0
100
AcDbSymbolTable
 70
     1
100
AcDbDimStyleTable
  0
DIMSTYLE
105
27
330
A
100
AcDbSymbolTableRecord
100
AcDbDimStyleTableRecord
  2
Standard
 70
     0
178
     0
340
11
  0
ENDTAB
  0
TABLE
  2
BLOCK_RECORD
  5
1
330
0
100
AcDbSymbolTable
 70
     4
  0
BLOCK_RECORD
  5
1F
330
1
100
AcDbSymbolTableRecord
100
AcDbBlockTableRecord
  2
*Model_Space
340
22
 70
     0
280
     1
281
     0
  0
BLOCK_RECORD
  5
1B
330
1
100
AcDbSymbolTableRecord
100
AcDbBlockTableRecord
  2
*Paper_Space
340
1E
 70
     0
280
     1
281
     0
  0
BLOCK_RECORD
  5
23
330
1
100
AcDbSymbolTableRecord
100
AcDbBlockTableRecord
  2
*Paper_Space0
340
26
 70
     0
280
     1
281
     0
  0
BLOCK_RECORD
  5
6E
330
1
100
AcDbSymbolTableRecord
100
AcDbBlockTableRecord
  2
1_033897_4
340
0
102
{BLKREFS
331
6F
102
}
 70
     0
280
     1
281
     0
  0
BLOCK_RECORD
  5
81
330
1
100
AcDbSymbolTableRecord
100
AcDbBlockTableRecord
  2
2_033598_0_in_033897_4
340
0
102
{BLKREFS
331
82
102
}
 70
     0
280
     1
281
     0
  0
BLOCK_RECORD
  5
A3
330
1
100
AcDbSymbolTableRecord
100
AcDbBlockTableRecord
  2
3_HNG_LT7_200_0_in_033897_4
340
0
102
{BLKREFS
331
A4
102
}
 70
     0
280
     1
281
     0
  0
ENDTAB
  0
ENDSEC
  0
SECTION
  2
BLOCKS
  0
BLOCK
  5
20
330
1F
100
AcDbEntity
  8
0
100
AcDbBlockBegin
  2
*Model_Space
 70
     0
 10
0.0
 20
0.0
 30
0.0
  3
*Model_Space
  1

  0
ENDBLK
  5
21
330
1F
100
AcDbEntity
  8
0
100
AcDbBlockEnd
  0
BLOCK
  5
1C
330
1B
100
AcDbEntity
 67
     1
  8
0
100
AcDbBlockBegin
  2
*Paper_Space
 70
     0
 10
0.0
 20
0.0
 30
0.0
  3
*Paper_Space
  1

  0
ENDBLK
  5
1D
330
1B
100
AcDbEntity
 67
     1
  8
0
100
AcDbBlockEnd
  0
BLOCK
  5
24
330
23
100
AcDbEntity
  8
0
100
AcDbBlockBegin
  2
*Paper_Space0
 70
     0
 10
0.0
 20
0.0
 30
0.0
  3
*Paper_Space0
  1

  0
ENDBLK
  5
25
330
23
100
AcDbEntity
  8
0
100
AcDbBlockEnd
  0
BLOCK
  5
70
330
6E
100
AcDbEntity
  8
0
100
AcDbBlockBegin
  2
1_033897_4
 70
     2
 10
0.0
 20
0.0
 30
0.0
  3
1_033897_4
  1

  0
ATTDEF
  5
73
330
6E
100
AcDbEntity
  8
AM_6
100
AcDbText
 10
7.09375
 20
0.8937500000000008
 30
0.0
 40
0.5
  1
Sleeve Bearings -SOLIDLUBE 1-1/8 thru 2 LT700 Hanger Bearing
100
AcDbAttributeDefinition
  3

  2
NN
 70
     8
280
     0
  0
ATTDEF
  5
74
330
6E
100
AcDbEntity
  8
AM_6
100
AcDbText
 10
7.09375
 20
0.3937500000000008
 30
0.0
 40
0.5
  1
SOLIDLUBE
100
AcDbAttributeDefinition
  3

  2
NT
 70
     8
280
     0
  0
ATTDEF
  5
75
330
6E
100
AcDbEntity
  8
AM_6
100
AcDbText
 10
7.09375
 20
-0.1062499999999992
 30
0.0
 40
0.5
  1
033897
100
AcDbAttributeDefinition
  3

  2
NB
 70
     8
280
     0
  0
ATTDEF
  5
76
330
6E
100
AcDbEntity
  8
AM_6
100
AcDbText
 10
7.09375
 20
-0.6062499999999992
 30
0.0
 40
0.5
  1
$PN.
100
AcDbAttributeDefinition
  3

  2
NBSYN
 70
     8
280
     0
  0
ATTDEF
  5
77
330
6E
100
AcDbEntity
  8
AM_6
100
AcDbText
 10
7.09375
 20
-1.106249999999999
 30
0.0
 40
0.5
  1
033897
100
AcDbAttributeDefinition
  3

  2
LINA
 70
     8
280
     0
  0
ATTDEF
  5
78
330
6E
100
AcDbEntity
  8
AM_6
100
AcDbText
 10
7.09375
 20
-1.606249999999999
 30
0.0
 40
0.5
  1
2
100
AcDbAttributeDefinition
  3

  2
SS
 70
     8
280
     0
  0
ATTDEF
  5
79
330
6E
100
AcDbEntity
  8
AM_6
100
AcDbText
 10
7.09375
 20
-2.106249999999999
 30
0.0
 40
0.5
  1
033897
100
AcDbAttributeDefinition
  3

  2
PN
 70
     8
280
     0
  0
ATTDEF
  5
7A
330
6E
100
AcDbEntity
  8
AM_6
100
AcDbText
 10
7.09375
 20
-2.606249999999999
 30
0.0
 40
0.5
  1
HNG-LT7-200
100
AcDbAttributeDefinition
  3

  2
DESCRIPTION
 70
     8
280
     0
  0
ATTDEF
  5
7B
330
6E
100
AcDbEntity
  8
AM_6
100
AcDbText
 10
7.09375
 20
-3.106249999999999
 30
0.0
 40
0.5
  1
1-5/8
100
AcDbAttributeDefinition
  3

  2
A
 70
     8
280
     0
  0
ATTDEF
  5
7C
330
6E
100
AcDbEntity
  8
AM_6
100
AcDbText
 10
7.09375
 20
-3.606249999999999
 30
0.0
 40
0.5
  1
5
100
AcDbAttributeDefinition
  3

  2
B
 70
     8
280
     0
  0
ATTDEF
  5
7D
330
6E
100
AcDbEntity
  8
AM_6
100
AcDbText
 10
7.09375
 20
-4.106249999999999
 30
0.0
 40
0.5
  1
4-3/16
100
AcDbAttributeDefinition
  3

  2
F
 70
     8
280
     0
  0
ATTDEF
  5
7E
330
6E
100
AcDbEntity
  8
AM_6
100
AcDbText
 10
7.09375
 20
-4.606249999999999
 30
0.0
 40
0.5
  1
2-13/16
100
AcDbAttributeDefinition
  3

  2
L
 70
     8
280
     0
  0
ATTDEF
  5
7F
330
6E
100
AcDbEntity
  8
AM_6
100
AcDbText
 10
7.09375
 20
-5.106249999999999
 30
0.0
 40
0.5
  1
5/8
100
AcDbAttributeDefinition
  3

  2
M
 70
     8
280
     0
  0
ATTDEF
  5
80
330
6E
100
AcDbEntity
  8
AM_6
100
AcDbText
 10
7.09375
 20
-5.606249999999999
 30
0.0
 40
0.5
  1
baldor
100
AcDbAttributeDefinition
  3

  2
COMPANY
 70
     8
280
     0
  0
INSERT
  5
82
330
6E
100
AcDbEntity
  8
0
100
AcDbBlockReference
  2
2_033598_0_in_033897_4
 10
0.0
 20
0.0
 30
0.0
  0
INSERT
  5
A4
330
6E
100
AcDbEntity
  8
0
100
AcDbBlockReference
  2
3_HNG_LT7_200_0_in_033897_4
 10
0.0
 20
0.0
 30
0.0
  0
ENDBLK
  5
71
330
6E
100
AcDbEntity
  8
0
100
AcDbBlockEnd
  0
BLOCK
  5
83
330
81
100
AcDbEntity
  8
0
100
AcDbBlockBegin
  2
2_033598_0_in_033897_4
 70
     2
 10
0.0
 20
0.0
 30
0.0
  3
2_033598_0_in_033897_4
  1

  0
ATTDEF
  5
85
330
81
100
AcDbEntity
  8
AM_6
100
AcDbText
 10
6.76825
 20
0.8937500000000008
 30
0.0
 40
0.5
  1
Sleeve Bearings - SOLIDLUBE 3/4 thru 3 LT700 Inserts
100
AcDbAttributeDefinition
  3

  2
NN
 70
     8
280
     0
  0
ATTDEF
  5
86
330
81
100
AcDbEntity
  8
AM_6
100
AcDbText
 10
6.76825
 20
0.3937500000000008
 30
0.0
 40
0.5
  1
SOLIDLUBE
100
AcDbAttributeDefinition
  3

  2
NT
 70
     8
280
     0
  0
ATTDEF
  5
87
330
81
100
AcDbEntity
  8
AM_6
100
AcDbText
 10
6.76825
 20
-0.1062499999999992
 30
0.0
 40
0.5
  1
033598
100
AcDbAttributeDefinition
  3

  2
NB
 70
     8
280
     0
  0
ATTDEF
  5
88
330
81
100
AcDbEntity
  8
AM_6
100
AcDbText
 10
6.76825
 20
-0.6062499999999992
 30
0.0
 40
0.5
  1
$PN.
100
AcDbAttributeDefinition
  3

  2
NBSYN
 70
     8
280
     0
  0
ATTDEF
  5
89
330
81
100
AcDbEntity
  8
AM_6
100
AcDbText
 10
6.76825
 20
-1.106249999999999
 30
0.0
 40
0.5
  1
033598
100
AcDbAttributeDefinition
  3

  2
LINA
 70
     8
280
     0
  0
ATTDEF
  5
8A
330
81
100
AcDbEntity
  8
AM_6
100
AcDbText
 10
6.76825
 20
-1.606249999999999
 30
0.0
 40
0.5
  1
210
100
AcDbAttributeDefinition
  3

  2
SERIES
 70
     8
280
     0
  0
ATTDEF
  5
8B
330
81
100
AcDbEntity
  8
AM_6
100
AcDbText
 10
6.76825
 20
-2.106249999999999
 30
0.0
 40
0.5
  1
2
100
AcDbAttributeDefinition
  3

  2
SS
 70
     8
280
     0
  0
ATTDEF
  5
8C
330
81
100
AcDbEntity
  8
AM_6
100
AcDbText
 10
6.76825
 20
-2.606249999999999
 30
0.0
 40
0.5
  1
033598
100
AcDbAttributeDefinition
  3

  2
PN
 70
     8
280
     0
  0
ATTDEF
  5
8D
330
81
100
AcDbEntity
  8
AM_6
100
AcDbText
 10
6.76825
 20
-3.106249999999999
 30
0.0
 40
0.5
  1
INS-LT7-200
100
AcDbAttributeDefinition
  3

  2
DESCRIPTION
 70
     8
280
     0
  0
ATTDEF
  5
8E
330
81
100
AcDbEntity
  8
AM_6
100
AcDbText
 10
6.76825
 20
-3.606249999999999
 30
0.0
 40
0.5
  1
1.6
100
AcDbAttributeDefinition
  3

  2
WEIGHT
 70
     8
280
     0
  0
ATTDEF
  5
8F
330
81
100
AcDbEntity
  8
AM_6
100
AcDbText
 10
6.76825
 20
-4.106249999999999
 30
0.0
 40
0.5
  1
1-5/8
100
AcDbAttributeDefinition
  3

  2
A
 70
     8
280
     0
  0
ATTDEF
  5
90
330
81
100
AcDbEntity
  8
AM_6
100
AcDbText
 10
6.76825
 20
-4.606249999999999
 30
0.0
 40
0.5
  1
7/8
100
AcDbAttributeDefinition
  3

  2
C
 70
     8
280
     0
  0
ATTDEF
  5
91
330
81
100
AcDbEntity
  8
AM_6
100
AcDbText
 10
6.76825
 20
-5.106249999999999
 30
0.0
 40
0.5
  1
2-13/16
100
AcDbAttributeDefinition
  3

  2
L
 70
     8
280
     0
  0
ATTDEF
  5
92
330
81
100
AcDbEntity
  8
AM_6
100
AcDbText
 10
6.76825
 20
-5.606249999999999
 30
0.0
 40
0.5
  1
3.5375/3.5355
100
AcDbAttributeDefinition
  3

  2
S
 70
     8
280
     0
  0
ATTDEF
  5
93
330
81
100
AcDbEntity
  8
AM_6
100
AcDbText
 10
6.76825
 20
-6.106249999999999
 30
0.0
 40
0.5
  1
baldor
100
AcDbAttributeDefinition
  3

  2
COMPANY
 70
     8
280
     0
  0
LINE
  5
96
330
81
100
AcDbEntity
  8
AM_9
100
AcDbLine
 10
-1.0
 20
0.8125
 30
0.0
 11
-1.0
 21
-0.8125
 31
0.0
  0
LINE
  5
97
330
81
100
AcDbEntity
  8
AM_9
100
AcDbLine
 10
1.0
 20
-0.8125
 30
0.0
 11
1.0
 21
0.8125
 31
0.0
  0
ARC
  5
98
330
81
100
AcDbEntity
  8
AM_9
100
AcDbCircle
 10
-1.76825
 20
-0.8125000000000004
 30
0.0
 40
0.3750000000000002
100
AcDbArc
 50
0.0
 51
90.0
  0
ARC
  5
99
330
81
100
AcDbEntity
  8
AM_9
100
AcDbCircle
 10
1.76825
 20
-0.8125000000000004
 30
0.0
 40
0.3750000000000003
100
AcDbArc
 50
90.0
 51
180.0
  0
LINE
  5
9A
330
81
100
AcDbEntity
  8
AM_9
100
AcDbLine
 10
-1.76825
 20
0.4375000000000001
 30
0.0
 11
-1.76825
 21
-0.4375000000000002
 31
0.0
  0
LINE
  5
9B
330
81
100
AcDbEntity
  8
AM_9
100
AcDbLine
 10
1.76825
 20
-0.4375000000000002
 30
0.0
 11
1.76825
 21
0.4375000000000001
 31
0.0
  0
LINE
  5
9C
330
81
100
AcDbEntity
  8
AM_9
100
AcDbLine
 10
1.76825
 20
-0.4375000000000002
 30
0.0
 11
-1.76825
 21
-0.4375000000000002
 31
0.0
  0
LINE
  5
9D
330
81
100
AcDbEntity
  8
AM_9
100
AcDbLine
 10
1.768249999999515
 20
0.4375000000000001
 30
0.0
 11
-1.76825
 21
0.4375000000000001
 31
0.0
  0
ARC
  5
9E
330
81
100
AcDbEntity
  8
AM_9
100
AcDbCircle
 10
-1.76825
 20
0.8125000000000003
 30
0.0
 40
0.3750000000000003
100
AcDbArc
 50
270.0
 51
0.0
  0
ARC
  5
9F
330
81
100
AcDbEntity
  8
AM_9
100
AcDbCircle
 10
1.76825
 20
0.8125000000000004
 30
0.0
 40
0.3750000000000002
100
AcDbArc
 50
180.0
 51
270.0
  0
LINE
  5
A2
330
81
100
AcDbEntity
  8
AM_7
100
AcDbLine
 10
0.0
 20
0.8937500000000008
 30
0.0
 11
0.0
 21
-0.89375
 31
0.0
  0
ENDBLK
  5
84
330
81
100
AcDbEntity
  8
0
100
AcDbBlockEnd
  0
BLOCK
  5
A5
330
A3
100
AcDbEntity
  8
0
100
AcDbBlockBegin
  2
3_HNG_LT7_200_0_in_033897_4
 70
     2
 10
0.0
 20
0.0
 30
0.0
  3
3_HNG_LT7_200_0_in_033897_4
  1

  0
ATTDEF
  5
A7
330
A3
100
AcDbEntity
  8
AM_6
100
AcDbText
 10
7.09375
 20
0.8125000000000001
 30
0.0
 40
0.5
  1
1-1/8" THRU 2" SOLIDLUBE LT HANGER BEARINGS - LT700 - Body
100
AcDbAttributeDefinition
  3

  2
NN
 70
     8
280
     0
  0
ATTDEF
  5
A8
330
A3
100
AcDbEntity
  8
AM_6
100
AcDbText
 10
7.09375
 20
0.3125000000000001
 30
0.0
 40
0.5
  1
SOLIDLUBE
100
AcDbAttributeDefinition
  3

  2
NT
 70
     8
280
     0
  0
ATTDEF
  5
A9
330
A3
100
AcDbEntity
  8
AM_6
100
AcDbText
 10
7.09375
 20
-0.1874999999999999
 30
0.0
 40
0.5
  1
HNG-LT7-200
100
AcDbAttributeDefinition
  3

  2
NB
 70
     8
280
     0
  0
ATTDEF
  5
AA
330
A3
100
AcDbEntity
  8
AM_6
100
AcDbText
 10
7.09375
 20
-0.6874999999999999
 30
0.0
 40
0.5
  1
$PN.
100
AcDbAttributeDefinition
  3

  2
NBSYN
 70
     8
280
     0
  0
ATTDEF
  5
AB
330
A3
100
AcDbEntity
  8
AM_6
100
AcDbText
 10
7.09375
 20
-1.1875
 30
0.0
 40
0.5
  1
HNG-LT7-200
100
AcDbAttributeDefinition
  3

  2
LINA
 70
     8
280
     0
  0
ATTDEF
  5
AC
330
A3
100
AcDbEntity
  8
AM_6
100
AcDbText
 10
7.09375
 20
-1.6875
 30
0.0
 40
0.5
  1
2
100
AcDbAttributeDefinition
  3

  2
SS
 70
     8
280
     0
  0
ATTDEF
  5
AD
330
A3
100
AcDbEntity
  8
AM_6
100
AcDbText
 10
7.09375
 20
-2.1875
 30
0.0
 40
0.5
  1
3.53650
100
AcDbAttributeDefinition
  3

  2
BOD
 70
     8
280
     0
  0
ATTDEF
  5
AE
330
A3
100
AcDbEntity
  8
AM_6
100
AcDbText
 10
7.09375
 20
-2.6875
 30
0.0
 40
0.5
  1
2.00000
100
AcDbAttributeDefinition
  3

  2
SS1
 70
     8
280
     0
  0
ATTDEF
  5
AF
330
A3
100
AcDbEntity
  8
AM_6
100
AcDbText
 10
7.09375
 20
-3.1875
 30
0.0
 40
0.5
  1
HNG-LT7-200
100
AcDbAttributeDefinition
  3

  2
PN
 70
     8
280
     0
  0
ATTDEF
  5
B0
330
A3
100
AcDbEntity
  8
AM_6
100
AcDbText
 10
7.09375
 20
-3.6875
 30
0.0
 40
0.5
  1
HNG-LT7-200
100
AcDbAttributeDefinition
  3

  2
DESCRIPTION
 70
     8
280
     0
  0
ATTDEF
  5
B1
330
A3
100
AcDbEntity
  8
AM_6
100
AcDbText
 10
7.09375
 20
-4.1875
 30
0.0
 40
0.5
  1
1-5/8
100
AcDbAttributeDefinition
  3

  2
A
 70
     8
280
     0
  0
ATTDEF
  5
B2
330
A3
100
AcDbEntity
  8
AM_6
100
AcDbText
 10
7.09375
 20
-4.6875
 30
0.0
 40
0.5
  1
1.62500
100
AcDbAttributeDefinition
  3

  2
A1
 70
     8
280
     0
  0
ATTDEF
  5
B3
330
A3
100
AcDbEntity
  8
AM_6
100
AcDbText
 10
7.09375
 20
-5.1875
 30
0.0
 40
0.5
  1
5
100
AcDbAttributeDefinition
  3

  2
B
 70
     8
280
     0
  0
ATTDEF
  5
B4
330
A3
100
AcDbEntity
  8
AM_6
100
AcDbText
 10
7.09375
 20
-5.6875
 30
0.0
 40
0.5
  1
5.00000
100
AcDbAttributeDefinition
  3

  2
B1
 70
     8
280
     0
  0
ATTDEF
  5
B5
330
A3
100
AcDbEntity
  8
AM_6
100
AcDbText
 10
7.09375
 20
-6.1875
 30
0.0
 40
0.5
  1
4-3/16
100
AcDbAttributeDefinition
  3

  2
F
 70
     8
280
     0
  0
ATTDEF
  5
B6
330
A3
100
AcDbEntity
  8
AM_6
100
AcDbText
 10
7.09375
 20
-6.6875
 30
0.0
 40
0.5
  1
4.18750
100
AcDbAttributeDefinition
  3

  2
F1
 70
     8
280
     0
  0
ATTDEF
  5
B7
330
A3
100
AcDbEntity
  8
AM_6
100
AcDbText
 10
7.09375
 20
-7.1875
 30
0.0
 40
0.5
  1
2-13/16
100
AcDbAttributeDefinition
  3

  2
L
 70
     8
280
     0
  0
ATTDEF
  5
B8
330
A3
100
AcDbEntity
  8
AM_6
100
AcDbText
 10
7.09375
 20
-7.6875
 30
0.0
 40
0.5
  1
2.81250
100
AcDbAttributeDefinition
  3

  2
L1
 70
     8
280
     0
  0
ATTDEF
  5
B9
330
A3
100
AcDbEntity
  8
AM_6
100
AcDbText
 10
7.09375
 20
-8.1875
 30
0.0
 40
0.5
  1
5/8
100
AcDbAttributeDefinition
  3

  2
M
 70
     8
280
     0
  0
ATTDEF
  5
BA
330
A3
100
AcDbEntity
  8
AM_6
100
AcDbText
 10
7.09375
 20
-8.6875
 30
0.0
 40
0.5
  1
0.62500
100
AcDbAttributeDefinition
  3

  2
M1
 70
     8
280
     0
  0
ATTDEF
  5
BB
330
A3
100
AcDbEntity
  8
AM_6
100
AcDbText
 10
7.09375
 20
-9.1875
 30
0.0
 40
0.5
  1
0.62500
100
AcDbAttributeDefinition
  3

  2
NDM
 70
     8
280
     0
  0
ATTDEF
  5
BC
330
A3
100
AcDbEntity
  8
AM_6
100
AcDbText
 10
7.09375
 20
-9.6875
 30
0.0
 40
0.5
  1
0.52700
100
AcDbAttributeDefinition
  3

  2
KDM
 70
     8
280
     0
  0
ATTDEF
  5
BD
330
A3
100
AcDbEntity
  8
AM_6
100
AcDbText
 10
7.09375
 20
-10.1875
 30
0.0
 40
0.5
  1
baldor
100
AcDbAttributeDefinition
  3

  2
COMPANY
 70
     8
280
     0
  0
LWPOLYLINE
  5
BE
330
A3
100
AcDbEntity
  8
AM_9
100
AcDbPolyline
 90
       12
 70
     0
 43
0.0
 10
-1.544720784985676
 20
-0.8125000000000003
 10
-1.56006422352401
 20
-0.8116921810533856
 10
-1.575407662062343
 20
-0.809218941556086
 10
-1.598422846554547
 20
-0.8020308822768886
 10
-1.609725421262976
 20
-0.7966879603476815
 10
-1.620434736899546
 20
-0.7902417292504524
 10
-1.63436901243348
 20
-0.7791763321181878
 10
-1.646613978694974
 20
-0.7656088625582
 10
-1.655998465877732
 20
-0.7504673656826871
 10
-1.662525130354257
 20
-0.7331725875316587
 10
-1.663917610034827
 20
-0.7270116288070922
 10
-1.665423015481005
 20
-0.7109374999999999
  0
LINE
  5
BF
330
A3
100
AcDbEntity
  8
AM_9
100
AcDbLine
 10
-1.665423015481005
 20
-0.7109374999999999
 30
0.0
 11
-0.8125
 21
-0.7109375
 31
0.0
  0
LINE
  5
C0
330
A3
100
AcDbEntity
  8
AM_9
100
AcDbLine
 10
-1.665423015481005
 20
-0.3033333333333334
 30
0.0
 11
-1.665423015481005
 21
-0.7109374999999999
 31
0.0
  0
LWPOLYLINE
  5
C1
330
A3
100
AcDbEntity
  8
AM_9
100
AcDbPolyline
 90
       13
 70
     0
 43
0.0
 10
-1.822732410023316
 20
-0.2708333333333335
 10
-1.84734376643677
 20
-0.2691220484339676
 10
-1.871955122850224
 20
-0.2638287326332289
 10
-1.890569930383039
 20
-0.2571342227948253
 10
-1.908304053930155
 20
-0.2482127325985915
 10
-1.924701710026685
 20
-0.2371751847199074
 10
-1.944070627979716
 20
-0.2191287137317461
 10
-1.952689938587371
 20
-0.208403381236567
 10
-1.960166781518289
 20
-0.1968544336048035
 10
-1.968119843516585
 20
-0.1804182032014006
 10
-1.973690955475197
 20
-0.1626120061647934
 10
-1.97601050413162
 20
-0.1491909537893652
 10
-1.976802570776147
 20
-0.1354166666666666
  0
LINE
  5
C2
330
A3
100
AcDbEntity
  8
AM_9
100
AcDbLine
 10
-1.976802570776147
 20
-0.1354166666666666
 30
0.0
 11
-0.8125
 21
-0.1354166666666668
 31
0.0
  0
LWPOLYLINE
  5
C3
330
A3
100
AcDbEntity
  8
AM_9
100
AcDbPolyline
 90
        9
 70
     0
 43
0.0
 10
-1.703520395287508
 20
-0.2708333333333332
 10
-1.701229439825886
 20
-0.2708924872676232
 10
-1.694012676758369
 20
-0.2718665005246759
 10
-1.68686187798896
 20
-0.2741169366307586
 10
-1.680501807259058
 20
-0.2774545612856413
 10
-1.674689672967415
 20
-0.2821098963694994
 10
-1.668410658786867
 20
-0.2907344146612376
 10
-1.665517593532934
 20
-0.3010482414356381
 10
-1.665423015481005
 20
-0.3033333333333334
  0
LINE
  5
C4
330
A3
100
AcDbEntity
  8
AM_9
100
AcDbLine
 10
-1.822732410023316
 20
-0.2708333333333335
 30
0.0
 11
-0.8125
 21
-0.2708333333333336
 31
0.0
  0
LINE
  5
C5
330
A3
100
AcDbEntity
  8
AM_9
100
AcDbLine
 10
-1.665423015481005
 20
-0.3033333333333334
 30
0.0
 11
-0.8125
 21
-0.3033333333333335
 31
0.0
  0
LINE
  5
C6
330
A3
100
AcDbEntity
  8
AM_9
100
AcDbLine
 10
-1.637761770849337
 20
-0.5281249999999997
 30
0.0
 11
-1.86825
 21
-0.5281249999999998
 31
0.0
  0
LINE
  5
C7
330
A3
100
AcDbEntity
  8
AM_9
100
AcDbLine
 10
-1.745254599780662
 20
-0.5281249999999997
 30
0.0
 11
-1.745254599780662
 21
0.8125
 31
0.0
  0
LINE
  5
C8
330
A3
100
AcDbEntity
  8
AM_9
100
AcDbLine
 10
-1.86825
 20
0.8125
 30
0.0
 11
-1.86825
 21
-0.5281249999999998
 31
0.0
  0
LINE
  5
C9
330
A3
100
AcDbEntity
  8
AM_9
100
AcDbLine
 10
1.86825
 20
-0.5281249999999998
 30
0.0
 11
1.637761770849337
 21
-0.5281249999999997
 31
0.0
  0
LINE
  5
CA
330
A3
100
AcDbEntity
  8
AM_9
100
AcDbLine
 10
1.745254599780661
 20
-0.5281249999999997
 30
0.0
 11
1.745254599780661
 21
0.8125
 31
0.0
  0
LINE
  5
CB
330
A3
100
AcDbEntity
  8
AM_9
100
AcDbLine
 10
1.86825
 20
-0.5281249999999998
 30
0.0
 11
1.86825
 21
0.8125
 31
0.0
  0
LINE
  5
CC
330
A3
100
AcDbEntity
  8
AM_9
100
AcDbLine
 10
-1.124678862134445
 20
-0.5233593198128695
 30
0.0
 11
-1.014224377581058
 21
-0.5233593198128695
 31
0.0
  0
LINE
  5
CD
330
A3
100
AcDbEntity
  8
AM_9
100
AcDbLine
 10
-1.01421615458048
 20
-0.3233593198128695
 30
0.0
 11
-1.156703317644914
 21
-0.3233593198128695
 31
0.0
  0
LWPOLYLINE
  5
CE
330
A3
100
AcDbEntity
  8
AM_9
100
AcDbPolyline
 90
        6
 70
     0
 43
0.0
 10
-1.072888090317225
 20
-0.4920672580660318
 10
-1.06425990236081
 20
-0.5019481989300276
 10
-1.052974326174296
 20
-0.5112086068638249
 10
-1.040534625421747
 20
-0.5179913193594413
 10
-1.027270266300014
 20
-0.5220648523560304
 10
-1.014222349079529
 20
-0.5233593196823957
  0
LWPOLYLINE
  5
CF
330
A3
100
AcDbEntity
  8
AM_9
100
AcDbPolyline
 90
        6
 70
     0
 43
0.0
 10
-1.093722163944246
 20
-0.4375511667778304
 10
-1.092441526702992
 20
-0.446180598272707
 10
-1.088333006743931
 20
-0.4621725455610828
 10
-1.082167384990363
 20
-0.4770722652779288
 10
-1.074063704432258
 20
-0.4904545822157433
 10
-1.072888090317225
 20
-0.4920672580660318
  0
LWPOLYLINE
  5
D0
330
A3
100
AcDbEntity
  8
AM_9
100
AcDbPolyline
 90
        7
 70
     0
 43
0.0
 10
-1.076705767379304
 20
-0.3601162071731991
 10
-1.080132487015858
 20
-0.3658282914496438
 10
-1.086864333614469
 20
-0.3803732546499282
 10
-1.091540266261898
 20
-0.3961502963414714
 10
-1.094070046664174
 20
-0.4126966860537933
 10
-1.094361215931243
 20
-0.4295256447786947
 10
-1.093722163944246
 20
-0.4375511667778304
  0
LWPOLYLINE
  5
D1
330
A3
100
AcDbEntity
  8
AM_9
100
AcDbPolyline
 90
        7
 70
     0
 43
0.0
 10
-1.014218695640891
 20
-0.3233593202706347
 10
-1.02362688749356
 20
-0.3240229914268702
 10
-1.037025072106754
 20
-0.3273661814199494
 10
-1.049701858144229
 20
-0.3334060219842834
 10
-1.061306908917576
 20
-0.342013005235406
 10
-1.071542699626486
 20
-0.3529066046053886
 10
-1.076705767379304
 20
-0.3601162071731991
  0
LWPOLYLINE
  5
D2
330
A3
100
AcDbEntity
  8
AM_9
100
AcDbPolyline
 90
       11
 70
     0
 43
0.0
 10
-1.014222349079529
 20
-0.5233593196823957
 10
-1.013550466737637
 20
-0.5233559150589556
 10
-0.9997765934742038
 20
-0.5217920068375288
 10
-0.9863242447040554
 20
-0.5174610985790178
 10
-0.973592539542209
 20
-0.5104488578397216
 10
-0.9619464312767448
 20
-0.5009902234356619
 10
-0.9517399216279349
 20
-0.4893027689572792
 10
-0.9432794417104862
 20
-0.47575704472034
 10
-0.936850096805705
 20
-0.4607026619334198
 10
-0.9326292719602788
 20
-0.444592609531912
 10
-0.930688154310218
 20
-0.4233593198128696
  0
LWPOLYLINE
  5
D3
330
A3
100
AcDbEntity
  8
AM_9
100
AcDbPolyline
 90
       11
 70
     0
 43
0.0
 10
-1.124585818077197
 20
-0.5233593194484969
 10
-1.13382346811696
 20
-0.5227455544178912
 10
-1.146658696944677
 20
-0.5199707637196312
 10
-1.159820234227474
 20
-0.5149008211173126
 10
-1.172613125043322
 20
-0.5077243023623785
 10
-1.184880244859364
 20
-0.4984188735338904
 10
-1.19660493406673
 20
-0.486535623694888
 10
-1.20667232883316
 20
-0.4724627409258089
 10
-1.21309366950591
 20
-0.4594920495037491
 10
-1.217398094553697
 20
-0.4452486528009747
 10
-1.218991025524385
 20
-0.4269180143897989
  0
LWPOLYLINE
  5
D4
330
A3
100
AcDbEntity
  8
AM_9
100
AcDbPolyline
 90
       13
 70
     0
 43
0.0
 10
-1.156747964326889
 20
-0.3233593198154971
 10
-1.157571546576725
 20
-0.3233644761566478
 10
-1.162666284135563
 20
-0.3236606176183997
 10
-1.167175521555028
 20
-0.32441145338551
 10
-1.175279443922787
 20
-0.327379025105788
 10
-1.182601607412012
 20
-0.3322321929657836
 10
-1.190561728654452
 20
-0.3401313434375625
 10
-1.198230913986807
 20
-0.3507868081234088
 10
-1.205048597796719
 20
-0.3636674903902723
 10
-1.21098508328718
 20
-0.3791603829866
 10
-1.214915552773147
 20
-0.3938275077241247
 10
-1.217655163457159
 20
-0.4098056599231621
 10
-1.218991025524386
 20
-0.4269180143897988
  0
LINE
  5
D5
330
A3
100
AcDbEntity
  8
AM_9
100
AcDbLine
 10
-1.637761770849337
 20
-0.5281249999999997
 30
0.0
 11
-1.637761770849337
 21
0.8125
 31
0.0
  0
LINE
  5
D6
330
A3
100
AcDbEntity
  8
AM_9
100
AcDbLine
 10
1.637761770849337
 20
0.8125
 30
0.0
 11
1.637761770849337
 21
-0.5281249999999997
 31
0.0
  0
LWPOLYLINE
  5
D7
330
A3
100
AcDbEntity
  8
AM_9
100
AcDbPolyline
 90
       11
 70
     0
 43
0.0
 10
-0.930688154310218
 20
-0.4233593198128696
 10
-0.9319031853761329
 20
-0.4065874728324543
 10
-0.935474846390911
 20
-0.3902887545094736
 10
-0.9413230668226945
 20
-0.3749362418229589
 10
-0.949233455409493
 20
-0.360947019032338
 10
-0.958999122209987
 20
-0.3487266502404158
 10
-0.9702903341925682
 20
-0.3386085184215249
 10
-0.9827932860766799
 20
-0.3309065914815261
 10
-0.9961140595906993
 20
-0.3258127803075808
 10
-1.009853561632169
 20
-0.3235117047825313
 10
-1.014218695640891
 20
-0.3233593202706347
  0
LINE
  5
D8
330
A3
100
AcDbEntity
  8
AM_9
100
AcDbLine
 10
1.76825
 20
-0.8125
 30
0.0
 11
1.76825
 21
-0.5281249999999998
 31
0.0
  0
LINE
  5
D9
330
A3
100
AcDbEntity
  8
AM_9
100
AcDbLine
 10
-1.76825
 20
-0.5281249999999998
 30
0.0
 11
-1.76825
 21
-0.8125
 31
0.0
  0
ELLIPSE
  5
DA
330
A3
100
AcDbEntity
  8
AM_9
100
AcDbEllipse
 10
-1.303240874782194
 20
-0.4233593198128693
 30
0.0
 11
-4.707848945648382E-18
 21
-0.02562833599002406
 31
0.0
210
0.0
220
0.0
230
1.0
 40
0.8191520442889849
 41
0.8348136984626677
 42
5.448371608716911
  0
LWPOLYLINE
  5
DB
330
A3
100
AcDbEntity
  8
AM_9
100
AcDbPolyline
 90
       11
 70
     0
 43
0.0
 10
-1.246363623425915
 20
-0.3796261946009098
 10
-1.249184128597135
 20
-0.3768719574946988
 10
-1.260800547842605
 20
-0.3672605800758126
 10
-1.273688990938372
 20
-0.3600049562015703
 10
-1.28271598310869
 20
-0.3571427501230222
 10
-1.292325991974753
 20
-0.3561211269825921
 10
-1.301647343624391
 20
-0.3571162200262833
 10
-1.310940857504189
 20
-0.3600830447174065
 10
-1.319459238394548
 20
-0.3646572336973469
 10
-1.327338766055591
 20
-0.3707357271060924
 10
-1.335564200559503
 20
-0.3796261946010687
  0
LWPOLYLINE
  5
DC
330
A3
100
AcDbEntity
  8
AM_9
100
AcDbPolyline
 90
       14
 70
     0
 43
0.0
 10
-1.055264389462682
 20
-0.4269180143898029
 10
-1.054976979442383
 20
-0.4149065876555015
 10
-1.056313976795051
 20
-0.4027675181252973
 10
-1.060159842204069
 20
-0.3883369164512147
 10
-1.066525211916036
 20
-0.3744000192328541
 10
-1.074892676526289
 20
-0.3620254837586565
 10
-1.085403105899842
 20
-0.3508904147027977
 10
-1.097855494288036
 20
-0.341329694501632
 10
-1.111964989971208
 20
-0.3336119987908257
 10
-1.12825756214052
 20
-0.3276677675882693
 10
-1.136805325708093
 20
-0.325584489483163
 10
-1.145411676395736
 20
-0.3241451037309832
 10
-1.151641936222201
 20
-0.3235346877797891
 10
-1.156747964326889
 20
-0.3233593198154971
  0
ELLIPSE
  5
DD
330
A3
100
AcDbEntity
  8
AM_9
100
AcDbEllipse
 10
-1.197113852164909
 20
-0.3101064282164656
 30
0.0
 11
-0.05844777658844925
 21
0.00591123285255907
 31
0.0
210
0.0
220
0.0
230
1.0
 40
0.1422442597229243
 41
0.0
 42
6.283185307179586
  0
LWPOLYLINE
  5
DE
330
A3
100
AcDbEntity
  8
AM_9
100
AcDbPolyline
 90
       23
 70
     0
 43
0.0
 10
-1.197215150711966
 20
-0.3006763334270309
 10
-1.202600568627902
 20
-0.3001715177002702
 10
-1.212802090487543
 20
-0.299374607878841
 10
-1.22292739940929
 20
-0.2987995723918324
 10
-1.233012205797112
 20
-0.2984626256080987
 10
-1.243192827873608
 20
-0.298399530509165
 10
-1.253853839650331
 20
-0.2986995770505743
 10
-1.266153743371748
 20
-0.2996545053984653
 10
-1.274928616346821
 20
-0.3008587655361568
 10
-1.283216522641961
 20
-0.3025004385441098
 10
-1.291494912525661
 20
-0.3047199087895512
 10
-1.299854251645206
 20
-0.3076403432401264
 10
-1.30827364090739
 20
-0.3113736585243876
 10
-1.316639992346032
 20
-0.3159960579679598
 10
-1.324755909185494
 20
-0.3215118392020651
 10
-1.332441874918046
 20
-0.3278864042679933
 10
-1.339550431367892
 20
-0.3350623269203262
 10
-1.345960699147247
 20
-0.3429654964091056
 10
-1.35157636501778
 20
-0.3515133019918852
 10
-1.356319083949315
 20
-0.360615293464473
 10
-1.360125607496689
 20
-0.3701741019622876
 10
-1.363190898563525
 20
-0.3811746991898275
 10
-1.364636952581567
 20
-0.3893987095791462
  0
LWPOLYLINE
  5
DF
330
A3
100
AcDbEntity
  8
AM_9
100
AcDbPolyline
 90
       25
 70
     0
 43
0.0
 10
-1.048861877221615
 20
-0.4213697682668764
 10
-1.048700357313529
 20
-0.4184084261136305
 10
-1.048844037524129
 20
-0.4076487178371832
 10
-1.050089549968719
 20
-0.3971919428181214
 10
-1.052355026365037
 20
-0.3871297010147549
 10
-1.055554217483361
 20
-0.3775438093489171
 10
-1.059596239727344
 20
-0.3685056693482115
 10
-1.064385542251373
 20
-0.3600757662086623
 10
-1.069821788504554
 20
-0.3523033167036534
 10
-1.075797179203655
 20
-0.3452283345933287
 10
-1.082196002341977
 20
-0.3388787195501533
 10
-1.088893104790468
 20
-0.3332687832381023
 10
-1.095759377701772
 20
-0.3283925798409169
 10
-1.102690625145205
 20
-0.324208373898093
 10
-1.109673422486939
 20
-0.3206199357473796
 10
-1.116815537314141
 20
-0.3174954854636598
 10
-1.124477458617836
 20
-0.3146510544446705
 10
-1.133546194265016
 20
-0.3118257938896255
 10
-1.145954310956242
 20
-0.3086724090242537
 10
-1.155959937145343
 20
-0.3065732214245622
 10
-1.165639214696937
 20
-0.3048324870035587
 10
-1.176110755678797
 20
-0.3032158979272594
 10
-1.186439011033119
 20
-0.3018593729470618
 10
-1.1961175693707
 20
-0.3007862628713295
 10
-1.197215150711966
 20
-0.3006763334270309
  0
LWPOLYLINE
  5
E0
330
A3
100
AcDbEntity
  8
AM_9
100
AcDbPolyline
 90
        6
 70
     0
 43
0.0
 10
-1.3188006606035
 20
-0.4405640260676843
 10
-1.311610630082506
 20
-0.441084517387941
 10
-1.301620373370104
 20
-0.4413975269222842
 10
-1.299197460854892
 20
-0.4412938759034156
 10
-1.293512052987187
 20
-0.4409006353601685
 10
-1.287681088960888
 20
-0.4405640260676842
  0
LWPOLYLINE
  5
E1
330
A3
100
AcDbEntity
  8
AM_9
100
AcDbPolyline
 90
       11
 70
     0
 43
0.0
 10
-1.246363623425915
 20
-0.3796261946009098
 10
-1.239445965009917
 20
-0.3886357781902383
 10
-1.235801494863344
 20
-0.3984445279607627
 10
-1.235933419006634
 20
-0.4091119224389761
 10
-1.239350828339929
 20
-0.4176633289761261
 10
-1.245220998246767
 20
-0.4249596450227131
 10
-1.250681259794575
 20
-0.4294109825361208
 10
-1.25686202642291
 20
-0.4330987857111467
 10
-1.265434478968589
 20
-0.4366931324648185
 10
-1.274443407034093
 20
-0.4390865479777218
 10
-1.287681088960888
 20
-0.4405640260676842
  0
ELLIPSE
  5
E2
330
A3
100
AcDbEntity
  8
AM_9
100
AcDbEllipse
 10
-1.206762787220959
 20
-0.4055110273143806
 30
0.0
 11
0.1578916826749468
 21
-0.01596869130447754
 31
0.0
210
0.0
220
0.0
230
1.0
 40
0.1422442597238995
 41
6.011673716160113
 42
8.121857055033598
  0
LWPOLYLINE
  5
E3
330
A3
100
AcDbEntity
  8
AM_9
100
AcDbPolyline
 90
       12
 70
     0
 43
0.0
 10
-1.055264389462697
 20
-0.4269180143897967
 10
-1.056277969203301
 20
-0.4363836913125343
 10
-1.058277501773148
 20
-0.4495593922722029
 10
-1.061073398445936
 20
-0.4625288303953272
 10
-1.064715598399836
 20
-0.4747087326633896
 10
-1.069377194714661
 20
-0.4860549759269023
 10
-1.076077093439668
 20
-0.4976387388604112
 10
-1.084492878450924
 20
-0.5075702669111409
 10
-1.094958893623375
 20
-0.5155575928128989
 10
-1.107526016481645
 20
-0.5209933180674736
 10
-1.120015139552578
 20
-0.5232000377379642
 10
-1.124585818077197
 20
-0.5233593194484969
  0
ELLIPSE
  5
E4
330
A3
100
AcDbEntity
  8
AM_9
100
AcDbEllipse
 10
-1.206762787220935
 20
-0.4055110273143818
 30
0.0
 11
0.1578916826749821
 21
-0.01596869130447998
 31
0.0
210
0.0
220
0.0
230
1.0
 40
0.1422442597229392
 41
2.53907420548263
 42
4.64925754435622
  0
LWPOLYLINE
  5
E5
330
A3
100
AcDbEntity
  8
AM_9
100
AcDbPolyline
 90
       11
 70
     0
 43
0.0
 10
-1.3188006606035
 20
-0.4405640260676843
 10
-1.325814453303476
 20
-0.4398181664445252
 10
-1.331598989098674
 20
-0.4381873738017106
 10
-1.336677337201868
 20
-0.4355167147567681
 10
-1.340952226825474
 20
-0.4316201536411512
 10
-1.344215044716977
 20
-0.4263824749040102
 10
-1.346497759754358
 20
-0.4181596420870562
 10
-1.346632761128901
 20
-0.4080126666239652
 10
-1.344933295471731
 20
-0.3987700185850917
 10
-1.341898410639773
 20
-0.3902574053911224
 10
-1.335564200559503
 20
-0.3796261946010687
  0
LINE
  5
E6
330
A3
100
AcDbEntity
  8
AM_9
100
AcDbLine
 10
-1.364642676454833
 20
-0.3894416323568682
 30
0.0
 11
-1.408254250808467
 21
-0.7170155828333561
 31
0.0
  0
LINE
  5
E7
330
A3
100
AcDbEntity
  8
AM_9
100
AcDbLine
 10
-1.071722873015247
 20
-0.7510513572022541
 30
0.0
 11
-1.048862495682074
 21
-0.4213786928872401
 31
0.0
  0
ELLIPSE
  5
E8
330
A3
100
AcDbEntity
  8
AM_9
100
AcDbEllipse
 10
-1.239999433423494
 20
-0.7341409629383431
 30
0.0
 11
0.1682673858209265
 21
-0.0170180588062856
 31
0.0
210
0.0
220
0.0
230
1.0
 40
0.1422442597229245
 41
5.908027746315879
 42
9.759019293375385
  0
LINE
  5
E9
330
A3
100
AcDbEntity
  8
AM_9
100
AcDbLine
 10
-1.40591594619794
 20
-0.7136616889989434
 30
0.0
 11
-1.431366632720349
 21
-0.732704451907301
 31
0.0
  0
LINE
  5
EA
330
A3
100
AcDbEntity
  8
AM_9
100
AcDbLine
 10
-1.048846369615198
 20
-0.7748438241237177
 30
0.0
 11
-1.073342289779094
 21
-0.7472971912963441
 31
0.0
  0
LINE
  5
EB
330
A3
100
AcDbEntity
  8
AM_7
100
AcDbLine
 10
-0.328125
 20
0.0000000000000002
 30
0.0
 11
0.328125
 21
0.0000000000000002
 31
0.0
  0
LINE
  5
ED
330
A3
100
AcDbEntity
  8
AM_4
100
AcDbLine
 10
2.039583333333334
 20
-0.8124999999999999
 30
0.0
 11
2.039583333333334
 21
0.8125000000000001
 31
0.0
  0
LINE
  5
EE
330
A3
100
AcDbEntity
  8
AM_4
100
AcDbLine
 10
2.09375
 20
-0.8124999999999999
 30
0.0
 11
2.09375
 21
0.8125000000000001
 31
0.0
  0
LINE
  5
EF
330
A3
100
AcDbEntity
  8
AM_4
100
AcDbLine
 10
-2.09375
 20
-0.8124999999999999
 30
0.0
 11
-2.09375
 21
0.8125000000000001
 31
0.0
  0
LINE
  5
F0
330
A3
100
AcDbEntity
  8
AM_4
100
AcDbLine
 10
-2.039583333333333
 20
-0.8124999999999999
 30
0.0
 11
-2.039583333333333
 21
0.8125000000000001
 31
0.0
  0
ELLIPSE
  5
F1
330
A3
100
AcDbEntity
  8
AM_4
100
AcDbEllipse
 10
-1.239999433423493
 20
-0.7341409629383431
 30
0.0
 11
0.1682673858209263
 21
-0.01701805880628558
 31
0.0
210
0.0
220
0.0
230
1.0
 40
0.142244259722924
 41
3.475833986195799
 42
5.908027746315876
  0
LWPOLYLINE
  5
F2
330
A3
100
AcDbEntity
  8
AM_4
100
AcDbPolyline
 90
       28
 70
     0
 43
0.0
 10
-1.048754601850485
 20
-0.774947020641925
 10
-1.049353369939807
 20
-0.7743295577956384
 10
-1.053975816219487
 20
-0.770807957464327
 10
-1.061021573127578
 20
-0.7671130168867625
 10
-1.070355063194253
 20
-0.7633189179520908
 10
-1.081801046026343
 20
-0.7594983176855342
 10
-1.095366256171072
 20
-0.7556655488875762
 10
-1.110833563960967
 20
-0.7518776218672926
 10
-1.127913562356366
 20
-0.748203358740432
 10
-1.146464231570455
 20
-0.7446769521890861
 10
-1.166293162642433
 20
-0.7413244602671188
 10
-1.187025257019647
 20
-0.7382045454455377
 10
-1.208356328756506
 20
-0.7353600747160735
 10
-1.230182493738948
 20
-0.73279164511425
 10
-1.252086630622636
 20
-0.7305430439750547
 10
-1.273683742246421
 20
-0.7286492822608317
 10
-1.294941527363058
 20
-0.727100520374833
 10
-1.315452853937162
 20
-0.7259226443499522
 10
-1.334869117674348
 20
-0.7251333608018771
 10
-1.353167815861221
 20
-0.7247235099640293
 10
-1.370001607694671
 20
-0.7246997961451418
 10
-1.385133750256737
 20
-0.7250652185904495
 10
-1.39851119771169
 20
-0.7258114076169419
 10
-1.409885211889191
 20
-0.7269261148296494
 10
-1.419129835685821
 20
-0.7284076662300245
 10
-1.426181309357292
 20
-0.7302400826029724
 10
-1.430913764747058
 20
-0.7323933795112278
 10
-1.431461999515238
 20
-0.7327758074388427
  0
LWPOLYLINE
  5
F3
330
A3
100
AcDbEntity
  8
AM_4
100
AcDbPolyline
 90
        9
 70
     0
 43
0.0
 10
-1.431461999515238
 20
-0.7327758074388427
 10
-1.433261938924892
 20
-0.7348692722139685
 10
-1.433213944971363
 20
-0.7376356976760648
 10
-1.430777151058396
 20
-0.7406466955080089
 10
-1.425904960064233
 20
-0.7439066987309938
 10
-1.418690219531409
 20
-0.7473664263695405
 10
-1.409271589937284
 20
-0.7509662602429183
 10
-1.395406404462542
 20
-0.7553603069959028
 10
-1.378843610955652
 20
-0.7598368728550292
  0
LINE
  5
F4
330
A3
100
AcDbEntity
  8
AM_4
100
AcDbLine
 10
-1.665423015481004
 20
0.3033333333333339
 30
0.0
 11
-1.665423015481005
 21
0.7109375015133991
 31
0.0
  0
LINE
  5
F5
330
A3
100
AcDbEntity
  8
AM_4
100
AcDbLine
 10
1.665423015481004
 20
-0.3033333333333334
 30
0.0
 11
1.665423015481005
 21
-0.7109374999999997
 31
0.0
  0
LINE
  5
F6
330
A3
100
AcDbEntity
  8
AM_4
100
AcDbLine
 10
1.665423015481006
 20
0.7109374999999999
 30
0.0
 11
1.665423015481005
 21
0.3033333333333335
 31
0.0
  0
LINE
  5
F7
330
A3
100
AcDbEntity
  8
AM_4
100
AcDbLine
 10
-1.665423015481005
 20
0.7109375015133991
 30
0.0
 11
-0.8125
 21
0.7109375015133991
 31
0.0
  0
LWPOLYLINE
  5
F8
330
A3
100
AcDbEntity
  8
AM_4
100
AcDbPolyline
 90
       12
 70
     0
 43
0.0
 10
-1.544720784985677
 20
0.8125000000000001
 10
-1.560064223524009
 20
0.8116921810533857
 10
-1.575407662062341
 20
0.8092189415560865
 10
-1.598422846554545
 20
0.8020308822768895
 10
-1.609670180070998
 20
0.7967188152053781
 10
-1.620434736899544
 20
0.7902417292504539
 10
-1.634369012433478
 20
0.7791763321181893
 10
-1.646613978694973
 20
0.7656088625582014
 10
-1.655998465877732
 20
0.7504673656826887
 10
-1.662525130354257
 20
0.7331725875316598
 10
-1.663917610034827
 20
0.7270116288070925
 10
-1.665423015481005
 20
0.7109375015133991
  0
LWPOLYLINE
  5
F9
330
A3
100
AcDbEntity
  8
AM_4
100
AcDbPolyline
 90
       12
 70
     0
 43
0.0
 10
1.544720784985675
 20
-0.8124999999999999
 10
1.561011322977352
 20
-0.8115887400173638
 10
1.577301860969028
 20
-0.8087921095137942
 10
1.600168188969719
 20
-0.8012926997332563
 10
1.61131698797968
 20
-0.795823605686257
 10
1.62196394327216
 20
-0.7891916698080256
 10
1.635618266217657
 20
-0.7779927981032668
 10
1.64755675398505
 20
-0.7643368759722742
 10
1.656633780523967
 20
-0.7491655097036415
 10
1.662849017636
 20
-0.7319078627217993
 10
1.66476562519738
 20
-0.7215789789127397
 10
1.665423015481005
 20
-0.7109374999999997
  0
LINE
  5
FA
330
A3
100
AcDbEntity
  8
AM_4
100
AcDbLine
 10
0.8125
 20
-0.7109374999999997
 30
0.0
 11
1.665423015481005
 21
-0.7109374999999997
 31
0.0
  0
LINE
  5
FB
330
A3
100
AcDbEntity
  8
AM_4
100
AcDbLine
 10
0.8125
 20
0.7109374999999999
 30
0.0
 11
1.665423015481006
 21
0.7109374999999999
 31
0.0
  0
LWPOLYLINE
  5
FC
330
A3
100
AcDbEntity
  8
AM_4
100
AcDbPolyline
 90
       12
 70
     0
 43
0.0
 10
1.665423015481006
 20
0.7109374999999999
 10
1.664252517066213
 20
0.7251214859100333
 10
1.660740890952026
 20
0.7390915061689753
 10
1.654866139502599
 20
0.7526695360389742
 10
1.646831414789634
 20
0.7653191991377036
 10
1.636753397271758
 20
0.7768840511599399
 10
1.624046450164986
 20
0.7877032150172545
 10
1.609592717555473
 20
0.7967601355060673
 10
1.591986834875039
 20
0.8045023789916782
 10
1.573032904055802
 20
0.8097153133580572
 10
1.559015212316192
 20
0.8117993798327081
 10
1.544720784985677
 20
0.8125000000000001
  0
LWPOLYLINE
  5
FD
330
A3
100
AcDbEntity
  8
AM_4
100
AcDbPolyline
 90
        9
 70
     0
 43
0.0
 10
1.703520395287509
 20
-0.2708333333333332
 10
1.697030602550005
 20
-0.271310786278127
 10
1.689889899298512
 20
-0.2729934448599796
 10
1.682944871833441
 20
-0.2759968049231843
 10
1.677139322894109
 20
-0.2799066727691292
 10
1.672022404596158
 20
-0.2850722500165265
 10
1.667021994440369
 20
-0.2940300924062601
 10
1.665423036201882
 20
-0.3032994894904577
 10
1.665423015481004
 20
-0.3033333333333334
  0
LINE
  5
FE
330
A3
100
AcDbEntity
  8
AM_4
100
AcDbLine
 10
0.8125
 20
-0.3033333333333333
 30
0.0
 11
1.665423015481004
 21
-0.3033333333333334
 31
0.0
  0
LINE
  5
FF
330
A3
100
AcDbEntity
  8
AM_4
100
AcDbLine
 10
-1.665423015481004
 20
0.3033333333333339
 30
0.0
 11
-0.8125
 21
0.303333333333334
 31
0.0
  0
LWPOLYLINE
  5
100
330
A3
100
AcDbEntity
  8
AM_4
100
AcDbPolyline
 90
        7
 70
     0
 43
0.0
 10
-1.703520395287508
 20
0.2708333333333334
 10
-1.691053101781432
 20
0.2726304494197825
 10
-1.684262575285289
 20
0.2753059359158671
 10
-1.677869910531539
 20
0.2793235732953119
 10
-1.670224189680121
 20
0.287559313075369
 10
-1.665939799547458
 20
0.2980065347926216
 10
-1.665423015481004
 20
0.3033333333333339
  0
LWPOLYLINE
  5
101
330
A3
100
AcDbEntity
  8
AM_4
100
AcDbPolyline
 90
        7
 70
     0
 43
0.0
 10
1.665423015481005
 20
0.3033333333333335
 10
1.665482242418606
 20
0.3015246271390924
 10
1.666819650155254
 20
0.2946269623972269
 10
1.671894494407697
 20
0.2852336084116167
 10
1.679686005044582
 20
0.2779979633171126
 10
1.690288835197283
 20
0.2728648225892945
 10
1.703520395287507
 20
0.2708333333333334
  0
LINE
  5
102
330
A3
100
AcDbEntity
  8
AM_4
100
AcDbLine
 10
0.8125
 20
0.3033333333333336
 30
0.0
 11
1.665423015481005
 21
0.3033333333333335
 31
0.0
  0
LINE
  5
103
330
A3
100
AcDbEntity
  8
AM_4
100
AcDbLine
 10
-1.282266287254988
 20
-0.8124999999999999
 30
0.0
 11
-1.94646724502701
 21
-0.7142106662584817
 31
0.0
  0
LWPOLYLINE
  5
104
330
A3
100
AcDbEntity
  8
AM_4
100
AcDbPolyline
 90
       23
 70
     0
 43
0.0
 10
-1.378843610955652
 20
-0.7598368728550292
 10
-1.358191992853664
 20
-0.7646871135515374
 10
-1.335131921118895
 20
-0.7694470661563784
 10
-1.315471242371532
 20
-0.7730795778490195
 10
-1.294770338462371
 20
-0.7765521133441596
 10
-1.273419193680321
 20
-0.7797922226459502
 10
-1.251701073300346
 20
-0.7827462583606187
 10
-1.229744066764094
 20
-0.7853940130372526
 10
-1.207967655397891
 20
-0.7876754665434026
 10
-1.186773469262462
 20
-0.7895386135920647
 10
-1.166167777951343
 20
-0.7909849785576837
 10
-1.146547308152607
 20
-0.7919798275574752
 10
-1.128293913956435
 20
-0.7924979470692113
 10
-1.111369685083331
 20
-0.7925511183670437
 10
-1.096096473256377
 20
-0.7921379764104983
 10
-1.082708322963341
 20
-0.7912626379531275
 10
-1.071221576738298
 20
-0.7899442305594689
 10
-1.061846781710408
 20
-0.7882136131157526
 10
-1.054678854237043
 20
-0.7860818136524066
 10
-1.049778488279467
 20
-0.7835876971986594
 10
-1.047228891108315
 20
-0.7807861271800708
 10
-1.0470884899604
 20
-0.7776784585336094
 10
-1.048754601850485
 20
-0.774947020641925
  0
LINE
  5
105
330
A3
100
AcDbEntity
  8
AM_4
100
AcDbLine
 10
-1.976802570776147
 20
-0.6822044142855842
 30
0.0
 11
-1.976802570776147
 21
0.1354166666666669
 31
0.0
  0
LINE
  5
106
330
A3
100
AcDbEntity
  8
AM_4
100
AcDbLine
 10
1.976802570776147
 20
0.1354166666666668
 30
0.0
 11
1.976802570776147
 21
-0.1354166666666667
 31
0.0
  0
LINE
  5
107
330
A3
100
AcDbEntity
  8
AM_4
100
AcDbLine
 10
-1.94646724502701
 20
-0.7142106662584817
 30
0.0
 11
-0.8125
 21
-0.7142106662584817
 31
0.0
  0
LINE
  5
108
330
A3
100
AcDbEntity
  8
AM_4
100
AcDbLine
 10
-1.976802570776147
 20
-0.6822044142855842
 30
0.0
 11
-0.8125
 21
-0.6822044142855842
 31
0.0
  0
LWPOLYLINE
  5
109
330
A3
100
AcDbEntity
  8
AM_4
100
AcDbPolyline
 90
        7
 70
     0
 43
0.0
 10
-1.976802570776147
 20
-0.6822044142855842
 10
-1.976239738624098
 20
-0.6878782416133264
 10
-1.975170300000959
 20
-0.6917951988999085
 10
-1.969883487675089
 20
-0.7012058949629689
 10
-1.961863850469113
 20
-0.7083803045838727
 10
-1.951246868748568
 20
-0.7131697402899407
 10
-1.94646724502701
 20
-0.7142106662584817
  0
LINE
  5
10A
330
A3
100
AcDbEntity
  8
AM_4
100
AcDbLine
 10
0.8125
 20
-0.2708333333333332
 30
0.0
 11
1.822732410023317
 21
-0.2708333333333547
 31
0.0
  0
LWPOLYLINE
  5
10B
330
A3
100
AcDbEntity
  8
AM_4
100
AcDbPolyline
 90
       15
 70
     0
 43
0.0
 10
1.822732410023317
 20
-0.2708333333333547
 10
1.835610367965721
 20
-0.2703676677962379
 10
1.864877184581679
 20
-0.265739871183958
 10
1.87954551107466
 20
-0.2614051287480007
 10
1.893755091697559
 20
-0.2557482352472976
 10
1.906409634511849
 20
-0.249318816428601
 10
1.918430858433026
 20
-0.2417737272365727
 10
1.930091691615683
 20
-0.2327939093083937
 10
1.940789382736797
 20
-0.2226886656802158
 10
1.956395780591535
 20
-0.2030106040384787
 10
1.962959754347745
 20
-0.1917303322379854
 10
1.968346514760106
 20
-0.1798441311061729
 10
1.97451212073672
 20
-0.1587813819509143
 10
1.976800025185325
 20
-0.1361985714937608
 10
1.976802570776147
 20
-0.1354166666666667
  0
LINE
  5
10C
330
A3
100
AcDbEntity
  8
AM_4
100
AcDbLine
 10
0.8125
 20
-0.1354166666666667
 30
0.0
 11
1.976802570776147
 21
-0.1354166666666667
 31
0.0
  0
LINE
  5
10D
330
A3
100
AcDbEntity
  8
AM_4
100
AcDbLine
 10
-1.976802570776147
 20
0.1354166666666669
 30
0.0
 11
-0.8125
 21
0.1354166666666669
 31
0.0
  0
LINE
  5
10E
330
A3
100
AcDbEntity
  8
AM_4
100
AcDbLine
 10
-1.822732410023316
 20
0.2708333333333348
 30
0.0
 11
-0.8125
 21
0.2708333333333338
 31
0.0
  0
LWPOLYLINE
  5
10F
330
A3
100
AcDbEntity
  8
AM_4
100
AcDbPolyline
 90
       14
 70
     0
 43
0.0
 10
-1.822732410023316
 20
0.2708333333333348
 10
-1.847343766436769
 20
0.2691220484339678
 10
-1.871955122850222
 20
0.2638287326332294
 10
-1.885772755606875
 20
0.2591135911001722
 10
-1.899118587677999
 20
0.2531961613670268
 10
-1.912303041416027
 20
0.2458113919100072
 10
-1.924701710026684
 20
0.2371751847199076
 10
-1.944070627979716
 20
0.2191287137317465
 10
-1.952648857525166
 20
0.2084634446695359
 10
-1.960166781518289
 20
0.1968544336048038
 10
-1.968119843516585
 20
0.1804182032014008
 10
-1.973690955475197
 20
0.1626120061647938
 10
-1.97601050413162
 20
0.1491909537893655
 10
-1.976802570776147
 20
0.1354166666666669
  0
LINE
  5
110
330
A3
100
AcDbEntity
  8
AM_4
100
AcDbLine
 10
0.8125
 20
0.1354166666666673
 30
0.0
 11
1.976802570776147
 21
0.1354166666666668
 31
0.0
  0
LWPOLYLINE
  5
111
330
A3
100
AcDbEntity
  8
AM_4
100
AcDbPolyline
 90
       12
 70
     0
 43
0.0
 10
1.976802570776147
 20
0.1354166666666668
 10
1.976675288452398
 20
0.1409444813305206
 10
1.974074257407733
 20
0.1608983575099617
 10
1.968010303720407
 20
0.1806926929857053
 10
1.959000165812492
 20
0.19884186532796
 10
1.946958839439846
 20
0.2157772440647689
 10
1.931815177202333
 20
0.2313035396762711
 10
1.914091380614223
 20
0.2446776122823811
 10
1.892922980442164
 20
0.2561227121774311
 10
1.869750398421152
 20
0.2644591881049584
 10
1.846678288144954
 20
0.2692140353746894
 10
1.822732410023316
 20
0.2708333333333335
  0
LINE
  5
112
330
A3
100
AcDbEntity
  8
AM_4
100
AcDbLine
 10
0.8125
 20
0.2708333333333335
 30
0.0
 11
1.822732410023316
 21
0.2708333333333335
 31
0.0
  0
CIRCLE
  5
113
330
A3
100
AcDbEntity
  8
AM_4
100
AcDbCircle
 10
0.0
 20
0.0000000000000002
 30
0.0
 40
0.274
  0
LINE
  5
114
330
A3
100
AcDbEntity
  8
AM_4
100
AcDbLine
 10
-0.8125000000000003
 20
-0.8124999999999999
 30
0.0
 11
-0.8125000000000003
 21
0.8125000000000001
 31
0.0
  0
LINE
  5
115
330
A3
100
AcDbEntity
  8
AM_4
100
AcDbLine
 10
2.09375
 20
0.8125000000000001
 30
0.0
 11
-2.09375
 21
0.8125000000000001
 31
0.0
  0
LINE
  5
116
330
A3
100
AcDbEntity
  8
AM_4
100
AcDbLine
 10
2.09375
 20
-0.8124999999999999
 30
0.0
 11
-2.09375
 21
-0.8124999999999999
 31
0.0
  0
LINE
  5
117
330
A3
100
AcDbEntity
  8
AM_4
100
AcDbLine
 10
0.8125
 20
-0.8124999999999999
 30
0.0
 11
0.8125
 21
0.8125000000000001
 31
0.0
  0
LINE
  5
118
330
A3
100
AcDbEntity
  8
AM_4
100
AcDbLine
 10
-0.7583333333333336
 20
-0.8124999999999999
 30
0.0
 11
-0.7583333333333336
 21
0.8125000000000001
 31
0.0
  0
LINE
  5
119
330
A3
100
AcDbEntity
  8
AM_4
100
AcDbLine
 10
0.7583333333333325
 20
-0.8124999999999999
 30
0.0
 11
0.7583333333333325
 21
0.8125000000000001
 31
0.0
  0
CIRCLE
  5
11B
330
A3
100
AcDbEntity
  8
AM_5
100
AcDbCircle
 10
0.0
 20
0.0000000000000001
 30
0.0
 40
0.3125
  0
ENDBLK
  5
A6
330
A3
100
AcDbEntity
  8
0
100
AcDbBlockEnd
  0
ENDSEC
  0
SECTION
  2
ENTITIES
  0
INSERT
  5
6F
330
1F
100
AcDbEntity
  8
0
100
AcDbBlockReference
  2
1_033897_4
 10
0.0
 20
0.0
 30
0.0
  0
POINT
  5
11D
330
1F
100
AcDbEntity
  8
ConnectionPoints
100
AcDbPoint
 10
-1.235778906046905
 20
-0.7703935191063819
 30
1.764875181444838
  0
POINT
  5
11E
330
1F
100
AcDbEntity
  8
ConnectionPoints
100
AcDbPoint
 10
0.0
 20
0.0
 30
0.0
  0
ENDSEC
  0
SECTION
  2
OBJECTS
  0
DICTIONARY
  5
C
330
0
100
AcDbDictionary
281
     1
  3
ACAD_DETAILVIEWSTYLE
350
126
  3
ACAD_GROUP
350
D
  3
ACAD_LAYOUT
350
1A
  3
ACAD_MATERIAL
350
43
  3
ACAD_MLEADERSTYLE
350
6B
  3
ACAD_MLINESTYLE
350
17
  3
ACAD_PLOTSETTINGS
350
19
  3
ACAD_PLOTSTYLENAME
350
E
  3
ACAD_SCALELIST
350
47
  3
ACAD_SECTIONVIEWSTYLE
350
127
  3
ACAD_TABLESTYLE
350
69
  3
ACAD_VISUALSTYLE
350
2A
  3
ACDB_RECOMPOSE_DATA
350
123
  3
AcDbVariableDictionary
350
11F
  0
SUN
  5
6D
330
29
100
AcDbSun
 90
        1
290
     0
 63
     7
421
 16777215
 40
1.0
291
     1
 91
  2455826
 92
 54000000
292
     0
 70
     2
 71
   256
280
     1
  0
DICTIONARY
  5
126
102
{ACAD_REACTORS
330
C
102
}
330
C
100
AcDbDictionary
281
     1
  0
DICTIONARY
  5
D
102
{ACAD_REACTORS
330
C
102
}
330
C
100
AcDbDictionary
281
     1
  0
DICTIONARY
  5
1A
102
{ACAD_REACTORS
330
C
102
}
330
C
100
AcDbDictionary
281
     1
  3
Layout1
350
1E
  3
Layout2
350
26
  3
Model
350
22
  0
DICTIONARY
  5
43
102
{ACAD_REACTORS
330
C
102
}
330
C
100
AcDbDictionary
281
     1
  3
ByBlock
350
45
  3
ByLayer
350
44
  3
Global
350
46
  0
DICTIONARY
  5
6B
102
{ACAD_REACTORS
330
C
102
}
330
C
100
AcDbDictionary
281
     1
  3
Standard
350
6C
  0
DICTIONARY
  5
17
102
{ACAD_REACTORS
330
C
102
}
330
C
100
AcDbDictionary
281
     1
  3
Standard
350
18
  0
DICTIONARY
  5
19
102
{ACAD_REACTORS
330
C
102
}
330
C
100
AcDbDictionary
281
     1
  0
ACDBDICTIONARYWDFLT
  5
E
102
{ACAD_REACTORS
330
C
102
}
330
C
100
AcDbDictionary
281
     1
  3
Normal
350
F
100
AcDbDictionaryWithDefault
340
F
  0
DICTIONARY
  5
47
102
{ACAD_REACTORS
330
C
102
}
330
C
100
AcDbDictionary
281
     1
  3
A0
350
48
  3
A1
350
49
  3
A2
350
4A
  3
A3
350
4B
  3
A4
350
4C
  3
A5
350
4D
  3
A6
350
4E
  3
A7
350
4F
  3
A8
350
50
  3
A9
350
51
  3
B0
350
52
  3
B1
350
53
  3
B2
350
54
  3
B3
350
55
  3
B4
350
56
  3
B5
350
57
  3
B6
350
58
  3
B7
350
59
  3
B8
350
5A
  3
B9
350
5B
  3
C0
350
5C
  3
C1
350
5D
  3
C2
350
5E
  3
C3
350
5F
  3
C4
350
60
  3
C5
350
61
  3
C6
350
62
  3
C7
350
63
  3
C8
350
64
  3
C9
350
65
  3
D0
350
66
  3
D1
350
67
  3
D2
350
68
  0
DICTIONARY
  5
127
102
{ACAD_REACTORS
330
C
102
}
330
C
100
AcDbDictionary
281
     1
  0
DICTIONARY
  5
69
102
{ACAD_REACTORS
330
C
102
}
330
C
100
AcDbDictionary
281
     1
  3
Standard
350
6A
  0
DICTIONARY
  5
2A
102
{ACAD_REACTORS
330
C
102
}
330
C
100
AcDbDictionary
281
     1
  3
2dWireframe
350
2F
  3
Basic
350
32
  3
Brighten
350
36
  3
ColorChange
350
3A
  3
Conceptual
350
34
  3
Dim
350
35
  3
EdgeColorOff
350
3D
  3
Facepattern
350
39
  3
Flat
350
2B
  3
FlatWithEdges
350
2C
  3
Gouraud
350
2D
  3
GouraudWithEdges
350
2E
  3
Hidden
350
31
  3
JitterOff
350
3B
  3
Linepattern
350
38
  3
OverhangOff
350
3C
  3
Realistic
350
33
  3
Shaded
350
42
  3
Shaded with edges
350
41
  3
Shades of Gray
350
3E
  3
Sketchy
350
3F
  3
Thicken
350
37
  3
Wireframe
350
30
  3
X-Ray
350
40
  0
XRECORD
  5
123
102
{ACAD_REACTORS
330
C
102
}
330
C
100
AcDbXrecord
280
     1
 90
        1
330
6A
  0
DICTIONARY
  5
11F
102
{ACAD_REACTORS
330
C
102
}
330
C
100
AcDbDictionary
281
     1
  3
CANNOSCALE
350
120
  3
CMLEADERSTYLE
350
125
  3
CTABLESTYLE
350
124
  0
LAYOUT
  5
1E
102
{ACAD_REACTORS
330
1A
102
}
330
1A
100
AcDbPlotSettings
  1

  2
none_device
  4

  6

 40
0.0
 41
0.0
 42
0.0
 43
0.0
 44
0.0
 45
0.0
 46
0.0
 47
0.0
 48
0.0
 49
0.0
140
0.0
141
0.0
142
1.0
143
1.0
 70
   688
 72
     0
 73
     0
 74
     5
  7

 75
    16
 76
     0
 77
     2
 78
   300
147
1.0
148
0.0
149
0.0
100
AcDbLayout
  1
Layout1
 70
     1
 71
     1
 10
0.0
 20
0.0
 11
12.0
 21
9.0
 12
0.0
 22
0.0
 32
0.0
 14
1.000000000000000E+20
 24
1.000000000000000E+20
 34
1.000000000000000E+20
 15
-1.000000000000000E+20
 25
-1.000000000000000E+20
 35
-1.000000000000000E+20
146
0.0
 13
0.0
 23
0.0
 33
0.0
 16
1.0
 26
0.0
 36
0.0
 17
0.0
 27
1.0
 37
0.0
 76
     0
330
1B
  0
LAYOUT
  5
26
102
{ACAD_REACTORS
330
1A
102
}
330
1A
100
AcDbPlotSettings
  1

  2
none_device
  4

  6

 40
0.0
 41
0.0
 42
0.0
 43
0.0
 44
0.0
 45
0.0
 46
0.0
 47
0.0
 48
0.0
 49
0.0
140
0.0
141
0.0
142
1.0
143
1.0
 70
   688
 72
     0
 73
     0
 74
     5
  7

 75
    16
 76
     0
 77
     2
 78
   300
147
1.0
148
0.0
149
0.0
100
AcDbLayout
  1
Layout2
 70
     1
 71
     2
 10
0.0
 20
0.0
 11
0.0
 21
0.0
 12
0.0
 22
0.0
 32
0.0
 14
0.0
 24
0.0
 34
0.0
 15
0.0
 25
0.0
 35
0.0
146
0.0
 13
0.0
 23
0.0
 33
0.0
 16
1.0
 26
0.0
 36
0.0
 17
0.0
 27
1.0
 37
0.0
 76
     0
330
23
  0
LAYOUT
  5
22
102
{ACAD_REACTORS
330
1A
102
}
330
1A
100
AcDbPlotSettings
  1

  2
none_device
  4
Letter_(8.50_x_11.00_Inches)
  6

 40
6.35
 41
6.35
 42
6.35000508
 43
6.35000508
 44
215.9
 45
279.4
 46
0.0
 47
0.0
 48
0.0
 49
0.0
140
0.0
141
0.0
142
1.0
143
1.0
 70
  1712
 72
     0
 73
     0
 74
     0
  7

 75
     0
 76
     0
 77
     2
 78
   300
147
1.0
148
0.0
149
0.0
100
AcDbLayout
  1
Model
 70
     1
 71
     0
 10
0.0
 20
0.0
 11
12.0
 21
9.0
 12
0.0
 22
0.0
 32
0.0
 14
1.000000000000000E+20
 24
1.000000000000000E+20
 34
1.000000000000000E+20
 15
-1.000000000000000E+20
 25
-1.000000000000000E+20
 35
-1.000000000000000E+20
146
0.0
 13
0.0
 23
0.0
 33
0.0
 16
1.0
 26
0.0
 36
0.0
 17
0.0
 27
1.0
 37
0.0
 76
     0
330
1F
331
29
  0
MATERIAL
  5
45
102
{ACAD_REACTORS
330
43
102
}
330
43
100
AcDbMaterial
  1
ByBlock
 72
     1
 94
      127
  0
MATERIAL
  5
44
102
{ACAD_REACTORS
330
43
102
}
330
43
100
AcDbMaterial
  1
ByLayer
 72
     1
 94
      127
  0
MATERIAL
  5
46
102
{ACAD_REACTORS
330
43
102
}
330
43
100
AcDbMaterial
  1
Global
 72
     1
 94
      127
  0
MLEADERSTYLE
  5
6C
102
{ACAD_REACTORS
330
6B
102
}
330
6B
100
AcDbMLeaderStyle
179
     2
170
     2
171
     1
172
     0
 90
        2
 40
0.0
 41
0.0
173
     1
 91
-1056964608
340
14
 92
       -2
290
     1
 42
0.09
291
     1
 43
0.36
  3
Standard
341
0
 44
0.18
300

342
11
174
     1
178
     6
175
     1
176
     0
 93
-1056964608
 45
0.18
292
     0
297
     0
 46
0.18
343
0
 94
-1056964608
 47
1.0
 49
1.0
140
1.0
293
     1
141
0.0
294
     1
177
     0
142
1.0
295
     0
296
     0
143
0.125
271
     0
272
     9
273
     9
298
     0
  0
MLINESTYLE
  5
18
102
{ACAD_REACTORS
330
17
102
}
330
17
100
AcDbMlineStyle
  2
Standard
 70
     0
  3

 62
   256
 51
90.0
 52
90.0
 71
     2
 49
0.5
 62
   256
  6
BYLAYER
 49
-0.5
 62
   256
  6
BYLAYER
  0
ACDBPLACEHOLDER
  5
F
102
{ACAD_REACTORS
330
E
102
}
330
E
  0
SCALE
  5
48
102
{ACAD_REACTORS
330
47
102
}
330
47
100
AcDbScale
 70
     0
300
1:1
140
1.0
141
1.0
290
     1
  0
SCALE
  5
49
102
{ACAD_REACTORS
330
47
102
}
330
47
100
AcDbScale
 70
     0
300
1:2
140
1.0
141
2.0
290
     0
  0
SCALE
  5
4A
102
{ACAD_REACTORS
330
47
102
}
330
47
100
AcDbScale
 70
     0
300
1:4
140
1.0
141
4.0
290
     0
  0
SCALE
  5
4B
102
{ACAD_REACTORS
330
47
102
}
330
47
100
AcDbScale
 70
     0
300
1:5
140
1.0
141
5.0
290
     0
  0
SCALE
  5
4C
102
{ACAD_REACTORS
330
47
102
}
330
47
100
AcDbScale
 70
     0
300
1:8
140
1.0
141
8.0
290
     0
  0
SCALE
  5
4D
102
{ACAD_REACTORS
330
47
102
}
330
47
100
AcDbScale
 70
     0
300
1:10
140
1.0
141
10.0
290
     0
  0
SCALE
  5
4E
102
{ACAD_REACTORS
330
47
102
}
330
47
100
AcDbScale
 70
     0
300
1:16
140
1.0
141
16.0
290
     0
  0
SCALE
  5
4F
102
{ACAD_REACTORS
330
47
102
}
330
47
100
AcDbScale
 70
     0
300
1:20
140
1.0
141
20.0
290
     0
  0
SCALE
  5
50
102
{ACAD_REACTORS
330
47
102
}
330
47
100
AcDbScale
 70
     0
300
1:30
140
1.0
141
30.0
290
     0
  0
SCALE
  5
51
102
{ACAD_REACTORS
330
47
102
}
330
47
100
AcDbScale
 70
     0
300
1:40
140
1.0
141
40.0
290
     0
  0
SCALE
  5
52
102
{ACAD_REACTORS
330
47
102
}
330
47
100
AcDbScale
 70
     0
300
1:50
140
1.0
141
50.0
290
     0
  0
SCALE
  5
53
102
{ACAD_REACTORS
330
47
102
}
330
47
100
AcDbScale
 70
     0
300
1:100
140
1.0
141
100.0
290
     0
  0
SCALE
  5
54
102
{ACAD_REACTORS
330
47
102
}
330
47
100
AcDbScale
 70
     0
300
2:1
140
2.0
141
1.0
290
     0
  0
SCALE
  5
55
102
{ACAD_REACTORS
330
47
102
}
330
47
100
AcDbScale
 70
     0
300
4:1
140
4.0
141
1.0
290
     0
  0
SCALE
  5
56
102
{ACAD_REACTORS
330
47
102
}
330
47
100
AcDbScale
 70
     0
300
8:1
140
8.0
141
1.0
290
     0
  0
SCALE
  5
57
102
{ACAD_REACTORS
330
47
102
}
330
47
100
AcDbScale
 70
     0
300
10:1
140
10.0
141
1.0
290
     0
  0
SCALE
  5
58
102
{ACAD_REACTORS
330
47
102
}
330
47
100
AcDbScale
 70
     0
300
100:1
140
100.0
141
1.0
290
     0
  0
SCALE
  5
59
102
{ACAD_REACTORS
330
47
102
}
330
47
100
AcDbScale
 70
     0
300
1/128" = 1'-0"
140
0.0078125
141
12.0
290
     0
  0
SCALE
  5
5A
102
{ACAD_REACTORS
330
47
102
}
330
47
100
AcDbScale
 70
     0
300
1/64" = 1'-0"
140
0.015625
141
12.0
290
     0
  0
SCALE
  5
5B
102
{ACAD_REACTORS
330
47
102
}
330
47
100
AcDbScale
 70
     0
300
1/32" = 1'-0"
140
0.03125
141
12.0
290
     0
  0
SCALE
  5
5C
102
{ACAD_REACTORS
330
47
102
}
330
47
100
AcDbScale
 70
     0
300
1/16" = 1'-0"
140
0.0625
141
12.0
290
     0
  0
SCALE
  5
5D
102
{ACAD_REACTORS
330
47
102
}
330
47
100
AcDbScale
 70
     0
300
3/32" = 1'-0"
140
0.09375
141
12.0
290
     0
  0
SCALE
  5
5E
102
{ACAD_REACTORS
330
47
102
}
330
47
100
AcDbScale
 70
     0
300
1/8" = 1'-0"
140
0.125
141
12.0
290
     0
  0
SCALE
  5
5F
102
{ACAD_REACTORS
330
47
102
}
330
47
100
AcDbScale
 70
     0
300
3/16" = 1'-0"
140
0.1875
141
12.0
290
     0
  0
SCALE
  5
60
102
{ACAD_REACTORS
330
47
102
}
330
47
100
AcDbScale
 70
     0
300
1/4" = 1'-0"
140
0.25
141
12.0
290
     0
  0
SCALE
  5
61
102
{ACAD_REACTORS
330
47
102
}
330
47
100
AcDbScale
 70
     0
300
3/8" = 1'-0"
140
0.375
141
12.0
290
     0
  0
SCALE
  5
62
102
{ACAD_REACTORS
330
47
102
}
330
47
100
AcDbScale
 70
     0
300
1/2" = 1'-0"
140
0.5
141
12.0
290
     0
  0
SCALE
  5
63
102
{ACAD_REACTORS
330
47
102
}
330
47
100
AcDbScale
 70
     0
300
3/4" = 1'-0"
140
0.75
141
12.0
290
     0
  0
SCALE
  5
64
102
{ACAD_REACTORS
330
47
102
}
330
47
100
AcDbScale
 70
     0
300
1" = 1'-0"
140
1.0
141
12.0
290
     0
  0
SCALE
  5
65
102
{ACAD_REACTORS
330
47
102
}
330
47
100
AcDbScale
 70
     0
300
1-1/2" = 1'-0"
140
1.5
141
12.0
290
     0
  0
SCALE
  5
66
102
{ACAD_REACTORS
330
47
102
}
330
47
100
AcDbScale
 70
     0
300
3" = 1'-0"
140
3.0
141
12.0
290
     0
  0
SCALE
  5
67
102
{ACAD_REACTORS
330
47
102
}
330
47
100
AcDbScale
 70
     0
300
6" = 1'-0"
140
6.0
141
12.0
290
     0
  0
SCALE
  5
68
102
{ACAD_REACTORS
330
47
102
}
330
47
100
AcDbScale
 70
     0
300
1'-0" = 1'-0"
140
12.0
141
12.0
290
     0
  0
TABLESTYLE
  5
6A
102
{ACAD_REACTORS
330
69
102
}
102
{ACAD_XDICTIONARY
360
121
102
}
330
69
100
AcDbTableStyle
  3
Standard
 70
     0
 71
     0
 40
0.06
 41
0.06
280
     0
281
     0
  7
Standard
140
0.18
170
     2
 62
     0
 63
   257
283
     0
 90
        4
 91
        0
  1

274
    -2
284
     1
 64
     0
275
    -2
285
     1
 65
     0
276
    -2
286
     1
 66
     0
277
    -2
287
     1
 67
     0
278
    -2
288
     1
 68
     0
279
    -2
289
     1
 69
     0
  7
Standard
140
0.25
170
     5
 62
     0
 63
   257
283
     0
 90
        4
 91
        0
  1

274
    -2
284
     1
 64
     0
275
    -2
285
     1
 65
     0
276
    -2
286
     1
 66
     0
277
    -2
287
     1
 67
     0
278
    -2
288
     1
 68
     0
279
    -2
289
     1
 69
     0
  7
Standard
140
0.18
170
     5
 62
     0
 63
   257
283
     0
 90
        4
 91
        0
  1

274
    -2
284
     1
 64
     0
275
    -2
285
     1
 65
     0
276
    -2
286
     1
 66
     0
277
    -2
287
     1
 67
     0
278
    -2
288
     1
 68
     0
279
    -2
289
     1
 69
     0
  0
VISUALSTYLE
  5
2F
102
{ACAD_REACTORS
330
2A
102
}
330
2A
100
AcDbVisualStyle
  2
2dWireframe
 70
     4
177
     3
291
     0
 70
    58
 90
        0
176
     1
 90
        2
176
     1
 90
        0
176
     1
 90
        0
176
     1
 40
0.6
176
     1
 40
30.0
176
     1
 62
     7
420
 16777215
176
     1
 90
        1
176
     1
 90
        4
176
     1
 62
     7
176
     1
 62
   257
176
     1
 90
        1
176
     1
 90
        1
176
     1
 40
1.0
176
     1
 90
        0
176
     1
 62
   257
176
     1
 40
1.0
176
     1
 90
        1
176
     1
 90
        6
176
     1
 90
        2
176
     1
 62
     7
176
     1
 90
        5
176
     1
 90
        0
176
     1
 90
        0
176
     1
290
     0
176
     1
 90
        1
176
     1
 40
0.0
176
     1
 90
        0
176
     1
290
     1
176
     1
290
     1
176
     1
290
     0
176
     1
290
     0
176
     1
290
     0
176
     1
290
     0
176
     1
290
     0
176
     1
290
     0
176
     1
290
     0
176
     1
 90
       50
176
     1
 40
0.0
176
     1
 40
1.0
176
     1
 90
        0
176
     1
 62
    18
420
        0
176
     1
 90
       50
176
     1
 90
        3
176
     1
 62
     5
420
      255
176
     1
290
     0
176
     1
 90
       50
176
     1
 90
       50
176
     1
 90
       50
176
     1
290
     0
176
     1
 90
       50
176
     1
 62
   256
176
     0
 40
1.0
176
     0
 90
        2
176
     1
  1
strokes_ogs.tif
176
     1
290
     0
176
     1
 40
1.0
176
     1
 40
1.0
176
     1
  0
VISUALSTYLE
  5
32
102
{ACAD_REACTORS
330
2A
102
}
330
2A
100
AcDbVisualStyle
  2
Basic
 70
     7
177
     3
291
     1
 70
    58
 90
        1
176
     1
 90
        0
176
     1
 90
        1
176
     1
 90
        0
176
     1
 40
0.6
176
     1
 40
30.0
176
     1
 62
     7
420
 16777215
176
     1
 90
        0
176
     1
 90
        4
176
     1
 62
     7
176
     1
 62
   257
176
     1
 90
        1
176
     1
 90
        1
176
     1
 40
1.0
176
     1
 90
        8
176
     1
 62
     7
176
     1
 40
1.0
176
     1
 90
        1
176
     1
 90
        6
176
     1
 90
        2
176
     1
 62
     7
176
     1
 90
        5
176
     1
 90
        0
176
     1
 90
        0
176
     1
290
     0
176
     1
 90
        1
176
     1
 40
0.0
176
     1
 90
        0
176
     1
290
     0
176
     1
290
     1
176
     1
290
     1
176
     1
290
     0
176
     1
290
     0
176
     1
290
     0
176
     1
290
     0
176
     1
290
     0
176
     1
290
     0
176
     1
 90
       50
176
     1
 40
0.0
176
     1
 40
1.0
176
     1
 90
        0
176
     1
 62
    18
420
        0
176
     1
 90
       50
176
     1
 90
        3
176
     1
 62
     5
420
      255
176
     1
290
     0
176
     1
 90
       50
176
     1
 90
       50
176
     1
 90
       50
176
     1
290
     0
176
     1
 90
       50
176
     1
 62
   256
176
     0
 40
1.0
176
     0
 90
        2
176
     1
  1
strokes_ogs.tif
176
     1
290
     0
176
     1
 40
1.0
176
     1
 40
1.0
176
     1
  0
VISUALSTYLE
  5
36
102
{ACAD_REACTORS
330
2A
102
}
330
2A
100
AcDbVisualStyle
  2
Brighten
 70
    12
177
     3
291
     1
 70
    58
 90
        2
176
     1
 90
        2
176
     1
 90
        0
176
     1
 90
        0
176
     1
 40
0.6
176
     1
 40
30.0
176
     1
 62
     7
420
 16777215
176
     1
 90
        1
176
     1
 90
        4
176
     1
 62
     7
176
     1
 62
   257
176
     1
 90
        1
176
     1
 90
        1
176
     1
 40
1.0
176
     1
 90
        8
176
     1
 62
     7
176
     1
 40
1.0
176
     1
 90
        1
176
     1
 90
        6
176
     1
 90
        2
176
     1
 62
     7
176
     1
 90
        5
176
     1
 90
        0
176
     1
 90
        0
176
     1
290
     0
176
     1
 90
        1
176
     1
 40
50.0
176
     1
 90
        0
176
     1
290
     0
176
     1
290
     1
176
     1
290
     1
176
     1
290
     0
176
     1
290
     0
176
     1
290
     0
176
     1
290
     0
176
     1
290
     0
176
     1
290
     0
176
     1
 90
       50
176
     1
 40
0.0
176
     1
 40
1.0
176
     1
 90
        0
176
     1
 62
    18
420
        0
176
     1
 90
       50
176
     1
 90
        3
176
     1
 62
     5
420
      255
176
     1
290
     0
176
     1
 90
       50
176
     1
 90
       50
176
     1
 90
       50
176
     1
290
     0
176
     1
 90
       50
176
     1
 62
   256
176
     0
 40
1.0
176
     0
 90
        2
176
     1
  1
strokes_ogs.tif
176
     1
290
     0
176
     1
 40
1.0
176
     1
 40
1.0
176
     1
  0
VISUALSTYLE
  5
3A
102
{ACAD_REACTORS
330
2A
102
}
330
2A
100
AcDbVisualStyle
  2
ColorChange
 70
    16
177
     3
291
     1
 70
    58
 90
        2
176
     1
 90
        2
176
     1
 90
        3
176
     1
 90
        0
176
     1
 40
0.6
176
     1
 40
30.0
176
     1
 62
     8
420
  8421504
176
     1
 90
        1
176
     1
 90
        4
176
     1
 62
     7
176
     1
 62
   257
176
     1
 90
        1
176
     1
 90
        1
176
     1
 40
1.0
176
     1
 90
        8
176
     1
 62
     8
420
  8421504
176
     1
 40
1.0
176
     1
 90
        1
176
     1
 90
        6
176
     1
 90
        2
176
     1
 62
     7
176
     1
 90
        5
176
     1
 90
        0
176
     1
 90
        0
176
     1
290
     0
176
     1
 90
        1
176
     1
 40
0.0
176
     1
 90
        0
176
     1
290
     0
176
     1
290
     1
176
     1
290
     1
176
     1
290
     0
176
     1
290
     0
176
     1
290
     0
176
     1
290
     0
176
     1
290
     0
176
     1
290
     0
176
     1
 90
       50
176
     1
 40
0.0
176
     1
 40
1.0
176
     1
 90
        0
176
     1
 62
    18
420
        0
176
     1
 90
       50
176
     1
 90
        3
176
     1
 62
     5
420
      255
176
     1
290
     0
176
     1
 90
       50
176
     1
 90
       50
176
     1
 90
       50
176
     1
290
     0
176
     1
 90
       50
176
     1
 62
   256
176
     0
 40
1.0
176
     0
 90
        2
176
     1
  1
strokes_ogs.tif
176
     1
290
     0
176
     1
 40
1.0
176
     1
 40
1.0
176
     1
  0
VISUALSTYLE
  5
34
102
{ACAD_REACTORS
330
2A
102
}
330
2A
100
AcDbVisualStyle
  2
Conceptual
 70
     9
177
     3
291
     0
 70
    58
 90
        3
176
     1
 90
        2
176
     1
 90
        0
176
     1
 90
        0
176
     1
 40
0.6
176
     1
 40
30.0
176
     1
 62
     7
420
 16777215
176
     1
 90
        2
176
     1
 90
        2
176
     1
 62
     7
176
     1
 62
   257
176
     1
 90
        1
176
     1
 90
        1
176
     1
 40
179.0
176
     1
 90
        8
176
     1
 62
     7
176
     1
 40
1.0
176
     1
 90
        1
176
     1
 90
        6
176
     1
 90
        2
176
     1
 62
     7
176
     1
 90
        3
176
     1
 90
        0
176
     1
 90
        0
176
     1
290
     0
176
     1
 90
        1
176
     1
 40
0.0
176
     1
 90
        0
176
     1
290
     0
176
     1
290
     1
176
     1
290
     1
176
     1
290
     0
176
     1
290
     0
176
     1
290
     0
176
     1
290
     0
176
     1
290
     0
176
     1
290
     0
176
     1
 90
       50
176
     1
 40
0.0
176
     1
 40
1.0
176
     1
 90
        0
176
     1
 62
    18
420
        0
176
     1
 90
       50
176
     1
 90
        3
176
     1
 62
     5
420
      255
176
     1
290
     0
176
     1
 90
       50
176
     1
 90
       50
176
     1
 90
       50
176
     1
290
     0
176
     1
 90
       50
176
     1
 62
   256
176
     0
 40
1.0
176
     0
 90
        2
176
     1
  1
strokes_ogs.tif
176
     1
290
     0
176
     1
 40
1.0
176
     1
 40
1.0
176
     1
  0
VISUALSTYLE
  5
35
102
{ACAD_REACTORS
330
2A
102
}
330
2A
100
AcDbVisualStyle
  2
Dim
 70
    11
177
     3
291
     1
 70
    58
 90
        2
176
     1
 90
        2
176
     1
 90
        0
176
     1
 90
        0
176
     1
 40
0.6
176
     1
 40
30.0
176
     1
 62
     7
420
 16777215
176
     1
 90
        1
176
     1
 90
        4
176
     1
 62
     7
176
     1
 62
   257
176
     1
 90
        1
176
     1
 90
        1
176
     1
 40
1.0
176
     1
 90
        8
176
     1
 62
     7
176
     1
 40
1.0
176
     1
 90
        1
176
     1
 90
        6
176
     1
 90
        2
176
     1
 62
     7
176
     1
 90
        5
176
     1
 90
        0
176
     1
 90
        0
176
     1
290
     0
176
     1
 90
        1
176
     1
 40
-50.0
176
     1
 90
        0
176
     1
290
     0
176
     1
290
     1
176
     1
290
     1
176
     1
290
     0
176
     1
290
     0
176
     1
290
     0
176
     1
290
     0
176
     1
290
     0
176
     1
290
     0
176
     1
 90
       50
176
     1
 40
0.0
176
     1
 40
1.0
176
     1
 90
        0
176
     1
 62
    18
420
        0
176
     1
 90
       50
176
     1
 90
        3
176
     1
 62
     5
420
      255
176
     1
290
     0
176
     1
 90
       50
176
     1
 90
       50
176
     1
 90
       50
176
     1
290
     0
176
     1
 90
       50
176
     1
 62
   256
176
     0
 40
1.0
176
     0
 90
        2
176
     1
  1
strokes_ogs.tif
176
     1
290
     0
176
     1
 40
1.0
176
     1
 40
1.0
176
     1
  0
VISUALSTYLE
  5
3D
102
{ACAD_REACTORS
330
2A
102
}
330
2A
100
AcDbVisualStyle
  2
EdgeColorOff
 70
    22
177
     3
291
     1
 70
    58
 90
        2
176
     0
 90
        2
176
     0
 90
        0
176
     0
 90
        0
176
     0
 40
0.6
176
     0
 40
30.0
176
     0
 62
     7
420
 16777215
176
     0
 90
        1
176
     0
 90
        4
176
     0
 62
     7
176
     0
 62
   257
176
     0
 90
        1
176
     0
 90
        1
176
     0
 40
1.0
176
     0
 90
        8
176
     2
 62
     7
176
     0
 40
1.0
176
     0
 90
        1
176
     0
 90
        6
176
     0
 90
        2
176
     0
 62
     7
176
     0
 90
        5
176
     0
 90
        0
176
     0
 90
        0
176
     0
290
     0
176
     0
 90
        1
176
     0
 40
0.0
176
     0
 90
        0
176
     0
290
     0
176
     0
290
     1
176
     0
290
     1
176
     0
290
     0
176
     0
290
     0
176
     0
290
     0
176
     0
290
     0
176
     0
290
     0
176
     0
290
     0
176
     0
 90
       50
176
     0
 40
0.0
176
     0
 40
1.0
176
     0
 90
        0
176
     0
 62
    18
420
        0
176
     0
 90
       50
176
     0
 90
        3
176
     0
 62
     5
420
      255
176
     0
290
     0
176
     0
 90
       50
176
     0
 90
       50
176
     0
 90
       50
176
     0
290
     0
176
     0
 90
       50
176
     0
 62
   256
176
     0
 40
1.0
176
     0
 90
        2
176
     0
  1
strokes_ogs.tif
176
     0
290
     0
176
     0
 40
1.0
176
     0
 40
1.0
176
     0
  0
VISUALSTYLE
  5
39
102
{ACAD_REACTORS
330
2A
102
}
330
2A
100
AcDbVisualStyle
  2
Facepattern
 70
    15
177
     3
291
     1
 70
    58
 90
        2
176
     1
 90
        2
176
     1
 90
        0
176
     1
 90
        0
176
     1
 40
0.6
176
     1
 40
30.0
176
     1
 62
     7
420
 16777215
176
     1
 90
        1
176
     1
 90
        4
176
     1
 62
     7
176
     1
 62
   257
176
     1
 90
        1
176
     1
 90
        1
176
     1
 40
1.0
176
     1
 90
        8
176
     1
 62
     7
176
     1
 40
1.0
176
     1
 90
        1
176
     1
 90
        6
176
     1
 90
        2
176
     1
 62
     7
176
     1
 90
        5
176
     1
 90
        0
176
     1
 90
        0
176
     1
290
     0
176
     1
 90
        1
176
     1
 40
0.0
176
     1
 90
        0
176
     1
290
     0
176
     1
290
     1
176
     1
290
     1
176
     1
290
     0
176
     1
290
     0
176
     1
290
     0
176
     1
290
     0
176
     1
290
     0
176
     1
290
     0
176
     1
 90
       50
176
     1
 40
0.0
176
     1
 40
1.0
176
     1
 90
        0
176
     1
 62
    18
420
        0
176
     1
 90
       50
176
     1
 90
        3
176
     1
 62
     5
420
      255
176
     1
290
     0
176
     1
 90
       50
176
     1
 90
       50
176
     1
 90
       50
176
     1
290
     0
176
     1
 90
       50
176
     1
 62
   256
176
     0
 40
1.0
176
     0
 90
        2
176
     1
  1
strokes_ogs.tif
176
     1
290
     0
176
     1
 40
1.0
176
     1
 40
1.0
176
     1
  0
VISUALSTYLE
  5
2B
102
{ACAD_REACTORS
330
2A
102
}
330
2A
100
AcDbVisualStyle
  2
Flat
 70
     0
177
     3
291
     1
 70
    58
 90
        2
176
     1
 90
        1
176
     1
 90
        1
176
     1
 90
        2
176
     1
 40
0.6
176
     1
 40
30.0
176
     1
 62
     7
420
 16777215
176
     1
 90
        0
176
     1
 90
        0
176
     1
 62
     7
176
     1
 62
   257
176
     1
 90
        1
176
     1
 90
        1
176
     1
 40
1.0
176
     1
 90
        8
176
     1
 62
     7
176
     1
 40
1.0
176
     1
 90
        1
176
     1
 90
        6
176
     1
 90
        2
176
     1
 62
     7
176
     1
 90
        5
176
     1
 90
        0
176
     1
 90
        0
176
     1
290
     0
176
     1
 90
       13
176
     1
 40
0.0
176
     1
 90
        0
176
     1
290
     0
176
     1
290
     1
176
     1
290
     1
176
     1
290
     0
176
     1
290
     0
176
     1
290
     0
176
     1
290
     0
176
     1
290
     0
176
     1
290
     0
176
     1
 90
       50
176
     1
 40
0.0
176
     1
 40
1.0
176
     1
 90
        0
176
     1
 62
    18
420
        0
176
     1
 90
       50
176
     1
 90
        3
176
     1
 62
     5
420
      255
176
     1
290
     0
176
     1
 90
       50
176
     1
 90
       50
176
     1
 90
       50
176
     1
290
     0
176
     1
 90
       50
176
     1
 62
   256
176
     0
 40
1.0
176
     0
 90
        2
176
     1
  1
strokes_ogs.tif
176
     1
290
     0
176
     1
 40
1.0
176
     1
 40
1.0
176
     1
  0
VISUALSTYLE
  5
2C
102
{ACAD_REACTORS
330
2A
102
}
330
2A
100
AcDbVisualStyle
  2
FlatWithEdges
 70
     1
177
     3
291
     1
 70
    58
 90
        2
176
     1
 90
        1
176
     1
 90
        1
176
     1
 90
        2
176
     1
 40
0.6
176
     1
 40
30.0
176
     1
 62
     7
420
 16777215
176
     1
 90
        1
176
     1
 90
        0
176
     1
 62
     7
176
     1
 62
   257
176
     1
 90
        1
176
     1
 90
        1
176
     1
 40
1.0
176
     1
 90
        0
176
     1
 62
   257
176
     1
 40
1.0
176
     1
 90
        1
176
     1
 90
        6
176
     1
 90
        2
176
     1
 62
     7
176
     1
 90
        5
176
     1
 90
        0
176
     1
 90
        0
176
     1
290
     0
176
     1
 90
       13
176
     1
 40
0.0
176
     1
 90
        0
176
     1
290
     0
176
     1
290
     1
176
     1
290
     1
176
     1
290
     0
176
     1
290
     0
176
     1
290
     0
176
     1
290
     0
176
     1
290
     0
176
     1
290
     0
176
     1
 90
       50
176
     1
 40
0.0
176
     1
 40
1.0
176
     1
 90
        0
176
     1
 62
    18
420
        0
176
     1
 90
       50
176
     1
 90
        3
176
     1
 62
     5
420
      255
176
     1
290
     0
176
     1
 90
       50
176
     1
 90
       50
176
     1
 90
       50
176
     1
290
     0
176
     1
 90
       50
176
     1
 62
   256
176
     0
 40
1.0
176
     0
 90
        2
176
     1
  1
strokes_ogs.tif
176
     1
290
     0
176
     1
 40
1.0
176
     1
 40
1.0
176
     1
  0
VISUALSTYLE
  5
2D
102
{ACAD_REACTORS
330
2A
102
}
330
2A
100
AcDbVisualStyle
  2
Gouraud
 70
     2
177
     3
291
     1
 70
    58
 90
        2
176
     1
 90
        2
176
     1
 90
        1
176
     1
 90
        2
176
     1
 40
0.6
176
     1
 40
30.0
176
     1
 62
     7
420
 16777215
176
     1
 90
        0
176
     1
 90
        0
176
     1
 62
     7
176
     1
 62
   257
176
     1
 90
        1
176
     1
 90
        1
176
     1
 40
1.0
176
     1
 90
        0
176
     1
 62
     7
176
     1
 40
1.0
176
     1
 90
        1
176
     1
 90
        6
176
     1
 90
        2
176
     1
 62
     7
176
     1
 90
        5
176
     1
 90
        0
176
     1
 90
        0
176
     1
290
     0
176
     1
 90
       13
176
     1
 40
0.0
176
     1
 90
        0
176
     1
290
     0
176
     1
290
     1
176
     1
290
     1
176
     1
290
     0
176
     1
290
     0
176
     1
290
     0
176
     1
290
     0
176
     1
290
     0
176
     1
290
     0
176
     1
 90
       50
176
     1
 40
0.0
176
     1
 40
1.0
176
     1
 90
        0
176
     1
 62
    18
420
        0
176
     1
 90
       50
176
     1
 90
        3
176
     1
 62
     5
420
      255
176
     1
290
     0
176
     1
 90
       50
176
     1
 90
       50
176
     1
 90
       50
176
     1
290
     0
176
     1
 90
       50
176
     1
 62
   256
176
     0
 40
1.0
176
     0
 90
        2
176
     1
  1
strokes_ogs.tif
176
     1
290
     0
176
     1
 40
1.0
176
     1
 40
1.0
176
     1
  0
VISUALSTYLE
  5
2E
102
{ACAD_REACTORS
330
2A
102
}
330
2A
100
AcDbVisualStyle
  2
GouraudWithEdges
 70
     3
177
     3
291
     1
 70
    58
 90
        2
176
     1
 90
        2
176
     1
 90
        1
176
     1
 90
        2
176
     1
 40
0.6
176
     1
 40
30.0
176
     1
 62
     7
420
 16777215
176
     1
 90
        1
176
     1
 90
        0
176
     1
 62
     7
176
     1
 62
   257
176
     1
 90
        1
176
     1
 90
        1
176
     1
 40
1.0
176
     1
 90
        0
176
     1
 62
   257
176
     1
 40
1.0
176
     1
 90
        1
176
     1
 90
        6
176
     1
 90
        2
176
     1
 62
     7
176
     1
 90
        5
176
     1
 90
        0
176
     1
 90
        0
176
     1
290
     0
176
     1
 90
       13
176
     1
 40
0.0
176
     1
 90
        0
176
     1
290
     0
176
     1
290
     1
176
     1
290
     1
176
     1
290
     0
176
     1
290
     0
176
     1
290
     0
176
     1
290
     0
176
     1
290
     0
176
     1
290
     0
176
     1
 90
       50
176
     1
 40
0.0
176
     1
 40
1.0
176
     1
 90
        0
176
     1
 62
    18
420
        0
176
     1
 90
       50
176
     1
 90
        3
176
     1
 62
     5
420
      255
176
     1
290
     0
176
     1
 90
       50
176
     1
 90
       50
176
     1
 90
       50
176
     1
290
     0
176
     1
 90
       50
176
     1
 62
   256
176
     0
 40
1.0
176
     0
 90
        2
176
     1
  1
strokes_ogs.tif
176
     1
290
     0
176
     1
 40
1.0
176
     1
 40
1.0
176
     1
  0
VISUALSTYLE
  5
31
102
{ACAD_REACTORS
330
2A
102
}
330
2A
100
AcDbVisualStyle
  2
Hidden
 70
     6
177
     3
291
     0
 70
    58
 90
        1
176
     1
 90
        2
176
     1
 90
        2
176
     1
 90
        0
176
     1
 40
0.6
176
     1
 40
30.0
176
     1
 62
     7
420
 16777215
176
     1
 90
        2
176
     1
 90
        2
176
     1
 62
     7
176
     1
 62
   257
176
     1
 90
        2
176
     1
 90
        1
176
     1
 40
40.0
176
     1
 90
        0
176
     1
 62
   257
176
     1
 40
1.0
176
     1
 90
        1
176
     1
 90
        6
176
     1
 90
        2
176
     1
 62
     7
176
     1
 90
        3
176
     1
 90
        0
176
     1
 90
        0
176
     1
290
     0
176
     1
 90
        1
176
     1
 40
0.0
176
     1
 90
        0
176
     1
290
     0
176
     1
290
     1
176
     1
290
     1
176
     1
290
     0
176
     1
290
     0
176
     1
290
     0
176
     1
290
     0
176
     1
290
     0
176
     1
290
     0
176
     1
 90
       50
176
     1
 40
0.0
176
     1
 40
1.0
176
     1
 90
        0
176
     1
 62
    18
420
        0
176
     1
 90
       50
176
     1
 90
        3
176
     1
 62
     5
420
      255
176
     1
290
     0
176
     1
 90
       50
176
     1
 90
       50
176
     1
 90
       50
176
     1
290
     0
176
     1
 90
       50
176
     1
 62
   256
176
     0
 40
1.0
176
     0
 90
        2
176
     1
  1
strokes_ogs.tif
176
     1
290
     0
176
     1
 40
1.0
176
     1
 40
1.0
176
     1
  0
VISUALSTYLE
  5
3B
102
{ACAD_REACTORS
330
2A
102
}
330
2A
100
AcDbVisualStyle
  2
JitterOff
 70
    20
177
     3
291
     1
 70
    58
 90
        2
176
     0
 90
        2
176
     0
 90
        0
176
     0
 90
        0
176
     0
 40
0.6
176
     0
 40
30.0
176
     0
 62
     7
420
 16777215
176
     0
 90
        1
176
     0
 90
        4
176
     0
 62
     7
176
     0
 62
   257
176
     0
 90
        1
176
     0
 90
        1
176
     0
 40
1.0
176
     0
 90
       10
176
     2
 62
     7
176
     0
 40
1.0
176
     0
 90
        1
176
     0
 90
        6
176
     0
 90
        2
176
     0
 62
     7
176
     0
 90
        5
176
     0
 90
        0
176
     0
 90
        0
176
     0
290
     0
176
     0
 90
        1
176
     0
 40
0.0
176
     0
 90
        0
176
     0
290
     0
176
     0
290
     1
176
     0
290
     1
176
     0
290
     0
176
     0
290
     0
176
     0
290
     0
176
     0
290
     0
176
     0
290
     0
176
     0
290
     0
176
     0
 90
       50
176
     0
 40
0.0
176
     0
 40
1.0
176
     0
 90
        0
176
     0
 62
    18
420
        0
176
     0
 90
       50
176
     0
 90
        3
176
     0
 62
     5
420
      255
176
     0
290
     0
176
     0
 90
       50
176
     0
 90
       50
176
     0
 90
       50
176
     0
290
     0
176
     0
 90
       50
176
     0
 62
   256
176
     0
 40
1.0
176
     0
 90
        2
176
     0
  1
strokes_ogs.tif
176
     0
290
     0
176
     0
 40
1.0
176
     0
 40
1.0
176
     0
  0
VISUALSTYLE
  5
38
102
{ACAD_REACTORS
330
2A
102
}
330
2A
100
AcDbVisualStyle
  2
Linepattern
 70
    14
177
     3
291
     1
 70
    58
 90
        2
176
     1
 90
        2
176
     1
 90
        0
176
     1
 90
        0
176
     1
 40
0.6
176
     1
 40
30.0
176
     1
 62
     7
420
 16777215
176
     1
 90
        1
176
     1
 90
        4
176
     1
 62
     7
176
     1
 62
   257
176
     1
 90
        7
176
     1
 90
        7
176
     1
 40
1.0
176
     1
 90
        8
176
     1
 62
     7
176
     1
 40
1.0
176
     1
 90
        1
176
     1
 90
        6
176
     1
 90
        2
176
     1
 62
     7
176
     1
 90
        5
176
     1
 90
        0
176
     1
 90
        0
176
     1
290
     0
176
     1
 90
        1
176
     1
 40
0.0
176
     1
 90
        0
176
     1
290
     0
176
     1
290
     1
176
     1
290
     1
176
     1
290
     0
176
     1
290
     0
176
     1
290
     0
176
     1
290
     0
176
     1
290
     0
176
     1
290
     0
176
     1
 90
       50
176
     1
 40
0.0
176
     1
 40
1.0
176
     1
 90
        0
176
     1
 62
    18
420
        0
176
     1
 90
       50
176
     1
 90
        3
176
     1
 62
     5
420
      255
176
     1
290
     0
176
     1
 90
       50
176
     1
 90
       50
176
     1
 90
       50
176
     1
290
     0
176
     1
 90
       50
176
     1
 62
   256
176
     0
 40
1.0
176
     0
 90
        2
176
     1
  1
strokes_ogs.tif
176
     1
290
     0
176
     1
 40
1.0
176
     1
 40
1.0
176
     1
  0
VISUALSTYLE
  5
3C
102
{ACAD_REACTORS
330
2A
102
}
330
2A
100
AcDbVisualStyle
  2
OverhangOff
 70
    21
177
     3
291
     1
 70
    58
 90
        2
176
     0
 90
        2
176
     0
 90
        0
176
     0
 90
        0
176
     0
 40
0.6
176
     0
 40
30.0
176
     0
 62
     7
420
 16777215
176
     0
 90
        1
176
     0
 90
        4
176
     0
 62
     7
176
     0
 62
   257
176
     0
 90
        1
176
     0
 90
        1
176
     0
 40
1.0
176
     0
 90
        9
176
     2
 62
     7
176
     0
 40
1.0
176
     0
 90
        1
176
     0
 90
        6
176
     0
 90
        2
176
     0
 62
     7
176
     0
 90
        5
176
     0
 90
        0
176
     0
 90
        0
176
     0
290
     0
176
     0
 90
        1
176
     0
 40
0.0
176
     0
 90
        0
176
     0
290
     0
176
     0
290
     1
176
     0
290
     1
176
     0
290
     0
176
     0
290
     0
176
     0
290
     0
176
     0
290
     0
176
     0
290
     0
176
     0
290
     0
176
     0
 90
       50
176
     0
 40
0.0
176
     0
 40
1.0
176
     0
 90
        0
176
     0
 62
    18
420
        0
176
     0
 90
       50
176
     0
 90
        3
176
     0
 62
     5
420
      255
176
     0
290
     0
176
     0
 90
       50
176
     0
 90
       50
176
     0
 90
       50
176
     0
290
     0
176
     0
 90
       50
176
     0
 62
   256
176
     0
 40
1.0
176
     0
 90
        2
176
     0
  1
strokes_ogs.tif
176
     0
290
     0
176
     0
 40
1.0
176
     0
 40
1.0
176
     0
  0
VISUALSTYLE
  5
33
102
{ACAD_REACTORS
330
2A
102
}
330
2A
100
AcDbVisualStyle
  2
Realistic
 70
     8
177
     3
291
     0
 70
    58
 90
        2
176
     1
 90
        3
176
     1
 90
        0
176
     1
 90
        2
176
     1
 40
0.6
176
     1
 40
30.0
176
     1
 62
     7
420
 16777215
176
     1
 90
        0
176
     1
 90
        0
176
     1
 62
     7
176
     1
 62
   257
176
     1
 90
        1
176
     1
 90
        1
176
     1
 40
1.0
176
     1
 90
        8
176
     1
 62
   257
176
     1
 40
1.0
176
     1
 90
        1
176
     1
 90
        6
176
     1
 90
        2
176
     1
 62
     7
176
     1
 90
        3
176
     1
 90
        0
176
     1
 90
        0
176
     1
290
     0
176
     1
 90
       13
176
     1
 40
0.0
176
     1
 90
        0
176
     1
290
     0
176
     1
290
     1
176
     1
290
     1
176
     1
290
     0
176
     1
290
     0
176
     1
290
     0
176
     1
290
     0
176
     1
290
     0
176
     1
290
     0
176
     1
 90
       50
176
     1
 40
0.0
176
     1
 40
1.0
176
     1
 90
        0
176
     1
 62
    18
420
        0
176
     1
 90
       50
176
     1
 90
        3
176
     1
 62
     5
420
      255
176
     1
290
     0
176
     1
 90
       50
176
     1
 90
       50
176
     1
 90
       50
176
     1
290
     0
176
     1
 90
       50
176
     1
 62
   256
176
     0
 40
1.0
176
     0
 90
        2
176
     1
  1
strokes_ogs.tif
176
     1
290
     0
176
     1
 40
1.0
176
     1
 40
1.0
176
     1
  0
VISUALSTYLE
  5
42
102
{ACAD_REACTORS
330
2A
102
}
330
2A
100
AcDbVisualStyle
  2
Shaded
 70
    27
177
     3
291
     0
 70
    58
 90
        2
176
     1
 90
        2
176
     1
 90
        1
176
     1
 90
        2
176
     1
 40
0.6
176
     1
 40
30.0
176
     1
 62
     7
420
 16777215
176
     1
 90
        0
176
     1
 90
        4
176
     1
 62
     7
176
     1
 62
   257
176
     1
 90
        1
176
     1
 90
        1
176
     1
 40
1.0
176
     1
 90
        8
176
     1
 62
   257
176
     1
 40
1.0
176
     1
 90
        1
176
     1
 90
        6
176
     1
 90
        2
176
     1
 62
     8
420
  7895160
176
     1
 90
        3
176
     1
 90
        0
176
     1
 90
        0
176
     1
290
     0
176
     1
 90
        5
176
     1
 40
0.0
176
     1
 90
        0
176
     1
290
     0
176
     1
290
     1
176
     1
290
     1
176
     1
290
     0
176
     1
290
     0
176
     1
290
     0
176
     1
290
     0
176
     1
290
     0
176
     1
290
     0
176
     1
 90
       50
176
     1
 40
0.0
176
     1
 40
1.0
176
     1
 90
        0
176
     1
 62
    18
420
        0
176
     1
 90
       50
176
     1
 90
        3
176
     1
 62
     5
420
      255
176
     1
290
     0
176
     1
 90
       50
176
     1
 90
       50
176
     1
 90
       50
176
     1
290
     0
176
     1
 90
       50
176
     1
 62
   256
176
     0
 40
1.0
176
     0
 90
        2
176
     1
  1
strokes_ogs.tif
176
     1
290
     0
176
     1
 40
1.0
176
     1
 40
1.0
176
     1
  0
VISUALSTYLE
  5
41
102
{ACAD_REACTORS
330
2A
102
}
330
2A
100
AcDbVisualStyle
  2
Shaded with edges
 70
    26
177
     3
291
     0
 70
    58
 90
        2
176
     1
 90
        2
176
     1
 90
        1
176
     1
 90
        2
176
     1
 40
0.6
176
     1
 40
30.0
176
     1
 62
     7
420
 16777215
176
     1
 90
        1
176
     1
 90
       10
176
     1
 62
     7
176
     1
 62
   257
176
     1
 90
        2
176
     1
 90
        1
176
     1
 40
1.0
176
     1
 90
        8
176
     1
 62
   257
176
     1
 40
1.0
176
     1
 90
        1
176
     1
 90
        6
176
     1
 90
        2
176
     1
 62
     7
176
     1
 90
        3
176
     1
 90
        0
176
     1
 90
        0
176
     1
290
     0
176
     1
 90
        5
176
     1
 40
0.0
176
     1
 90
        0
176
     1
290
     0
176
     1
290
     1
176
     1
290
     1
176
     1
290
     0
176
     1
290
     0
176
     1
290
     0
176
     1
290
     0
176
     1
290
     0
176
     1
290
     0
176
     1
 90
       50
176
     1
 40
0.0
176
     1
 40
1.0
176
     1
 90
        0
176
     1
 62
    18
420
        0
176
     1
 90
       50
176
     1
 90
        3
176
     1
 62
     5
420
      255
176
     1
290
     0
176
     1
 90
       50
176
     1
 90
       50
176
     1
 90
       50
176
     1
290
     0
176
     1
 90
       50
176
     1
 62
   256
176
     0
 40
1.0
176
     0
 90
        2
176
     1
  1
strokes_ogs.tif
176
     1
290
     0
176
     1
 40
1.0
176
     1
 40
1.0
176
     1
  0
VISUALSTYLE
  5
3E
102
{ACAD_REACTORS
330
2A
102
}
330
2A
100
AcDbVisualStyle
  2
Shades of Gray
 70
    23
177
     3
291
     0
 70
    58
 90
        2
176
     1
 90
        2
176
     1
 90
        3
176
     1
 90
        0
176
     1
 40
0.6
176
     1
 40
30.0
176
     1
 62
     7
420
 16777215
176
     1
 90
        2
176
     1
 90
        2
176
     1
 62
     7
176
     1
 62
     7
176
     1
 90
        1
176
     1
 90
        1
176
     1
 40
40.0
176
     1
 90
        8
176
     1
 62
     7
176
     1
 40
1.0
176
     1
 90
        1
176
     1
 90
        6
176
     1
 90
        2
176
     1
 62
     7
176
     1
 90
        3
176
     1
 90
        0
176
     1
 90
        0
176
     1
290
     0
176
     1
 90
        1
176
     1
 40
0.0
176
     1
 90
        0
176
     1
290
     0
176
     1
290
     1
176
     1
290
     1
176
     1
290
     0
176
     1
290
     0
176
     1
290
     0
176
     1
290
     0
176
     1
290
     0
176
     1
290
     0
176
     1
 90
       50
176
     1
 40
0.0
176
     1
 40
1.0
176
     1
 90
        0
176
     1
 62
    18
420
        0
176
     1
 90
       50
176
     1
 90
        3
176
     1
 62
     5
420
      255
176
     1
290
     0
176
     1
 90
       50
176
     1
 90
       50
176
     1
 90
       50
176
     1
290
     0
176
     1
 90
       50
176
     1
 62
   256
176
     0
 40
1.0
176
     0
 90
        2
176
     1
  1
strokes_ogs.tif
176
     1
290
     0
176
     1
 40
1.0
176
     1
 40
1.0
176
     1
  0
VISUALSTYLE
  5
3F
102
{ACAD_REACTORS
330
2A
102
}
330
2A
100
AcDbVisualStyle
  2
Sketchy
 70
    24
177
     3
291
     0
 70
    58
 90
        1
176
     1
 90
        2
176
     1
 90
        2
176
     1
 90
        0
176
     1
 40
0.6
176
     1
 40
30.0
176
     1
 62
     7
420
 16777215
176
     1
 90
        2
176
     1
 90
        2
176
     1
 62
     7
176
     1
 62
     7
176
     1
 90
        1
176
     1
 90
        1
176
     1
 40
40.0
176
     1
 90
       11
176
     1
 62
     7
176
     1
 40
1.0
176
     1
 90
        1
176
     1
 90
        6
176
     1
 90
        2
176
     1
 62
     7
176
     1
 90
        6
176
     1
 90
        0
176
     1
 90
        0
176
     1
290
     0
176
     1
 90
        1
176
     1
 40
0.0
176
     1
 90
        0
176
     1
290
     0
176
     1
290
     1
176
     1
290
     1
176
     1
290
     0
176
     1
290
     0
176
     1
290
     0
176
     1
290
     0
176
     1
290
     0
176
     1
290
     0
176
     1
 90
       50
176
     1
 40
0.0
176
     1
 40
1.0
176
     1
 90
        0
176
     1
 62
    18
420
        0
176
     1
 90
       50
176
     1
 90
        3
176
     1
 62
     5
420
      255
176
     1
290
     0
176
     1
 90
       50
176
     1
 90
       50
176
     1
 90
       50
176
     1
290
     0
176
     1
 90
       50
176
     1
 62
   256
176
     0
 40
1.0
176
     0
 90
        2
176
     1
  1
strokes_ogs.tif
176
     1
290
     0
176
     1
 40
1.0
176
     1
 40
1.0
176
     1
  0
VISUALSTYLE
  5
37
102
{ACAD_REACTORS
330
2A
102
}
330
2A
100
AcDbVisualStyle
  2
Thicken
 70
    13
177
     3
291
     1
 70
    58
 90
        2
176
     1
 90
        2
176
     1
 90
        0
176
     1
 90
        0
176
     1
 40
0.6
176
     1
 40
30.0
176
     1
 62
     7
420
 16777215
176
     1
 90
        1
176
     1
 90
        4
176
     1
 62
     7
176
     1
 62
   257
176
     1
 90
        1
176
     1
 90
        1
176
     1
 40
1.0
176
     1
 90
       12
176
     1
 62
     7
176
     1
 40
1.0
176
     1
 90
        1
176
     1
 90
        6
176
     1
 90
        2
176
     1
 62
     7
176
     1
 90
        5
176
     1
 90
        0
176
     1
 90
        0
176
     1
290
     0
176
     1
 90
        1
176
     1
 40
0.0
176
     1
 90
        0
176
     1
290
     0
176
     1
290
     1
176
     1
290
     1
176
     1
290
     0
176
     1
290
     0
176
     1
290
     0
176
     1
290
     0
176
     1
290
     0
176
     1
290
     0
176
     1
 90
       50
176
     1
 40
0.0
176
     1
 40
1.0
176
     1
 90
        0
176
     1
 62
    18
420
        0
176
     1
 90
       50
176
     1
 90
        3
176
     1
 62
     5
420
      255
176
     1
290
     0
176
     1
 90
       50
176
     1
 90
       50
176
     1
 90
       50
176
     1
290
     0
176
     1
 90
       50
176
     1
 62
   256
176
     0
 40
1.0
176
     0
 90
        2
176
     1
  1
strokes_ogs.tif
176
     1
290
     0
176
     1
 40
1.0
176
     1
 40
1.0
176
     1
  0
VISUALSTYLE
  5
30
102
{ACAD_REACTORS
330
2A
102
}
330
2A
100
AcDbVisualStyle
  2
Wireframe
 70
     5
177
     3
291
     0
 70
    58
 90
        0
176
     1
 90
        2
176
     1
 90
        0
176
     1
 90
        0
176
     1
 40
0.6
176
     1
 40
30.0
176
     1
 62
     7
420
 16777215
176
     1
 90
        1
176
     1
 90
        4
176
     1
 62
     7
176
     1
 62
   257
176
     1
 90
        1
176
     1
 90
        1
176
     1
 40
1.0
176
     1
 90
        0
176
     1
 62
   257
176
     1
 40
1.0
176
     1
 90
        1
176
     1
 90
        6
176
     1
 90
        2
176
     1
 62
     7
176
     1
 90
        3
176
     1
 90
        0
176
     1
 90
        0
176
     1
290
     0
176
     1
 90
        1
176
     1
 40
0.0
176
     1
 90
        0
176
     1
290
     0
176
     1
290
     1
176
     1
290
     1
176
     1
290
     0
176
     1
290
     0
176
     1
290
     0
176
     1
290
     0
176
     1
290
     0
176
     1
290
     0
176
     1
 90
       50
176
     1
 40
0.0
176
     1
 40
1.0
176
     1
 90
        0
176
     1
 62
    18
420
        0
176
     1
 90
       50
176
     1
 90
        3
176
     1
 62
     5
420
      255
176
     1
290
     0
176
     1
 90
       50
176
     1
 90
       50
176
     1
 90
       50
176
     1
290
     0
176
     1
 90
       50
176
     1
 62
   256
176
     0
 40
1.0
176
     0
 90
        2
176
     1
  1
strokes_ogs.tif
176
     1
290
     0
176
     1
 40
1.0
176
     1
 40
1.0
176
     1
  0
VISUALSTYLE
  5
40
102
{ACAD_REACTORS
330
2A
102
}
330
2A
100
AcDbVisualStyle
  2
X-Ray
 70
    25
177
     3
291
     0
 70
    58
 90
        2
176
     1
 90
        2
176
     1
 90
        1
176
     1
 90
        1
176
     1
 40
0.5
176
     1
 40
30.0
176
     1
 62
     7
420
 16777215
176
     1
 90
        1
176
     1
 90
        0
176
     1
 62
     7
176
     1
 62
   257
176
     1
 90
        1
176
     1
 90
        1
176
     1
 40
1.0
176
     1
 90
        8
176
     1
 62
     7
176
     1
 40
1.0
176
     1
 90
        1
176
     1
 90
        6
176
     1
 90
        2
176
     1
 62
     7
176
     1
 90
        3
176
     1
 90
        0
176
     1
 90
        0
176
     1
290
     0
176
     1
 90
       13
176
     1
 40
0.0
176
     1
 90
        0
176
     1
290
     0
176
     1
290
     1
176
     1
290
     1
176
     1
290
     0
176
     1
290
     0
176
     1
290
     0
176
     1
290
     0
176
     1
290
     0
176
     1
290
     0
176
     1
 90
       50
176
     1
 40
0.0
176
     1
 40
1.0
176
     1
 90
        0
176
     1
 62
    18
420
        0
176
     1
 90
       50
176
     1
 90
        3
176
     1
 62
     5
420
      255
176
     1
290
     0
176
     1
 90
       50
176
     1
 90
       50
176
     1
 90
       50
176
     1
290
     0
176
     1
 90
       50
176
     1
 62
   256
176
     0
 40
1.0
176
     0
 90
        2
176
     1
  1
strokes_ogs.tif
176
     1
290
     0
176
     1
 40
1.0
176
     1
 40
1.0
176
     1
  0
DICTIONARYVAR
  5
120
102
{ACAD_REACTORS
330
11F
102
}
330
11F
100
DictionaryVariables
280
     0
  1
1:1
  0
DICTIONARYVAR
  5
125
102
{ACAD_REACTORS
330
11F
102
}
330
11F
100
DictionaryVariables
280
     0
  1
Standard
  0
DICTIONARYVAR
  5
124
102
{ACAD_REACTORS
330
11F
102
}
330
11F
100
DictionaryVariables
280
     0
  1
Standard
  0
DICTIONARY
  5
121
330
6A
100
AcDbDictionary
280
     1
281
     1
  3
ACAD_ROUNDTRIP_2008_TABLESTYLE_CELLSTYLEMAP
360
122
  0
CELLSTYLEMAP
  5
122
102
{ACAD_REACTORS
330
121
102
}
330
121
100
AcDbCellStyleMap
 90
        3
300
CELLSTYLE
  1
TABLEFORMAT_BEGIN
 90
        5
170
     1
 91
        0
 92
    32768
 62
   257
 93
        1
300
CONTENTFORMAT
  1
CONTENTFORMAT_BEGIN
 90
        0
 91
        0
 92
        4
 93
        0
300

 40
0.0
140
1.0
 94
        5
 62
     0
340
11
144
0.25
309
CONTENTFORMAT_END
171
     1
301
MARGIN
  1
CELLMARGIN_BEGIN
 40
0.06
 40
0.06
 40
0.06
 40
0.06
 40
0.06
 40
0.06
309
CELLMARGIN_END
 94
        6
 95
        1
302
GRIDFORMAT
  1
GRIDFORMAT_BEGIN
 90
        0
 91
        1
 62
     0
 92
       -2
340
14
 93
        0
 40
0.045
309
GRIDFORMAT_END
 95
        2
302
GRIDFORMAT
  1
GRIDFORMAT_BEGIN
 90
        0
 91
        1
 62
     0
 92
       -2
340
14
 93
        0
 40
0.045
309
GRIDFORMAT_END
 95
        4
302
GRIDFORMAT
  1
GRIDFORMAT_BEGIN
 90
        0
 91
        1
 62
     0
 92
       -2
340
14
 93
        0
 40
0.045
309
GRIDFORMAT_END
 95
        8
302
GRIDFORMAT
  1
GRIDFORMAT_BEGIN
 90
        0
 91
        1
 62
     0
 92
       -2
340
14
 93
        0
 40
0.045
309
GRIDFORMAT_END
 95
       16
302
GRIDFORMAT
  1
GRIDFORMAT_BEGIN
 90
        0
 91
        1
 62
     0
 92
       -2
340
14
 93
        0
 40
0.045
309
GRIDFORMAT_END
 95
       32
302
GRIDFORMAT
  1
GRIDFORMAT_BEGIN
 90
        0
 91
        1
 62
     0
 92
       -2
340
14
 93
        0
 40
0.045
309
GRIDFORMAT_END
309
TABLEFORMAT_END
  1
CELLSTYLE_BEGIN
 90
        1
 91
        1
300
_TITLE
309
CELLSTYLE_END
300
CELLSTYLE
  1
TABLEFORMAT_BEGIN
 90
        5
170
     1
 91
        0
 92
        0
 62
   257
 93
        1
300
CONTENTFORMAT
  1
CONTENTFORMAT_BEGIN
 90
        0
 91
        0
 92
        4
 93
        0
300

 40
0.0
140
1.0
 94
        5
 62
     0
340
11
144
0.18
309
CONTENTFORMAT_END
171
     1
301
MARGIN
  1
CELLMARGIN_BEGIN
 40
0.06
 40
0.06
 40
0.06
 40
0.06
 40
0.06
 40
0.06
309
CELLMARGIN_END
 94
        6
 95
        1
302
GRIDFORMAT
  1
GRIDFORMAT_BEGIN
 90
        0
 91
        1
 62
     0
 92
       -2
340
14
 93
        0
 40
0.045
309
GRIDFORMAT_END
 95
        2
302
GRIDFORMAT
  1
GRIDFORMAT_BEGIN
 90
        0
 91
        1
 62
     0
 92
       -2
340
14
 93
        0
 40
0.045
309
GRIDFORMAT_END
 95
        4
302
GRIDFORMAT
  1
GRIDFORMAT_BEGIN
 90
        0
 91
        1
 62
     0
 92
       -2
340
14
 93
        0
 40
0.045
309
GRIDFORMAT_END
 95
        8
302
GRIDFORMAT
  1
GRIDFORMAT_BEGIN
 90
        0
 91
        1
 62
     0
 92
       -2
340
14
 93
        0
 40
0.045
309
GRIDFORMAT_END
 95
       16
302
GRIDFORMAT
  1
GRIDFORMAT_BEGIN
 90
        0
 91
        1
 62
     0
 92
       -2
340
14
 93
        0
 40
0.045
309
GRIDFORMAT_END
 95
       32
302
GRIDFORMAT
  1
GRIDFORMAT_BEGIN
 90
        0
 91
        1
 62
     0
 92
       -2
340
14
 93
        0
 40
0.045
309
GRIDFORMAT_END
309
TABLEFORMAT_END
  1
CELLSTYLE_BEGIN
 90
        2
 91
        1
300
_HEADER
309
CELLSTYLE_END
300
CELLSTYLE
  1
TABLEFORMAT_BEGIN
 90
        5
170
     1
 91
        0
 92
        0
 62
   257
 93
        1
300
CONTENTFORMAT
  1
CONTENTFORMAT_BEGIN
 90
        0
 91
        0
 92
        4
 93
        0
300

 40
0.0
140
1.0
 94
        2
 62
     0
340
11
144
0.18
309
CONTENTFORMAT_END
171
     1
301
MARGIN
  1
CELLMARGIN_BEGIN
 40
0.06
 40
0.06
 40
0.06
 40
0.06
 40
0.06
 40
0.06
309
CELLMARGIN_END
 94
        6
 95
        1
302
GRIDFORMAT
  1
GRIDFORMAT_BEGIN
 90
        0
 91
        1
 62
     0
 92
       -2
340
14
 93
        0
 40
0.045
309
GRIDFORMAT_END
 95
        2
302
GRIDFORMAT
  1
GRIDFORMAT_BEGIN
 90
        0
 91
        1
 62
     0
 92
       -2
340
14
 93
        0
 40
0.045
309
GRIDFORMAT_END
 95
        4
302
GRIDFORMAT
  1
GRIDFORMAT_BEGIN
 90
        0
 91
        1
 62
     0
 92
       -2
340
14
 93
        0
 40
0.045
309
GRIDFORMAT_END
 95
        8
302
GRIDFORMAT
  1
GRIDFORMAT_BEGIN
 90
        0
 91
        1
 62
     0
 92
       -2
340
14
 93
        0
 40
0.045
309
GRIDFORMAT_END
 95
       16
302
GRIDFORMAT
  1
GRIDFORMAT_BEGIN
 90
        0
 91
        1
 62
     0
 92
       -2
340
14
 93
        0
 40
0.045
309
GRIDFORMAT_END
 95
       32
302
GRIDFORMAT
  1
GRIDFORMAT_BEGIN
 90
        0
 91
        1
 62
     0
 92
       -2
340
14
 93
        0
 40
0.045
309
GRIDFORMAT_END
309
TABLEFORMAT_END
  1
CELLSTYLE_BEGIN
 90
        3
 91
        2
300
_DATA
309
CELLSTYLE_END
  0
ENDSEC
  0
EOF