0
SECTION
  2
HEADER
  9
$ACADVER
  1
AC1027
  9
$ACADMAINTVER
 70
     8
  9
$DWGCODEPAGE
  3
ANSI_1252
  9
$REQUIREDVERSIONS
160
                 0
  9
$COMMENTS
  1
File was created by Cadenas
  9
$CUSTOMPROPERTYTAG
  1
NN
  9
$CUSTOMPROPERTY
  1
Sleeve Bearings -SOLIDLUBE 1-1/8 thru 2 LT700 Hanger Bearing
  9
$CUSTOMPROPERTYTAG
  1
NT
  9
$CUSTOMPROPERTY
  1
SOLIDLUBE
  9
$CUSTOMPROPERTYTAG
  1
NB
  9
$CUSTOMPROPERTY
  1
033896
  9
$CUSTOMPROPERTYTAG
  1
NBSYN
  9
$CUSTOMPROPERTY
  1
$PN.
  9
$CUSTOMPROPERTYTAG
  1
LINA
  9
$CUSTOMPROPERTY
  1
033896
  9
$CUSTOMPROPERTYTAG
  1
SS
  9
$CUSTOMPROPERTY
  1
1-15/16
  9
$CUSTOMPROPERTYTAG
  1
PN
  9
$CUSTOMPROPERTY
  1
033896
  9
$CUSTOMPROPERTYTAG
  1
DESCRIPTION
  9
$CUSTOMPROPERTY
  1
HNG-LT7-115
  9
$CUSTOMPROPERTYTAG
  1
A
  9
$CUSTOMPROPERTY
  1
1-5/8
  9
$CUSTOMPROPERTYTAG
  1
B
  9
$CUSTOMPROPERTY
  1
5
  9
$CUSTOMPROPERTYTAG
  1
F
  9
$CUSTOMPROPERTY
  1
4-3/16
  9
$CUSTOMPROPERTYTAG
  1
L
  9
$CUSTOMPROPERTY
  1
2-13/16
  9
$CUSTOMPROPERTYTAG
  1
M
  9
$CUSTOMPROPERTY
  1
5/8
  9
$CUSTOMPROPERTYTAG
  1
COMPANY
  9
$CUSTOMPROPERTY
  1
baldor
  9
$INSBASE
 10
0.0
 20
0.0
 30
0.0
  9
$EXTMIN
 10
1.000000000000000E+20
 20
1.000000000000000E+20
 30
1.000000000000000E+20
  9
$EXTMAX
 10
-1.000000000000000E+20
 20
-1.000000000000000E+20
 30
-1.000000000000000E+20
  9
$LIMMIN
 10
0.0
 20
0.0
  9
$LIMMAX
 10
12.0
 20
9.0
  9
$ORTHOMODE
 70
     0
  9
$REGENMODE
 70
     1
  9
$FILLMODE
 70
     1
  9
$QTEXTMODE
 70
     0
  9
$MIRRTEXT
 70
     1
  9
$LTSCALE
 40
1.0
  9
$ATTMODE
 70
     1
  9
$TEXTSIZE
 40
0.2
  9
$TRACEWID
 40
0.05
  9
$TEXTSTYLE
  7
Standard
  9
$CLAYER
  8
0
  9
$CELTYPE
  6
ByLayer
  9
$CECOLOR
 62
   256
  9
$CELTSCALE
 40
1.0
  9
$DISPSILH
 70
     0
  9
$DIMSCALE
 40
1.0
  9
$DIMASZ
 40
0.18
  9
$DIMEXO
 40
0.0625
  9
$DIMDLI
 40
0.38
  9
$DIMRND
 40
0.0
  9
$DIMDLE
 40
0.0
  9
$DIMEXE
 40
0.18
  9
$DIMTP
 40
0.0
  9
$DIMTM
 40
0.0
  9
$DIMTXT
 40
0.18
  9
$DIMCEN
 40
0.09
  9
$DIMTSZ
 40
0.0
  9
$DIMTOL
 70
     0
  9
$DIMLIM
 70
     0
  9
$DIMTIH
 70
     1
  9
$DIMTOH
 70
     1
  9
$DIMSE1
 70
     0
  9
$DIMSE2
 70
     0
  9
$DIMTAD
 70
     0
  9
$DIMZIN
 70
     0
  9
$DIMBLK
  1

  9
$DIMASO
 70
     1
  9
$DIMSHO
 70
     1
  9
$DIMPOST
  1

  9
$DIMAPOST
  1

  9
$DIMALT
 70
     0
  9
$DIMALTD
 70
     2
  9
$DIMALTF
 40
25.4
  9
$DIMLFAC
 40
1.0
  9
$DIMTOFL
 70
     0
  9
$DIMTVP
 40
0.0
  9
$DIMTIX
 70
     0
  9
$DIMSOXD
 70
     0
  9
$DIMSAH
 70
     0
  9
$DIMBLK1
  1

  9
$DIMBLK2
  1

  9
$DIMSTYLE
  2
Standard
  9
$DIMCLRD
 70
     0
  9
$DIMCLRE
 70
     0
  9
$DIMCLRT
 70
     0
  9
$DIMTFAC
 40
1.0
  9
$DIMGAP
 40
0.09
  9
$DIMJUST
 70
     0
  9
$DIMSD1
 70
     0
  9
$DIMSD2
 70
     0
  9
$DIMTOLJ
 70
     1
  9
$DIMTZIN
 70
     0
  9
$DIMALTZ
 70
     0
  9
$DIMALTTZ
 70
     0
  9
$DIMUPT
 70
     0
  9
$DIMDEC
 70
     4
  9
$DIMTDEC
 70
     4
  9
$DIMALTU
 70
     2
  9
$DIMALTTD
 70
     2
  9
$DIMTXSTY
  7
Standard
  9
$DIMAUNIT
 70
     0
  9
$DIMADEC
 70
     0
  9
$DIMALTRND
 40
0.0
  9
$DIMAZIN
 70
     0
  9
$DIMDSEP
 70
    46
  9
$DIMATFIT
 70
     3
  9
$DIMFRAC
 70
     0
  9
$DIMLDRBLK
  1

  9
$DIMLUNIT
 70
     2
  9
$DIMLWD
 70
    -2
  9
$DIMLWE
 70
    -2
  9
$DIMTMOVE
 70
     0
  9
$DIMFXL
 40
1.0
  9
$DIMFXLON
 70
     0
  9
$DIMJOGANG
 40
0.7853981633974483
  9
$DIMTFILL
 70
     0
  9
$DIMTFILLCLR
 70
     0
  9
$DIMARCSYM
 70
     0
  9
$DIMLTYPE
  6

  9
$DIMLTEX1
  6

  9
$DIMLTEX2
  6

  9
$DIMTXTDIRECTION
 70
     0
  9
$LUNITS
 70
     2
  9
$LUPREC
 70
     4
  9
$SKETCHINC
 40
0.1
  9
$FILLETRAD
 40
0.5
  9
$AUNITS
 70
     0
  9
$AUPREC
 70
     0
  9
$MENU
  1
.
  9
$ELEVATION
 40
0.0
  9
$PELEVATION
 40
0.0
  9
$THICKNESS
 40
0.0
  9
$LIMCHECK
 70
     0
  9
$CHAMFERA
 40
0.0
  9
$CHAMFERB
 40
0.0
  9
$CHAMFERC
 40
0.0
  9
$CHAMFERD
 40
0.0
  9
$SKPOLY
 70
     0
  9
$TDCREATE
 40
2458168.978420185
  9
$TDUCREATE
 40
2458168.936753518
  9
$TDUPDATE
 40
2458168.97842037
  9
$TDUUPDATE
 40
2458168.936753704
  9
$TDINDWG
 40
0.0000000116
  9
$TDUSRTIMER
 40
0.0000000116
  9
$USRTIMER
 70
     1
  9
$ANGBASE
 50
0.0
  9
$ANGDIR
 70
     0
  9
$PDMODE
 70
     0
  9
$PDSIZE
 40
0.0
  9
$PLINEWID
 40
0.0
  9
$SPLFRAME
 70
     0
  9
$SPLINETYPE
 70
     6
  9
$SPLINESEGS
 70
     8
  9
$HANDSEED
  5
13F
  9
$SURFTAB1
 70
     6
  9
$SURFTAB2
 70
     6
  9
$SURFTYPE
 70
     6
  9
$SURFU
 70
     6
  9
$SURFV
 70
     6
  9
$UCSBASE
  2

  9
$UCSNAME
  2

  9
$UCSORG
 10
0.0
 20
0.0
 30
0.0
  9
$UCSXDIR
 10
1.0
 20
0.0
 30
0.0
  9
$UCSYDIR
 10
0.0
 20
1.0
 30
0.0
  9
$UCSORTHOREF
  2

  9
$UCSORTHOVIEW
 70
     0
  9
$UCSORGTOP
 10
0.0
 20
0.0
 30
0.0
  9
$UCSORGBOTTOM
 10
0.0
 20
0.0
 30
0.0
  9
$UCSORGLEFT
 10
0.0
 20
0.0
 30
0.0
  9
$UCSORGRIGHT
 10
0.0
 20
0.0
 30
0.0
  9
$UCSORGFRONT
 10
0.0
 20
0.0
 30
0.0
  9
$UCSORGBACK
 10
0.0
 20
0.0
 30
0.0
  9
$PUCSBASE
  2

  9
$PUCSNAME
  2

  9
$PUCSORG
 10
0.0
 20
0.0
 30
0.0
  9
$PUCSXDIR
 10
1.0
 20
0.0
 30
0.0
  9
$PUCSYDIR
 10
0.0
 20
1.0
 30
0.0
  9
$PUCSORTHOREF
  2

  9
$PUCSORTHOVIEW
 70
     0
  9
$PUCSORGTOP
 10
0.0
 20
0.0
 30
0.0
  9
$PUCSORGBOTTOM
 10
0.0
 20
0.0
 30
0.0
  9
$PUCSORGLEFT
 10
0.0
 20
0.0
 30
0.0
  9
$PUCSORGRIGHT
 10
0.0
 20
0.0
 30
0.0
  9
$PUCSORGFRONT
 10
0.0
 20
0.0
 30
0.0
  9
$PUCSORGBACK
 10
0.0
 20
0.0
 30
0.0
  9
$USERI1
 70
     0
  9
$USERI2
 70
     0
  9
$USERI3
 70
     0
  9
$USERI4
 70
     0
  9
$USERI5
 70
     0
  9
$USERR1
 40
0.0
  9
$USERR2
 40
0.0
  9
$USERR3
 40
0.0
  9
$USERR4
 40
0.0
  9
$USERR5
 40
0.0
  9
$WORLDVIEW
 70
     1
  9
$SHADEDGE
 70
     3
  9
$SHADEDIF
 70
    70
  9
$TILEMODE
 70
     1
  9
$MAXACTVP
 70
    64
  9
$PINSBASE
 10
0.0
 20
0.0
 30
0.0
  9
$PLIMCHECK
 70
     0
  9
$PEXTMIN
 10
1.000000000000000E+20
 20
1.000000000000000E+20
 30
1.000000000000000E+20
  9
$PEXTMAX
 10
-1.000000000000000E+20
 20
-1.000000000000000E+20
 30
-1.000000000000000E+20
  9
$PLIMMIN
 10
0.0
 20
0.0
  9
$PLIMMAX
 10
12.0
 20
9.0
  9
$UNITMODE
 70
     0
  9
$VISRETAIN
 70
     1
  9
$PLINEGEN
 70
     0
  9
$PSLTSCALE
 70
     1
  9
$TREEDEPTH
 70
  3020
  9
$CMLSTYLE
  2
Standard
  9
$CMLJUST
 70
     0
  9
$CMLSCALE
 40
1.0
  9
$PROXYGRAPHICS
 70
     1
  9
$MEASUREMENT
 70
     0
  9
$CELWEIGHT
370
    -1
  9
$ENDCAPS
280
     0
  9
$JOINSTYLE
280
     0
  9
$LWDISPLAY
290
     0
  9
$INSUNITS
 70
     1
  9
$HYPERLINKBASE
  1

  9
$STYLESHEET
  1

  9
$XEDIT
290
     1
  9
$CEPSNTYPE
380
     0
  9
$PSTYLEMODE
290
     1
  9
$FINGERPRINTGUID
  2
{35D0C24B-7365-430D-85C6-4847D774F5CA}
  9
$VERSIONGUID
  2
{FAEB1C32-E019-11D5-929B-00C0DF256EC4}
  9
$EXTNAMES
290
     1
  9
$PSVPSCALE
 40
0.0
  9
$OLESTARTUP
290
     0
  9
$SORTENTS
280
   127
  9
$INDEXCTL
280
     0
  9
$HIDETEXT
280
     1
  9
$XCLIPFRAME
280
     2
  9
$HALOGAP
280
     0
  9
$OBSCOLOR
 70
   257
  9
$OBSLTYPE
280
     0
  9
$INTERSECTIONDISPLAY
280
     0
  9
$INTERSECTIONCOLOR
 70
   257
  9
$DIMASSOC
280
     2
  9
$PROJECTNAME
  1

  9
$CAMERADISPLAY
290
     0
  9
$LENSLENGTH
 40
50.0
  9
$CAMERAHEIGHT
 40
0.0
  9
$STEPSPERSEC
 40
2.0
  9
$STEPSIZE
 40
6.0
  9
$3DDWFPREC
 40
2.0
  9
$PSOLWIDTH
 40
0.25
  9
$PSOLHEIGHT
 40
4.0
  9
$LOFTANG1
 40
1.570796326794897
  9
$LOFTANG2
 40
1.570796326794897
  9
$LOFTMAG1
 40
0.0
  9
$LOFTMAG2
 40
0.0
  9
$LOFTPARAM
 70
     7
  9
$LOFTNORMALS
280
     1
  9
$LATITUDE
 40
37.795
  9
$LONGITUDE
 40
-122.394
  9
$NORTHDIRECTION
 40
0.0
  9
$TIMEZONE
 70
 -8000
  9
$LIGHTGLYPHDISPLAY
280
     1
  9
$TILEMODELIGHTSYNCH
280
     1
  9
$CMATERIAL
347
44
  9
$SOLIDHIST
280
     0
  9
$SHOWHIST
280
     1
  9
$DWFFRAME
280
     2
  9
$DGNFRAME
280
     2
  9
$REALWORLDSCALE
290
     1
  9
$INTERFERECOLOR
 62
   256
  9
$CSHADOW
280
     0
  9
$SHADOWPLANELOCATION
 40
0.0
  0
ENDSEC
  0
SECTION
  2
CLASSES
  0
CLASS
  1
ACDBDICTIONARYWDFLT
  2
AcDbDictionaryWithDefault
  3
ObjectDBX Classes
 90
        0
 91
        4
280
     0
281
     0
  0
CLASS
  1
VISUALSTYLE
  2
AcDbVisualStyle
  3
ObjectDBX Classes
 90
     4095
 91
        4
280
     0
281
     0
  0
CLASS
  1
MATERIAL
  2
AcDbMaterial
  3
ObjectDBX Classes
 90
     1153
 91
        4
280
     0
281
     0
  0
CLASS
  1
SCALE
  2
AcDbScale
  3
ObjectDBX Classes
 90
     1153
 91
        4
280
     0
281
     0
  0
CLASS
  1
TABLESTYLE
  2
AcDbTableStyle
  3
ObjectDBX Classes
 90
     4095
 91
        4
280
     0
281
     0
  0
CLASS
  1
MLEADERSTYLE
  2
AcDbMLeaderStyle
  3
ACDB_MLEADERSTYLE_CLASS
 90
     4095
 91
        4
280
     0
281
     0
  0
CLASS
  1
SUN
  2
AcDbSun
  3
SCENEOE
 90
     1153
 91
        4
280
     0
281
     0
  0
CLASS
  1
DICTIONARYVAR
  2
AcDbDictionaryVar
  3
ObjectDBX Classes
 90
        0
 91
        4
280
     0
281
     0
  0
CLASS
  1
CELLSTYLEMAP
  2
AcDbCellStyleMap
  3
ObjectDBX Classes
 90
     1152
 91
        4
280
     0
281
     0
  0
ENDSEC
  0
SECTION
  2
TABLES
  0
TABLE
  2
VPORT
  5
8
330
0
100
AcDbSymbolTable
 70
     1
  0
VPORT
  5
29
330
8
100
AcDbSymbolTableRecord
100
AcDbViewportTableRecord
  2
*Active
 70
     0
 10
0.0
 20
0.0
 11
1.0
 21
1.0
 12
0.0
 22
0.0
 13
0.0
 23
0.0
 14
0.5
 24
0.5
 15
0.5
 25
0.5
 16
0.0
 26
0.0
 36
1.0
 17
0.0
 27
0.0
 37
0.0
 40
5.173510785323312
 41
0.3524202568925465
 42
50.0
 43
0.0
 44
0.0
 50
0.0
 51
0.0
 71
     0
 72
   100
 73
     1
 74
     3
 75
     0
 76
     0
 77
     0
 78
     0
281
     0
 65
     1
110
0.0
120
0.0
130
0.0
111
1.0
121
0.0
131
0.0
112
0.0
122
1.0
132
0.0
 79
     0
146
0.0
348
2F
 60
     3
 61
     5
292
     1
282
     1
141
0.0
142
0.0
 63
   250
361
6D
  0
ENDTAB
  0
TABLE
  2
LTYPE
  5
5
330
0
100
AcDbSymbolTable
 70
     3
  0
LTYPE
  5
14
330
5
100
AcDbSymbolTableRecord
100
AcDbLinetypeTableRecord
  2
ByBlock
 70
     0
  3

 72
    65
 73
     0
 40
0.0
  0
LTYPE
  5
15
330
5
100
AcDbSymbolTableRecord
100
AcDbLinetypeTableRecord
  2
ByLayer
 70
     0
  3

 72
    65
 73
     0
 40
0.0
  0
LTYPE
  5
16
330
5
100
AcDbSymbolTableRecord
100
AcDbLinetypeTableRecord
  2
Continuous
 70
     0
  3
Solid line
 72
    65
 73
     0
 40
0.0
  0
LTYPE
  5
94
330
5
100
AcDbSymbolTableRecord
100
AcDbLinetypeTableRecord
  2
Dashed
 70
     0
  3

 72
    65
 73
     2
 40
2.0
 49
1.0
 74
     0
 49
-1.0
 74
     0
  0
LTYPE
  5
A0
330
5
100
AcDbSymbolTableRecord
100
AcDbLinetypeTableRecord
  2
Center
 70
     0
  3

 72
    65
 73
     4
 40
1.5
 49
0.45
 74
     0
 49
-0.5
 74
     0
 49
0.05
 74
     0
 49
-0.5
 74
     0
  0
ENDTAB
  0
TABLE
  2
LAYER
  5
2
330
0
100
AcDbSymbolTable
 70
     7
  0
LAYER
  5
10
330
2
100
AcDbSymbolTableRecord
100
AcDbLayerTableRecord
  2
0
 70
     0
 62
     7
  6
Continuous
370
    -3
390
F
347
46
348
0
  0
LAYER
  5
72
330
2
100
AcDbSymbolTableRecord
100
AcDbLayerTableRecord
  2
AM_6
 70
     0
 62
    -2
  6
Continuous
370
    35
390
F
347
46
348
0
  0
LAYER
  5
95
330
2
100
AcDbSymbolTableRecord
100
AcDbLayerTableRecord
  2
AM_9
 70
     0
 62
     6
  6
Dashed
370
    25
390
F
347
46
348
0
  0
LAYER
  5
A1
330
2
100
AcDbSymbolTableRecord
100
AcDbLayerTableRecord
  2
AM_7
 70
     0
 62
     7
  6
Center
370
    25
390
F
347
46
348
0
  0
LAYER
  5
F6
330
2
100
AcDbSymbolTableRecord
100
AcDbLayerTableRecord
  2
AM_5
 70
     0
 62
     3
  6
Continuous
370
    25
390
F
347
46
348
0
  0
LAYER
  5
102
330
2
100
AcDbSymbolTableRecord
100
AcDbLayerTableRecord
  2
AM_4
 70
     0
 62
     3
  6
Continuous
370
    25
390
F
347
46
348
0
  0
LAYER
  5
133
330
2
100
AcDbSymbolTableRecord
100
AcDbLayerTableRecord
  2
ConnectionPoints
 70
     0
 62
     7
  6
Continuous
370
    50
390
F
347
46
348
0
  0
ENDTAB
  0
TABLE
  2
STYLE
  5
3
330
0
100
AcDbSymbolTable
 70
     1
  0
STYLE
  5
11
330
3
100
AcDbSymbolTableRecord
100
AcDbTextStyleTableRecord
  2
Standard
 70
     0
 40
0.0
 41
1.0
 50
0.0
 71
     0
 42
0.2
  3
txt
  4

  0
ENDTAB
  0
TABLE
  2
VIEW
  5
6
330
0
100
AcDbSymbolTable
 70
     0
  0
ENDTAB
  0
TABLE
  2
UCS
  5
7
330
0
100
AcDbSymbolTable
 70
     0
  0
ENDTAB
  0
TABLE
  2
APPID
  5
9
330
0
100
AcDbSymbolTable
 70
     1
  0
APPID
  5
12
330
9
100
AcDbSymbolTableRecord
100
AcDbRegAppTableRecord
  2
ACAD
 70
     0
  0
ENDTAB
  0
TABLE
  2
DIMSTYLE
  5
A
330
0
100
AcDbSymbolTable
 70
     1
100
AcDbDimStyleTable
  0
DIMSTYLE
105
27
330
A
100
AcDbSymbolTableRecord
100
AcDbDimStyleTableRecord
  2
Standard
 70
     0
178
     0
340
11
  0
ENDTAB
  0
TABLE
  2
BLOCK_RECORD
  5
1
330
0
100
AcDbSymbolTable
 70
     4
  0
BLOCK_RECORD
  5
1F
330
1
100
AcDbSymbolTableRecord
100
AcDbBlockTableRecord
  2
*Model_Space
340
22
 70
     0
280
     1
281
     0
  0
BLOCK_RECORD
  5
1B
330
1
100
AcDbSymbolTableRecord
100
AcDbBlockTableRecord
  2
*Paper_Space
340
1E
 70
     0
280
     1
281
     0
  0
BLOCK_RECORD
  5
23
330
1
100
AcDbSymbolTableRecord
100
AcDbBlockTableRecord
  2
*Paper_Space0
340
26
 70
     0
280
     1
281
     0
  0
BLOCK_RECORD
  5
6E
330
1
100
AcDbSymbolTableRecord
100
AcDbBlockTableRecord
  2
1_033896_2
340
0
102
{BLKREFS
331
6F
102
}
 70
     0
280
     1
281
     0
  0
BLOCK_RECORD
  5
81
330
1
100
AcDbSymbolTableRecord
100
AcDbBlockTableRecord
  2
2_033597_0_in_033896_2
340
0
102
{BLKREFS
331
82
102
}
 70
     0
280
     1
281
     0
  0
BLOCK_RECORD
  5
A3
330
1
100
AcDbSymbolTableRecord
100
AcDbBlockTableRecord
  2
3_HNG_LT7_115_0_in_033896_2
340
0
102
{BLKREFS
331
A4
102
}
 70
     0
280
     1
281
     0
  0
ENDTAB
  0
ENDSEC
  0
SECTION
  2
BLOCKS
  0
BLOCK
  5
20
330
1F
100
AcDbEntity
  8
0
100
AcDbBlockBegin
  2
*Model_Space
 70
     0
 10
0.0
 20
0.0
 30
0.0
  3
*Model_Space
  1

  0
ENDBLK
  5
21
330
1F
100
AcDbEntity
  8
0
100
AcDbBlockEnd
  0
BLOCK
  5
1C
330
1B
100
AcDbEntity
 67
     1
  8
0
100
AcDbBlockBegin
  2
*Paper_Space
 70
     0
 10
0.0
 20
0.0
 30
0.0
  3
*Paper_Space
  1

  0
ENDBLK
  5
1D
330
1B
100
AcDbEntity
 67
     1
  8
0
100
AcDbBlockEnd
  0
BLOCK
  5
24
330
23
100
AcDbEntity
  8
0
100
AcDbBlockBegin
  2
*Paper_Space0
 70
     0
 10
0.0
 20
0.0
 30
0.0
  3
*Paper_Space0
  1

  0
ENDBLK
  5
25
330
23
100
AcDbEntity
  8
0
100
AcDbBlockEnd
  0
BLOCK
  5
70
330
6E
100
AcDbEntity
  8
0
100
AcDbBlockBegin
  2
1_033896_2
 70
     2
 10
0.0
 20
0.0
 30
0.0
  3
1_033896_2
  1

  0
ATTDEF
  5
73
330
6E
100
AcDbEntity
  8
AM_6
100
AcDbText
 10
5.893750000000001
 20
2.536034698687898
 30
0.0
 40
0.5
  1
Sleeve Bearings -SOLIDLUBE 1-1/8 thru 2 LT700 Hanger Bearing
100
AcDbAttributeDefinition
  3

  2
NN
 70
     8
280
     0
  0
ATTDEF
  5
74
330
6E
100
AcDbEntity
  8
AM_6
100
AcDbText
 10
5.893750000000001
 20
2.036034698687898
 30
0.0
 40
0.5
  1
SOLIDLUBE
100
AcDbAttributeDefinition
  3

  2
NT
 70
     8
280
     0
  0
ATTDEF
  5
75
330
6E
100
AcDbEntity
  8
AM_6
100
AcDbText
 10
5.893750000000001
 20
1.536034698687898
 30
0.0
 40
0.5
  1
033896
100
AcDbAttributeDefinition
  3

  2
NB
 70
     8
280
     0
  0
ATTDEF
  5
76
330
6E
100
AcDbEntity
  8
AM_6
100
AcDbText
 10
5.893750000000001
 20
1.036034698687898
 30
0.0
 40
0.5
  1
$PN.
100
AcDbAttributeDefinition
  3

  2
NBSYN
 70
     8
280
     0
  0
ATTDEF
  5
77
330
6E
100
AcDbEntity
  8
AM_6
100
AcDbText
 10
5.893750000000001
 20
0.5360346986878977
 30
0.0
 40
0.5
  1
033896
100
AcDbAttributeDefinition
  3

  2
LINA
 70
     8
280
     0
  0
ATTDEF
  5
78
330
6E
100
AcDbEntity
  8
AM_6
100
AcDbText
 10
5.893750000000001
 20
0.0360346986878977
 30
0.0
 40
0.5
  1
1-15/16
100
AcDbAttributeDefinition
  3

  2
SS
 70
     8
280
     0
  0
ATTDEF
  5
79
330
6E
100
AcDbEntity
  8
AM_6
100
AcDbText
 10
5.893750000000001
 20
-0.4639653013121023
 30
0.0
 40
0.5
  1
033896
100
AcDbAttributeDefinition
  3

  2
PN
 70
     8
280
     0
  0
ATTDEF
  5
7A
330
6E
100
AcDbEntity
  8
AM_6
100
AcDbText
 10
5.893750000000001
 20
-0.9639653013121023
 30
0.0
 40
0.5
  1
HNG-LT7-115
100
AcDbAttributeDefinition
  3

  2
DESCRIPTION
 70
     8
280
     0
  0
ATTDEF
  5
7B
330
6E
100
AcDbEntity
  8
AM_6
100
AcDbText
 10
5.893750000000001
 20
-1.463965301312102
 30
0.0
 40
0.5
  1
1-5/8
100
AcDbAttributeDefinition
  3

  2
A
 70
     8
280
     0
  0
ATTDEF
  5
7C
330
6E
100
AcDbEntity
  8
AM_6
100
AcDbText
 10
5.893750000000001
 20
-1.963965301312102
 30
0.0
 40
0.5
  1
5
100
AcDbAttributeDefinition
  3

  2
B
 70
     8
280
     0
  0
ATTDEF
  5
7D
330
6E
100
AcDbEntity
  8
AM_6
100
AcDbText
 10
5.893750000000001
 20
-2.463965301312102
 30
0.0
 40
0.5
  1
4-3/16
100
AcDbAttributeDefinition
  3

  2
F
 70
     8
280
     0
  0
ATTDEF
  5
7E
330
6E
100
AcDbEntity
  8
AM_6
100
AcDbText
 10
5.893750000000001
 20
-2.963965301312102
 30
0.0
 40
0.5
  1
2-13/16
100
AcDbAttributeDefinition
  3

  2
L
 70
     8
280
     0
  0
ATTDEF
  5
7F
330
6E
100
AcDbEntity
  8
AM_6
100
AcDbText
 10
5.893750000000001
 20
-3.463965301312102
 30
0.0
 40
0.5
  1
5/8
100
AcDbAttributeDefinition
  3

  2
M
 70
     8
280
     0
  0
ATTDEF
  5
80
330
6E
100
AcDbEntity
  8
AM_6
100
AcDbText
 10
5.893750000000001
 20
-3.963965301312102
 30
0.0
 40
0.5
  1
baldor
100
AcDbAttributeDefinition
  3

  2
COMPANY
 70
     8
280
     0
  0
INSERT
  5
82
330
6E
100
AcDbEntity
  8
0
100
AcDbBlockReference
  2
2_033597_0_in_033896_2
 10
0.0
 20
0.0
 30
0.0
  0
INSERT
  5
A4
330
6E
100
AcDbEntity
  8
0
100
AcDbBlockReference
  2
3_HNG_LT7_115_0_in_033896_2
 10
0.0
 20
0.0
 30
0.0
  0
ENDBLK
  5
71
330
6E
100
AcDbEntity
  8
0
100
AcDbBlockEnd
  0
BLOCK
  5
83
330
81
100
AcDbEntity
  8
0
100
AcDbBlockBegin
  2
2_033597_0_in_033896_2
 70
     2
 10
0.0
 20
0.0
 30
0.0
  3
2_033597_0_in_033896_2
  1

  0
ATTDEF
  5
85
330
81
100
AcDbEntity
  8
AM_6
100
AcDbText
 10
5.893750000000001
 20
1.76825
 30
0.0
 40
0.5
  1
Sleeve Bearings - SOLIDLUBE 3/4 thru 3 LT700 Inserts
100
AcDbAttributeDefinition
  3

  2
NN
 70
     8
280
     0
  0
ATTDEF
  5
86
330
81
100
AcDbEntity
  8
AM_6
100
AcDbText
 10
5.893750000000001
 20
1.26825
 30
0.0
 40
0.5
  1
SOLIDLUBE
100
AcDbAttributeDefinition
  3

  2
NT
 70
     8
280
     0
  0
ATTDEF
  5
87
330
81
100
AcDbEntity
  8
AM_6
100
AcDbText
 10
5.893750000000001
 20
0.7682500000000003
 30
0.0
 40
0.5
  1
033597
100
AcDbAttributeDefinition
  3

  2
NB
 70
     8
280
     0
  0
ATTDEF
  5
88
330
81
100
AcDbEntity
  8
AM_6
100
AcDbText
 10
5.893750000000001
 20
0.2682500000000003
 30
0.0
 40
0.5
  1
$PN.
100
AcDbAttributeDefinition
  3

  2
NBSYN
 70
     8
280
     0
  0
ATTDEF
  5
89
330
81
100
AcDbEntity
  8
AM_6
100
AcDbText
 10
5.893750000000001
 20
-0.2317499999999997
 30
0.0
 40
0.5
  1
033597
100
AcDbAttributeDefinition
  3

  2
LINA
 70
     8
280
     0
  0
ATTDEF
  5
8A
330
81
100
AcDbEntity
  8
AM_6
100
AcDbText
 10
5.893750000000001
 20
-0.7317499999999997
 30
0.0
 40
0.5
  1
210
100
AcDbAttributeDefinition
  3

  2
SERIES
 70
     8
280
     0
  0
ATTDEF
  5
8B
330
81
100
AcDbEntity
  8
AM_6
100
AcDbText
 10
5.893750000000001
 20
-1.23175
 30
0.0
 40
0.5
  1
1-15/16
100
AcDbAttributeDefinition
  3

  2
SS
 70
     8
280
     0
  0
ATTDEF
  5
8C
330
81
100
AcDbEntity
  8
AM_6
100
AcDbText
 10
5.893750000000001
 20
-1.73175
 30
0.0
 40
0.5
  1
033597
100
AcDbAttributeDefinition
  3

  2
PN
 70
     8
280
     0
  0
ATTDEF
  5
8D
330
81
100
AcDbEntity
  8
AM_6
100
AcDbText
 10
5.893750000000001
 20
-2.23175
 30
0.0
 40
0.5
  1
INS-LT7-115
100
AcDbAttributeDefinition
  3

  2
DESCRIPTION
 70
     8
280
     0
  0
ATTDEF
  5
8E
330
81
100
AcDbEntity
  8
AM_6
100
AcDbText
 10
5.893750000000001
 20
-2.73175
 30
0.0
 40
0.5
  1
1.8
100
AcDbAttributeDefinition
  3

  2
WEIGHT
 70
     8
280
     0
  0
ATTDEF
  5
8F
330
81
100
AcDbEntity
  8
AM_6
100
AcDbText
 10
5.893750000000001
 20
-3.23175
 30
0.0
 40
0.5
  1
1-5/8
100
AcDbAttributeDefinition
  3

  2
A
 70
     8
280
     0
  0
ATTDEF
  5
90
330
81
100
AcDbEntity
  8
AM_6
100
AcDbText
 10
5.893750000000001
 20
-3.73175
 30
0.0
 40
0.5
  1
7/8
100
AcDbAttributeDefinition
  3

  2
C
 70
     8
280
     0
  0
ATTDEF
  5
91
330
81
100
AcDbEntity
  8
AM_6
100
AcDbText
 10
5.893750000000001
 20
-4.23175
 30
0.0
 40
0.5
  1
2-13/16
100
AcDbAttributeDefinition
  3

  2
L
 70
     8
280
     0
  0
ATTDEF
  5
92
330
81
100
AcDbEntity
  8
AM_6
100
AcDbText
 10
5.893750000000001
 20
-4.73175
 30
0.0
 40
0.5
  1
3.5375/3.5355
100
AcDbAttributeDefinition
  3

  2
S
 70
     8
280
     0
  0
ATTDEF
  5
93
330
81
100
AcDbEntity
  8
AM_6
100
AcDbText
 10
5.893750000000001
 20
-5.23175
 30
0.0
 40
0.5
  1
baldor
100
AcDbAttributeDefinition
  3

  2
COMPANY
 70
     8
280
     0
  0
LINE
  5
96
330
81
100
AcDbEntity
  8
AM_9
100
AcDbLine
 10
0.8125
 20
0.96875
 30
0.0
 11
-0.8125
 21
0.96875
 31
0.0
  0
LINE
  5
97
330
81
100
AcDbEntity
  8
AM_9
100
AcDbLine
 10
-0.8125
 20
-0.96875
 30
0.0
 11
0.8125
 21
-0.96875
 31
0.0
  0
ARC
  5
98
330
81
100
AcDbEntity
  8
AM_9
100
AcDbCircle
 10
-0.8125000000000004
 20
1.76825
 30
0.0
 40
0.3750000000000004
100
AcDbArc
 50
270.0
 51
0.0
  0
ARC
  5
99
330
81
100
AcDbEntity
  8
AM_9
100
AcDbCircle
 10
-0.8125000000000007
 20
-1.76825
 30
0.0
 40
0.3750000000000005
100
AcDbArc
 50
0.0000008537736463
 51
90.0
  0
ARC
  5
9A
330
81
100
AcDbEntity
  8
AM_9
100
AcDbCircle
 10
0.8125000000000009
 20
1.76825
 30
0.0
 40
0.3750000000000008
100
AcDbArc
 50
180.0
 51
270.0
  0
ARC
  5
9B
330
81
100
AcDbEntity
  8
AM_9
100
AcDbCircle
 10
0.8125000000000004
 20
-1.76825
 30
0.0
 40
0.3750000000000002
100
AcDbArc
 50
90.0
 51
180.0
  0
LINE
  5
9C
330
81
100
AcDbEntity
  8
AM_9
100
AcDbLine
 10
0.4375000000000001
 20
1.76825
 30
0.0
 11
-0.4375000000000002
 21
1.76825
 31
0.0
  0
LINE
  5
9D
330
81
100
AcDbEntity
  8
AM_9
100
AcDbLine
 10
-0.4375000000000002
 20
-1.76825
 30
0.0
 11
0.4375000000000001
 21
-1.76825
 31
0.0
  0
LINE
  5
9E
330
81
100
AcDbEntity
  8
AM_9
100
AcDbLine
 10
0.4375000000000001
 20
-1.76825
 30
0.0
 11
0.4375000000000001
 21
1.76825
 31
0.0
  0
LINE
  5
9F
330
81
100
AcDbEntity
  8
AM_9
100
AcDbLine
 10
-0.4375000000000002
 20
-1.76825
 30
0.0
 11
-0.4375000000000002
 21
1.76825
 31
0.0
  0
LINE
  5
A2
330
81
100
AcDbEntity
  8
AM_7
100
AcDbLine
 10
0.8937500000000008
 20
0.0
 30
0.0
 11
-0.89375
 21
0.0
 31
0.0
  0
ENDBLK
  5
84
330
81
100
AcDbEntity
  8
0
100
AcDbBlockEnd
  0
BLOCK
  5
A5
330
A3
100
AcDbEntity
  8
0
100
AcDbBlockBegin
  2
3_HNG_LT7_115_0_in_033896_2
 70
     2
 10
0.0
 20
0.0
 30
0.0
  3
3_HNG_LT7_115_0_in_033896_2
  1

  0
ATTDEF
  5
A7
330
A3
100
AcDbEntity
  8
AM_6
100
AcDbText
 10
5.893750000000001
 20
2.536034698687898
 30
0.0
 40
0.5
  1
1-1/8" THRU 2" SOLIDLUBE LT HANGER BEARINGS - LT700 - Body
100
AcDbAttributeDefinition
  3

  2
NN
 70
     8
280
     0
  0
ATTDEF
  5
A8
330
A3
100
AcDbEntity
  8
AM_6
100
AcDbText
 10
5.893750000000001
 20
2.036034698687898
 30
0.0
 40
0.5
  1
SOLIDLUBE
100
AcDbAttributeDefinition
  3

  2
NT
 70
     8
280
     0
  0
ATTDEF
  5
A9
330
A3
100
AcDbEntity
  8
AM_6
100
AcDbText
 10
5.893750000000001
 20
1.536034698687898
 30
0.0
 40
0.5
  1
HNG-LT7-115
100
AcDbAttributeDefinition
  3

  2
NB
 70
     8
280
     0
  0
ATTDEF
  5
AA
330
A3
100
AcDbEntity
  8
AM_6
100
AcDbText
 10
5.893750000000001
 20
1.036034698687898
 30
0.0
 40
0.5
  1
$PN.
100
AcDbAttributeDefinition
  3

  2
NBSYN
 70
     8
280
     0
  0
ATTDEF
  5
AB
330
A3
100
AcDbEntity
  8
AM_6
100
AcDbText
 10
5.893750000000001
 20
0.5360346986878977
 30
0.0
 40
0.5
  1
HNG-LT7-115
100
AcDbAttributeDefinition
  3

  2
LINA
 70
     8
280
     0
  0
ATTDEF
  5
AC
330
A3
100
AcDbEntity
  8
AM_6
100
AcDbText
 10
5.893750000000001
 20
0.0360346986878977
 30
0.0
 40
0.5
  1
1-15/16
100
AcDbAttributeDefinition
  3

  2
SS
 70
     8
280
     0
  0
ATTDEF
  5
AD
330
A3
100
AcDbEntity
  8
AM_6
100
AcDbText
 10
5.893750000000001
 20
-0.4639653013121023
 30
0.0
 40
0.5
  1
3.53650
100
AcDbAttributeDefinition
  3

  2
BOD
 70
     8
280
     0
  0
ATTDEF
  5
AE
330
A3
100
AcDbEntity
  8
AM_6
100
AcDbText
 10
5.893750000000001
 20
-0.9639653013121023
 30
0.0
 40
0.5
  1
1.93750
100
AcDbAttributeDefinition
  3

  2
SS1
 70
     8
280
     0
  0
ATTDEF
  5
AF
330
A3
100
AcDbEntity
  8
AM_6
100
AcDbText
 10
5.893750000000001
 20
-1.463965301312102
 30
0.0
 40
0.5
  1
HNG-LT7-115
100
AcDbAttributeDefinition
  3

  2
PN
 70
     8
280
     0
  0
ATTDEF
  5
B0
330
A3
100
AcDbEntity
  8
AM_6
100
AcDbText
 10
5.893750000000001
 20
-1.963965301312102
 30
0.0
 40
0.5
  1
HNG-LT7-115
100
AcDbAttributeDefinition
  3

  2
DESCRIPTION
 70
     8
280
     0
  0
ATTDEF
  5
B1
330
A3
100
AcDbEntity
  8
AM_6
100
AcDbText
 10
5.893750000000001
 20
-2.463965301312102
 30
0.0
 40
0.5
  1
1-5/8
100
AcDbAttributeDefinition
  3

  2
A
 70
     8
280
     0
  0
ATTDEF
  5
B2
330
A3
100
AcDbEntity
  8
AM_6
100
AcDbText
 10
5.893750000000001
 20
-2.963965301312102
 30
0.0
 40
0.5
  1
1.62500
100
AcDbAttributeDefinition
  3

  2
A1
 70
     8
280
     0
  0
ATTDEF
  5
B3
330
A3
100
AcDbEntity
  8
AM_6
100
AcDbText
 10
5.893750000000001
 20
-3.463965301312102
 30
0.0
 40
0.5
  1
5
100
AcDbAttributeDefinition
  3

  2
B
 70
     8
280
     0
  0
ATTDEF
  5
B4
330
A3
100
AcDbEntity
  8
AM_6
100
AcDbText
 10
5.893750000000001
 20
-3.963965301312102
 30
0.0
 40
0.5
  1
5.00000
100
AcDbAttributeDefinition
  3

  2
B1
 70
     8
280
     0
  0
ATTDEF
  5
B5
330
A3
100
AcDbEntity
  8
AM_6
100
AcDbText
 10
5.893750000000001
 20
-4.463965301312102
 30
0.0
 40
0.5
  1
4-3/16
100
AcDbAttributeDefinition
  3

  2
F
 70
     8
280
     0
  0
ATTDEF
  5
B6
330
A3
100
AcDbEntity
  8
AM_6
100
AcDbText
 10
5.893750000000001
 20
-4.963965301312102
 30
0.0
 40
0.5
  1
4.18750
100
AcDbAttributeDefinition
  3

  2
F1
 70
     8
280
     0
  0
ATTDEF
  5
B7
330
A3
100
AcDbEntity
  8
AM_6
100
AcDbText
 10
5.893750000000001
 20
-5.463965301312102
 30
0.0
 40
0.5
  1
2-13/16
100
AcDbAttributeDefinition
  3

  2
L
 70
     8
280
     0
  0
ATTDEF
  5
B8
330
A3
100
AcDbEntity
  8
AM_6
100
AcDbText
 10
5.893750000000001
 20
-5.963965301312102
 30
0.0
 40
0.5
  1
2.81250
100
AcDbAttributeDefinition
  3

  2
L1
 70
     8
280
     0
  0
ATTDEF
  5
B9
330
A3
100
AcDbEntity
  8
AM_6
100
AcDbText
 10
5.893750000000001
 20
-6.463965301312102
 30
0.0
 40
0.5
  1
5/8
100
AcDbAttributeDefinition
  3

  2
M
 70
     8
280
     0
  0
ATTDEF
  5
BA
330
A3
100
AcDbEntity
  8
AM_6
100
AcDbText
 10
5.893750000000001
 20
-6.963965301312102
 30
0.0
 40
0.5
  1
0.62500
100
AcDbAttributeDefinition
  3

  2
M1
 70
     8
280
     0
  0
ATTDEF
  5
BB
330
A3
100
AcDbEntity
  8
AM_6
100
AcDbText
 10
5.893750000000001
 20
-7.463965301312102
 30
0.0
 40
0.5
  1
0.62500
100
AcDbAttributeDefinition
  3

  2
NDM
 70
     8
280
     0
  0
ATTDEF
  5
BC
330
A3
100
AcDbEntity
  8
AM_6
100
AcDbText
 10
5.893750000000001
 20
-7.963965301312102
 30
0.0
 40
0.5
  1
0.52700
100
AcDbAttributeDefinition
  3

  2
KDM
 70
     8
280
     0
  0
ATTDEF
  5
BD
330
A3
100
AcDbEntity
  8
AM_6
100
AcDbText
 10
5.893750000000001
 20
-8.463965301312102
 30
0.0
 40
0.5
  1
baldor
100
AcDbAttributeDefinition
  3

  2
COMPANY
 70
     8
280
     0
  0
ELLIPSE
  5
BE
330
A3
100
AcDbEntity
  8
AM_9
100
AcDbEllipse
 10
-0.4233593198128695
 20
1.86122085762504
 30
0.0
 11
-0.02562833599002406
 21
3.138565963765588E-18
 31
0.0
210
0.0
220
0.0
230
1.0
 40
0.5735764363510525
 41
0.8348136984626686
 42
5.448371608716903
  0
LWPOLYLINE
  5
BF
330
A3
100
AcDbEntity
  8
AM_9
100
AcDbPolyline
 90
        7
 70
     0
 43
0.0
 10
-0.3801425337261877
 20
1.875152607872351
 10
-0.3805973363415229
 20
1.875356583153978
 10
-0.3898181288910809
 20
1.878939128186163
 10
-0.3995366779306818
 20
1.881667515773857
 10
-0.4097281723355833
 20
1.883483548723163
 10
-0.4203482959490367
 20
1.884310760991464
 10
-0.4227576904559749
 20
1.884351281848988
  0
LWPOLYLINE
  5
C0
330
A3
100
AcDbEntity
  8
AM_9
100
AcDbPolyline
 90
        7
 70
     0
 43
0.0
 10
-0.4238515889684502
 20
1.884351784461732
 10
-0.4249596450227133
 20
1.884335417962686
 10
-0.429410982536121
 20
1.883952255524269
 10
-0.4330987857111469
 20
1.883030610331403
 10
-0.4366931324648187
 20
1.881029441330295
 10
-0.4390865479777221
 20
1.878074680727313
 10
-0.4405640260676845
 20
1.872115936950047
  0
LWPOLYLINE
  5
C1
330
A3
100
AcDbEntity
  8
AM_9
100
AcDbPolyline
 90
        6
 70
     0
 43
0.0
 10
-0.4405640260676845
 20
1.850325778300033
 10
-0.4410845173879412
 20
1.856544105284319
 10
-0.4413975269222844
 20
1.863939944270174
 10
-0.4412938759034158
 20
1.865513069097794
 10
-0.4409006353601687
 20
1.868926979148603
 10
-0.4405640260676844
 20
1.872115936950047
  0
LWPOLYLINE
  5
C2
330
A3
100
AcDbEntity
  8
AM_9
100
AcDbPolyline
 90
        6
 70
     0
 43
0.0
 10
-0.3796261946009051
 20
1.874916995949063
 10
-0.3886357781902385
 20
1.878332762468493
 10
-0.398444527960763
 20
1.880948164851372
 10
-0.4091119224389763
 20
1.882999294248412
 10
-0.4176633289761263
 20
1.884068493644264
 10
-0.4238515889684502
 20
1.884351784461732
  0
LWPOLYLINE
  5
C3
330
A3
100
AcDbEntity
  8
AM_9
100
AcDbPolyline
 90
       11
 70
     0
 43
0.0
 10
-0.4405640260676845
 20
1.850325778300033
 10
-0.4398181664445254
 20
1.843405509872707
 10
-0.4381873738017108
 20
1.8366847745338
 10
-0.4355167147567683
 20
1.829738672710227
 10
-0.4316201536411514
 20
1.822711502268423
 10
-0.4263824749040103
 20
1.816048373492947
 10
-0.4181596420870564
 20
1.809296935616977
 10
-0.4080126666239654
 20
1.805159158895618
 10
-0.3987700185850919
 20
1.804565660373902
 10
-0.3902574053911226
 20
1.806486108303818
 10
-0.3796261946010688
 20
1.812458079427424
  0
LINE
  5
C4
330
A3
100
AcDbEntity
  8
AM_9
100
AcDbLine
 10
-0.3827756343043074
 20
1.880495222471273
 30
0.0
 11
-0.7099115350001275
 21
1.938283079901022
 31
0.0
  0
LINE
  5
C5
330
A3
100
AcDbEntity
  8
AM_9
100
AcDbLine
 10
-0.7582660832974403
 20
1.603507292467807
 30
0.0
 11
-0.426918014389799
 21
1.566665356480076
 31
0.0
  0
ELLIPSE
  5
C6
330
A3
100
AcDbEntity
  8
AM_9
100
AcDbEllipse
 10
-0.4055110273143395
 20
1.723435869180463
 30
0.0
 11
-0.02268656613069258
 21
-0.157067190326345
 31
0.0
210
0.0
220
0.0
230
1.0
 40
0.0996005029288767
 41
2.888102398063319
 42
4.998285736950859
  0
LWPOLYLINE
  5
C7
330
A3
100
AcDbEntity
  8
AM_9
100
AcDbPolyline
 90
       11
 70
     0
 43
0.0
 10
-0.37962619460091
 20
1.874916995949057
 10
-0.376871957494699
 20
1.873552199702456
 10
-0.3672605800758127
 20
1.866964059898151
 10
-0.3600049562015705
 20
1.858464266268385
 10
-0.3571427501230224
 20
1.852186938494126
 10
-0.3561211269825923
 20
1.845449986767376
 10
-0.3571162200262835
 20
1.838931008680528
 10
-0.3600830447174068
 20
1.832377708596717
 10
-0.3646572336973471
 20
1.826145493951777
 10
-0.3707357271060926
 20
1.819922275603402
 10
-0.3796261946010688
 20
1.812458079427424
  0
ELLIPSE
  5
C8
330
A3
100
AcDbEntity
  8
AM_9
100
AcDbEllipse
 10
-0.4055110273143781
 20
1.723435869180183
 30
0.0
 11
-0.02268656613073239
 21
-0.1570671903266205
 31
0.0
210
0.0
220
0.0
230
1.0
 40
0.099600502925043
 41
0.0775166015609292
 42
2.187699940435221
  0
ELLIPSE
  5
C9
330
A3
100
AcDbEntity
  8
AM_9
100
AcDbEllipse
 10
-0.3101064282164658
 20
1.709655761812689
 30
0.0
 11
0.008398031652484034
 21
0.05814256896916682
 31
0.0
210
0.0
220
0.0
230
1.0
 40
0.099600502925051
 41
0.0
 42
6.283185307179586
  0
LWPOLYLINE
  5
CA
330
A3
100
AcDbEntity
  8
AM_9
100
AcDbPolyline
 90
       24
 70
     0
 43
0.0
 10
-0.3033158614219663
 20
1.712327407645051
 10
-0.3025896452408234
 20
1.717704966552872
 10
-0.3014125794088789
 20
1.727227201981554
 10
-0.3003974361192315
 20
1.736612681702226
 10
-0.2995562737089042
 20
1.745859215936772
 10
-0.2989067624620291
 20
1.755054035352368
 10
-0.29848610500832
 20
1.764513856147243
 10
-0.2984273058658274
 20
1.775347382068359
 10
-0.2987912625710097
 20
1.783471676099788
 10
-0.2994670853108304
 20
1.790471815091161
 10
-0.3006065208918509
 20
1.797839032445291
 10
-0.302322900911631
 20
1.80552241001644
 10
-0.3048005176125644
 20
1.813680831656314
 10
-0.3081658964383965
 20
1.822149002411462
 10
-0.3124587605184938
 20
1.830639685171931
 10
-0.3176701731239323
 20
1.838910928956329
 10
-0.3237638334515168
 20
1.846776332929776
 10
-0.3306830428055031
 20
1.854086660380486
 10
-0.3383562404566017
 20
1.860720392630115
 10
-0.3467013170509411
 20
1.866578191680949
 10
-0.3556288461239606
 20
1.871579150615827
 10
-0.365042284652229
 20
1.875657213511785
 10
-0.3758952638326669
 20
1.879030020188959
 10
-0.3827340664469298
 20
1.880487870603013
  0
LWPOLYLINE
  5
CB
330
A3
100
AcDbEntity
  8
AM_9
100
AcDbPolyline
 90
       21
 70
     0
 43
0.0
 10
-0.3779252317952667
 20
1.573583122735078
 10
-0.3713568278001633
 20
1.576621130834913
 10
-0.3630676971528437
 20
1.581325275958997
 10
-0.3554386329607763
 20
1.586647829560214
 10
-0.3485103019650509
 20
1.592476818611941
 10
-0.3423139255881135
 20
1.59868828869893
 10
-0.3368720992968202
 20
1.605139149928987
 10
-0.3321950834881511
 20
1.611661723346829
 10
-0.328263550654971
 20
1.618082255442159
 10
-0.3249971162708711
 20
1.624295794735897
 10
-0.3222406606611012
 20
1.630370327148092
 10
-0.3198164303458348
 20
1.63653379274651
 10
-0.3175017702466451
 20
1.643318696143907
 10
-0.3149197009878698
 20
1.652126044829084
 10
-0.3125427685099729
 20
1.661527503338125
 10
-0.3105515021798778
 20
1.670427995941632
 10
-0.3087703267473501
 20
1.679234035500097
 10
-0.3069982108326829
 20
1.688861735962326
 10
-0.3053863445676315
 20
1.698476444599646
 10
-0.3039170345084747
 20
1.708101141679307
 10
-0.3033158614219663
 20
1.712327407645051
  0
LWPOLYLINE
  5
CC
330
A3
100
AcDbEntity
  8
AM_9
100
AcDbPolyline
 90
        5
 70
     0
 43
0.0
 10
-0.3780138309764184
 20
1.573545998475252
 10
-0.3791603829866002
 20
1.573075218096585
 10
-0.3938275077241248
 20
1.568510496351115
 10
-0.4098056599231623
 20
1.566255908397064
 10
-0.4269180143897989
 20
1.566665356480077
  0
LWPOLYLINE
  5
CD
330
A3
100
AcDbEntity
  8
AM_9
100
AcDbPolyline
 90
        7
 70
     0
 43
0.0
 10
-0.7598368728550294
 20
1.640571043389292
 10
-0.7646871135515377
 20
1.622330028711953
 10
-0.7694470661563787
 20
1.60721989267295
 10
-0.7730795778490198
 20
1.597723376924959
 10
-0.7765521133441599
 20
1.590479374217273
 10
-0.7797922226459505
 20
1.585629858902051
 10
-0.7813013630981825
 20
1.584137578710564
  0
LINE
  5
CE
330
A3
100
AcDbEntity
  8
AM_9
100
AcDbLine
 10
-0.7083247105571735
 20
1.937081832119808
 30
0.0
 11
-0.7293783075757313
 21
1.967503592474946
 31
0.0
  0
LINE
  5
CF
330
A3
100
AcDbEntity
  8
AM_9
100
AcDbLine
 10
-0.7811248183674482
 20
1.584279914205219
 30
0.0
 11
-0.7573975233234835
 21
1.603409561867586
 31
0.0
  0
LWPOLYLINE
  5
D0
330
A3
100
AcDbEntity
  8
AM_9
100
AcDbPolyline
 90
       32
 70
     0
 43
0.0
 10
-0.7813013630981825
 20
1.584137578710564
 10
-0.782746258360619
 20
1.583265937092172
 10
-0.785394013037253
 20
1.583358420819323
 10
-0.7876754665434028
 20
1.585912722657038
 10
-0.7895386135920649
 20
1.590891540623117
 10
-0.7909849785576839
 20
1.598230472797412
 10
-0.7919798275574754
 20
1.60779404731639
 10
-0.7924979470692116
 20
1.619400141542163
 10
-0.792551118367044
 20
1.632992153824145
 10
-0.7921379764104985
 20
1.648312420490059
 10
-0.7912626379531276
 20
1.665147185760791
 10
-0.789944230559469
 20
1.68338700045394
 10
-0.7882136131157527
 20
1.702689023742797
 10
-0.7860818136524067
 20
1.722944951681093
 10
-0.7835876971986595
 20
1.743895775147311
 10
-0.7807861271800709
 20
1.765154292953762
 10
-0.7776784585336095
 20
1.786723379545253
 10
-0.7743295577956385
 20
1.808207059826216
 10
-0.7708079574643272
 20
1.829211167857295
 10
-0.7671130168867626
 20
1.849735321311384
 10
-0.7633189179520911
 20
1.86938452703148
 10
-0.7594983176855343
 20
1.887794891328553
 10
-0.7556655488875763
 20
1.904872757181173
 10
-0.7518776218672927
 20
1.920361431138129
 10
-0.7482033587404322
 20
1.933967168805399
 10
-0.7446769521890864
 20
1.9455279705958
 10
-0.7413244602671191
 20
1.95495873461165
 10
-0.7382045454455379
 20
1.962073923111662
 10
-0.7353600747160737
 20
1.966745760764325
 10
-0.7327916451142502
 20
1.969000461690341
 10
-0.730543043975055
 20
1.968787593247538
 10
-0.7295097018399933
 20
1.967693452887569
  0
LWPOLYLINE
  5
D1
330
A3
100
AcDbEntity
  8
AM_9
100
AcDbPolyline
 90
       21
 70
     0
 43
0.0
 10
-0.7295097018399933
 20
1.967693452887569
 10
-0.7286492822608319
 20
1.966098044045057
 10
-0.7271005203748333
 20
1.960994704774948
 10
-0.7259226443499526
 20
1.953569984242622
 10
-0.7251333608018773
 20
1.94393648907032
 10
-0.7247235099640296
 20
1.932170740451352
 10
-0.724699796145142
 20
1.918494647951799
 10
-0.7250652185904497
 20
1.903073875824413
 10
-0.7258114076169422
 20
1.886033154819563
 10
-0.7269261148296496
 20
1.867694127891491
 10
-0.7284076662300248
 20
1.848197415338499
 10
-0.7302400826029727
 20
1.827760434474775
 10
-0.7323933795112281
 20
1.806765755693785
 10
-0.7348692722139687
 20
1.785298809421629
 10
-0.7376356976760651
 20
1.763669928768002
 10
-0.7406466955080092
 20
1.742280605678174
 10
-0.743906698730994
 20
1.721187996740089
 10
-0.7473664263695408
 20
1.700736255874003
 10
-0.7509662602429186
 20
1.681303787093085
 10
-0.7553603069959032
 20
1.659920937735516
 10
-0.7598368728550294
 20
1.640571043389292
  0
LWPOLYLINE
  5
D2
330
A3
100
AcDbEntity
  8
AM_9
100
AcDbPolyline
 90
       12
 70
     0
 43
0.0
 10
-0.4269180143897969
 20
1.681307981256188
 10
-0.4363836913125345
 20
1.681380889480885
 10
-0.4495593922722032
 20
1.679631319560388
 10
-0.4625288303953274
 20
1.675783539734172
 10
-0.4747087326633897
 20
1.670175427346851
 10
-0.4860549759269024
 20
1.663052866622637
 10
-0.4976387388604113
 20
1.653524574734345
 10
-0.507570266911141
 20
1.642841583910123
 10
-0.515557592812899
 20
1.631275025603628
 10
-0.5209933180674737
 20
1.619411568280687
 10
-0.5232000377379643
 20
1.609383742876713
 10
-0.523359319448497
 20
1.606089877707335
  0
LWPOLYLINE
  5
D3
330
A3
100
AcDbEntity
  8
AM_9
100
AcDbPolyline
 90
       14
 70
     0
 43
0.0
 10
-0.4269180143898031
 20
1.681307981256187
 10
-0.4149065876555017
 20
1.680383998532042
 10
-0.4027675181252975
 20
1.679181042175682
 10
-0.3883369164512149
 20
1.67736789265097
 10
-0.3744000192328543
 20
1.675175887450302
 10
-0.3620254837586566
 20
1.67280679495057
 10
-0.3508904147027978
 20
1.67025302236478
 10
-0.3413296945016321
 20
1.667614632760998
 10
-0.3336119987908259
 20
1.664948612360278
 10
-0.3276677675882694
 20
1.661942636544976
 10
-0.3255844894831631
 20
1.6601005390752
 10
-0.3241451037309833
 20
1.657630655224326
 10
-0.3235346877797892
 20
1.655035816421584
 10
-0.3233593198154972
 20
1.652006010268075
  0
LINE
  5
D4
330
A3
100
AcDbEntity
  8
AM_9
100
AcDbLine
 10
-0.5233593198128696
 20
1.606207875182297
 30
0.0
 11
-0.5233593198128698
 21
1.448462523231651
 31
0.0
  0
LINE
  5
D5
330
A3
100
AcDbEntity
  8
AM_9
100
AcDbLine
 10
-0.3233593198128697
 20
1.448450779569765
 30
0.0
 11
-0.3233593198128696
 21
1.651943537486576
 31
0.0
  0
LWPOLYLINE
  5
D6
330
A3
100
AcDbEntity
  8
AM_9
100
AcDbPolyline
 90
       10
 70
     0
 43
0.0
 10
-0.4374987500523675
 20
1.389412457815928
 10
-0.4461805982727072
 20
1.390424242177486
 10
-0.4621725455610829
 20
1.393642852565333
 10
-0.4770722652779289
 20
1.398435487737321
 10
-0.4904545822157434
 20
1.40466882504494
 10
-0.5019481989300278
 20
1.412111512143059
 10
-0.511208606863825
 20
1.420545842922254
 10
-0.5179913193594414
 20
1.429683795738912
 10
-0.5220648523560305
 20
1.43924285971839
 10
-0.5233593196823958
 20
1.448468532322191
  0
LWPOLYLINE
  5
D7
330
A3
100
AcDbEntity
  8
AM_9
100
AcDbPolyline
 90
       12
 70
     0
 43
0.0
 10
-0.3233593202706349
 20
1.44847109046487
 10
-0.3240229914268704
 20
1.44183773625892
 10
-0.3273661814199496
 20
1.432230271896725
 10
-0.3334060219842835
 20
1.422966644552343
 10
-0.3420130052354061
 20
1.414331552590449
 10
-0.3529066046053888
 20
1.406593155598726
 10
-0.365828291449644
 20
1.400007810422826
 10
-0.3803732546499283
 20
1.394788149797945
 10
-0.3961502963414715
 20
1.391132435912742
 10
-0.4126966860537934
 20
1.389143187541246
 10
-0.4295256447786948
 20
1.388914523502623
 10
-0.4374987500523675
 20
1.389412457815928
  0
LWPOLYLINE
  5
D8
330
A3
100
AcDbEntity
  8
AM_9
100
AcDbPolyline
 90
       11
 70
     0
 43
0.0
 10
-0.5233593196823958
 20
1.448468532322191
 10
-0.5233559150589557
 20
1.448938754356414
 10
-0.5217920068375289
 20
1.458475583039669
 10
-0.5174610985790179
 20
1.467607763269524
 10
-0.5104488578397217
 20
1.476083700428987
 10
-0.500990223435662
 20
1.483700483876019
 10
-0.4893027689572794
 20
1.490267949279214
 10
-0.4757570447203402
 20
1.495637642394157
 10
-0.4607026619334199
 20
1.499673667005124
 10
-0.4445926095319122
 20
1.502301801763827
 10
-0.4233593198128697
 20
1.503505112038745
  0
LWPOLYLINE
  5
D9
330
A3
100
AcDbEntity
  8
AM_9
100
AcDbPolyline
 90
        9
 70
     0
 43
0.0
 10
-0.523359319448497
 20
1.606089877707335
 10
-0.5227455544178914
 20
1.599981045587672
 10
-0.5199707637196314
 20
1.592597511722512
 10
-0.5149008211173127
 20
1.586219250499084
 10
-0.5077243023623788
 20
1.581060516530176
 10
-0.4984188735338905
 20
1.576984031469621
 10
-0.4865356236948881
 20
1.573783655557524
 10
-0.472462740925809
 20
1.571428006636416
 10
-0.4640963110460274
 20
1.570407382435202
  0
LWPOLYLINE
  5
DA
330
A3
100
AcDbEntity
  8
AM_9
100
AcDbPolyline
 90
       10
 70
     0
 43
0.0
 10
-0.3233593198154972
 20
1.652006010268075
 10
-0.3233644761566479
 20
1.651413025037513
 10
-0.3236606176183999
 20
1.646935874308052
 10
-0.3244114533855101
 20
1.641675404889974
 10
-0.3273790251057881
 20
1.629538849733596
 10
-0.3322321929657837
 20
1.617133838792083
 10
-0.3401313434375626
 20
1.603649368785451
 10
-0.350786808123409
 20
1.591304605769533
 10
-0.3636674903902725
 20
1.581110662347604
 10
-0.3780138309764184
 20
1.573545998475252
  0
LWPOLYLINE
  5
DB
330
A3
100
AcDbEntity
  8
AM_9
100
AcDbPolyline
 90
        6
 70
     0
 43
0.0
 10
-0.7142106662584818
 20
2.317785728948247
 10
-0.7138552662503848
 20
2.31965450594282
 10
-0.7090996558652656
 20
2.331337974936376
 10
-0.7008516590968958
 20
2.340335565630195
 10
-0.6906730341326184
 20
2.345447391774995
 10
-0.6822044142855843
 20
2.346653117846858
  0
LINE
  5
DC
330
A3
100
AcDbEntity
  8
AM_9
100
AcDbLine
 10
-0.7142106662584821
 20
1.30109331214965
 30
0.0
 11
-0.7142106662584818
 21
2.317785728948247
 31
0.0
  0
LINE
  5
DD
330
A3
100
AcDbEntity
  8
AM_9
100
AcDbLine
 10
-0.6822044142855845
 20
1.30109331214965
 30
0.0
 11
-0.6822044142855843
 21
2.346653117846858
 31
0.0
  0
LINE
  5
DE
330
A3
100
AcDbEntity
  8
AM_9
100
AcDbLine
 10
-0.1354166666666667
 20
2.346653117846858
 30
0.0
 11
-0.6822044142855843
 21
2.346653117846858
 31
0.0
  0
LINE
  5
DF
330
A3
100
AcDbEntity
  8
AM_9
100
AcDbLine
 10
-0.7142106662584818
 20
2.317785728948247
 30
0.0
 11
-0.8125
 21
1.701038285562659
 31
0.0
  0
LINE
  5
E0
330
A3
100
AcDbEntity
  8
AM_9
100
AcDbLine
 10
-0.2739999999999876
 20
-1.9375
 30
0.0
 11
-0.2739999999999876
 21
-2.4615
 31
0.0
  0
LINE
  5
E1
330
A3
100
AcDbEntity
  8
AM_9
100
AcDbLine
 10
0.2739999999999876
 20
-2.4615
 30
0.0
 11
0.2739999999999876
 21
-1.9375
 31
0.0
  0
LINE
  5
E2
330
A3
100
AcDbEntity
  8
AM_9
100
AcDbLine
 10
0.2739999999999876
 20
-1.9375
 30
0.0
 11
-0.2739999999999876
 21
-1.9375
 31
0.0
  0
LINE
  5
E3
330
A3
100
AcDbEntity
  8
AM_9
100
AcDbLine
 10
0.0
 20
-1.779306026242043
 30
0.0
 11
-0.2739999999999876
 21
-1.9375
 31
0.0
  0
LINE
  5
E4
330
A3
100
AcDbEntity
  8
AM_9
100
AcDbLine
 10
0.2739999999999876
 20
-1.9375
 30
0.0
 11
0.0
 21
-1.779306026242043
 31
0.0
  0
LINE
  5
E5
330
A3
100
AcDbEntity
  8
AM_9
100
AcDbLine
 10
0.0
 20
1.779306026242043
 30
0.0
 11
0.274
 21
1.9375
 31
0.0
  0
LINE
  5
E6
330
A3
100
AcDbEntity
  8
AM_9
100
AcDbLine
 10
-0.274
 20
1.9375
 30
0.0
 11
0.0
 21
1.779306026242043
 31
0.0
  0
LINE
  5
E7
330
A3
100
AcDbEntity
  8
AM_9
100
AcDbLine
 10
0.274
 20
1.9375
 30
0.0
 11
-0.274
 21
1.9375
 31
0.0
  0
LINE
  5
E8
330
A3
100
AcDbEntity
  8
AM_9
100
AcDbLine
 10
-0.274
 20
2.4615
 30
0.0
 11
-0.274
 21
1.9375
 31
0.0
  0
LINE
  5
E9
330
A3
100
AcDbEntity
  8
AM_9
100
AcDbLine
 10
0.274
 20
1.9375
 30
0.0
 11
0.274
 21
2.4615
 31
0.0
  0
LINE
  5
EA
330
A3
100
AcDbEntity
  8
AM_9
100
AcDbLine
 10
0.274
 20
2.4615
 30
0.0
 11
-0.274
 21
2.4615
 31
0.0
  0
LINE
  5
EB
330
A3
100
AcDbEntity
  8
AM_9
100
AcDbLine
 10
0.274
 20
2.4615
 30
0.0
 11
0.3125
 21
2.5
 31
0.0
  0
LINE
  5
EC
330
A3
100
AcDbEntity
  8
AM_9
100
AcDbLine
 10
-0.3125
 20
2.5
 30
0.0
 11
-0.274
 21
2.4615
 31
0.0
  0
LINE
  5
ED
330
A3
100
AcDbEntity
  8
AM_9
100
AcDbLine
 10
0.2739999999999876
 20
-2.4615
 30
0.0
 11
-0.2739999999999876
 21
-2.4615
 31
0.0
  0
LINE
  5
EE
330
A3
100
AcDbEntity
  8
AM_9
100
AcDbLine
 10
-0.2739999999999876
 20
-2.4615
 30
0.0
 11
-0.3125
 21
-2.5
 31
0.0
  0
LINE
  5
EF
330
A3
100
AcDbEntity
  8
AM_9
100
AcDbLine
 10
0.3125
 20
-2.5
 30
0.0
 11
0.2739999999999876
 21
-2.4615
 31
0.0
  0
LINE
  5
F0
330
A3
100
AcDbEntity
  8
AM_9
100
AcDbLine
 10
-0.5281249999999997
 20
-0.6458333333333334
 30
0.0
 11
0.8125000000000001
 21
-0.6458333333333334
 31
0.0
  0
LINE
  5
F1
330
A3
100
AcDbEntity
  8
AM_9
100
AcDbLine
 10
-0.5281249999999997
 20
0.6458333333333327
 30
0.0
 11
0.8125000000000001
 21
0.6458333333333327
 31
0.0
  0
LWPOLYLINE
  5
F2
330
A3
100
AcDbEntity
  8
AM_9
100
AcDbPolyline
 90
       11
 70
     0
 43
0.0
 10
-0.4233593198128697
 20
1.503505112038745
 10
-0.4065874728324544
 20
1.502752917016645
 10
-0.3902887545094738
 20
1.500531530581714
 10
-0.374936241822959
 20
1.496869906868474
 10
-0.3609470190323382
 20
1.491865915433205
 10
-0.348726650240416
 20
1.485606743178233
 10
-0.3386085184215251
 20
1.478257328705822
 10
-0.3309065914815262
 20
1.469973564610908
 10
-0.3258127803075809
 20
1.460980781114432
 10
-0.3235117047825315
 20
1.451516401237468
 10
-0.3233593202706349
 20
1.44847109046487
  0
LINE
  5
F3
330
A3
100
AcDbEntity
  8
AM_9
100
AcDbLine
 10
-0.8125
 20
-1.76825
 30
0.0
 11
0.8125
 21
-1.76825
 31
0.0
  0
LINE
  5
F4
330
A3
100
AcDbEntity
  8
AM_9
100
AcDbLine
 10
0.8125
 20
1.76825
 30
0.0
 11
-0.8125
 21
1.76825
 31
0.0
  0
LINE
  5
F5
330
A3
100
AcDbEntity
  8
AM_9
100
AcDbLine
 10
-0.5281249999999997
 20
-0.6458333333333334
 30
0.0
 11
-0.5281249999999997
 21
0.6458333333333327
 31
0.0
  0
LINE
  5
F7
330
A3
100
AcDbEntity
  8
AM_5
100
AcDbLine
 10
0.3125
 20
2.5
 30
0.0
 11
0.3124999999999999
 21
2.0625
 31
0.0
  0
LINE
  5
F8
330
A3
100
AcDbEntity
  8
AM_5
100
AcDbLine
 10
0.3124999999999999
 20
2.0625
 30
0.0
 11
-0.3125
 21
2.0625
 31
0.0
  0
LINE
  5
F9
330
A3
100
AcDbEntity
  8
AM_5
100
AcDbLine
 10
-0.3125
 20
2.5
 30
0.0
 11
-0.3125
 21
2.0625
 31
0.0
  0
LINE
  5
FA
330
A3
100
AcDbEntity
  8
AM_5
100
AcDbLine
 10
0.3125
 20
-2.5
 30
0.0
 11
0.3125000000000001
 21
-2.0625
 31
0.0
  0
LINE
  5
FB
330
A3
100
AcDbEntity
  8
AM_5
100
AcDbLine
 10
0.3125000000000001
 20
-2.0625
 30
0.0
 11
-0.3125
 21
-2.0625
 31
0.0
  0
LINE
  5
FC
330
A3
100
AcDbEntity
  8
AM_5
100
AcDbLine
 10
-0.3125
 20
-2.5
 30
0.0
 11
-0.3125
 21
-2.0625
 31
0.0
  0
ELLIPSE
  5
FD
330
A3
100
AcDbEntity
  8
AM_9
100
AcDbEllipse
 10
-0.7341409629383371
 20
1.770902719205325
 30
0.0
 11
-0.02417739244651767
 21
-0.1673887127350615
 31
0.0
210
0.0
220
0.0
230
1.0
 40
0.0996005029250622
 41
0.0
 42
6.283185307179586
  0
LINE
  5
FE
330
A3
100
AcDbEntity
  8
AM_7
100
AcDbLine
 10
-0.8937500000000004
 20
-0.2708333333333332
 30
0.0
 11
0.8937500000000004
 21
-0.2708333333333334
 31
0.0
  0
LINE
  5
FF
330
A3
100
AcDbEntity
  8
AM_7
100
AcDbLine
 10
-0.89375
 20
0.2708333333333333
 30
0.0
 11
0.8937500000000004
 21
0.2708333333333333
 31
0.0
  0
LINE
  5
100
330
A3
100
AcDbEntity
  8
AM_7
100
AcDbLine
 10
0.0
 20
2.536034698687898
 30
0.0
 11
0.0
 21
1.743271327554145
 31
0.0
  0
LINE
  5
101
330
A3
100
AcDbEntity
  8
AM_7
100
AcDbLine
 10
0.0
 20
-1.743271327554145
 30
0.0
 11
0.0
 21
-2.536034698687898
 31
0.0
  0
LINE
  5
103
330
A3
100
AcDbEntity
  8
AM_4
100
AcDbLine
 10
-0.8125
 20
-2.445833333333333
 30
0.0
 11
0.8125
 21
-2.445833333333333
 31
0.0
  0
LINE
  5
104
330
A3
100
AcDbEntity
  8
AM_4
100
AcDbLine
 10
-0.8125
 20
-2.5
 30
0.0
 11
0.8125
 21
-2.5
 31
0.0
  0
LINE
  5
105
330
A3
100
AcDbEntity
  8
AM_4
100
AcDbLine
 10
-0.8125
 20
2.5
 30
0.0
 11
0.8125
 21
2.5
 31
0.0
  0
LINE
  5
106
330
A3
100
AcDbEntity
  8
AM_4
100
AcDbLine
 10
-0.8125
 20
2.445833333333333
 30
0.0
 11
0.8125
 21
2.445833333333333
 31
0.0
  0
LINE
  5
107
330
A3
100
AcDbEntity
  8
AM_4
100
AcDbLine
 10
0.7109375000000001
 20
-2.052661943061116
 30
0.0
 11
0.3033333333333333
 21
-2.052661943061115
 31
0.0
  0
LINE
  5
108
330
A3
100
AcDbEntity
  8
AM_4
100
AcDbLine
 10
-0.3033333333333333
 20
-2.052661943061115
 30
0.0
 11
-0.7109374999999999
 21
-2.052661943061116
 31
0.0
  0
LINE
  5
109
330
A3
100
AcDbEntity
  8
AM_4
100
AcDbLine
 10
-0.7109374999999999
 20
2.052661943061115
 30
0.0
 11
-0.3033333333333334
 21
2.052661943061115
 31
0.0
  0
LINE
  5
10A
330
A3
100
AcDbEntity
  8
AM_4
100
AcDbLine
 10
0.3033333333333335
 20
2.052661943061115
 30
0.0
 11
0.7109374999999997
 21
2.052661943061116
 31
0.0
  0
LINE
  5
10B
330
A3
100
AcDbEntity
  8
AM_4
100
AcDbLine
 10
0.7109374999999997
 20
2.052661943061116
 30
0.0
 11
0.7109374999999999
 21
1.30109331214965
 31
0.0
  0
LWPOLYLINE
  5
10C
330
A3
100
AcDbEntity
  8
AM_4
100
AcDbPolyline
 90
       10
 70
     0
 43
0.0
 10
0.8125
 20
1.940396652742741
 10
0.8116182287067247
 20
1.955235617943521
 10
0.8089192563654208
 20
1.970074583144301
 10
0.8022634955665116
 20
1.989678543356498
 10
0.7918795086763625
 20
2.008364905747259
 10
0.7794946916921468
 20
2.023351758386288
 10
0.763999258038737
 20
2.03620302796607
 10
0.7486471362306362
 20
2.044679476999927
 10
0.7314153361886673
 20
2.050369194785944
 10
0.7109374999999997
 20
2.052661943061116
  0
LWPOLYLINE
  5
10D
330
A3
100
AcDbEntity
  8
AM_4
100
AcDbPolyline
 90
       10
 70
     0
 43
0.0
 10
-0.8125
 20
-1.940396652742741
 10
-0.8122530164840714
 20
-1.948265510714432
 10
-0.8092124790664394
 20
-1.968856303841958
 10
-0.8024665996236285
 20
-1.989214106612433
 10
-0.7927980685181367
 20
-2.007005636678184
 10
-0.7795880234834831
 20
-2.023257518089093
 10
-0.7654212254666888
 20
-2.03522599149807
 10
-0.7486918643117033
 20
-2.044659790567435
 10
-0.7292441824507183
 20
-2.050833479329871
 10
-0.7109374999999999
 20
-2.052661943061116
  0
LINE
  5
10E
330
A3
100
AcDbEntity
  8
AM_4
100
AcDbLine
 10
-0.7109374999999999
 20
-2.052661943061116
 30
0.0
 11
-0.7109374999999996
 21
-1.30109331214965
 31
0.0
  0
LINE
  5
10F
330
A3
100
AcDbEntity
  8
AM_4
100
AcDbLine
 10
-0.7109374999999999
 20
2.052661943061115
 30
0.0
 11
-0.7109374999999997
 21
1.30109331214965
 31
0.0
  0
LWPOLYLINE
  5
110
330
A3
100
AcDbEntity
  8
AM_4
100
AcDbPolyline
 90
       11
 70
     0
 43
0.0
 10
-0.7109374999999999
 20
2.052661943061115
 10
-0.7288119071783452
 20
2.050919494809691
 10
-0.7436135050118071
 20
2.046725285685174
 10
-0.757916602965715
 20
2.039994542891483
 10
-0.770987250598053
 20
2.031038012988962
 10
-0.7827906424609905
 20
2.019874206923786
 10
-0.7931864724233166
 20
2.006417673032233
 10
-0.8015979802666324
 20
1.991163400670733
 10
-0.8079649327376125
 20
1.973709380673757
 10
-0.8116428984625078
 20
1.955027630968918
 10
-0.8125
 20
1.94039665274274
  0
LINE
  5
111
330
A3
100
AcDbEntity
  8
AM_4
100
AcDbLine
 10
0.7109375000000001
 20
-2.052661943061116
 30
0.0
 11
0.7109375000000006
 21
-1.30109331214965
 31
0.0
  0
LWPOLYLINE
  5
112
330
A3
100
AcDbEntity
  8
AM_4
100
AcDbPolyline
 90
       11
 70
     0
 43
0.0
 10
0.7109375000000001
 20
-2.052661943061116
 10
0.7318871828950124
 20
-2.050261132847447
 10
0.7455201095871757
 20
-2.045989463397237
 10
0.760587074511684
 20
-2.038404904417418
 10
0.7745431671944211
 20
-2.028031158923468
 10
0.7862319621645237
 20
-2.015883370602558
 10
0.796118313335324
 20
-2.001699005858512
 10
0.8040046467450608
 20
-1.985504558454754
 10
0.8094403013441027
 20
-1.96786964303381
 10
0.8117259244714666
 20
-1.95430436711854
 10
0.8125
 20
-1.940396652742741
  0
LINE
  5
113
330
A3
100
AcDbEntity
  8
AM_4
100
AcDbLine
 10
0.3033333333333335
 20
2.052661943061115
 30
0.0
 11
0.3033333333333335
 21
1.30109331214965
 31
0.0
  0
LWPOLYLINE
  5
114
330
A3
100
AcDbEntity
  8
AM_4
100
AcDbPolyline
 90
        7
 70
     0
 43
0.0
 10
0.2708333333332247
 20
2.08832091543976
 10
0.2710247473668959
 20
2.084462192964998
 10
0.2744946355302813
 20
2.07189316721328
 10
0.2819786252053292
 20
2.061451220718936
 10
0.2919581444108801
 20
2.054921036607515
 10
0.2983143039399951
 20
2.053090442916941
 10
0.3033333333333335
 20
2.052661943061115
  0
LWPOLYLINE
  5
115
330
A3
100
AcDbEntity
  8
AM_4
100
AcDbPolyline
 90
        7
 70
     0
 43
0.0
 10
-0.2708333333333334
 20
-2.088320915439771
 10
-0.2708543779557998
 20
-2.087039924991525
 10
-0.2734484124985561
 20
-2.074320975286207
 10
-0.2802113284962516
 20
-2.063274459284156
 10
-0.2898517872411666
 20
-2.05587958401695
 10
-0.3004222034130371
 20
-2.052805525476231
 10
-0.3033333333333333
 20
-2.052661943061115
  0
LINE
  5
116
330
A3
100
AcDbEntity
  8
AM_4
100
AcDbLine
 10
-0.3033333333333333
 20
-2.052661943061115
 30
0.0
 11
-0.3033333333333332
 21
-1.30109331214965
 31
0.0
  0
LWPOLYLINE
  5
117
330
A3
100
AcDbEntity
  8
AM_4
100
AcDbPolyline
 90
        7
 70
     0
 43
0.0
 10
-0.3033333333333334
 20
2.052661943061115
 10
-0.2983760553984907
 20
2.053079901881066
 10
-0.2937208312468571
 20
2.054259926752034
 10
-0.2842348231824491
 20
2.05947790173055
 10
-0.2769755026364273
 20
2.067473820855918
 10
-0.272241228586279
 20
2.077951420242771
 10
-0.2708333333333333
 20
2.088320915439771
  0
LINE
  5
118
330
A3
100
AcDbEntity
  8
AM_4
100
AcDbLine
 10
-0.3033333333333334
 20
2.052661943061115
 30
0.0
 11
-0.3033333333333333
 21
1.30109331214965
 31
0.0
  0
LWPOLYLINE
  5
119
330
A3
100
AcDbEntity
  8
AM_4
100
AcDbPolyline
 90
        7
 70
     0
 43
0.0
 10
0.3033333333333333
 20
-2.052661943061115
 10
0.2996575097178888
 20
-2.052891139280015
 10
0.2901165661556654
 20
-2.055748523594968
 10
0.2818238061820414
 20
-2.061600358783465
 10
0.2753149608909584
 20
-2.070266335295488
 10
0.2714509660659813
 20
-2.081411361121587
 10
0.2708333333333335
 20
-2.088320915439771
  0
LINE
  5
11A
330
A3
100
AcDbEntity
  8
AM_4
100
AcDbLine
 10
0.3033333333333333
 20
-2.052661943061115
 30
0.0
 11
0.3033333333333336
 21
-1.30109331214965
 31
0.0
  0
LINE
  5
11B
330
A3
100
AcDbEntity
  8
AM_4
100
AcDbLine
 10
0.1354166666666668
 20
-2.346653117846859
 30
0.0
 11
-0.1354166666666662
 21
-2.346653117846861
 31
0.0
  0
LINE
  5
11C
330
A3
100
AcDbEntity
  8
AM_4
100
AcDbLine
 10
-0.1354166666666667
 20
2.346653117846858
 30
0.0
 11
0.1354166666666672
 21
2.346653117846861
 31
0.0
  0
LINE
  5
11D
330
A3
100
AcDbEntity
  8
AM_4
100
AcDbLine
 10
-0.2708333333333333
 20
-2.2005050184912
 30
0.0
 11
-0.2708333333333333
 21
-1.30109331214965
 31
0.0
  0
LWPOLYLINE
  5
11E
330
A3
100
AcDbEntity
  8
AM_4
100
AcDbPolyline
 90
       12
 70
     0
 43
0.0
 10
-0.2708333333333333
 20
-2.2005050184912
 10
-0.27083332939264
 20
-2.20054046538491
 10
-0.2686365959776736
 20
-2.226836311368781
 10
-0.2618119807101499
 20
-2.253131128371687
 10
-0.2509889883313959
 20
-2.276859958297112
 10
-0.2356224508172269
 20
-2.298972298068023
 10
-0.2181936390025547
 20
-2.316291099976281
 10
-0.1972181917616369
 20
-2.330617295390888
 10
-0.1841096854985295
 20
-2.336923576488377
 10
-0.1701983080548528
 20
-2.341773726781855
 10
-0.1531465994381616
 20
-2.345401258178215
 10
-0.1354166666666662
 20
-2.346653117846861
  0
LINE
  5
11F
330
A3
100
AcDbEntity
  8
AM_4
100
AcDbLine
 10
-0.1354166666666662
 20
-2.346653117846861
 30
0.0
 11
-0.1354166666666665
 21
-1.30109331214965
 31
0.0
  0
LINE
  5
120
330
A3
100
AcDbEntity
  8
AM_4
100
AcDbLine
 10
0.1354166666666672
 20
2.346653117846861
 30
0.0
 11
0.1354166666666668
 21
1.30109331214965
 31
0.0
  0
LINE
  5
121
330
A3
100
AcDbEntity
  8
AM_4
100
AcDbLine
 10
0.2708333333333335
 20
2.2005050184912
 30
0.0
 11
0.2708333333333335
 21
1.30109331214965
 31
0.0
  0
LWPOLYLINE
  5
122
330
A3
100
AcDbEntity
  8
AM_4
100
AcDbPolyline
 90
       11
 70
     0
 43
0.0
 10
0.2708333333333335
 20
2.2005050184912
 10
0.2703153340642354
 20
2.213337927754508
 10
0.2659805510317408
 20
2.239428685313669
 10
0.2569555444264219
 20
2.265139887222498
 10
0.244276972781056
 20
2.287610955693364
 10
0.2272177003790289
 20
2.308088729786436
 10
0.2086793700683466
 20
2.323515699341219
 10
0.186935652730027
 20
2.335714007728
 10
0.1658066360376497
 20
2.342943430106302
 10
0.1430201772223386
 20
2.346423701172434
 10
0.1354166666666672
 20
2.346653117846861
  0
LINE
  5
123
330
A3
100
AcDbEntity
  8
AM_4
100
AcDbLine
 10
0.1354166666666668
 20
-2.346653117846859
 30
0.0
 11
0.1354166666666669
 21
-1.30109331214965
 31
0.0
  0
LWPOLYLINE
  5
124
330
A3
100
AcDbEntity
  8
AM_4
100
AcDbPolyline
 90
       12
 70
     0
 43
0.0
 10
0.1354166666666668
 20
-2.346653117846859
 10
0.1484009874827502
 20
-2.345983078619345
 10
0.1613853082988335
 20
-2.343953913121267
 10
0.1814980938018306
 20
-2.337971902534584
 10
0.2008826263209102
 20
-2.328519800238381
 10
0.218104843732445
 20
-2.316364833114914
 10
0.2351416118437027
 20
-2.299539140450358
 10
0.2494809851265953
 20
-2.279462240956939
 10
0.2599995771426505
 20
-2.257965413550834
 10
0.2671550617747826
 20
-2.234473663252154
 10
0.2699027804124794
 20
-2.217689114814658
 10
0.2708333333333332
 20
-2.2005050184912
  0
LINE
  5
125
330
A3
100
AcDbEntity
  8
AM_4
100
AcDbLine
 10
0.2708333333333332
 20
-2.2005050184912
 30
0.0
 11
0.2708333333333334
 21
-1.30109331214965
 31
0.0
  0
LINE
  5
126
330
A3
100
AcDbEntity
  8
AM_4
100
AcDbLine
 10
-0.2708333333333333
 20
2.2005050184912
 30
0.0
 11
-0.2708333333333547
 21
1.30109331214965
 31
0.0
  0
LINE
  5
127
330
A3
100
AcDbEntity
  8
AM_4
100
AcDbLine
 10
-0.1354166666666667
 20
2.346653117846858
 30
0.0
 11
-0.1354166666666667
 21
1.30109331214965
 31
0.0
  0
LWPOLYLINE
  5
128
330
A3
100
AcDbEntity
  8
AM_4
100
AcDbPolyline
 90
       12
 70
     0
 43
0.0
 10
-0.1354166666666667
 20
2.346653117846858
 10
-0.1452410308709006
 20
2.346269907163172
 10
-0.1659890041333718
 20
2.34289817624199
 10
-0.186455649933247
 20
2.335925054109352
 10
-0.2051331689144776
 20
2.32588663952213
 10
-0.2224082605202023
 20
2.312641019742938
 10
-0.2376501821945854
 20
2.296513853944786
 10
-0.2504937003628369
 20
2.277728193886745
 10
-0.2606437540597198
 20
2.256303360851969
 10
-0.2674775447595109
 20
2.232971877163674
 10
-0.2699853112473357
 20
2.216912393033749
 10
-0.2708333333333333
 20
2.2005050184912
  0
LINE
  5
129
330
A3
100
AcDbEntity
  8
AM_4
100
AcDbLine
 10
0.8125
 20
-2.5
 30
0.0
 11
0.8125
 21
2.5
 31
0.0
  0
LINE
  5
12A
330
A3
100
AcDbEntity
  8
AM_4
100
AcDbLine
 10
-0.8124999999999999
 20
1.30109331214965
 30
0.0
 11
0.8125000000000001
 21
1.30109331214965
 31
0.0
  0
LINE
  5
12B
330
A3
100
AcDbEntity
  8
AM_4
100
AcDbLine
 10
-0.8125
 20
-2.5
 30
0.0
 11
-0.8125
 21
2.5
 31
0.0
  0
LINE
  5
12C
330
A3
100
AcDbEntity
  8
AM_4
100
AcDbLine
 10
-0.8124999999999999
 20
1.246926645482983
 30
0.0
 11
0.8125000000000001
 21
1.246926645482983
 31
0.0
  0
LINE
  5
12D
330
A3
100
AcDbEntity
  8
AM_4
100
AcDbLine
 10
-0.8124999999999999
 20
-1.246926645482983
 30
0.0
 11
0.8125000000000001
 21
-1.246926645482983
 31
0.0
  0
LINE
  5
12E
330
A3
100
AcDbEntity
  8
AM_4
100
AcDbLine
 10
-0.8124999999999999
 20
-1.30109331214965
 30
0.0
 11
0.8125000000000001
 21
-1.30109331214965
 31
0.0
  0
LINE
  5
12F
330
A3
100
AcDbEntity
  8
AM_5
100
AcDbLine
 10
0.3124999999999999
 20
2.0625
 30
0.0
 11
0.274
 21
1.995816043908598
 31
0.0
  0
LINE
  5
130
330
A3
100
AcDbEntity
  8
AM_5
100
AcDbLine
 10
-0.3125
 20
2.0625
 30
0.0
 11
-0.2739999999999999
 21
1.995816043908598
 31
0.0
  0
LINE
  5
131
330
A3
100
AcDbEntity
  8
AM_5
100
AcDbLine
 10
0.3125000000000001
 20
-2.0625
 30
0.0
 11
0.2739999999999875
 21
-1.995816043908598
 31
0.0
  0
LINE
  5
132
330
A3
100
AcDbEntity
  8
AM_5
100
AcDbLine
 10
-0.3125
 20
-2.0625
 30
0.0
 11
-0.2739999999999875
 21
-1.995816043908598
 31
0.0
  0
ENDBLK
  5
A6
330
A3
100
AcDbEntity
  8
0
100
AcDbBlockEnd
  0
ENDSEC
  0
SECTION
  2
ENTITIES
  0
INSERT
  5
6F
330
1F
100
AcDbEntity
  8
0
100
AcDbBlockReference
  2
1_033896_2
 10
0.0
 20
0.0
 30
0.0
  0
POINT
  5
134
330
1F
100
AcDbEntity
  8
ConnectionPoints
100
AcDbPoint
 10
-0.7703935191063821
 20
1.764875181444838
 30
-1.235778906046905
  0
POINT
  5
135
330
1F
100
AcDbEntity
  8
ConnectionPoints
100
AcDbPoint
 10
0.0
 20
0.0
 30
0.0
  0
ENDSEC
  0
SECTION
  2
OBJECTS
  0
DICTIONARY
  5
C
330
0
100
AcDbDictionary
281
     1
  3
ACAD_DETAILVIEWSTYLE
350
13D
  3
ACAD_GROUP
350
D
  3
ACAD_LAYOUT
350
1A
  3
ACAD_MATERIAL
350
43
  3
ACAD_MLEADERSTYLE
350
6B
  3
ACAD_MLINESTYLE
350
17
  3
ACAD_PLOTSETTINGS
350
19
  3
ACAD_PLOTSTYLENAME
350
E
  3
ACAD_SCALELIST
350
47
  3
ACAD_SECTIONVIEWSTYLE
350
13E
  3
ACAD_TABLESTYLE
350
69
  3
ACAD_VISUALSTYLE
350
2A
  3
ACDB_RECOMPOSE_DATA
350
13A
  3
AcDbVariableDictionary
350
136
  0
SUN
  5
6D
330
29
100
AcDbSun
 90
        1
290
     0
 63
     7
421
 16777215
 40
1.0
291
     1
 91
  2455826
 92
 54000000
292
     0
 70
     2
 71
   256
280
     1
  0
DICTIONARY
  5
13D
102
{ACAD_REACTORS
330
C
102
}
330
C
100
AcDbDictionary
281
     1
  0
DICTIONARY
  5
D
102
{ACAD_REACTORS
330
C
102
}
330
C
100
AcDbDictionary
281
     1
  0
DICTIONARY
  5
1A
102
{ACAD_REACTORS
330
C
102
}
330
C
100
AcDbDictionary
281
     1
  3
Layout1
350
1E
  3
Layout2
350
26
  3
Model
350
22
  0
DICTIONARY
  5
43
102
{ACAD_REACTORS
330
C
102
}
330
C
100
AcDbDictionary
281
     1
  3
ByBlock
350
45
  3
ByLayer
350
44
  3
Global
350
46
  0
DICTIONARY
  5
6B
102
{ACAD_REACTORS
330
C
102
}
330
C
100
AcDbDictionary
281
     1
  3
Standard
350
6C
  0
DICTIONARY
  5
17
102
{ACAD_REACTORS
330
C
102
}
330
C
100
AcDbDictionary
281
     1
  3
Standard
350
18
  0
DICTIONARY
  5
19
102
{ACAD_REACTORS
330
C
102
}
330
C
100
AcDbDictionary
281
     1
  0
ACDBDICTIONARYWDFLT
  5
E
102
{ACAD_REACTORS
330
C
102
}
330
C
100
AcDbDictionary
281
     1
  3
Normal
350
F
100
AcDbDictionaryWithDefault
340
F
  0
DICTIONARY
  5
47
102
{ACAD_REACTORS
330
C
102
}
330
C
100
AcDbDictionary
281
     1
  3
A0
350
48
  3
A1
350
49
  3
A2
350
4A
  3
A3
350
4B
  3
A4
350
4C
  3
A5
350
4D
  3
A6
350
4E
  3
A7
350
4F
  3
A8
350
50
  3
A9
350
51
  3
B0
350
52
  3
B1
350
53
  3
B2
350
54
  3
B3
350
55
  3
B4
350
56
  3
B5
350
57
  3
B6
350
58
  3
B7
350
59
  3
B8
350
5A
  3
B9
350
5B
  3
C0
350
5C
  3
C1
350
5D
  3
C2
350
5E
  3
C3
350
5F
  3
C4
350
60
  3
C5
350
61
  3
C6
350
62
  3
C7
350
63
  3
C8
350
64
  3
C9
350
65
  3
D0
350
66
  3
D1
350
67
  3
D2
350
68
  0
DICTIONARY
  5
13E
102
{ACAD_REACTORS
330
C
102
}
330
C
100
AcDbDictionary
281
     1
  0
DICTIONARY
  5
69
102
{ACAD_REACTORS
330
C
102
}
330
C
100
AcDbDictionary
281
     1
  3
Standard
350
6A
  0
DICTIONARY
  5
2A
102
{ACAD_REACTORS
330
C
102
}
330
C
100
AcDbDictionary
281
     1
  3
2dWireframe
350
2F
  3
Basic
350
32
  3
Brighten
350
36
  3
ColorChange
350
3A
  3
Conceptual
350
34
  3
Dim
350
35
  3
EdgeColorOff
350
3D
  3
Facepattern
350
39
  3
Flat
350
2B
  3
FlatWithEdges
350
2C
  3
Gouraud
350
2D
  3
GouraudWithEdges
350
2E
  3
Hidden
350
31
  3
JitterOff
350
3B
  3
Linepattern
350
38
  3
OverhangOff
350
3C
  3
Realistic
350
33
  3
Shaded
350
42
  3
Shaded with edges
350
41
  3
Shades of Gray
350
3E
  3
Sketchy
350
3F
  3
Thicken
350
37
  3
Wireframe
350
30
  3
X-Ray
350
40
  0
XRECORD
  5
13A
102
{ACAD_REACTORS
330
C
102
}
330
C
100
AcDbXrecord
280
     1
 90
        1
330
6A
  0
DICTIONARY
  5
136
102
{ACAD_REACTORS
330
C
102
}
330
C
100
AcDbDictionary
281
     1
  3
CANNOSCALE
350
137
  3
CMLEADERSTYLE
350
13C
  3
CTABLESTYLE
350
13B
  0
LAYOUT
  5
1E
102
{ACAD_REACTORS
330
1A
102
}
330
1A
100
AcDbPlotSettings
  1

  2
none_device
  4

  6

 40
0.0
 41
0.0
 42
0.0
 43
0.0
 44
0.0
 45
0.0
 46
0.0
 47
0.0
 48
0.0
 49
0.0
140
0.0
141
0.0
142
1.0
143
1.0
 70
   688
 72
     0
 73
     0
 74
     5
  7

 75
    16
 76
     0
 77
     2
 78
   300
147
1.0
148
0.0
149
0.0
100
AcDbLayout
  1
Layout1
 70
     1
 71
     1
 10
0.0
 20
0.0
 11
12.0
 21
9.0
 12
0.0
 22
0.0
 32
0.0
 14
1.000000000000000E+20
 24
1.000000000000000E+20
 34
1.000000000000000E+20
 15
-1.000000000000000E+20
 25
-1.000000000000000E+20
 35
-1.000000000000000E+20
146
0.0
 13
0.0
 23
0.0
 33
0.0
 16
1.0
 26
0.0
 36
0.0
 17
0.0
 27
1.0
 37
0.0
 76
     0
330
1B
  0
LAYOUT
  5
26
102
{ACAD_REACTORS
330
1A
102
}
330
1A
100
AcDbPlotSettings
  1

  2
none_device
  4

  6

 40
0.0
 41
0.0
 42
0.0
 43
0.0
 44
0.0
 45
0.0
 46
0.0
 47
0.0
 48
0.0
 49
0.0
140
0.0
141
0.0
142
1.0
143
1.0
 70
   688
 72
     0
 73
     0
 74
     5
  7

 75
    16
 76
     0
 77
     2
 78
   300
147
1.0
148
0.0
149
0.0
100
AcDbLayout
  1
Layout2
 70
     1
 71
     2
 10
0.0
 20
0.0
 11
0.0
 21
0.0
 12
0.0
 22
0.0
 32
0.0
 14
0.0
 24
0.0
 34
0.0
 15
0.0
 25
0.0
 35
0.0
146
0.0
 13
0.0
 23
0.0
 33
0.0
 16
1.0
 26
0.0
 36
0.0
 17
0.0
 27
1.0
 37
0.0
 76
     0
330
23
  0
LAYOUT
  5
22
102
{ACAD_REACTORS
330
1A
102
}
330
1A
100
AcDbPlotSettings
  1

  2
none_device
  4
Letter_(8.50_x_11.00_Inches)
  6

 40
6.35
 41
6.35
 42
6.35000508
 43
6.35000508
 44
215.9
 45
279.4
 46
0.0
 47
0.0
 48
0.0
 49
0.0
140
0.0
141
0.0
142
1.0
143
1.0
 70
  1712
 72
     0
 73
     0
 74
     0
  7

 75
     0
 76
     0
 77
     2
 78
   300
147
1.0
148
0.0
149
0.0
100
AcDbLayout
  1
Model
 70
     1
 71
     0
 10
0.0
 20
0.0
 11
12.0
 21
9.0
 12
0.0
 22
0.0
 32
0.0
 14
1.000000000000000E+20
 24
1.000000000000000E+20
 34
1.000000000000000E+20
 15
-1.000000000000000E+20
 25
-1.000000000000000E+20
 35
-1.000000000000000E+20
146
0.0
 13
0.0
 23
0.0
 33
0.0
 16
1.0
 26
0.0
 36
0.0
 17
0.0
 27
1.0
 37
0.0
 76
     0
330
1F
331
29
  0
MATERIAL
  5
45
102
{ACAD_REACTORS
330
43
102
}
330
43
100
AcDbMaterial
  1
ByBlock
 72
     1
 94
      127
  0
MATERIAL
  5
44
102
{ACAD_REACTORS
330
43
102
}
330
43
100
AcDbMaterial
  1
ByLayer
 72
     1
 94
      127
  0
MATERIAL
  5
46
102
{ACAD_REACTORS
330
43
102
}
330
43
100
AcDbMaterial
  1
Global
 72
     1
 94
      127
  0
MLEADERSTYLE
  5
6C
102
{ACAD_REACTORS
330
6B
102
}
330
6B
100
AcDbMLeaderStyle
179
     2
170
     2
171
     1
172
     0
 90
        2
 40
0.0
 41
0.0
173
     1
 91
-1056964608
340
14
 92
       -2
290
     1
 42
0.09
291
     1
 43
0.36
  3
Standard
341
0
 44
0.18
300

342
11
174
     1
178
     6
175
     1
176
     0
 93
-1056964608
 45
0.18
292
     0
297
     0
 46
0.18
343
0
 94
-1056964608
 47
1.0
 49
1.0
140
1.0
293
     1
141
0.0
294
     1
177
     0
142
1.0
295
     0
296
     0
143
0.125
271
     0
272
     9
273
     9
298
     0
  0
MLINESTYLE
  5
18
102
{ACAD_REACTORS
330
17
102
}
330
17
100
AcDbMlineStyle
  2
Standard
 70
     0
  3

 62
   256
 51
90.0
 52
90.0
 71
     2
 49
0.5
 62
   256
  6
BYLAYER
 49
-0.5
 62
   256
  6
BYLAYER
  0
ACDBPLACEHOLDER
  5
F
102
{ACAD_REACTORS
330
E
102
}
330
E
  0
SCALE
  5
48
102
{ACAD_REACTORS
330
47
102
}
330
47
100
AcDbScale
 70
     0
300
1:1
140
1.0
141
1.0
290
     1
  0
SCALE
  5
49
102
{ACAD_REACTORS
330
47
102
}
330
47
100
AcDbScale
 70
     0
300
1:2
140
1.0
141
2.0
290
     0
  0
SCALE
  5
4A
102
{ACAD_REACTORS
330
47
102
}
330
47
100
AcDbScale
 70
     0
300
1:4
140
1.0
141
4.0
290
     0
  0
SCALE
  5
4B
102
{ACAD_REACTORS
330
47
102
}
330
47
100
AcDbScale
 70
     0
300
1:5
140
1.0
141
5.0
290
     0
  0
SCALE
  5
4C
102
{ACAD_REACTORS
330
47
102
}
330
47
100
AcDbScale
 70
     0
300
1:8
140
1.0
141
8.0
290
     0
  0
SCALE
  5
4D
102
{ACAD_REACTORS
330
47
102
}
330
47
100
AcDbScale
 70
     0
300
1:10
140
1.0
141
10.0
290
     0
  0
SCALE
  5
4E
102
{ACAD_REACTORS
330
47
102
}
330
47
100
AcDbScale
 70
     0
300
1:16
140
1.0
141
16.0
290
     0
  0
SCALE
  5
4F
102
{ACAD_REACTORS
330
47
102
}
330
47
100
AcDbScale
 70
     0
300
1:20
140
1.0
141
20.0
290
     0
  0
SCALE
  5
50
102
{ACAD_REACTORS
330
47
102
}
330
47
100
AcDbScale
 70
     0
300
1:30
140
1.0
141
30.0
290
     0
  0
SCALE
  5
51
102
{ACAD_REACTORS
330
47
102
}
330
47
100
AcDbScale
 70
     0
300
1:40
140
1.0
141
40.0
290
     0
  0
SCALE
  5
52
102
{ACAD_REACTORS
330
47
102
}
330
47
100
AcDbScale
 70
     0
300
1:50
140
1.0
141
50.0
290
     0
  0
SCALE
  5
53
102
{ACAD_REACTORS
330
47
102
}
330
47
100
AcDbScale
 70
     0
300
1:100
140
1.0
141
100.0
290
     0
  0
SCALE
  5
54
102
{ACAD_REACTORS
330
47
102
}
330
47
100
AcDbScale
 70
     0
300
2:1
140
2.0
141
1.0
290
     0
  0
SCALE
  5
55
102
{ACAD_REACTORS
330
47
102
}
330
47
100
AcDbScale
 70
     0
300
4:1
140
4.0
141
1.0
290
     0
  0
SCALE
  5
56
102
{ACAD_REACTORS
330
47
102
}
330
47
100
AcDbScale
 70
     0
300
8:1
140
8.0
141
1.0
290
     0
  0
SCALE
  5
57
102
{ACAD_REACTORS
330
47
102
}
330
47
100
AcDbScale
 70
     0
300
10:1
140
10.0
141
1.0
290
     0
  0
SCALE
  5
58
102
{ACAD_REACTORS
330
47
102
}
330
47
100
AcDbScale
 70
     0
300
100:1
140
100.0
141
1.0
290
     0
  0
SCALE
  5
59
102
{ACAD_REACTORS
330
47
102
}
330
47
100
AcDbScale
 70
     0
300
1/128" = 1'-0"
140
0.0078125
141
12.0
290
     0
  0
SCALE
  5
5A
102
{ACAD_REACTORS
330
47
102
}
330
47
100
AcDbScale
 70
     0
300
1/64" = 1'-0"
140
0.015625
141
12.0
290
     0
  0
SCALE
  5
5B
102
{ACAD_REACTORS
330
47
102
}
330
47
100
AcDbScale
 70
     0
300
1/32" = 1'-0"
140
0.03125
141
12.0
290
     0
  0
SCALE
  5
5C
102
{ACAD_REACTORS
330
47
102
}
330
47
100
AcDbScale
 70
     0
300
1/16" = 1'-0"
140
0.0625
141
12.0
290
     0
  0
SCALE
  5
5D
102
{ACAD_REACTORS
330
47
102
}
330
47
100
AcDbScale
 70
     0
300
3/32" = 1'-0"
140
0.09375
141
12.0
290
     0
  0
SCALE
  5
5E
102
{ACAD_REACTORS
330
47
102
}
330
47
100
AcDbScale
 70
     0
300
1/8" = 1'-0"
140
0.125
141
12.0
290
     0
  0
SCALE
  5
5F
102
{ACAD_REACTORS
330
47
102
}
330
47
100
AcDbScale
 70
     0
300
3/16" = 1'-0"
140
0.1875
141
12.0
290
     0
  0
SCALE
  5
60
102
{ACAD_REACTORS
330
47
102
}
330
47
100
AcDbScale
 70
     0
300
1/4" = 1'-0"
140
0.25
141
12.0
290
     0
  0
SCALE
  5
61
102
{ACAD_REACTORS
330
47
102
}
330
47
100
AcDbScale
 70
     0
300
3/8" = 1'-0"
140
0.375
141
12.0
290
     0
  0
SCALE
  5
62
102
{ACAD_REACTORS
330
47
102
}
330
47
100
AcDbScale
 70
     0
300
1/2" = 1'-0"
140
0.5
141
12.0
290
     0
  0
SCALE
  5
63
102
{ACAD_REACTORS
330
47
102
}
330
47
100
AcDbScale
 70
     0
300
3/4" = 1'-0"
140
0.75
141
12.0
290
     0
  0
SCALE
  5
64
102
{ACAD_REACTORS
330
47
102
}
330
47
100
AcDbScale
 70
     0
300
1" = 1'-0"
140
1.0
141
12.0
290
     0
  0
SCALE
  5
65
102
{ACAD_REACTORS
330
47
102
}
330
47
100
AcDbScale
 70
     0
300
1-1/2" = 1'-0"
140
1.5
141
12.0
290
     0
  0
SCALE
  5
66
102
{ACAD_REACTORS
330
47
102
}
330
47
100
AcDbScale
 70
     0
300
3" = 1'-0"
140
3.0
141
12.0
290
     0
  0
SCALE
  5
67
102
{ACAD_REACTORS
330
47
102
}
330
47
100
AcDbScale
 70
     0
300
6" = 1'-0"
140
6.0
141
12.0
290
     0
  0
SCALE
  5
68
102
{ACAD_REACTORS
330
47
102
}
330
47
100
AcDbScale
 70
     0
300
1'-0" = 1'-0"
140
12.0
141
12.0
290
     0
  0
TABLESTYLE
  5
6A
102
{ACAD_REACTORS
330
69
102
}
102
{ACAD_XDICTIONARY
360
138
102
}
330
69
100
AcDbTableStyle
  3
Standard
 70
     0
 71
     0
 40
0.06
 41
0.06
280
     0
281
     0
  7
Standard
140
0.18
170
     2
 62
     0
 63
   257
283
     0
 90
        4
 91
        0
  1

274
    -2
284
     1
 64
     0
275
    -2
285
     1
 65
     0
276
    -2
286
     1
 66
     0
277
    -2
287
     1
 67
     0
278
    -2
288
     1
 68
     0
279
    -2
289
     1
 69
     0
  7
Standard
140
0.25
170
     5
 62
     0
 63
   257
283
     0
 90
        4
 91
        0
  1

274
    -2
284
     1
 64
     0
275
    -2
285
     1
 65
     0
276
    -2
286
     1
 66
     0
277
    -2
287
     1
 67
     0
278
    -2
288
     1
 68
     0
279
    -2
289
     1
 69
     0
  7
Standard
140
0.18
170
     5
 62
     0
 63
   257
283
     0
 90
        4
 91
        0
  1

274
    -2
284
     1
 64
     0
275
    -2
285
     1
 65
     0
276
    -2
286
     1
 66
     0
277
    -2
287
     1
 67
     0
278
    -2
288
     1
 68
     0
279
    -2
289
     1
 69
     0
  0
VISUALSTYLE
  5
2F
102
{ACAD_REACTORS
330
2A
102
}
330
2A
100
AcDbVisualStyle
  2
2dWireframe
 70
     4
177
     3
291
     0
 70
    58
 90
        0
176
     1
 90
        2
176
     1
 90
        0
176
     1
 90
        0
176
     1
 40
0.6
176
     1
 40
30.0
176
     1
 62
     7
420
 16777215
176
     1
 90
        1
176
     1
 90
        4
176
     1
 62
     7
176
     1
 62
   257
176
     1
 90
        1
176
     1
 90
        1
176
     1
 40
1.0
176
     1
 90
        0
176
     1
 62
   257
176
     1
 40
1.0
176
     1
 90
        1
176
     1
 90
        6
176
     1
 90
        2
176
     1
 62
     7
176
     1
 90
        5
176
     1
 90
        0
176
     1
 90
        0
176
     1
290
     0
176
     1
 90
        1
176
     1
 40
0.0
176
     1
 90
        0
176
     1
290
     1
176
     1
290
     1
176
     1
290
     0
176
     1
290
     0
176
     1
290
     0
176
     1
290
     0
176
     1
290
     0
176
     1
290
     0
176
     1
290
     0
176
     1
 90
       50
176
     1
 40
0.0
176
     1
 40
1.0
176
     1
 90
        0
176
     1
 62
    18
420
        0
176
     1
 90
       50
176
     1
 90
        3
176
     1
 62
     5
420
      255
176
     1
290
     0
176
     1
 90
       50
176
     1
 90
       50
176
     1
 90
       50
176
     1
290
     0
176
     1
 90
       50
176
     1
 62
   256
176
     0
 40
1.0
176
     0
 90
        2
176
     1
  1
strokes_ogs.tif
176
     1
290
     0
176
     1
 40
1.0
176
     1
 40
1.0
176
     1
  0
VISUALSTYLE
  5
32
102
{ACAD_REACTORS
330
2A
102
}
330
2A
100
AcDbVisualStyle
  2
Basic
 70
     7
177
     3
291
     1
 70
    58
 90
        1
176
     1
 90
        0
176
     1
 90
        1
176
     1
 90
        0
176
     1
 40
0.6
176
     1
 40
30.0
176
     1
 62
     7
420
 16777215
176
     1
 90
        0
176
     1
 90
        4
176
     1
 62
     7
176
     1
 62
   257
176
     1
 90
        1
176
     1
 90
        1
176
     1
 40
1.0
176
     1
 90
        8
176
     1
 62
     7
176
     1
 40
1.0
176
     1
 90
        1
176
     1
 90
        6
176
     1
 90
        2
176
     1
 62
     7
176
     1
 90
        5
176
     1
 90
        0
176
     1
 90
        0
176
     1
290
     0
176
     1
 90
        1
176
     1
 40
0.0
176
     1
 90
        0
176
     1
290
     0
176
     1
290
     1
176
     1
290
     1
176
     1
290
     0
176
     1
290
     0
176
     1
290
     0
176
     1
290
     0
176
     1
290
     0
176
     1
290
     0
176
     1
 90
       50
176
     1
 40
0.0
176
     1
 40
1.0
176
     1
 90
        0
176
     1
 62
    18
420
        0
176
     1
 90
       50
176
     1
 90
        3
176
     1
 62
     5
420
      255
176
     1
290
     0
176
     1
 90
       50
176
     1
 90
       50
176
     1
 90
       50
176
     1
290
     0
176
     1
 90
       50
176
     1
 62
   256
176
     0
 40
1.0
176
     0
 90
        2
176
     1
  1
strokes_ogs.tif
176
     1
290
     0
176
     1
 40
1.0
176
     1
 40
1.0
176
     1
  0
VISUALSTYLE
  5
36
102
{ACAD_REACTORS
330
2A
102
}
330
2A
100
AcDbVisualStyle
  2
Brighten
 70
    12
177
     3
291
     1
 70
    58
 90
        2
176
     1
 90
        2
176
     1
 90
        0
176
     1
 90
        0
176
     1
 40
0.6
176
     1
 40
30.0
176
     1
 62
     7
420
 16777215
176
     1
 90
        1
176
     1
 90
        4
176
     1
 62
     7
176
     1
 62
   257
176
     1
 90
        1
176
     1
 90
        1
176
     1
 40
1.0
176
     1
 90
        8
176
     1
 62
     7
176
     1
 40
1.0
176
     1
 90
        1
176
     1
 90
        6
176
     1
 90
        2
176
     1
 62
     7
176
     1
 90
        5
176
     1
 90
        0
176
     1
 90
        0
176
     1
290
     0
176
     1
 90
        1
176
     1
 40
50.0
176
     1
 90
        0
176
     1
290
     0
176
     1
290
     1
176
     1
290
     1
176
     1
290
     0
176
     1
290
     0
176
     1
290
     0
176
     1
290
     0
176
     1
290
     0
176
     1
290
     0
176
     1
 90
       50
176
     1
 40
0.0
176
     1
 40
1.0
176
     1
 90
        0
176
     1
 62
    18
420
        0
176
     1
 90
       50
176
     1
 90
        3
176
     1
 62
     5
420
      255
176
     1
290
     0
176
     1
 90
       50
176
     1
 90
       50
176
     1
 90
       50
176
     1
290
     0
176
     1
 90
       50
176
     1
 62
   256
176
     0
 40
1.0
176
     0
 90
        2
176
     1
  1
strokes_ogs.tif
176
     1
290
     0
176
     1
 40
1.0
176
     1
 40
1.0
176
     1
  0
VISUALSTYLE
  5
3A
102
{ACAD_REACTORS
330
2A
102
}
330
2A
100
AcDbVisualStyle
  2
ColorChange
 70
    16
177
     3
291
     1
 70
    58
 90
        2
176
     1
 90
        2
176
     1
 90
        3
176
     1
 90
        0
176
     1
 40
0.6
176
     1
 40
30.0
176
     1
 62
     8
420
  8421504
176
     1
 90
        1
176
     1
 90
        4
176
     1
 62
     7
176
     1
 62
   257
176
     1
 90
        1
176
     1
 90
        1
176
     1
 40
1.0
176
     1
 90
        8
176
     1
 62
     8
420
  8421504
176
     1
 40
1.0
176
     1
 90
        1
176
     1
 90
        6
176
     1
 90
        2
176
     1
 62
     7
176
     1
 90
        5
176
     1
 90
        0
176
     1
 90
        0
176
     1
290
     0
176
     1
 90
        1
176
     1
 40
0.0
176
     1
 90
        0
176
     1
290
     0
176
     1
290
     1
176
     1
290
     1
176
     1
290
     0
176
     1
290
     0
176
     1
290
     0
176
     1
290
     0
176
     1
290
     0
176
     1
290
     0
176
     1
 90
       50
176
     1
 40
0.0
176
     1
 40
1.0
176
     1
 90
        0
176
     1
 62
    18
420
        0
176
     1
 90
       50
176
     1
 90
        3
176
     1
 62
     5
420
      255
176
     1
290
     0
176
     1
 90
       50
176
     1
 90
       50
176
     1
 90
       50
176
     1
290
     0
176
     1
 90
       50
176
     1
 62
   256
176
     0
 40
1.0
176
     0
 90
        2
176
     1
  1
strokes_ogs.tif
176
     1
290
     0
176
     1
 40
1.0
176
     1
 40
1.0
176
     1
  0
VISUALSTYLE
  5
34
102
{ACAD_REACTORS
330
2A
102
}
330
2A
100
AcDbVisualStyle
  2
Conceptual
 70
     9
177
     3
291
     0
 70
    58
 90
        3
176
     1
 90
        2
176
     1
 90
        0
176
     1
 90
        0
176
     1
 40
0.6
176
     1
 40
30.0
176
     1
 62
     7
420
 16777215
176
     1
 90
        2
176
     1
 90
        2
176
     1
 62
     7
176
     1
 62
   257
176
     1
 90
        1
176
     1
 90
        1
176
     1
 40
179.0
176
     1
 90
        8
176
     1
 62
     7
176
     1
 40
1.0
176
     1
 90
        1
176
     1
 90
        6
176
     1
 90
        2
176
     1
 62
     7
176
     1
 90
        3
176
     1
 90
        0
176
     1
 90
        0
176
     1
290
     0
176
     1
 90
        1
176
     1
 40
0.0
176
     1
 90
        0
176
     1
290
     0
176
     1
290
     1
176
     1
290
     1
176
     1
290
     0
176
     1
290
     0
176
     1
290
     0
176
     1
290
     0
176
     1
290
     0
176
     1
290
     0
176
     1
 90
       50
176
     1
 40
0.0
176
     1
 40
1.0
176
     1
 90
        0
176
     1
 62
    18
420
        0
176
     1
 90
       50
176
     1
 90
        3
176
     1
 62
     5
420
      255
176
     1
290
     0
176
     1
 90
       50
176
     1
 90
       50
176
     1
 90
       50
176
     1
290
     0
176
     1
 90
       50
176
     1
 62
   256
176
     0
 40
1.0
176
     0
 90
        2
176
     1
  1
strokes_ogs.tif
176
     1
290
     0
176
     1
 40
1.0
176
     1
 40
1.0
176
     1
  0
VISUALSTYLE
  5
35
102
{ACAD_REACTORS
330
2A
102
}
330
2A
100
AcDbVisualStyle
  2
Dim
 70
    11
177
     3
291
     1
 70
    58
 90
        2
176
     1
 90
        2
176
     1
 90
        0
176
     1
 90
        0
176
     1
 40
0.6
176
     1
 40
30.0
176
     1
 62
     7
420
 16777215
176
     1
 90
        1
176
     1
 90
        4
176
     1
 62
     7
176
     1
 62
   257
176
     1
 90
        1
176
     1
 90
        1
176
     1
 40
1.0
176
     1
 90
        8
176
     1
 62
     7
176
     1
 40
1.0
176
     1
 90
        1
176
     1
 90
        6
176
     1
 90
        2
176
     1
 62
     7
176
     1
 90
        5
176
     1
 90
        0
176
     1
 90
        0
176
     1
290
     0
176
     1
 90
        1
176
     1
 40
-50.0
176
     1
 90
        0
176
     1
290
     0
176
     1
290
     1
176
     1
290
     1
176
     1
290
     0
176
     1
290
     0
176
     1
290
     0
176
     1
290
     0
176
     1
290
     0
176
     1
290
     0
176
     1
 90
       50
176
     1
 40
0.0
176
     1
 40
1.0
176
     1
 90
        0
176
     1
 62
    18
420
        0
176
     1
 90
       50
176
     1
 90
        3
176
     1
 62
     5
420
      255
176
     1
290
     0
176
     1
 90
       50
176
     1
 90
       50
176
     1
 90
       50
176
     1
290
     0
176
     1
 90
       50
176
     1
 62
   256
176
     0
 40
1.0
176
     0
 90
        2
176
     1
  1
strokes_ogs.tif
176
     1
290
     0
176
     1
 40
1.0
176
     1
 40
1.0
176
     1
  0
VISUALSTYLE
  5
3D
102
{ACAD_REACTORS
330
2A
102
}
330
2A
100
AcDbVisualStyle
  2
EdgeColorOff
 70
    22
177
     3
291
     1
 70
    58
 90
        2
176
     0
 90
        2
176
     0
 90
        0
176
     0
 90
        0
176
     0
 40
0.6
176
     0
 40
30.0
176
     0
 62
     7
420
 16777215
176
     0
 90
        1
176
     0
 90
        4
176
     0
 62
     7
176
     0
 62
   257
176
     0
 90
        1
176
     0
 90
        1
176
     0
 40
1.0
176
     0
 90
        8
176
     2
 62
     7
176
     0
 40
1.0
176
     0
 90
        1
176
     0
 90
        6
176
     0
 90
        2
176
     0
 62
     7
176
     0
 90
        5
176
     0
 90
        0
176
     0
 90
        0
176
     0
290
     0
176
     0
 90
        1
176
     0
 40
0.0
176
     0
 90
        0
176
     0
290
     0
176
     0
290
     1
176
     0
290
     1
176
     0
290
     0
176
     0
290
     0
176
     0
290
     0
176
     0
290
     0
176
     0
290
     0
176
     0
290
     0
176
     0
 90
       50
176
     0
 40
0.0
176
     0
 40
1.0
176
     0
 90
        0
176
     0
 62
    18
420
        0
176
     0
 90
       50
176
     0
 90
        3
176
     0
 62
     5
420
      255
176
     0
290
     0
176
     0
 90
       50
176
     0
 90
       50
176
     0
 90
       50
176
     0
290
     0
176
     0
 90
       50
176
     0
 62
   256
176
     0
 40
1.0
176
     0
 90
        2
176
     0
  1
strokes_ogs.tif
176
     0
290
     0
176
     0
 40
1.0
176
     0
 40
1.0
176
     0
  0
VISUALSTYLE
  5
39
102
{ACAD_REACTORS
330
2A
102
}
330
2A
100
AcDbVisualStyle
  2
Facepattern
 70
    15
177
     3
291
     1
 70
    58
 90
        2
176
     1
 90
        2
176
     1
 90
        0
176
     1
 90
        0
176
     1
 40
0.6
176
     1
 40
30.0
176
     1
 62
     7
420
 16777215
176
     1
 90
        1
176
     1
 90
        4
176
     1
 62
     7
176
     1
 62
   257
176
     1
 90
        1
176
     1
 90
        1
176
     1
 40
1.0
176
     1
 90
        8
176
     1
 62
     7
176
     1
 40
1.0
176
     1
 90
        1
176
     1
 90
        6
176
     1
 90
        2
176
     1
 62
     7
176
     1
 90
        5
176
     1
 90
        0
176
     1
 90
        0
176
     1
290
     0
176
     1
 90
        1
176
     1
 40
0.0
176
     1
 90
        0
176
     1
290
     0
176
     1
290
     1
176
     1
290
     1
176
     1
290
     0
176
     1
290
     0
176
     1
290
     0
176
     1
290
     0
176
     1
290
     0
176
     1
290
     0
176
     1
 90
       50
176
     1
 40
0.0
176
     1
 40
1.0
176
     1
 90
        0
176
     1
 62
    18
420
        0
176
     1
 90
       50
176
     1
 90
        3
176
     1
 62
     5
420
      255
176
     1
290
     0
176
     1
 90
       50
176
     1
 90
       50
176
     1
 90
       50
176
     1
290
     0
176
     1
 90
       50
176
     1
 62
   256
176
     0
 40
1.0
176
     0
 90
        2
176
     1
  1
strokes_ogs.tif
176
     1
290
     0
176
     1
 40
1.0
176
     1
 40
1.0
176
     1
  0
VISUALSTYLE
  5
2B
102
{ACAD_REACTORS
330
2A
102
}
330
2A
100
AcDbVisualStyle
  2
Flat
 70
     0
177
     3
291
     1
 70
    58
 90
        2
176
     1
 90
        1
176
     1
 90
        1
176
     1
 90
        2
176
     1
 40
0.6
176
     1
 40
30.0
176
     1
 62
     7
420
 16777215
176
     1
 90
        0
176
     1
 90
        0
176
     1
 62
     7
176
     1
 62
   257
176
     1
 90
        1
176
     1
 90
        1
176
     1
 40
1.0
176
     1
 90
        8
176
     1
 62
     7
176
     1
 40
1.0
176
     1
 90
        1
176
     1
 90
        6
176
     1
 90
        2
176
     1
 62
     7
176
     1
 90
        5
176
     1
 90
        0
176
     1
 90
        0
176
     1
290
     0
176
     1
 90
       13
176
     1
 40
0.0
176
     1
 90
        0
176
     1
290
     0
176
     1
290
     1
176
     1
290
     1
176
     1
290
     0
176
     1
290
     0
176
     1
290
     0
176
     1
290
     0
176
     1
290
     0
176
     1
290
     0
176
     1
 90
       50
176
     1
 40
0.0
176
     1
 40
1.0
176
     1
 90
        0
176
     1
 62
    18
420
        0
176
     1
 90
       50
176
     1
 90
        3
176
     1
 62
     5
420
      255
176
     1
290
     0
176
     1
 90
       50
176
     1
 90
       50
176
     1
 90
       50
176
     1
290
     0
176
     1
 90
       50
176
     1
 62
   256
176
     0
 40
1.0
176
     0
 90
        2
176
     1
  1
strokes_ogs.tif
176
     1
290
     0
176
     1
 40
1.0
176
     1
 40
1.0
176
     1
  0
VISUALSTYLE
  5
2C
102
{ACAD_REACTORS
330
2A
102
}
330
2A
100
AcDbVisualStyle
  2
FlatWithEdges
 70
     1
177
     3
291
     1
 70
    58
 90
        2
176
     1
 90
        1
176
     1
 90
        1
176
     1
 90
        2
176
     1
 40
0.6
176
     1
 40
30.0
176
     1
 62
     7
420
 16777215
176
     1
 90
        1
176
     1
 90
        0
176
     1
 62
     7
176
     1
 62
   257
176
     1
 90
        1
176
     1
 90
        1
176
     1
 40
1.0
176
     1
 90
        0
176
     1
 62
   257
176
     1
 40
1.0
176
     1
 90
        1
176
     1
 90
        6
176
     1
 90
        2
176
     1
 62
     7
176
     1
 90
        5
176
     1
 90
        0
176
     1
 90
        0
176
     1
290
     0
176
     1
 90
       13
176
     1
 40
0.0
176
     1
 90
        0
176
     1
290
     0
176
     1
290
     1
176
     1
290
     1
176
     1
290
     0
176
     1
290
     0
176
     1
290
     0
176
     1
290
     0
176
     1
290
     0
176
     1
290
     0
176
     1
 90
       50
176
     1
 40
0.0
176
     1
 40
1.0
176
     1
 90
        0
176
     1
 62
    18
420
        0
176
     1
 90
       50
176
     1
 90
        3
176
     1
 62
     5
420
      255
176
     1
290
     0
176
     1
 90
       50
176
     1
 90
       50
176
     1
 90
       50
176
     1
290
     0
176
     1
 90
       50
176
     1
 62
   256
176
     0
 40
1.0
176
     0
 90
        2
176
     1
  1
strokes_ogs.tif
176
     1
290
     0
176
     1
 40
1.0
176
     1
 40
1.0
176
     1
  0
VISUALSTYLE
  5
2D
102
{ACAD_REACTORS
330
2A
102
}
330
2A
100
AcDbVisualStyle
  2
Gouraud
 70
     2
177
     3
291
     1
 70
    58
 90
        2
176
     1
 90
        2
176
     1
 90
        1
176
     1
 90
        2
176
     1
 40
0.6
176
     1
 40
30.0
176
     1
 62
     7
420
 16777215
176
     1
 90
        0
176
     1
 90
        0
176
     1
 62
     7
176
     1
 62
   257
176
     1
 90
        1
176
     1
 90
        1
176
     1
 40
1.0
176
     1
 90
        0
176
     1
 62
     7
176
     1
 40
1.0
176
     1
 90
        1
176
     1
 90
        6
176
     1
 90
        2
176
     1
 62
     7
176
     1
 90
        5
176
     1
 90
        0
176
     1
 90
        0
176
     1
290
     0
176
     1
 90
       13
176
     1
 40
0.0
176
     1
 90
        0
176
     1
290
     0
176
     1
290
     1
176
     1
290
     1
176
     1
290
     0
176
     1
290
     0
176
     1
290
     0
176
     1
290
     0
176
     1
290
     0
176
     1
290
     0
176
     1
 90
       50
176
     1
 40
0.0
176
     1
 40
1.0
176
     1
 90
        0
176
     1
 62
    18
420
        0
176
     1
 90
       50
176
     1
 90
        3
176
     1
 62
     5
420
      255
176
     1
290
     0
176
     1
 90
       50
176
     1
 90
       50
176
     1
 90
       50
176
     1
290
     0
176
     1
 90
       50
176
     1
 62
   256
176
     0
 40
1.0
176
     0
 90
        2
176
     1
  1
strokes_ogs.tif
176
     1
290
     0
176
     1
 40
1.0
176
     1
 40
1.0
176
     1
  0
VISUALSTYLE
  5
2E
102
{ACAD_REACTORS
330
2A
102
}
330
2A
100
AcDbVisualStyle
  2
GouraudWithEdges
 70
     3
177
     3
291
     1
 70
    58
 90
        2
176
     1
 90
        2
176
     1
 90
        1
176
     1
 90
        2
176
     1
 40
0.6
176
     1
 40
30.0
176
     1
 62
     7
420
 16777215
176
     1
 90
        1
176
     1
 90
        0
176
     1
 62
     7
176
     1
 62
   257
176
     1
 90
        1
176
     1
 90
        1
176
     1
 40
1.0
176
     1
 90
        0
176
     1
 62
   257
176
     1
 40
1.0
176
     1
 90
        1
176
     1
 90
        6
176
     1
 90
        2
176
     1
 62
     7
176
     1
 90
        5
176
     1
 90
        0
176
     1
 90
        0
176
     1
290
     0
176
     1
 90
       13
176
     1
 40
0.0
176
     1
 90
        0
176
     1
290
     0
176
     1
290
     1
176
     1
290
     1
176
     1
290
     0
176
     1
290
     0
176
     1
290
     0
176
     1
290
     0
176
     1
290
     0
176
     1
290
     0
176
     1
 90
       50
176
     1
 40
0.0
176
     1
 40
1.0
176
     1
 90
        0
176
     1
 62
    18
420
        0
176
     1
 90
       50
176
     1
 90
        3
176
     1
 62
     5
420
      255
176
     1
290
     0
176
     1
 90
       50
176
     1
 90
       50
176
     1
 90
       50
176
     1
290
     0
176
     1
 90
       50
176
     1
 62
   256
176
     0
 40
1.0
176
     0
 90
        2
176
     1
  1
strokes_ogs.tif
176
     1
290
     0
176
     1
 40
1.0
176
     1
 40
1.0
176
     1
  0
VISUALSTYLE
  5
31
102
{ACAD_REACTORS
330
2A
102
}
330
2A
100
AcDbVisualStyle
  2
Hidden
 70
     6
177
     3
291
     0
 70
    58
 90
        1
176
     1
 90
        2
176
     1
 90
        2
176
     1
 90
        0
176
     1
 40
0.6
176
     1
 40
30.0
176
     1
 62
     7
420
 16777215
176
     1
 90
        2
176
     1
 90
        2
176
     1
 62
     7
176
     1
 62
   257
176
     1
 90
        2
176
     1
 90
        1
176
     1
 40
40.0
176
     1
 90
        0
176
     1
 62
   257
176
     1
 40
1.0
176
     1
 90
        1
176
     1
 90
        6
176
     1
 90
        2
176
     1
 62
     7
176
     1
 90
        3
176
     1
 90
        0
176
     1
 90
        0
176
     1
290
     0
176
     1
 90
        1
176
     1
 40
0.0
176
     1
 90
        0
176
     1
290
     0
176
     1
290
     1
176
     1
290
     1
176
     1
290
     0
176
     1
290
     0
176
     1
290
     0
176
     1
290
     0
176
     1
290
     0
176
     1
290
     0
176
     1
 90
       50
176
     1
 40
0.0
176
     1
 40
1.0
176
     1
 90
        0
176
     1
 62
    18
420
        0
176
     1
 90
       50
176
     1
 90
        3
176
     1
 62
     5
420
      255
176
     1
290
     0
176
     1
 90
       50
176
     1
 90
       50
176
     1
 90
       50
176
     1
290
     0
176
     1
 90
       50
176
     1
 62
   256
176
     0
 40
1.0
176
     0
 90
        2
176
     1
  1
strokes_ogs.tif
176
     1
290
     0
176
     1
 40
1.0
176
     1
 40
1.0
176
     1
  0
VISUALSTYLE
  5
3B
102
{ACAD_REACTORS
330
2A
102
}
330
2A
100
AcDbVisualStyle
  2
JitterOff
 70
    20
177
     3
291
     1
 70
    58
 90
        2
176
     0
 90
        2
176
     0
 90
        0
176
     0
 90
        0
176
     0
 40
0.6
176
     0
 40
30.0
176
     0
 62
     7
420
 16777215
176
     0
 90
        1
176
     0
 90
        4
176
     0
 62
     7
176
     0
 62
   257
176
     0
 90
        1
176
     0
 90
        1
176
     0
 40
1.0
176
     0
 90
       10
176
     2
 62
     7
176
     0
 40
1.0
176
     0
 90
        1
176
     0
 90
        6
176
     0
 90
        2
176
     0
 62
     7
176
     0
 90
        5
176
     0
 90
        0
176
     0
 90
        0
176
     0
290
     0
176
     0
 90
        1
176
     0
 40
0.0
176
     0
 90
        0
176
     0
290
     0
176
     0
290
     1
176
     0
290
     1
176
     0
290
     0
176
     0
290
     0
176
     0
290
     0
176
     0
290
     0
176
     0
290
     0
176
     0
290
     0
176
     0
 90
       50
176
     0
 40
0.0
176
     0
 40
1.0
176
     0
 90
        0
176
     0
 62
    18
420
        0
176
     0
 90
       50
176
     0
 90
        3
176
     0
 62
     5
420
      255
176
     0
290
     0
176
     0
 90
       50
176
     0
 90
       50
176
     0
 90
       50
176
     0
290
     0
176
     0
 90
       50
176
     0
 62
   256
176
     0
 40
1.0
176
     0
 90
        2
176
     0
  1
strokes_ogs.tif
176
     0
290
     0
176
     0
 40
1.0
176
     0
 40
1.0
176
     0
  0
VISUALSTYLE
  5
38
102
{ACAD_REACTORS
330
2A
102
}
330
2A
100
AcDbVisualStyle
  2
Linepattern
 70
    14
177
     3
291
     1
 70
    58
 90
        2
176
     1
 90
        2
176
     1
 90
        0
176
     1
 90
        0
176
     1
 40
0.6
176
     1
 40
30.0
176
     1
 62
     7
420
 16777215
176
     1
 90
        1
176
     1
 90
        4
176
     1
 62
     7
176
     1
 62
   257
176
     1
 90
        7
176
     1
 90
        7
176
     1
 40
1.0
176
     1
 90
        8
176
     1
 62
     7
176
     1
 40
1.0
176
     1
 90
        1
176
     1
 90
        6
176
     1
 90
        2
176
     1
 62
     7
176
     1
 90
        5
176
     1
 90
        0
176
     1
 90
        0
176
     1
290
     0
176
     1
 90
        1
176
     1
 40
0.0
176
     1
 90
        0
176
     1
290
     0
176
     1
290
     1
176
     1
290
     1
176
     1
290
     0
176
     1
290
     0
176
     1
290
     0
176
     1
290
     0
176
     1
290
     0
176
     1
290
     0
176
     1
 90
       50
176
     1
 40
0.0
176
     1
 40
1.0
176
     1
 90
        0
176
     1
 62
    18
420
        0
176
     1
 90
       50
176
     1
 90
        3
176
     1
 62
     5
420
      255
176
     1
290
     0
176
     1
 90
       50
176
     1
 90
       50
176
     1
 90
       50
176
     1
290
     0
176
     1
 90
       50
176
     1
 62
   256
176
     0
 40
1.0
176
     0
 90
        2
176
     1
  1
strokes_ogs.tif
176
     1
290
     0
176
     1
 40
1.0
176
     1
 40
1.0
176
     1
  0
VISUALSTYLE
  5
3C
102
{ACAD_REACTORS
330
2A
102
}
330
2A
100
AcDbVisualStyle
  2
OverhangOff
 70
    21
177
     3
291
     1
 70
    58
 90
        2
176
     0
 90
        2
176
     0
 90
        0
176
     0
 90
        0
176
     0
 40
0.6
176
     0
 40
30.0
176
     0
 62
     7
420
 16777215
176
     0
 90
        1
176
     0
 90
        4
176
     0
 62
     7
176
     0
 62
   257
176
     0
 90
        1
176
     0
 90
        1
176
     0
 40
1.0
176
     0
 90
        9
176
     2
 62
     7
176
     0
 40
1.0
176
     0
 90
        1
176
     0
 90
        6
176
     0
 90
        2
176
     0
 62
     7
176
     0
 90
        5
176
     0
 90
        0
176
     0
 90
        0
176
     0
290
     0
176
     0
 90
        1
176
     0
 40
0.0
176
     0
 90
        0
176
     0
290
     0
176
     0
290
     1
176
     0
290
     1
176
     0
290
     0
176
     0
290
     0
176
     0
290
     0
176
     0
290
     0
176
     0
290
     0
176
     0
290
     0
176
     0
 90
       50
176
     0
 40
0.0
176
     0
 40
1.0
176
     0
 90
        0
176
     0
 62
    18
420
        0
176
     0
 90
       50
176
     0
 90
        3
176
     0
 62
     5
420
      255
176
     0
290
     0
176
     0
 90
       50
176
     0
 90
       50
176
     0
 90
       50
176
     0
290
     0
176
     0
 90
       50
176
     0
 62
   256
176
     0
 40
1.0
176
     0
 90
        2
176
     0
  1
strokes_ogs.tif
176
     0
290
     0
176
     0
 40
1.0
176
     0
 40
1.0
176
     0
  0
VISUALSTYLE
  5
33
102
{ACAD_REACTORS
330
2A
102
}
330
2A
100
AcDbVisualStyle
  2
Realistic
 70
     8
177
     3
291
     0
 70
    58
 90
        2
176
     1
 90
        3
176
     1
 90
        0
176
     1
 90
        2
176
     1
 40
0.6
176
     1
 40
30.0
176
     1
 62
     7
420
 16777215
176
     1
 90
        0
176
     1
 90
        0
176
     1
 62
     7
176
     1
 62
   257
176
     1
 90
        1
176
     1
 90
        1
176
     1
 40
1.0
176
     1
 90
        8
176
     1
 62
   257
176
     1
 40
1.0
176
     1
 90
        1
176
     1
 90
        6
176
     1
 90
        2
176
     1
 62
     7
176
     1
 90
        3
176
     1
 90
        0
176
     1
 90
        0
176
     1
290
     0
176
     1
 90
       13
176
     1
 40
0.0
176
     1
 90
        0
176
     1
290
     0
176
     1
290
     1
176
     1
290
     1
176
     1
290
     0
176
     1
290
     0
176
     1
290
     0
176
     1
290
     0
176
     1
290
     0
176
     1
290
     0
176
     1
 90
       50
176
     1
 40
0.0
176
     1
 40
1.0
176
     1
 90
        0
176
     1
 62
    18
420
        0
176
     1
 90
       50
176
     1
 90
        3
176
     1
 62
     5
420
      255
176
     1
290
     0
176
     1
 90
       50
176
     1
 90
       50
176
     1
 90
       50
176
     1
290
     0
176
     1
 90
       50
176
     1
 62
   256
176
     0
 40
1.0
176
     0
 90
        2
176
     1
  1
strokes_ogs.tif
176
     1
290
     0
176
     1
 40
1.0
176
     1
 40
1.0
176
     1
  0
VISUALSTYLE
  5
42
102
{ACAD_REACTORS
330
2A
102
}
330
2A
100
AcDbVisualStyle
  2
Shaded
 70
    27
177
     3
291
     0
 70
    58
 90
        2
176
     1
 90
        2
176
     1
 90
        1
176
     1
 90
        2
176
     1
 40
0.6
176
     1
 40
30.0
176
     1
 62
     7
420
 16777215
176
     1
 90
        0
176
     1
 90
        4
176
     1
 62
     7
176
     1
 62
   257
176
     1
 90
        1
176
     1
 90
        1
176
     1
 40
1.0
176
     1
 90
        8
176
     1
 62
   257
176
     1
 40
1.0
176
     1
 90
        1
176
     1
 90
        6
176
     1
 90
        2
176
     1
 62
     8
420
  7895160
176
     1
 90
        3
176
     1
 90
        0
176
     1
 90
        0
176
     1
290
     0
176
     1
 90
        5
176
     1
 40
0.0
176
     1
 90
        0
176
     1
290
     0
176
     1
290
     1
176
     1
290
     1
176
     1
290
     0
176
     1
290
     0
176
     1
290
     0
176
     1
290
     0
176
     1
290
     0
176
     1
290
     0
176
     1
 90
       50
176
     1
 40
0.0
176
     1
 40
1.0
176
     1
 90
        0
176
     1
 62
    18
420
        0
176
     1
 90
       50
176
     1
 90
        3
176
     1
 62
     5
420
      255
176
     1
290
     0
176
     1
 90
       50
176
     1
 90
       50
176
     1
 90
       50
176
     1
290
     0
176
     1
 90
       50
176
     1
 62
   256
176
     0
 40
1.0
176
     0
 90
        2
176
     1
  1
strokes_ogs.tif
176
     1
290
     0
176
     1
 40
1.0
176
     1
 40
1.0
176
     1
  0
VISUALSTYLE
  5
41
102
{ACAD_REACTORS
330
2A
102
}
330
2A
100
AcDbVisualStyle
  2
Shaded with edges
 70
    26
177
     3
291
     0
 70
    58
 90
        2
176
     1
 90
        2
176
     1
 90
        1
176
     1
 90
        2
176
     1
 40
0.6
176
     1
 40
30.0
176
     1
 62
     7
420
 16777215
176
     1
 90
        1
176
     1
 90
       10
176
     1
 62
     7
176
     1
 62
   257
176
     1
 90
        2
176
     1
 90
        1
176
     1
 40
1.0
176
     1
 90
        8
176
     1
 62
   257
176
     1
 40
1.0
176
     1
 90
        1
176
     1
 90
        6
176
     1
 90
        2
176
     1
 62
     7
176
     1
 90
        3
176
     1
 90
        0
176
     1
 90
        0
176
     1
290
     0
176
     1
 90
        5
176
     1
 40
0.0
176
     1
 90
        0
176
     1
290
     0
176
     1
290
     1
176
     1
290
     1
176
     1
290
     0
176
     1
290
     0
176
     1
290
     0
176
     1
290
     0
176
     1
290
     0
176
     1
290
     0
176
     1
 90
       50
176
     1
 40
0.0
176
     1
 40
1.0
176
     1
 90
        0
176
     1
 62
    18
420
        0
176
     1
 90
       50
176
     1
 90
        3
176
     1
 62
     5
420
      255
176
     1
290
     0
176
     1
 90
       50
176
     1
 90
       50
176
     1
 90
       50
176
     1
290
     0
176
     1
 90
       50
176
     1
 62
   256
176
     0
 40
1.0
176
     0
 90
        2
176
     1
  1
strokes_ogs.tif
176
     1
290
     0
176
     1
 40
1.0
176
     1
 40
1.0
176
     1
  0
VISUALSTYLE
  5
3E
102
{ACAD_REACTORS
330
2A
102
}
330
2A
100
AcDbVisualStyle
  2
Shades of Gray
 70
    23
177
     3
291
     0
 70
    58
 90
        2
176
     1
 90
        2
176
     1
 90
        3
176
     1
 90
        0
176
     1
 40
0.6
176
     1
 40
30.0
176
     1
 62
     7
420
 16777215
176
     1
 90
        2
176
     1
 90
        2
176
     1
 62
     7
176
     1
 62
     7
176
     1
 90
        1
176
     1
 90
        1
176
     1
 40
40.0
176
     1
 90
        8
176
     1
 62
     7
176
     1
 40
1.0
176
     1
 90
        1
176
     1
 90
        6
176
     1
 90
        2
176
     1
 62
     7
176
     1
 90
        3
176
     1
 90
        0
176
     1
 90
        0
176
     1
290
     0
176
     1
 90
        1
176
     1
 40
0.0
176
     1
 90
        0
176
     1
290
     0
176
     1
290
     1
176
     1
290
     1
176
     1
290
     0
176
     1
290
     0
176
     1
290
     0
176
     1
290
     0
176
     1
290
     0
176
     1
290
     0
176
     1
 90
       50
176
     1
 40
0.0
176
     1
 40
1.0
176
     1
 90
        0
176
     1
 62
    18
420
        0
176
     1
 90
       50
176
     1
 90
        3
176
     1
 62
     5
420
      255
176
     1
290
     0
176
     1
 90
       50
176
     1
 90
       50
176
     1
 90
       50
176
     1
290
     0
176
     1
 90
       50
176
     1
 62
   256
176
     0
 40
1.0
176
     0
 90
        2
176
     1
  1
strokes_ogs.tif
176
     1
290
     0
176
     1
 40
1.0
176
     1
 40
1.0
176
     1
  0
VISUALSTYLE
  5
3F
102
{ACAD_REACTORS
330
2A
102
}
330
2A
100
AcDbVisualStyle
  2
Sketchy
 70
    24
177
     3
291
     0
 70
    58
 90
        1
176
     1
 90
        2
176
     1
 90
        2
176
     1
 90
        0
176
     1
 40
0.6
176
     1
 40
30.0
176
     1
 62
     7
420
 16777215
176
     1
 90
        2
176
     1
 90
        2
176
     1
 62
     7
176
     1
 62
     7
176
     1
 90
        1
176
     1
 90
        1
176
     1
 40
40.0
176
     1
 90
       11
176
     1
 62
     7
176
     1
 40
1.0
176
     1
 90
        1
176
     1
 90
        6
176
     1
 90
        2
176
     1
 62
     7
176
     1
 90
        6
176
     1
 90
        0
176
     1
 90
        0
176
     1
290
     0
176
     1
 90
        1
176
     1
 40
0.0
176
     1
 90
        0
176
     1
290
     0
176
     1
290
     1
176
     1
290
     1
176
     1
290
     0
176
     1
290
     0
176
     1
290
     0
176
     1
290
     0
176
     1
290
     0
176
     1
290
     0
176
     1
 90
       50
176
     1
 40
0.0
176
     1
 40
1.0
176
     1
 90
        0
176
     1
 62
    18
420
        0
176
     1
 90
       50
176
     1
 90
        3
176
     1
 62
     5
420
      255
176
     1
290
     0
176
     1
 90
       50
176
     1
 90
       50
176
     1
 90
       50
176
     1
290
     0
176
     1
 90
       50
176
     1
 62
   256
176
     0
 40
1.0
176
     0
 90
        2
176
     1
  1
strokes_ogs.tif
176
     1
290
     0
176
     1
 40
1.0
176
     1
 40
1.0
176
     1
  0
VISUALSTYLE
  5
37
102
{ACAD_REACTORS
330
2A
102
}
330
2A
100
AcDbVisualStyle
  2
Thicken
 70
    13
177
     3
291
     1
 70
    58
 90
        2
176
     1
 90
        2
176
     1
 90
        0
176
     1
 90
        0
176
     1
 40
0.6
176
     1
 40
30.0
176
     1
 62
     7
420
 16777215
176
     1
 90
        1
176
     1
 90
        4
176
     1
 62
     7
176
     1
 62
   257
176
     1
 90
        1
176
     1
 90
        1
176
     1
 40
1.0
176
     1
 90
       12
176
     1
 62
     7
176
     1
 40
1.0
176
     1
 90
        1
176
     1
 90
        6
176
     1
 90
        2
176
     1
 62
     7
176
     1
 90
        5
176
     1
 90
        0
176
     1
 90
        0
176
     1
290
     0
176
     1
 90
        1
176
     1
 40
0.0
176
     1
 90
        0
176
     1
290
     0
176
     1
290
     1
176
     1
290
     1
176
     1
290
     0
176
     1
290
     0
176
     1
290
     0
176
     1
290
     0
176
     1
290
     0
176
     1
290
     0
176
     1
 90
       50
176
     1
 40
0.0
176
     1
 40
1.0
176
     1
 90
        0
176
     1
 62
    18
420
        0
176
     1
 90
       50
176
     1
 90
        3
176
     1
 62
     5
420
      255
176
     1
290
     0
176
     1
 90
       50
176
     1
 90
       50
176
     1
 90
       50
176
     1
290
     0
176
     1
 90
       50
176
     1
 62
   256
176
     0
 40
1.0
176
     0
 90
        2
176
     1
  1
strokes_ogs.tif
176
     1
290
     0
176
     1
 40
1.0
176
     1
 40
1.0
176
     1
  0
VISUALSTYLE
  5
30
102
{ACAD_REACTORS
330
2A
102
}
330
2A
100
AcDbVisualStyle
  2
Wireframe
 70
     5
177
     3
291
     0
 70
    58
 90
        0
176
     1
 90
        2
176
     1
 90
        0
176
     1
 90
        0
176
     1
 40
0.6
176
     1
 40
30.0
176
     1
 62
     7
420
 16777215
176
     1
 90
        1
176
     1
 90
        4
176
     1
 62
     7
176
     1
 62
   257
176
     1
 90
        1
176
     1
 90
        1
176
     1
 40
1.0
176
     1
 90
        0
176
     1
 62
   257
176
     1
 40
1.0
176
     1
 90
        1
176
     1
 90
        6
176
     1
 90
        2
176
     1
 62
     7
176
     1
 90
        3
176
     1
 90
        0
176
     1
 90
        0
176
     1
290
     0
176
     1
 90
        1
176
     1
 40
0.0
176
     1
 90
        0
176
     1
290
     0
176
     1
290
     1
176
     1
290
     1
176
     1
290
     0
176
     1
290
     0
176
     1
290
     0
176
     1
290
     0
176
     1
290
     0
176
     1
290
     0
176
     1
 90
       50
176
     1
 40
0.0
176
     1
 40
1.0
176
     1
 90
        0
176
     1
 62
    18
420
        0
176
     1
 90
       50
176
     1
 90
        3
176
     1
 62
     5
420
      255
176
     1
290
     0
176
     1
 90
       50
176
     1
 90
       50
176
     1
 90
       50
176
     1
290
     0
176
     1
 90
       50
176
     1
 62
   256
176
     0
 40
1.0
176
     0
 90
        2
176
     1
  1
strokes_ogs.tif
176
     1
290
     0
176
     1
 40
1.0
176
     1
 40
1.0
176
     1
  0
VISUALSTYLE
  5
40
102
{ACAD_REACTORS
330
2A
102
}
330
2A
100
AcDbVisualStyle
  2
X-Ray
 70
    25
177
     3
291
     0
 70
    58
 90
        2
176
     1
 90
        2
176
     1
 90
        1
176
     1
 90
        1
176
     1
 40
0.5
176
     1
 40
30.0
176
     1
 62
     7
420
 16777215
176
     1
 90
        1
176
     1
 90
        0
176
     1
 62
     7
176
     1
 62
   257
176
     1
 90
        1
176
     1
 90
        1
176
     1
 40
1.0
176
     1
 90
        8
176
     1
 62
     7
176
     1
 40
1.0
176
     1
 90
        1
176
     1
 90
        6
176
     1
 90
        2
176
     1
 62
     7
176
     1
 90
        3
176
     1
 90
        0
176
     1
 90
        0
176
     1
290
     0
176
     1
 90
       13
176
     1
 40
0.0
176
     1
 90
        0
176
     1
290
     0
176
     1
290
     1
176
     1
290
     1
176
     1
290
     0
176
     1
290
     0
176
     1
290
     0
176
     1
290
     0
176
     1
290
     0
176
     1
290
     0
176
     1
 90
       50
176
     1
 40
0.0
176
     1
 40
1.0
176
     1
 90
        0
176
     1
 62
    18
420
        0
176
     1
 90
       50
176
     1
 90
        3
176
     1
 62
     5
420
      255
176
     1
290
     0
176
     1
 90
       50
176
     1
 90
       50
176
     1
 90
       50
176
     1
290
     0
176
     1
 90
       50
176
     1
 62
   256
176
     0
 40
1.0
176
     0
 90
        2
176
     1
  1
strokes_ogs.tif
176
     1
290
     0
176
     1
 40
1.0
176
     1
 40
1.0
176
     1
  0
DICTIONARYVAR
  5
137
102
{ACAD_REACTORS
330
136
102
}
330
136
100
DictionaryVariables
280
     0
  1
1:1
  0
DICTIONARYVAR
  5
13C
102
{ACAD_REACTORS
330
136
102
}
330
136
100
DictionaryVariables
280
     0
  1
Standard
  0
DICTIONARYVAR
  5
13B
102
{ACAD_REACTORS
330
136
102
}
330
136
100
DictionaryVariables
280
     0
  1
Standard
  0
DICTIONARY
  5
138
330
6A
100
AcDbDictionary
280
     1
281
     1
  3
ACAD_ROUNDTRIP_2008_TABLESTYLE_CELLSTYLEMAP
360
139
  0
CELLSTYLEMAP
  5
139
102
{ACAD_REACTORS
330
138
102
}
330
138
100
AcDbCellStyleMap
 90
        3
300
CELLSTYLE
  1
TABLEFORMAT_BEGIN
 90
        5
170
     1
 91
        0
 92
    32768
 62
   257
 93
        1
300
CONTENTFORMAT
  1
CONTENTFORMAT_BEGIN
 90
        0
 91
        0
 92
        4
 93
        0
300

 40
0.0
140
1.0
 94
        5
 62
     0
340
11
144
0.25
309
CONTENTFORMAT_END
171
     1
301
MARGIN
  1
CELLMARGIN_BEGIN
 40
0.06
 40
0.06
 40
0.06
 40
0.06
 40
0.06
 40
0.06
309
CELLMARGIN_END
 94
        6
 95
        1
302
GRIDFORMAT
  1
GRIDFORMAT_BEGIN
 90
        0
 91
        1
 62
     0
 92
       -2
340
14
 93
        0
 40
0.045
309
GRIDFORMAT_END
 95
        2
302
GRIDFORMAT
  1
GRIDFORMAT_BEGIN
 90
        0
 91
        1
 62
     0
 92
       -2
340
14
 93
        0
 40
0.045
309
GRIDFORMAT_END
 95
        4
302
GRIDFORMAT
  1
GRIDFORMAT_BEGIN
 90
        0
 91
        1
 62
     0
 92
       -2
340
14
 93
        0
 40
0.045
309
GRIDFORMAT_END
 95
        8
302
GRIDFORMAT
  1
GRIDFORMAT_BEGIN
 90
        0
 91
        1
 62
     0
 92
       -2
340
14
 93
        0
 40
0.045
309
GRIDFORMAT_END
 95
       16
302
GRIDFORMAT
  1
GRIDFORMAT_BEGIN
 90
        0
 91
        1
 62
     0
 92
       -2
340
14
 93
        0
 40
0.045
309
GRIDFORMAT_END
 95
       32
302
GRIDFORMAT
  1
GRIDFORMAT_BEGIN
 90
        0
 91
        1
 62
     0
 92
       -2
340
14
 93
        0
 40
0.045
309
GRIDFORMAT_END
309
TABLEFORMAT_END
  1
CELLSTYLE_BEGIN
 90
        1
 91
        1
300
_TITLE
309
CELLSTYLE_END
300
CELLSTYLE
  1
TABLEFORMAT_BEGIN
 90
        5
170
     1
 91
        0
 92
        0
 62
   257
 93
        1
300
CONTENTFORMAT
  1
CONTENTFORMAT_BEGIN
 90
        0
 91
        0
 92
        4
 93
        0
300

 40
0.0
140
1.0
 94
        5
 62
     0
340
11
144
0.18
309
CONTENTFORMAT_END
171
     1
301
MARGIN
  1
CELLMARGIN_BEGIN
 40
0.06
 40
0.06
 40
0.06
 40
0.06
 40
0.06
 40
0.06
309
CELLMARGIN_END
 94
        6
 95
        1
302
GRIDFORMAT
  1
GRIDFORMAT_BEGIN
 90
        0
 91
        1
 62
     0
 92
       -2
340
14
 93
        0
 40
0.045
309
GRIDFORMAT_END
 95
        2
302
GRIDFORMAT
  1
GRIDFORMAT_BEGIN
 90
        0
 91
        1
 62
     0
 92
       -2
340
14
 93
        0
 40
0.045
309
GRIDFORMAT_END
 95
        4
302
GRIDFORMAT
  1
GRIDFORMAT_BEGIN
 90
        0
 91
        1
 62
     0
 92
       -2
340
14
 93
        0
 40
0.045
309
GRIDFORMAT_END
 95
        8
302
GRIDFORMAT
  1
GRIDFORMAT_BEGIN
 90
        0
 91
        1
 62
     0
 92
       -2
340
14
 93
        0
 40
0.045
309
GRIDFORMAT_END
 95
       16
302
GRIDFORMAT
  1
GRIDFORMAT_BEGIN
 90
        0
 91
        1
 62
     0
 92
       -2
340
14
 93
        0
 40
0.045
309
GRIDFORMAT_END
 95
       32
302
GRIDFORMAT
  1
GRIDFORMAT_BEGIN
 90
        0
 91
        1
 62
     0
 92
       -2
340
14
 93
        0
 40
0.045
309
GRIDFORMAT_END
309
TABLEFORMAT_END
  1
CELLSTYLE_BEGIN
 90
        2
 91
        1
300
_HEADER
309
CELLSTYLE_END
300
CELLSTYLE
  1
TABLEFORMAT_BEGIN
 90
        5
170
     1
 91
        0
 92
        0
 62
   257
 93
        1
300
CONTENTFORMAT
  1
CONTENTFORMAT_BEGIN
 90
        0
 91
        0
 92
        4
 93
        0
300

 40
0.0
140
1.0
 94
        2
 62
     0
340
11
144
0.18
309
CONTENTFORMAT_END
171
     1
301
MARGIN
  1
CELLMARGIN_BEGIN
 40
0.06
 40
0.06
 40
0.06
 40
0.06
 40
0.06
 40
0.06
309
CELLMARGIN_END
 94
        6
 95
        1
302
GRIDFORMAT
  1
GRIDFORMAT_BEGIN
 90
        0
 91
        1
 62
     0
 92
       -2
340
14
 93
        0
 40
0.045
309
GRIDFORMAT_END
 95
        2
302
GRIDFORMAT
  1
GRIDFORMAT_BEGIN
 90
        0
 91
        1
 62
     0
 92
       -2
340
14
 93
        0
 40
0.045
309
GRIDFORMAT_END
 95
        4
302
GRIDFORMAT
  1
GRIDFORMAT_BEGIN
 90
        0
 91
        1
 62
     0
 92
       -2
340
14
 93
        0
 40
0.045
309
GRIDFORMAT_END
 95
        8
302
GRIDFORMAT
  1
GRIDFORMAT_BEGIN
 90
        0
 91
        1
 62
     0
 92
       -2
340
14
 93
        0
 40
0.045
309
GRIDFORMAT_END
 95
       16
302
GRIDFORMAT
  1
GRIDFORMAT_BEGIN
 90
        0
 91
        1
 62
     0
 92
       -2
340
14
 93
        0
 40
0.045
309
GRIDFORMAT_END
 95
       32
302
GRIDFORMAT
  1
GRIDFORMAT_BEGIN
 90
        0
 91
        1
 62
     0
 92
       -2
340
14
 93
        0
 40
0.045
309
GRIDFORMAT_END
309
TABLEFORMAT_END
  1
CELLSTYLE_BEGIN
 90
        3
 91
        2
300
_DATA
309
CELLSTYLE_END
  0
ENDSEC
  0
EOF