0
SECTION
  2
HEADER
  9
$ACADVER
  1
AC1027
  9
$ACADMAINTVER
 70
     8
  9
$DWGCODEPAGE
  3
ANSI_1252
  9
$REQUIREDVERSIONS
160
                 0
  9
$COMMENTS
  1
File was created by Cadenas
  9
$CUSTOMPROPERTYTAG
  1
NN
  9
$CUSTOMPROPERTY
  1
Sleeve Bearings - SOLIDLUBE 3-7/16 thru 5 MM700 4-Bolt Flange Bearing
  9
$CUSTOMPROPERTYTAG
  1
NT
  9
$CUSTOMPROPERTY
  1
SOLIDLUBE
  9
$CUSTOMPROPERTYTAG
  1
NB
  9
$CUSTOMPROPERTY
  1
033323
  9
$CUSTOMPROPERTYTAG
  1
NBSYN
  9
$CUSTOMPROPERTY
  1
$PN.
  9
$CUSTOMPROPERTYTAG
  1
LINA
  9
$CUSTOMPROPERTY
  1
033323
  9
$CUSTOMPROPERTYTAG
  1
SS
  9
$CUSTOMPROPERTY
  1
3-7/16
  9
$CUSTOMPROPERTYTAG
  1
PN
  9
$CUSTOMPROPERTY
  1
033323
  9
$CUSTOMPROPERTYTAG
  1
DESCRIPTION
  9
$CUSTOMPROPERTY
  1
F4B-MM7-307
  9
$CUSTOMPROPERTYTAG
  1
A
  9
$CUSTOMPROPERTY
  1
3-1/2
  9
$CUSTOMPROPERTYTAG
  1
B
  9
$CUSTOMPROPERTY
  1
7-5/8
  9
$CUSTOMPROPERTYTAG
  1
C
  9
$CUSTOMPROPERTY
  1
2-59/64
  9
$CUSTOMPROPERTYTAG
  1
D
  9
$CUSTOMPROPERTY
  1
6
  9
$CUSTOMPROPERTYTAG
  1
E
  9
$CUSTOMPROPERTY
  1
3/16
  9
$CUSTOMPROPERTYTAG
  1
F
  9
$CUSTOMPROPERTY
  1
5/8
  9
$CUSTOMPROPERTYTAG
  1
G
  9
$CUSTOMPROPERTY
  1
8-9/16
  9
$CUSTOMPROPERTYTAG
  1
H
  9
$CUSTOMPROPERTY
  1
5/8
  9
$CUSTOMPROPERTYTAG
  1
L
  9
$CUSTOMPROPERTY
  1
4-7/8
  9
$CUSTOMPROPERTYTAG
  1
COMPANY
  9
$CUSTOMPROPERTY
  1
baldor
  9
$INSBASE
 10
0.0
 20
0.0
 30
0.0
  9
$EXTMIN
 10
1.000000000000000E+20
 20
1.000000000000000E+20
 30
1.000000000000000E+20
  9
$EXTMAX
 10
-1.000000000000000E+20
 20
-1.000000000000000E+20
 30
-1.000000000000000E+20
  9
$LIMMIN
 10
0.0
 20
0.0
  9
$LIMMAX
 10
12.0
 20
9.0
  9
$ORTHOMODE
 70
     0
  9
$REGENMODE
 70
     1
  9
$FILLMODE
 70
     1
  9
$QTEXTMODE
 70
     0
  9
$MIRRTEXT
 70
     1
  9
$LTSCALE
 40
1.0
  9
$ATTMODE
 70
     1
  9
$TEXTSIZE
 40
0.2
  9
$TRACEWID
 40
0.05
  9
$TEXTSTYLE
  7
Standard
  9
$CLAYER
  8
0
  9
$CELTYPE
  6
ByLayer
  9
$CECOLOR
 62
   256
  9
$CELTSCALE
 40
1.0
  9
$DISPSILH
 70
     0
  9
$DIMSCALE
 40
1.0
  9
$DIMASZ
 40
0.18
  9
$DIMEXO
 40
0.0625
  9
$DIMDLI
 40
0.38
  9
$DIMRND
 40
0.0
  9
$DIMDLE
 40
0.0
  9
$DIMEXE
 40
0.18
  9
$DIMTP
 40
0.0
  9
$DIMTM
 40
0.0
  9
$DIMTXT
 40
0.18
  9
$DIMCEN
 40
0.09
  9
$DIMTSZ
 40
0.0
  9
$DIMTOL
 70
     0
  9
$DIMLIM
 70
     0
  9
$DIMTIH
 70
     1
  9
$DIMTOH
 70
     1
  9
$DIMSE1
 70
     0
  9
$DIMSE2
 70
     0
  9
$DIMTAD
 70
     0
  9
$DIMZIN
 70
     0
  9
$DIMBLK
  1

  9
$DIMASO
 70
     1
  9
$DIMSHO
 70
     1
  9
$DIMPOST
  1

  9
$DIMAPOST
  1

  9
$DIMALT
 70
     0
  9
$DIMALTD
 70
     2
  9
$DIMALTF
 40
25.4
  9
$DIMLFAC
 40
1.0
  9
$DIMTOFL
 70
     0
  9
$DIMTVP
 40
0.0
  9
$DIMTIX
 70
     0
  9
$DIMSOXD
 70
     0
  9
$DIMSAH
 70
     0
  9
$DIMBLK1
  1

  9
$DIMBLK2
  1

  9
$DIMSTYLE
  2
Standard
  9
$DIMCLRD
 70
     0
  9
$DIMCLRE
 70
     0
  9
$DIMCLRT
 70
     0
  9
$DIMTFAC
 40
1.0
  9
$DIMGAP
 40
0.09
  9
$DIMJUST
 70
     0
  9
$DIMSD1
 70
     0
  9
$DIMSD2
 70
     0
  9
$DIMTOLJ
 70
     1
  9
$DIMTZIN
 70
     0
  9
$DIMALTZ
 70
     0
  9
$DIMALTTZ
 70
     0
  9
$DIMUPT
 70
     0
  9
$DIMDEC
 70
     4
  9
$DIMTDEC
 70
     4
  9
$DIMALTU
 70
     2
  9
$DIMALTTD
 70
     2
  9
$DIMTXSTY
  7
Standard
  9
$DIMAUNIT
 70
     0
  9
$DIMADEC
 70
     0
  9
$DIMALTRND
 40
0.0
  9
$DIMAZIN
 70
     0
  9
$DIMDSEP
 70
    46
  9
$DIMATFIT
 70
     3
  9
$DIMFRAC
 70
     0
  9
$DIMLDRBLK
  1

  9
$DIMLUNIT
 70
     2
  9
$DIMLWD
 70
    -2
  9
$DIMLWE
 70
    -2
  9
$DIMTMOVE
 70
     0
  9
$DIMFXL
 40
1.0
  9
$DIMFXLON
 70
     0
  9
$DIMJOGANG
 40
0.7853981633974483
  9
$DIMTFILL
 70
     0
  9
$DIMTFILLCLR
 70
     0
  9
$DIMARCSYM
 70
     0
  9
$DIMLTYPE
  6

  9
$DIMLTEX1
  6

  9
$DIMLTEX2
  6

  9
$DIMTXTDIRECTION
 70
     0
  9
$LUNITS
 70
     2
  9
$LUPREC
 70
     4
  9
$SKETCHINC
 40
0.1
  9
$FILLETRAD
 40
0.5
  9
$AUNITS
 70
     0
  9
$AUPREC
 70
     0
  9
$MENU
  1
.
  9
$ELEVATION
 40
0.0
  9
$PELEVATION
 40
0.0
  9
$THICKNESS
 40
0.0
  9
$LIMCHECK
 70
     0
  9
$CHAMFERA
 40
0.0
  9
$CHAMFERB
 40
0.0
  9
$CHAMFERC
 40
0.0
  9
$CHAMFERD
 40
0.0
  9
$SKPOLY
 70
     0
  9
$TDCREATE
 40
2458169.00782059
  9
$TDUCREATE
 40
2458168.966153923
  9
$TDUPDATE
 40
2458169.00782059
  9
$TDUUPDATE
 40
2458168.966153923
  9
$TDINDWG
 40
0.0000000116
  9
$TDUSRTIMER
 40
0.0000000116
  9
$USRTIMER
 70
     1
  9
$ANGBASE
 50
0.0
  9
$ANGDIR
 70
     0
  9
$PDMODE
 70
     0
  9
$PDSIZE
 40
0.0
  9
$PLINEWID
 40
0.0
  9
$SPLFRAME
 70
     0
  9
$SPLINETYPE
 70
     6
  9
$SPLINESEGS
 70
     8
  9
$HANDSEED
  5
164
  9
$SURFTAB1
 70
     6
  9
$SURFTAB2
 70
     6
  9
$SURFTYPE
 70
     6
  9
$SURFU
 70
     6
  9
$SURFV
 70
     6
  9
$UCSBASE
  2

  9
$UCSNAME
  2

  9
$UCSORG
 10
0.0
 20
0.0
 30
0.0
  9
$UCSXDIR
 10
1.0
 20
0.0
 30
0.0
  9
$UCSYDIR
 10
0.0
 20
1.0
 30
0.0
  9
$UCSORTHOREF
  2

  9
$UCSORTHOVIEW
 70
     0
  9
$UCSORGTOP
 10
0.0
 20
0.0
 30
0.0
  9
$UCSORGBOTTOM
 10
0.0
 20
0.0
 30
0.0
  9
$UCSORGLEFT
 10
0.0
 20
0.0
 30
0.0
  9
$UCSORGRIGHT
 10
0.0
 20
0.0
 30
0.0
  9
$UCSORGFRONT
 10
0.0
 20
0.0
 30
0.0
  9
$UCSORGBACK
 10
0.0
 20
0.0
 30
0.0
  9
$PUCSBASE
  2

  9
$PUCSNAME
  2

  9
$PUCSORG
 10
0.0
 20
0.0
 30
0.0
  9
$PUCSXDIR
 10
1.0
 20
0.0
 30
0.0
  9
$PUCSYDIR
 10
0.0
 20
1.0
 30
0.0
  9
$PUCSORTHOREF
  2

  9
$PUCSORTHOVIEW
 70
     0
  9
$PUCSORGTOP
 10
0.0
 20
0.0
 30
0.0
  9
$PUCSORGBOTTOM
 10
0.0
 20
0.0
 30
0.0
  9
$PUCSORGLEFT
 10
0.0
 20
0.0
 30
0.0
  9
$PUCSORGRIGHT
 10
0.0
 20
0.0
 30
0.0
  9
$PUCSORGFRONT
 10
0.0
 20
0.0
 30
0.0
  9
$PUCSORGBACK
 10
0.0
 20
0.0
 30
0.0
  9
$USERI1
 70
     0
  9
$USERI2
 70
     0
  9
$USERI3
 70
     0
  9
$USERI4
 70
     0
  9
$USERI5
 70
     0
  9
$USERR1
 40
0.0
  9
$USERR2
 40
0.0
  9
$USERR3
 40
0.0
  9
$USERR4
 40
0.0
  9
$USERR5
 40
0.0
  9
$WORLDVIEW
 70
     1
  9
$SHADEDGE
 70
     3
  9
$SHADEDIF
 70
    70
  9
$TILEMODE
 70
     1
  9
$MAXACTVP
 70
    64
  9
$PINSBASE
 10
0.0
 20
0.0
 30
0.0
  9
$PLIMCHECK
 70
     0
  9
$PEXTMIN
 10
1.000000000000000E+20
 20
1.000000000000000E+20
 30
1.000000000000000E+20
  9
$PEXTMAX
 10
-1.000000000000000E+20
 20
-1.000000000000000E+20
 30
-1.000000000000000E+20
  9
$PLIMMIN
 10
0.0
 20
0.0
  9
$PLIMMAX
 10
12.0
 20
9.0
  9
$UNITMODE
 70
     0
  9
$VISRETAIN
 70
     1
  9
$PLINEGEN
 70
     0
  9
$PSLTSCALE
 70
     1
  9
$TREEDEPTH
 70
  3020
  9
$CMLSTYLE
  2
Standard
  9
$CMLJUST
 70
     0
  9
$CMLSCALE
 40
1.0
  9
$PROXYGRAPHICS
 70
     1
  9
$MEASUREMENT
 70
     0
  9
$CELWEIGHT
370
    -1
  9
$ENDCAPS
280
     0
  9
$JOINSTYLE
280
     0
  9
$LWDISPLAY
290
     0
  9
$INSUNITS
 70
     1
  9
$HYPERLINKBASE
  1

  9
$STYLESHEET
  1

  9
$XEDIT
290
     1
  9
$CEPSNTYPE
380
     0
  9
$PSTYLEMODE
290
     1
  9
$FINGERPRINTGUID
  2
{FB220151-A8ED-4B9B-8901-58D8E0D4CE90}
  9
$VERSIONGUID
  2
{FAEB1C32-E019-11D5-929B-00C0DF256EC4}
  9
$EXTNAMES
290
     1
  9
$PSVPSCALE
 40
0.0
  9
$OLESTARTUP
290
     0
  9
$SORTENTS
280
   127
  9
$INDEXCTL
280
     0
  9
$HIDETEXT
280
     1
  9
$XCLIPFRAME
280
     2
  9
$HALOGAP
280
     0
  9
$OBSCOLOR
 70
   257
  9
$OBSLTYPE
280
     0
  9
$INTERSECTIONDISPLAY
280
     0
  9
$INTERSECTIONCOLOR
 70
   257
  9
$DIMASSOC
280
     2
  9
$PROJECTNAME
  1

  9
$CAMERADISPLAY
290
     0
  9
$LENSLENGTH
 40
50.0
  9
$CAMERAHEIGHT
 40
0.0
  9
$STEPSPERSEC
 40
2.0
  9
$STEPSIZE
 40
6.0
  9
$3DDWFPREC
 40
2.0
  9
$PSOLWIDTH
 40
0.25
  9
$PSOLHEIGHT
 40
4.0
  9
$LOFTANG1
 40
1.570796326794897
  9
$LOFTANG2
 40
1.570796326794897
  9
$LOFTMAG1
 40
0.0
  9
$LOFTMAG2
 40
0.0
  9
$LOFTPARAM
 70
     7
  9
$LOFTNORMALS
280
     1
  9
$LATITUDE
 40
37.795
  9
$LONGITUDE
 40
-122.394
  9
$NORTHDIRECTION
 40
0.0
  9
$TIMEZONE
 70
 -8000
  9
$LIGHTGLYPHDISPLAY
280
     1
  9
$TILEMODELIGHTSYNCH
280
     1
  9
$CMATERIAL
347
44
  9
$SOLIDHIST
280
     0
  9
$SHOWHIST
280
     1
  9
$DWFFRAME
280
     2
  9
$DGNFRAME
280
     2
  9
$REALWORLDSCALE
290
     1
  9
$INTERFERECOLOR
 62
   256
  9
$CSHADOW
280
     0
  9
$SHADOWPLANELOCATION
 40
0.0
  0
ENDSEC
  0
SECTION
  2
CLASSES
  0
CLASS
  1
ACDBDICTIONARYWDFLT
  2
AcDbDictionaryWithDefault
  3
ObjectDBX Classes
 90
        0
 91
        4
280
     0
281
     0
  0
CLASS
  1
VISUALSTYLE
  2
AcDbVisualStyle
  3
ObjectDBX Classes
 90
     4095
 91
        4
280
     0
281
     0
  0
CLASS
  1
MATERIAL
  2
AcDbMaterial
  3
ObjectDBX Classes
 90
     1153
 91
        4
280
     0
281
     0
  0
CLASS
  1
SCALE
  2
AcDbScale
  3
ObjectDBX Classes
 90
     1153
 91
        4
280
     0
281
     0
  0
CLASS
  1
TABLESTYLE
  2
AcDbTableStyle
  3
ObjectDBX Classes
 90
     4095
 91
        4
280
     0
281
     0
  0
CLASS
  1
MLEADERSTYLE
  2
AcDbMLeaderStyle
  3
ACDB_MLEADERSTYLE_CLASS
 90
     4095
 91
        4
280
     0
281
     0
  0
CLASS
  1
SUN
  2
AcDbSun
  3
SCENEOE
 90
     1153
 91
        4
280
     0
281
     0
  0
CLASS
  1
DICTIONARYVAR
  2
AcDbDictionaryVar
  3
ObjectDBX Classes
 90
        0
 91
        4
280
     0
281
     0
  0
CLASS
  1
CELLSTYLEMAP
  2
AcDbCellStyleMap
  3
ObjectDBX Classes
 90
     1152
 91
        4
280
     0
281
     0
  0
ENDSEC
  0
SECTION
  2
TABLES
  0
TABLE
  2
VPORT
  5
8
330
0
100
AcDbSymbolTable
 70
     1
  0
VPORT
  5
29
330
8
100
AcDbSymbolTableRecord
100
AcDbViewportTableRecord
  2
*Active
 70
     0
 10
0.0
 20
0.0
 11
1.0
 21
1.0
 12
0.0
 22
-1.5625
 13
0.0
 23
0.0
 14
0.5
 24
0.5
 15
0.5
 25
0.5
 16
0.0
 26
0.0
 36
1.0
 17
0.0
 27
0.0
 37
0.0
 40
3.927000000000001
 41
2.224025974025973
 42
50.0
 43
0.0
 44
0.0
 50
0.0
 51
0.0
 71
     0
 72
   100
 73
     1
 74
     3
 75
     0
 76
     0
 77
     0
 78
     0
281
     0
 65
     1
110
0.0
120
0.0
130
0.0
111
1.0
121
0.0
131
0.0
112
0.0
122
1.0
132
0.0
 79
     0
146
0.0
348
2F
 60
     3
 61
     5
292
     1
282
     1
141
0.0
142
0.0
 63
   250
361
6D
  0
ENDTAB
  0
TABLE
  2
LTYPE
  5
5
330
0
100
AcDbSymbolTable
 70
     3
  0
LTYPE
  5
14
330
5
100
AcDbSymbolTableRecord
100
AcDbLinetypeTableRecord
  2
ByBlock
 70
     0
  3

 72
    65
 73
     0
 40
0.0
  0
LTYPE
  5
15
330
5
100
AcDbSymbolTableRecord
100
AcDbLinetypeTableRecord
  2
ByLayer
 70
     0
  3

 72
    65
 73
     0
 40
0.0
  0
LTYPE
  5
16
330
5
100
AcDbSymbolTableRecord
100
AcDbLinetypeTableRecord
  2
Continuous
 70
     0
  3
Solid line
 72
    65
 73
     0
 40
0.0
  0
LTYPE
  5
97
330
5
100
AcDbSymbolTableRecord
100
AcDbLinetypeTableRecord
  2
Dashed
 70
     0
  3

 72
    65
 73
     2
 40
2.0
 49
1.0
 74
     0
 49
-1.0
 74
     0
  0
LTYPE
  5
A3
330
5
100
AcDbSymbolTableRecord
100
AcDbLinetypeTableRecord
  2
Center
 70
     0
  3

 72
    65
 73
     4
 40
1.5
 49
0.45
 74
     0
 49
-0.5
 74
     0
 49
0.05
 74
     0
 49
-0.5
 74
     0
  0
ENDTAB
  0
TABLE
  2
LAYER
  5
2
330
0
100
AcDbSymbolTable
 70
     6
  0
LAYER
  5
10
330
2
100
AcDbSymbolTableRecord
100
AcDbLayerTableRecord
  2
0
 70
     0
 62
     7
  6
Continuous
370
    -3
390
F
347
46
348
0
  0
LAYER
  5
72
330
2
100
AcDbSymbolTableRecord
100
AcDbLayerTableRecord
  2
AM_6
 70
     0
 62
    -2
  6
Continuous
370
    35
390
F
347
46
348
0
  0
LAYER
  5
98
330
2
100
AcDbSymbolTableRecord
100
AcDbLayerTableRecord
  2
AM_9
 70
     0
 62
     6
  6
Dashed
370
    25
390
F
347
46
348
0
  0
LAYER
  5
A4
330
2
100
AcDbSymbolTableRecord
100
AcDbLayerTableRecord
  2
AM_7
 70
     0
 62
     7
  6
Center
370
    25
390
F
347
46
348
0
  0
LAYER
  5
A6
330
2
100
AcDbSymbolTableRecord
100
AcDbLayerTableRecord
  2
AM_4
 70
     0
 62
     7
  6
Continuous
370
    50
390
F
347
46
348
0
  0
LAYER
  5
158
330
2
100
AcDbSymbolTableRecord
100
AcDbLayerTableRecord
  2
ConnectionPoints
 70
     0
 62
     7
  6
Continuous
370
    50
390
F
347
46
348
0
  0
ENDTAB
  0
TABLE
  2
STYLE
  5
3
330
0
100
AcDbSymbolTable
 70
     1
  0
STYLE
  5
11
330
3
100
AcDbSymbolTableRecord
100
AcDbTextStyleTableRecord
  2
Standard
 70
     0
 40
0.0
 41
1.0
 50
0.0
 71
     0
 42
0.2
  3
txt
  4

  0
ENDTAB
  0
TABLE
  2
VIEW
  5
6
330
0
100
AcDbSymbolTable
 70
     0
  0
ENDTAB
  0
TABLE
  2
UCS
  5
7
330
0
100
AcDbSymbolTable
 70
     0
  0
ENDTAB
  0
TABLE
  2
APPID
  5
9
330
0
100
AcDbSymbolTable
 70
     1
  0
APPID
  5
12
330
9
100
AcDbSymbolTableRecord
100
AcDbRegAppTableRecord
  2
ACAD
 70
     0
  0
ENDTAB
  0
TABLE
  2
DIMSTYLE
  5
A
330
0
100
AcDbSymbolTable
 70
     1
100
AcDbDimStyleTable
  0
DIMSTYLE
105
27
330
A
100
AcDbSymbolTableRecord
100
AcDbDimStyleTableRecord
  2
Standard
 70
     0
178
     0
340
11
  0
ENDTAB
  0
TABLE
  2
BLOCK_RECORD
  5
1
330
0
100
AcDbSymbolTable
 70
     4
  0
BLOCK_RECORD
  5
1F
330
1
100
AcDbSymbolTableRecord
100
AcDbBlockTableRecord
  2
*Model_Space
340
22
 70
     0
280
     1
281
     0
  0
BLOCK_RECORD
  5
1B
330
1
100
AcDbSymbolTableRecord
100
AcDbBlockTableRecord
  2
*Paper_Space
340
1E
 70
     0
280
     1
281
     0
  0
BLOCK_RECORD
  5
23
330
1
100
AcDbSymbolTableRecord
100
AcDbBlockTableRecord
  2
*Paper_Space0
340
26
 70
     0
280
     1
281
     0
  0
BLOCK_RECORD
  5
6E
330
1
100
AcDbSymbolTableRecord
100
AcDbBlockTableRecord
  2
1_033323_4
340
0
102
{BLKREFS
331
6F
102
}
 70
     0
280
     1
281
     0
  0
BLOCK_RECORD
  5
85
330
1
100
AcDbSymbolTableRecord
100
AcDbBlockTableRecord
  2
2_034438_0_in_033323_4
340
0
102
{BLKREFS
331
86
102
}
 70
     0
280
     1
281
     0
  0
BLOCK_RECORD
  5
B3
330
1
100
AcDbSymbolTableRecord
100
AcDbBlockTableRecord
  2
3_F4B_MM7_307_0_in_033323_4
340
0
102
{BLKREFS
331
B4
102
}
 70
     0
280
     1
281
     0
  0
ENDTAB
  0
ENDSEC
  0
SECTION
  2
BLOCKS
  0
BLOCK
  5
20
330
1F
100
AcDbEntity
  8
0
100
AcDbBlockBegin
  2
*Model_Space
 70
     0
 10
0.0
 20
0.0
 30
0.0
  3
*Model_Space
  1

  0
ENDBLK
  5
21
330
1F
100
AcDbEntity
  8
0
100
AcDbBlockEnd
  0
BLOCK
  5
1C
330
1B
100
AcDbEntity
 67
     1
  8
0
100
AcDbBlockBegin
  2
*Paper_Space
 70
     0
 10
0.0
 20
0.0
 30
0.0
  3
*Paper_Space
  1

  0
ENDBLK
  5
1D
330
1B
100
AcDbEntity
 67
     1
  8
0
100
AcDbBlockEnd
  0
BLOCK
  5
24
330
23
100
AcDbEntity
  8
0
100
AcDbBlockBegin
  2
*Paper_Space0
 70
     0
 10
0.0
 20
0.0
 30
0.0
  3
*Paper_Space0
  1

  0
ENDBLK
  5
25
330
23
100
AcDbEntity
  8
0
100
AcDbBlockEnd
  0
BLOCK
  5
70
330
6E
100
AcDbEntity
  8
0
100
AcDbBlockBegin
  2
1_033323_4
 70
     2
 10
0.0
 20
0.0
 30
0.0
  3
1_033323_4
  1

  0
ATTDEF
  5
73
330
6E
100
AcDbEntity
  8
AM_6
100
AcDbText
 10
9.28125
 20
0.3624999999999999
 30
0.0
 40
0.5
  1
Sleeve Bearings - SOLIDLUBE 3-7/16 thru 5 MM700 4-Bolt Flange Bearing
100
AcDbAttributeDefinition
  3

  2
NN
 70
     8
280
     0
  0
ATTDEF
  5
74
330
6E
100
AcDbEntity
  8
AM_6
100
AcDbText
 10
9.28125
 20
-0.1375000000000001
 30
0.0
 40
0.5
  1
SOLIDLUBE
100
AcDbAttributeDefinition
  3

  2
NT
 70
     8
280
     0
  0
ATTDEF
  5
75
330
6E
100
AcDbEntity
  8
AM_6
100
AcDbText
 10
9.28125
 20
-0.6375000000000002
 30
0.0
 40
0.5
  1
033323
100
AcDbAttributeDefinition
  3

  2
NB
 70
     8
280
     0
  0
ATTDEF
  5
76
330
6E
100
AcDbEntity
  8
AM_6
100
AcDbText
 10
9.28125
 20
-1.1375
 30
0.0
 40
0.5
  1
$PN.
100
AcDbAttributeDefinition
  3

  2
NBSYN
 70
     8
280
     0
  0
ATTDEF
  5
77
330
6E
100
AcDbEntity
  8
AM_6
100
AcDbText
 10
9.28125
 20
-1.6375
 30
0.0
 40
0.5
  1
033323
100
AcDbAttributeDefinition
  3

  2
LINA
 70
     8
280
     0
  0
ATTDEF
  5
78
330
6E
100
AcDbEntity
  8
AM_6
100
AcDbText
 10
9.28125
 20
-2.1375
 30
0.0
 40
0.5
  1
3-7/16
100
AcDbAttributeDefinition
  3

  2
SS
 70
     8
280
     0
  0
ATTDEF
  5
79
330
6E
100
AcDbEntity
  8
AM_6
100
AcDbText
 10
9.28125
 20
-2.6375
 30
0.0
 40
0.5
  1
033323
100
AcDbAttributeDefinition
  3

  2
PN
 70
     8
280
     0
  0
ATTDEF
  5
7A
330
6E
100
AcDbEntity
  8
AM_6
100
AcDbText
 10
9.28125
 20
-3.1375
 30
0.0
 40
0.5
  1
F4B-MM7-307
100
AcDbAttributeDefinition
  3

  2
DESCRIPTION
 70
     8
280
     0
  0
ATTDEF
  5
7B
330
6E
100
AcDbEntity
  8
AM_6
100
AcDbText
 10
9.28125
 20
-3.6375
 30
0.0
 40
0.5
  1
3-1/2
100
AcDbAttributeDefinition
  3

  2
A
 70
     8
280
     0
  0
ATTDEF
  5
7C
330
6E
100
AcDbEntity
  8
AM_6
100
AcDbText
 10
9.28125
 20
-4.1375
 30
0.0
 40
0.5
  1
7-5/8
100
AcDbAttributeDefinition
  3

  2
B
 70
     8
280
     0
  0
ATTDEF
  5
7D
330
6E
100
AcDbEntity
  8
AM_6
100
AcDbText
 10
9.28125
 20
-4.6375
 30
0.0
 40
0.5
  1
2-59/64
100
AcDbAttributeDefinition
  3

  2
C
 70
     8
280
     0
  0
ATTDEF
  5
7E
330
6E
100
AcDbEntity
  8
AM_6
100
AcDbText
 10
9.28125
 20
-5.1375
 30
0.0
 40
0.5
  1
6
100
AcDbAttributeDefinition
  3

  2
D
 70
     8
280
     0
  0
ATTDEF
  5
7F
330
6E
100
AcDbEntity
  8
AM_6
100
AcDbText
 10
9.28125
 20
-5.6375
 30
0.0
 40
0.5
  1
3/16
100
AcDbAttributeDefinition
  3

  2
E
 70
     8
280
     0
  0
ATTDEF
  5
80
330
6E
100
AcDbEntity
  8
AM_6
100
AcDbText
 10
9.28125
 20
-6.1375
 30
0.0
 40
0.5
  1
5/8
100
AcDbAttributeDefinition
  3

  2
F
 70
     8
280
     0
  0
ATTDEF
  5
81
330
6E
100
AcDbEntity
  8
AM_6
100
AcDbText
 10
9.28125
 20
-6.6375
 30
0.0
 40
0.5
  1
8-9/16
100
AcDbAttributeDefinition
  3

  2
G
 70
     8
280
     0
  0
ATTDEF
  5
82
330
6E
100
AcDbEntity
  8
AM_6
100
AcDbText
 10
9.28125
 20
-7.1375
 30
0.0
 40
0.5
  1
5/8
100
AcDbAttributeDefinition
  3

  2
H
 70
     8
280
     0
  0
ATTDEF
  5
83
330
6E
100
AcDbEntity
  8
AM_6
100
AcDbText
 10
9.28125
 20
-7.6375
 30
0.0
 40
0.5
  1
4-7/8
100
AcDbAttributeDefinition
  3

  2
L
 70
     8
280
     0
  0
ATTDEF
  5
84
330
6E
100
AcDbEntity
  8
AM_6
100
AcDbText
 10
9.28125
 20
-8.1375
 30
0.0
 40
0.5
  1
baldor
100
AcDbAttributeDefinition
  3

  2
COMPANY
 70
     8
280
     0
  0
INSERT
  5
86
330
6E
100
AcDbEntity
  8
0
100
AcDbBlockReference
  2
2_034438_0_in_033323_4
 10
0.0
 20
0.0
 30
0.0
  0
INSERT
  5
B4
330
6E
100
AcDbEntity
  8
0
100
AcDbBlockReference
  2
3_F4B_MM7_307_0_in_033323_4
 10
0.0
 20
0.0
 30
0.0
  0
ENDBLK
  5
71
330
6E
100
AcDbEntity
  8
0
100
AcDbBlockEnd
  0
BLOCK
  5
87
330
85
100
AcDbEntity
  8
0
100
AcDbBlockBegin
  2
2_034438_0_in_033323_4
 70
     2
 10
0.0
 20
0.0
 30
0.0
  3
2_034438_0_in_033323_4
  1

  0
ATTDEF
  5
89
330
85
100
AcDbEntity
  8
AM_6
100
AcDbText
 10
7.5905
 20
0.3624999999999999
 30
0.0
 40
0.5
  1
Sleeve Bearings - SOLIDLUBE 3-7/16 thru 5 MM700 Bearing Inserts
100
AcDbAttributeDefinition
  3

  2
NN
 70
     8
280
     0
  0
ATTDEF
  5
8A
330
85
100
AcDbEntity
  8
AM_6
100
AcDbText
 10
7.5905
 20
-0.1375000000000001
 30
0.0
 40
0.5
  1
SOLIDLUBE
100
AcDbAttributeDefinition
  3

  2
NT
 70
     8
280
     0
  0
ATTDEF
  5
8B
330
85
100
AcDbEntity
  8
AM_6
100
AcDbText
 10
7.5905
 20
-0.6375000000000002
 30
0.0
 40
0.5
  1
034438
100
AcDbAttributeDefinition
  3

  2
NB
 70
     8
280
     0
  0
ATTDEF
  5
8C
330
85
100
AcDbEntity
  8
AM_6
100
AcDbText
 10
7.5905
 20
-1.1375
 30
0.0
 40
0.5
  1
$PN.
100
AcDbAttributeDefinition
  3

  2
NBSYN
 70
     8
280
     0
  0
ATTDEF
  5
8D
330
85
100
AcDbEntity
  8
AM_6
100
AcDbText
 10
7.5905
 20
-1.6375
 30
0.0
 40
0.5
  1
034438
100
AcDbAttributeDefinition
  3

  2
LINA
 70
     8
280
     0
  0
ATTDEF
  5
8E
330
85
100
AcDbEntity
  8
AM_6
100
AcDbText
 10
7.5905
 20
-2.1375
 30
0.0
 40
0.5
  1
3-7/16
100
AcDbAttributeDefinition
  3

  2
SS
 70
     8
280
     0
  0
ATTDEF
  5
8F
330
85
100
AcDbEntity
  8
AM_6
100
AcDbText
 10
7.5905
 20
-2.6375
 30
0.0
 40
0.5
  1
034438
100
AcDbAttributeDefinition
  3

  2
PN
 70
     8
280
     0
  0
ATTDEF
  5
90
330
85
100
AcDbEntity
  8
AM_6
100
AcDbText
 10
7.5905
 20
-3.1375
 30
0.0
 40
0.5
  1
INS-MM7-307
100
AcDbAttributeDefinition
  3

  2
DESCRIPTION
 70
     8
280
     0
  0
ATTDEF
  5
91
330
85
100
AcDbEntity
  8
AM_6
100
AcDbText
 10
7.5905
 20
-3.6375
 30
0.0
 40
0.5
  1
6.4
100
AcDbAttributeDefinition
  3

  2
WEIGHT
 70
     8
280
     0
  0
ATTDEF
  5
92
330
85
100
AcDbEntity
  8
AM_6
100
AcDbText
 10
7.5905
 20
-4.1375
 30
0.0
 40
0.5
  1
3-1/2
100
AcDbAttributeDefinition
  3

  2
A
 70
     8
280
     0
  0
ATTDEF
  5
93
330
85
100
AcDbEntity
  8
AM_6
100
AcDbText
 10
7.5905
 20
-4.6375
 30
0.0
 40
0.5
  1
7/8
100
AcDbAttributeDefinition
  3

  2
C
 70
     8
280
     0
  0
ATTDEF
  5
94
330
85
100
AcDbEntity
  8
AM_6
100
AcDbText
 10
7.5905
 20
-5.1375
 30
0.0
 40
0.5
  1
4-7/8
100
AcDbAttributeDefinition
  3

  2
L
 70
     8
280
     0
  0
ATTDEF
  5
95
330
85
100
AcDbEntity
  8
AM_6
100
AcDbText
 10
7.5905
 20
-5.6375
 30
0.0
 40
0.5
  1
5.182/5.180
100
AcDbAttributeDefinition
  3

  2
S
 70
     8
280
     0
  0
ATTDEF
  5
96
330
85
100
AcDbEntity
  8
AM_6
100
AcDbText
 10
7.5905
 20
-6.1375
 30
0.0
 40
0.5
  1
baldor
100
AcDbAttributeDefinition
  3

  2
COMPANY
 70
     8
280
     0
  0
LINE
  5
99
330
85
100
AcDbEntity
  8
AM_9
100
AcDbLine
 10
-1.71875
 20
0.1874999999999998
 30
0.0
 11
-1.71875
 21
-3.3125
 31
0.0
  0
LINE
  5
9A
330
85
100
AcDbEntity
  8
AM_9
100
AcDbLine
 10
1.71875
 20
-3.3125
 30
0.0
 11
1.71875
 21
0.1874999999999998
 31
0.0
  0
LINE
  5
9B
330
85
100
AcDbEntity
  8
AM_9
100
AcDbLine
 10
-2.4375
 20
-2.0
 30
0.0
 11
-2.4375
 21
-2.92188
 31
0.0
  0
LINE
  5
9C
330
85
100
AcDbEntity
  8
AM_9
100
AcDbLine
 10
2.4375
 20
-2.92188
 30
0.0
 11
2.4375
 21
-2.0
 31
0.0
  0
LINE
  5
9D
330
85
100
AcDbEntity
  8
AM_9
100
AcDbLine
 10
-2.4375
 20
0.0000000000000002
 30
0.0
 11
-2.4375
 21
-1.125
 31
0.0
  0
LINE
  5
9E
330
85
100
AcDbEntity
  8
AM_9
100
AcDbLine
 10
2.4375
 20
-1.125
 30
0.0
 11
2.4375
 21
0.0000000000000004
 31
0.0
  0
ARC
  5
9F
330
85
100
AcDbEntity
  8
AM_9
100
AcDbCircle
 10
-0.627715123531543
 20
-1.562499999999999
 30
0.0
 40
1.962784876468457
100
AcDbArc
 50
167.1207209326566
 51
192.8792790673435
  0
ARC
  5
A0
330
85
100
AcDbEntity
  8
AM_9
100
AcDbCircle
 10
0.6277151235315432
 20
-1.562499999999999
 30
0.0
 40
1.962784876468457
100
AcDbArc
 50
347.1207209326565
 51
12.87927906734342
  0
LINE
  5
A1
330
85
100
AcDbEntity
  8
AM_9
100
AcDbLine
 10
2.541120000000007
 20
-1.125
 30
0.0
 11
-2.541120000000007
 21
-1.125
 31
0.0
  0
LINE
  5
A2
330
85
100
AcDbEntity
  8
AM_9
100
AcDbLine
 10
2.541120000000006
 20
-2.0
 30
0.0
 11
-2.541120000000006
 21
-2.0
 31
0.0
  0
LINE
  5
A5
330
85
100
AcDbEntity
  8
AM_7
100
AcDbLine
 10
0.0
 20
0.3624999999999999
 30
0.0
 11
0.0
 21
-3.487500000000001
 31
0.0
  0
LINE
  5
A7
330
85
100
AcDbEntity
  8
AM_4
100
AcDbLine
 10
-2.346186284046692
 20
0.1874999999999998
 30
0.0
 11
-2.4375
 21
0.0961862840466927
 31
0.0
  0
LINE
  5
A8
330
85
100
AcDbEntity
  8
AM_4
100
AcDbLine
 10
2.4375
 20
0.0961862840466927
 30
0.0
 11
2.346186284046692
 21
0.1874999999999998
 31
0.0
  0
LINE
  5
A9
330
85
100
AcDbEntity
  8
AM_4
100
AcDbLine
 10
2.346186284046692
 20
0.1874999999999998
 30
0.0
 11
-2.346186284046692
 21
0.1874999999999998
 31
0.0
  0
LINE
  5
AA
330
85
100
AcDbEntity
  8
AM_4
100
AcDbLine
 10
-2.4375
 20
-2.92188
 30
0.0
 11
-2.4375
 21
-3.23906079766537
 31
0.0
  0
LINE
  5
AB
330
85
100
AcDbEntity
  8
AM_4
100
AcDbLine
 10
2.4375
 20
-3.23906079766537
 30
0.0
 11
2.4375
 21
-2.92188
 31
0.0
  0
LINE
  5
AC
330
85
100
AcDbEntity
  8
AM_4
100
AcDbLine
 10
-2.4375
 20
0.0961862840466927
 30
0.0
 11
-2.4375
 21
0.0000000000000002
 31
0.0
  0
LINE
  5
AD
330
85
100
AcDbEntity
  8
AM_4
100
AcDbLine
 10
2.4375
 20
0.0000000000000004
 30
0.0
 11
2.4375
 21
0.0961862840466927
 31
0.0
  0
LINE
  5
AE
330
85
100
AcDbEntity
  8
AM_4
100
AcDbLine
 10
2.4375
 20
0.0961862840466927
 30
0.0
 11
-2.4375
 21
0.0961862840466927
 31
0.0
  0
LINE
  5
AF
330
85
100
AcDbEntity
  8
AM_4
100
AcDbLine
 10
2.36406079766537
 20
-3.3125
 30
0.0
 11
2.4375
 21
-3.23906079766537
 31
0.0
  0
LINE
  5
B0
330
85
100
AcDbEntity
  8
AM_4
100
AcDbLine
 10
-2.4375
 20
-3.23906079766537
 30
0.0
 11
-2.36406079766537
 21
-3.3125
 31
0.0
  0
LINE
  5
B1
330
85
100
AcDbEntity
  8
AM_4
100
AcDbLine
 10
2.4375
 20
-3.23906079766537
 30
0.0
 11
-2.4375
 21
-3.23906079766537
 31
0.0
  0
LINE
  5
B2
330
85
100
AcDbEntity
  8
AM_4
100
AcDbLine
 10
2.36406079766537
 20
-3.3125
 30
0.0
 11
-2.36406079766537
 21
-3.3125
 31
0.0
  0
ENDBLK
  5
88
330
85
100
AcDbEntity
  8
0
100
AcDbBlockEnd
  0
BLOCK
  5
B5
330
B3
100
AcDbEntity
  8
0
100
AcDbBlockBegin
  2
3_F4B_MM7_307_0_in_033323_4
 70
     2
 10
0.0
 20
0.0
 30
0.0
  3
3_F4B_MM7_307_0_in_033323_4
  1

  0
ATTDEF
  5
B7
330
B3
100
AcDbEntity
  8
AM_6
100
AcDbText
 10
9.28125
 20
0.0312499999999998
 30
0.0
 40
0.5
  1
3-7/16" THRU 5" SOLIDLUBE MM 4-BOLT FLANGE BEARING - Body -
100
AcDbAttributeDefinition
  3

  2
NN
 70
     8
280
     0
  0
ATTDEF
  5
B8
330
B3
100
AcDbEntity
  8
AM_6
100
AcDbText
 10
9.28125
 20
-0.4687500000000002
 30
0.0
 40
0.5
  1
SOLIDLUBE
100
AcDbAttributeDefinition
  3

  2
NT
 70
     8
280
     0
  0
ATTDEF
  5
B9
330
B3
100
AcDbEntity
  8
AM_6
100
AcDbText
 10
9.28125
 20
-0.9687500000000002
 30
0.0
 40
0.5
  1
F4B-MM7-307
100
AcDbAttributeDefinition
  3

  2
NB
 70
     8
280
     0
  0
ATTDEF
  5
BA
330
B3
100
AcDbEntity
  8
AM_6
100
AcDbText
 10
9.28125
 20
-1.46875
 30
0.0
 40
0.5
  1
$PN.
100
AcDbAttributeDefinition
  3

  2
NBSYN
 70
     8
280
     0
  0
ATTDEF
  5
BB
330
B3
100
AcDbEntity
  8
AM_6
100
AcDbText
 10
9.28125
 20
-1.96875
 30
0.0
 40
0.5
  1
F4B-MM7-307
100
AcDbAttributeDefinition
  3

  2
LINA
 70
     8
280
     0
  0
ATTDEF
  5
BC
330
B3
100
AcDbEntity
  8
AM_6
100
AcDbText
 10
9.28125
 20
-2.46875
 30
0.0
 40
0.5
  1
3-7/16
100
AcDbAttributeDefinition
  3

  2
SS
 70
     8
280
     0
  0
ATTDEF
  5
BD
330
B3
100
AcDbEntity
  8
AM_6
100
AcDbText
 10
9.28125
 20
-2.96875
 30
0.0
 40
0.5
  1
3.43750
100
AcDbAttributeDefinition
  3

  2
SS1
 70
     8
280
     0
  0
ATTDEF
  5
BE
330
B3
100
AcDbEntity
  8
AM_6
100
AcDbText
 10
9.28125
 20
-3.46875
 30
0.0
 40
0.5
  1
F4B-MM7-307
100
AcDbAttributeDefinition
  3

  2
PN
 70
     8
280
     0
  0
ATTDEF
  5
BF
330
B3
100
AcDbEntity
  8
AM_6
100
AcDbText
 10
9.28125
 20
-3.96875
 30
0.0
 40
0.5
  1
F4B-MM7-307
100
AcDbAttributeDefinition
  3

  2
DESCRIPTION
 70
     8
280
     0
  0
ATTDEF
  5
C0
330
B3
100
AcDbEntity
  8
AM_6
100
AcDbText
 10
9.28125
 20
-4.46875
 30
0.0
 40
0.5
  1
3-1/2
100
AcDbAttributeDefinition
  3

  2
A
 70
     8
280
     0
  0
ATTDEF
  5
C1
330
B3
100
AcDbEntity
  8
AM_6
100
AcDbText
 10
9.28125
 20
-4.96875
 30
0.0
 40
0.5
  1
3.50000
100
AcDbAttributeDefinition
  3

  2
A1
 70
     8
280
     0
  0
ATTDEF
  5
C2
330
B3
100
AcDbEntity
  8
AM_6
100
AcDbText
 10
9.28125
 20
-5.46875
 30
0.0
 40
0.5
  1
7-5/8
100
AcDbAttributeDefinition
  3

  2
B
 70
     8
280
     0
  0
ATTDEF
  5
C3
330
B3
100
AcDbEntity
  8
AM_6
100
AcDbText
 10
9.28125
 20
-5.96875
 30
0.0
 40
0.5
  1
7.62500
100
AcDbAttributeDefinition
  3

  2
B1
 70
     8
280
     0
  0
ATTDEF
  5
C4
330
B3
100
AcDbEntity
  8
AM_6
100
AcDbText
 10
9.28125
 20
-6.46875
 30
0.0
 40
0.5
  1
2-59/64
100
AcDbAttributeDefinition
  3

  2
C
 70
     8
280
     0
  0
ATTDEF
  5
C5
330
B3
100
AcDbEntity
  8
AM_6
100
AcDbText
 10
9.28125
 20
-6.96875
 30
0.0
 40
0.5
  1
2.92188
100
AcDbAttributeDefinition
  3

  2
C1
 70
     8
280
     0
  0
ATTDEF
  5
C6
330
B3
100
AcDbEntity
  8
AM_6
100
AcDbText
 10
9.28125
 20
-7.46875
 30
0.0
 40
0.5
  1
6
100
AcDbAttributeDefinition
  3

  2
D
 70
     8
280
     0
  0
ATTDEF
  5
C7
330
B3
100
AcDbEntity
  8
AM_6
100
AcDbText
 10
9.28125
 20
-7.96875
 30
0.0
 40
0.5
  1
6.00000
100
AcDbAttributeDefinition
  3

  2
D1
 70
     8
280
     0
  0
ATTDEF
  5
C8
330
B3
100
AcDbEntity
  8
AM_6
100
AcDbText
 10
9.28125
 20
-8.46875
 30
0.0
 40
0.5
  1
3/16
100
AcDbAttributeDefinition
  3

  2
E
 70
     8
280
     0
  0
ATTDEF
  5
C9
330
B3
100
AcDbEntity
  8
AM_6
100
AcDbText
 10
9.28125
 20
-8.96875
 30
0.0
 40
0.5
  1
0.18750
100
AcDbAttributeDefinition
  3

  2
E1
 70
     8
280
     0
  0
ATTDEF
  5
CA
330
B3
100
AcDbEntity
  8
AM_6
100
AcDbText
 10
9.28125
 20
-9.46875
 30
0.0
 40
0.5
  1
5/8
100
AcDbAttributeDefinition
  3

  2
F
 70
     8
280
     0
  0
ATTDEF
  5
CB
330
B3
100
AcDbEntity
  8
AM_6
100
AcDbText
 10
9.28125
 20
-9.96875
 30
0.0
 40
0.5
  1
0.62500
100
AcDbAttributeDefinition
  3

  2
F1
 70
     8
280
     0
  0
ATTDEF
  5
CC
330
B3
100
AcDbEntity
  8
AM_6
100
AcDbText
 10
9.28125
 20
-10.46875
 30
0.0
 40
0.5
  1
8-9/16
100
AcDbAttributeDefinition
  3

  2
G
 70
     8
280
     0
  0
ATTDEF
  5
CD
330
B3
100
AcDbEntity
  8
AM_6
100
AcDbText
 10
9.28125
 20
-10.96875
 30
0.0
 40
0.5
  1
8.56250
100
AcDbAttributeDefinition
  3

  2
G1
 70
     8
280
     0
  0
ATTDEF
  5
CE
330
B3
100
AcDbEntity
  8
AM_6
100
AcDbText
 10
9.28125
 20
-11.46875
 30
0.0
 40
0.5
  1
5/8
100
AcDbAttributeDefinition
  3

  2
H
 70
     8
280
     0
  0
ATTDEF
  5
CF
330
B3
100
AcDbEntity
  8
AM_6
100
AcDbText
 10
9.28125
 20
-11.96875
 30
0.0
 40
0.5
  1
0.62500
100
AcDbAttributeDefinition
  3

  2
H1
 70
     8
280
     0
  0
ATTDEF
  5
D0
330
B3
100
AcDbEntity
  8
AM_6
100
AcDbText
 10
9.28125
 20
-12.46875
 30
0.0
 40
0.5
  1
4-7/8
100
AcDbAttributeDefinition
  3

  2
L
 70
     8
280
     0
  0
ATTDEF
  5
D1
330
B3
100
AcDbEntity
  8
AM_6
100
AcDbText
 10
9.28125
 20
-12.96875
 30
0.0
 40
0.5
  1
4.87500
100
AcDbAttributeDefinition
  3

  2
L1
 70
     8
280
     0
  0
ATTDEF
  5
D2
330
B3
100
AcDbEntity
  8
AM_6
100
AcDbText
 10
9.28125
 20
-13.46875
 30
0.0
 40
0.5
  1
5.18100
100
AcDbAttributeDefinition
  3

  2
BOD
 70
     8
280
     0
  0
ATTDEF
  5
D3
330
B3
100
AcDbEntity
  8
AM_6
100
AcDbText
 10
9.28125
 20
-13.96875
 30
0.0
 40
0.5
  1
baldor
100
AcDbAttributeDefinition
  3

  2
COMPANY
 70
     8
280
     0
  0
LWPOLYLINE
  5
D4
330
B3
100
AcDbEntity
  8
AM_9
100
AcDbPolyline
 90
       12
 70
     0
 43
0.0
 10
2.905909739866861
 20
-0.1337195592180156
 10
2.905898083396234
 20
-0.1161956516979836
 10
2.904372654705507
 20
-0.0989364433440858
 10
2.901407457204573
 20
-0.0824972932338375
 10
2.897176963197108
 20
-0.0671944128150751
 10
2.891569503351764
 20
-0.0526782245456585
 10
2.884989592476274
 20
-0.0398825173723493
 10
2.874215152867166
 20
-0.0246741890096137
 10
2.86233000055515
 20
-0.0131814647307218
 10
2.849558435931757
 20
-0.0052636597540699
 10
2.836357438556544
 20
-0.0009400618786359
 10
2.826503348010503
 20
0.0000000000000002
  0
ARC
  5
D5
330
B3
100
AcDbEntity
  8
AM_9
100
AcDbCircle
 10
3.02384864808902
 20
-0.1249999999999999
 30
0.0
 40
0.1249999999999997
100
AcDbArc
 50
355.9999999999999
 51
90.0
  0
LWPOLYLINE
  5
D6
330
B3
100
AcDbEntity
  8
AM_9
100
AcDbPolyline
 90
       11
 70
     0
 43
0.0
 10
-2.826503348010503
 20
0.0000000000000002
 10
-2.840976518967312
 20
-0.0020400774036065
 10
-2.855449689924122
 20
-0.0084160177391616
 10
-2.868163059325795
 20
-0.0182473092138303
 10
-2.880216648496596
 20
-0.0324382663169862
 10
-2.888540645074327
 20
-0.0463497403604988
 10
-2.895808343099855
 20
-0.0632124716965111
 10
-2.900529957589842
 20
-0.0788031143799352
 10
-2.90398658818548
 20
-0.0962091093593905
 10
-2.905820429563852
 20
-0.1144445487453118
 10
-2.905909739866861
 20
-0.1337195592180156
  0
ARC
  5
D7
330
B3
100
AcDbEntity
  8
AM_9
100
AcDbCircle
 10
-3.02384864808902
 20
-0.1249999999999999
 30
0.0
 40
0.1250000000000001
100
AcDbArc
 50
90.0
 51
184.0
  0
LINE
  5
D8
330
B3
100
AcDbEntity
  8
AM_9
100
AcDbLine
 10
2.5905
 20
-2.92188
 30
0.0
 11
2.5905
 21
0.0
 31
0.0
  0
LINE
  5
D9
330
B3
100
AcDbEntity
  8
AM_9
100
AcDbLine
 10
-2.5905
 20
0.0
 30
0.0
 11
-2.5905
 21
-2.92188
 31
0.0
  0
LINE
  5
DA
330
B3
100
AcDbEntity
  8
AM_9
100
AcDbLine
 10
-2.88422951770996
 20
-0.6249999999999999
 30
0.0
 11
-2.905909739866861
 21
-0.1337195592180156
 31
0.0
  0
LINE
  5
DB
330
B3
100
AcDbEntity
  8
AM_9
100
AcDbLine
 10
2.905909739866861
 20
-0.1337195592180156
 30
0.0
 11
3.148544154371498
 21
-0.1337195592180157
 31
0.0
  0
LINE
  5
DC
330
B3
100
AcDbEntity
  8
AM_9
100
AcDbLine
 10
2.905909739866861
 20
-0.1337195592180156
 30
0.0
 11
2.884229517709961
 21
-0.6249999999999999
 31
0.0
  0
LINE
  5
DD
330
B3
100
AcDbEntity
  8
AM_9
100
AcDbLine
 10
3.114190479377412
 20
-0.6249999999999994
 30
0.0
 11
3.148544154371498
 21
-0.1337195592180157
 31
0.0
  0
LINE
  5
DE
330
B3
100
AcDbEntity
  8
AM_9
100
AcDbLine
 10
-3.148544154371498
 20
-0.1337195592180157
 30
0.0
 11
-3.114190479377412
 21
-0.6249999999999994
 31
0.0
  0
LINE
  5
DF
330
B3
100
AcDbEntity
  8
AM_9
100
AcDbLine
 10
-3.148544154371498
 20
-0.1337195592180157
 30
0.0
 11
-2.905909739866861
 21
-0.1337195592180156
 31
0.0
  0
LINE
  5
E0
330
B3
100
AcDbEntity
  8
AM_9
100
AcDbLine
 10
3.3125
 20
-0.6249999999999999
 30
0.0
 11
3.3125
 21
0.0000000000000002
 31
0.0
  0
LINE
  5
E1
330
B3
100
AcDbEntity
  8
AM_9
100
AcDbLine
 10
2.6875
 20
0.0000000000000002
 30
0.0
 11
2.6875
 21
-0.6249999999999999
 31
0.0
  0
LINE
  5
E2
330
B3
100
AcDbEntity
  8
AM_9
100
AcDbLine
 10
-2.6875
 20
-0.6249999999999999
 30
0.0
 11
-2.6875
 21
0.0000000000000002
 31
0.0
  0
LINE
  5
E3
330
B3
100
AcDbEntity
  8
AM_9
100
AcDbLine
 10
-3.3125
 20
0.0000000000000002
 30
0.0
 11
-3.3125
 21
-0.6249999999999999
 31
0.0
  0
CIRCLE
  5
E4
330
B3
100
AcDbEntity
  8
AM_9
100
AcDbCircle
 10
0.0
 20
-1.61719
 30
0.0
 40
0.73047
  0
LINE
  5
E5
330
B3
100
AcDbEntity
  8
AM_9
100
AcDbLine
 10
0.175230087301581
 20
-2.60938
 30
0.0
 11
-0.1752300873015814
 21
-2.60938
 31
0.0
  0
LINE
  5
E6
330
B3
100
AcDbEntity
  8
AM_9
100
AcDbLine
 10
0.1752300873015787
 20
-0.6249999999999998
 30
0.0
 11
-0.175230087301579
 21
-0.6249999999999998
 31
0.0
  0
LINE
  5
E7
330
B3
100
AcDbEntity
  8
AM_9
100
AcDbLine
 10
3.703645640574856
 20
-0.6249999999999999
 30
0.0
 11
3.703645640574856
 21
0.0000000000000002
 31
0.0
  0
LINE
  5
E8
330
B3
100
AcDbEntity
  8
AM_9
100
AcDbLine
 10
-3.703645640574855
 20
-0.6249999999999999
 30
0.0
 11
-3.703645640574855
 21
0.0000000000000002
 31
0.0
  0
LINE
  5
E9
330
B3
100
AcDbEntity
  8
AM_7
100
AcDbLine
 10
-0.7669935
 20
-1.61719
 30
0.0
 11
0.7669935
 21
-1.61719
 31
0.0
  0
LINE
  5
EA
330
B3
100
AcDbEntity
  8
AM_7
100
AcDbLine
 10
3.0
 20
0.0312499999999998
 30
0.0
 11
3.0
 21
-0.6562500000000001
 31
0.0
  0
LINE
  5
EB
330
B3
100
AcDbEntity
  8
AM_7
100
AcDbLine
 10
-3.0
 20
0.0312499999999998
 30
0.0
 11
-3.0
 21
-0.6562500000000001
 31
0.0
  0
LINE
  5
EC
330
B3
100
AcDbEntity
  8
AM_4
100
AcDbLine
 10
4.28125
 20
-1.984379999999999
 30
0.0
 11
4.28125
 21
-1.5625
 31
0.0
  0
ARC
  5
ED
330
B3
100
AcDbEntity
  8
AM_4
100
AcDbCircle
 10
3.656249999999999
 20
-1.984379999999999
 30
0.0
 40
0.6250000000000007
100
AcDbArc
 50
270.0
 51
0.0
  0
LINE
  5
EE
330
B3
100
AcDbEntity
  8
AM_4
100
AcDbLine
 10
2.909046820228303
 20
-2.60938
 30
0.0
 11
3.65625
 21
-2.60938
 31
0.0
  0
ARC
  5
EF
330
B3
100
AcDbEntity
  8
AM_4
100
AcDbCircle
 10
3.656249999999997
 20
-1.562500000000003
 30
0.0
 40
0.6250000000000031
100
AcDbArc
 50
0.0
 51
90.0
  0
LINE
  5
F0
330
B3
100
AcDbEntity
  8
AM_4
100
AcDbLine
 10
3.65625
 20
-0.9375
 30
0.0
 11
3.028519683751492
 21
-0.9375
 31
0.0
  0
LINE
  5
F1
330
B3
100
AcDbEntity
  8
AM_4
100
AcDbLine
 10
-4.28125
 20
-1.562500000000001
 30
0.0
 11
-4.28125
 21
-1.984379999999999
 31
0.0
  0
LINE
  5
F2
330
B3
100
AcDbEntity
  8
AM_4
100
AcDbLine
 10
-3.028519683751492
 20
-0.9375
 30
0.0
 11
-3.65625
 21
-0.9375
 31
0.0
  0
ARC
  5
F3
330
B3
100
AcDbEntity
  8
AM_4
100
AcDbCircle
 10
-3.656249999999999
 20
-1.562500000000001
 30
0.0
 40
0.6250000000000007
100
AcDbArc
 50
90.0
 51
180.0
  0
ARC
  5
F4
330
B3
100
AcDbEntity
  8
AM_4
100
AcDbCircle
 10
-3.65625
 20
-1.98438
 30
0.0
 40
0.6249999999999996
100
AcDbArc
 50
180.0
 51
270.0
  0
LINE
  5
F5
330
B3
100
AcDbEntity
  8
AM_4
100
AcDbLine
 10
-3.65625
 20
-2.60938
 30
0.0
 11
-2.909046820228303
 21
-2.60938
 31
0.0
  0
LINE
  5
F6
330
B3
100
AcDbEntity
  8
AM_4
100
AcDbLine
 10
-3.695918510508975
 20
-1.412596081756484
 30
0.0
 11
-4.008418510508975
 21
-1.593018040878242
 31
0.0
  0
LINE
  5
F7
330
B3
100
AcDbEntity
  8
AM_4
100
AcDbLine
 10
-4.008418510508975
 20
-1.593018040878242
 30
0.0
 11
-4.008418510508975
 21
-1.953861959121758
 31
0.0
  0
LINE
  5
F8
330
B3
100
AcDbEntity
  8
AM_4
100
AcDbLine
 10
-3.383418510508975
 20
-1.593018040878242
 30
0.0
 11
-3.695918510508975
 21
-1.412596081756484
 31
0.0
  0
LINE
  5
F9
330
B3
100
AcDbEntity
  8
AM_4
100
AcDbLine
 10
-4.008418510508975
 20
-1.953861959121758
 30
0.0
 11
-3.695918510508975
 21
-2.134283918243516
 31
0.0
  0
LINE
  5
FA
330
B3
100
AcDbEntity
  8
AM_4
100
AcDbLine
 10
-3.695918510508975
 20
-2.134283918243516
 30
0.0
 11
-3.383418510508975
 21
-1.953861959121758
 31
0.0
  0
LINE
  5
FB
330
B3
100
AcDbEntity
  8
AM_4
100
AcDbLine
 10
-3.383418510508975
 20
-1.953861959121758
 30
0.0
 11
-3.383418510508975
 21
-1.593018040878242
 31
0.0
  0
LINE
  5
FC
330
B3
100
AcDbEntity
  8
AM_4
100
AcDbLine
 10
4.008418510508975
 20
-1.593018040878242
 30
0.0
 11
3.695918510508975
 21
-1.412596081756484
 31
0.0
  0
LINE
  5
FD
330
B3
100
AcDbEntity
  8
AM_4
100
AcDbLine
 10
4.008418510508975
 20
-1.95386195912176
 30
0.0
 11
4.008418510508975
 21
-1.593018040878242
 31
0.0
  0
LINE
  5
FE
330
B3
100
AcDbEntity
  8
AM_4
100
AcDbLine
 10
3.695918510508975
 20
-1.412596081756484
 30
0.0
 11
3.383418510508975
 21
-1.593018040878242
 31
0.0
  0
LINE
  5
FF
330
B3
100
AcDbEntity
  8
AM_4
100
AcDbLine
 10
3.383418510508975
 20
-1.593018040878242
 30
0.0
 11
3.383418510508975
 21
-1.95386195912176
 31
0.0
  0
LINE
  5
100
330
B3
100
AcDbEntity
  8
AM_4
100
AcDbLine
 10
3.383418510508975
 20
-1.95386195912176
 30
0.0
 11
3.695918510508975
 21
-2.134283918243516
 31
0.0
  0
LINE
  5
101
330
B3
100
AcDbEntity
  8
AM_4
100
AcDbLine
 10
3.695918510508975
 20
-2.134283918243516
 30
0.0
 11
4.008418510508975
 21
-1.95386195912176
 31
0.0
  0
LINE
  5
102
330
B3
100
AcDbEntity
  8
AM_4
100
AcDbLine
 10
-2.895294790676997
 20
-2.92188
 30
0.0
 11
2.895294790676985
 21
-2.92188
 31
0.0
  0
ARC
  5
103
330
B3
100
AcDbEntity
  8
AM_4
100
AcDbCircle
 10
2.895294790676998
 20
-2.859380000000001
 30
0.0
 40
0.0624999999999991
100
AcDbArc
 50
270.0
 51
356.0000000000007
  0
ARC
  5
104
330
B3
100
AcDbEntity
  8
AM_4
100
AcDbCircle
 10
-2.895294790676998
 20
-2.859380000000001
 30
0.0
 40
0.0624999999999991
100
AcDbArc
 50
183.9999999999993
 51
270.0
  0
LINE
  5
105
330
B3
100
AcDbEntity
  8
AM_4
100
AcDbLine
 10
-3.028519683751492
 20
-0.9375
 30
0.0
 11
-2.909046820228303
 21
-2.60938
 31
0.0
  0
LINE
  5
106
330
B3
100
AcDbEntity
  8
AM_4
100
AcDbLine
 10
2.909046820228303
 20
-2.60938
 30
0.0
 11
3.028519683751492
 21
-0.9375
 31
0.0
  0
LINE
  5
107
330
B3
100
AcDbEntity
  8
AM_4
100
AcDbLine
 10
-2.957642543818236
 20
-2.863739779609008
 30
0.0
 11
2.957642543818236
 21
-2.863739779609008
 31
0.0
  0
LINE
  5
108
330
B3
100
AcDbEntity
  8
AM_4
100
AcDbLine
 10
2.957642543818236
 20
-2.863739779609008
 30
0.0
 11
2.975429112292948
 21
-2.60938
 31
0.0
  0
LINE
  5
109
330
B3
100
AcDbEntity
  8
AM_4
100
AcDbLine
 10
3.092338350645064
 20
-0.9375
 30
0.0
 11
3.114190479377412
 21
-0.6249999999999994
 31
0.0
  0
LINE
  5
10A
330
B3
100
AcDbEntity
  8
AM_4
100
AcDbLine
 10
-3.114190479377412
 20
-0.6249999999999994
 30
0.0
 11
-3.092338350645064
 21
-0.9375
 31
0.0
  0
LINE
  5
10B
330
B3
100
AcDbEntity
  8
AM_4
100
AcDbLine
 10
-2.975429112292948
 20
-2.60938
 30
0.0
 11
-2.957642543818236
 21
-2.863739779609008
 31
0.0
  0
LINE
  5
10C
330
B3
100
AcDbEntity
  8
AM_4
100
AcDbLine
 10
-1.21203088895203
 20
-0.1337195592180155
 30
0.0
 11
1.212030888952031
 21
-0.1337195592180155
 31
0.0
  0
LWPOLYLINE
  5
10D
330
B3
100
AcDbEntity
  8
AM_4
100
AcDbPolyline
 90
        5
 70
     0
 43
0.0
 10
1.68944629666168
 20
-2.074590979560879
 10
1.468603976591493
 20
-2.178661607500834
 10
1.23745298914427
 20
-2.291428597513279
 10
0.9977525329072657
 20
-2.41203372471365
 10
0.7778950065054263
 20
-2.525645877365273
  0
LWPOLYLINE
  5
10E
330
B3
100
AcDbEntity
  8
AM_4
100
AcDbPolyline
 90
        5
 70
     0
 43
0.0
 10
-1.664496538405965
 20
-1.159789020439122
 10
-1.429171659135147
 20
-1.050322706387181
 10
-1.182027941038912
 20
-0.931119062467459
 10
-0.9249462970414288
 20
-0.803085300387313
 10
-0.7401349059993716
 20
-0.7087341226347272
  0
LINE
  5
10F
330
B3
100
AcDbEntity
  8
AM_4
100
AcDbLine
 10
1.68944629666168
 20
-2.074590979560879
 30
0.0
 11
1.394111972304807
 21
-2.074590979560879
 31
0.0
  0
LWPOLYLINE
  5
110
330
B3
100
AcDbEntity
  8
AM_4
100
AcDbPolyline
 90
        9
 70
     0
 43
0.0
 10
1.882942176080337
 20
-1.803958040878242
 10
1.881265150915867
 20
-1.839906214361877
 10
1.874294323079201
 20
-1.875192264270998
 10
1.862498484172046
 20
-1.908412258534586
 10
1.846718989349366
 20
-1.939163235696037
 10
1.818548320717517
 20
-1.978522881936673
 10
1.785676487007699
 20
-2.012189041246583
 10
1.739439136771961
 20
-2.047210856378094
 10
1.68944629666168
 20
-2.074590979560879
  0
LINE
  5
111
330
B3
100
AcDbEntity
  8
AM_4
100
AcDbLine
 10
-1.882942176080337
 20
-1.80395804087824
 30
0.0
 11
-1.871691353216819
 21
-1.430421959121758
 31
0.0
  0
LINE
  5
112
330
B3
100
AcDbEntity
  8
AM_4
100
AcDbLine
 10
0.436909601744953
 20
-2.609379999999998
 30
0.0
 11
0.175230087301581
 21
-2.60938
 31
0.0
  0
LINE
  5
113
330
B3
100
AcDbEntity
  8
AM_4
100
AcDbLine
 10
0.7778950065054266
 20
-2.525645877365273
 30
0.0
 11
0.585302456359431
 21
-2.525645877365273
 31
0.0
  0
LWPOLYLINE
  5
114
330
B3
100
AcDbEntity
  8
AM_4
100
AcDbPolyline
 90
        7
 70
     0
 43
0.0
 10
0.7778950065054266
 20
-2.525645877365273
 10
0.7222756938294121
 20
-2.551799664052306
 10
0.6641986368686437
 20
-2.573353957473393
 10
0.6031248957854336
 20
-2.590296509666183
 10
0.5402395463836694
 20
-2.602042011237626
 10
0.4888828131209332
 20
-2.607524995976644
 10
0.436909601744953
 20
-2.609379999999998
  0
LINE
  5
115
330
B3
100
AcDbEntity
  8
AM_4
100
AcDbLine
 10
-0.175230087301579
 20
-0.6249999999999998
 30
0.0
 11
-0.3979267414117919
 21
-0.6249999999999999
 31
0.0
  0
LINE
  5
116
330
B3
100
AcDbEntity
  8
AM_4
100
AcDbLine
 10
-0.1752300873015814
 20
-2.60938
 30
0.0
 11
-0.4369096017449509
 21
-2.60938
 31
0.0
  0
LINE
  5
117
330
B3
100
AcDbEntity
  8
AM_4
100
AcDbLine
 10
-1.394111972304808
 20
-1.159789020439121
 30
0.0
 11
-0.5853024563594309
 21
-0.7087341226347257
 31
0.0
  0
LINE
  5
118
330
B3
100
AcDbEntity
  8
AM_4
100
AcDbLine
 10
-1.555873875493883
 20
-1.80395804087824
 30
0.0
 11
-1.555873875493883
 21
-1.430421959121758
 31
0.0
  0
LINE
  5
119
330
B3
100
AcDbEntity
  8
AM_4
100
AcDbLine
 10
0.3979267414117915
 20
-0.6249999999999999
 30
0.0
 11
0.1752300873015787
 21
-0.6249999999999998
 31
0.0
  0
LWPOLYLINE
  5
11A
330
B3
100
AcDbEntity
  8
AM_4
100
AcDbPolyline
 90
        7
 70
     0
 43
0.0
 10
0.5853024563594311
 20
-2.525645877365273
 10
0.5352327873478189
 20
-2.550822366897905
 10
0.4830819672347247
 20
-2.571687887991191
 10
0.4292468952507353
 20
-2.588083641430666
 10
0.3741372888001542
 20
-2.599884845632628
 10
0.3181725652641606
 20
-2.607001686307339
 10
0.2617786499812871
 20
-2.609379999999998
  0
LINE
  5
11B
330
B3
100
AcDbEntity
  8
AM_4
100
AcDbLine
 10
1.394111972304807
 20
-2.074590979560879
 30
0.0
 11
0.585302456359431
 21
-2.525645877365273
 31
0.0
  0
LWPOLYLINE
  5
11C
330
B3
100
AcDbEntity
  8
AM_4
100
AcDbPolyline
 90
       13
 70
     0
 43
0.0
 10
1.555873875493883
 20
-1.803958031565016
 10
1.554642770576441
 20
-1.831194201209099
 10
1.55095882359523
 20
-1.858223087227421
 10
1.544850071611203
 20
-1.884838983476894
 10
1.536363005915526
 20
-1.910839326915944
 10
1.525562218202772
 20
-1.936026239231562
 10
1.51252990898913
 20
-1.960208032812752
 10
1.497365262016837
 20
-1.983200669608996
 10
1.480183689406019
 20
-2.004829161770941
 10
1.461115953298761
 20
-2.024928903413593
 10
1.440307170680252
 20
-2.043346923366497
 10
1.417915708950906
 20
-2.059943049376705
 10
1.394111980654817
 20
-2.074590974904266
  0
LINE
  5
11D
330
B3
100
AcDbEntity
  8
AM_4
100
AcDbLine
 10
-1.871691353216819
 20
-1.430421959121758
 30
0.0
 11
-1.555873875493883
 21
-1.430421959121758
 31
0.0
  0
LWPOLYLINE
  5
11E
330
B3
100
AcDbEntity
  8
AM_4
100
AcDbPolyline
 90
       13
 70
     0
 43
0.0
 10
-1.555873875493883
 20
-1.430421972292648
 10
-1.55464277092452
 20
-1.403185802633886
 10
-1.550958824288737
 20
-1.376156916571637
 10
-1.544850072644862
 20
-1.349541020249323
 10
-1.536363007281468
 20
-1.323540676709075
 10
-1.525562219890603
 20
-1.29835376426467
 10
-1.512529910986004
 20
-1.274171970528084
 10
-1.497365264307557
 20
-1.251179333551018
 10
-1.480183691973151
 20
-1.229550841184202
 10
-1.461115956122767
 20
-1.209451099314188
 10
-1.440307173739641
 20
-1.191033079113162
 10
-1.417915712222393
 20
-1.17443695283596
 10
-1.394111984113505
 20
-1.159789027024566
  0
LINE
  5
11F
330
B3
100
AcDbEntity
  8
AM_4
100
AcDbLine
 10
-1.664496538405966
 20
-1.159789020439121
 30
0.0
 11
-1.394111972304808
 21
-1.159789020439121
 31
0.0
  0
LWPOLYLINE
  5
120
330
B3
100
AcDbEntity
  8
AM_4
100
AcDbPolyline
 90
        9
 70
     0
 43
0.0
 10
-1.871691353216819
 20
-1.430421959121758
 10
-1.866792153929149
 20
-1.388903761262186
 10
-1.855477099855018
 20
-1.349723096023888
 10
-1.834929853079279
 20
-1.306872335723997
 10
-1.808696456228841
 20
-1.268964759833703
 10
-1.777784682556353
 20
-1.235405084114631
 10
-1.74337412400115
 20
-1.206338273323635
 10
-1.7063356350068
 20
-1.181628384393542
 10
-1.664496538405966
 20
-1.159789020439121
  0
LINE
  5
121
330
B3
100
AcDbEntity
  8
AM_4
100
AcDbLine
 10
0.5853024563594303
 20
-0.7087341226347255
 30
0.0
 11
1.394111972304808
 21
-1.15978902043912
 31
0.0
  0
LWPOLYLINE
  5
122
330
B3
100
AcDbEntity
  8
AM_4
100
AcDbPolyline
 90
        5
 70
     0
 43
0.0
 10
0.7401349059993704
 20
-0.708734122634726
 10
1.003012470670567
 20
-0.8423725032823162
 10
1.257314525262516
 20
-0.9678561806715187
 10
1.501105677587993
 20
-1.084230148248286
 10
1.664496538405967
 20
-1.159789020439121
  0
LWPOLYLINE
  5
123
330
B3
100
AcDbEntity
  8
AM_4
100
AcDbPolyline
 90
        7
 70
     0
 43
0.0
 10
-0.2617786499812778
 20
-2.609379999999999
 10
-0.3181725652641526
 20
-2.60700168630734
 10
-0.3741372888001477
 20
-2.59988484563263
 10
-0.4292468952507302
 20
-2.588083641430667
 10
-0.4830819672347209
 20
-2.571687887991192
 10
-0.5352327873478165
 20
-2.550822366897906
 10
-0.5853024563594302
 20
-2.525645877365273
  0
LWPOLYLINE
  5
124
330
B3
100
AcDbEntity
  8
AM_4
100
AcDbPolyline
 90
        7
 70
     0
 43
0.0
 10
-0.4369096017449509
 20
-2.60938
 10
-0.5183747057296406
 20
-2.604822065361921
 10
-0.5995979223673794
 20
-2.591105233791464
 10
-0.6452804315055428
 20
-2.579206564071424
 10
-0.6902301321163262
 20
-2.564378460086437
 10
-0.7346218570073086
 20
-2.546482959640319
 10
-0.7778950065054262
 20
-2.525645877365273
  0
LINE
  5
125
330
B3
100
AcDbEntity
  8
AM_4
100
AcDbLine
 10
1.664496538405966
 20
-1.15978902043912
 30
0.0
 11
1.394111972304808
 21
-1.15978902043912
 31
0.0
  0
LWPOLYLINE
  5
126
330
B3
100
AcDbEntity
  8
AM_4
100
AcDbPolyline
 90
       13
 70
     0
 43
0.0
 10
1.394111972304808
 20
-1.15978902043912
 10
1.417915701052838
 20
-1.174436945281447
 10
1.440307163294235
 20
-1.191033070647077
 10
1.461115946481006
 20
-1.209451090000961
 10
1.480183683208415
 20
-1.229550831094714
 10
1.497365256486551
 20
-1.251179322762056
 10
1.512529904168249
 20
-1.274171959121758
 10
1.525562214127988
 20
-1.298353752327789
 10
1.53636300261785
 20
-1.323540664332486
 10
1.544850069115733
 20
-1.34954100752722
 10
1.550958821920956
 20
-1.376156903600842
 10
1.554642769736107
 20
-1.403185789513115
 10
1.555873875493883
 20
-1.430421949808532
  0
LWPOLYLINE
  5
127
330
B3
100
AcDbEntity
  8
AM_4
100
AcDbPolyline
 90
       10
 70
     0
 43
0.0
 10
1.664496538405966
 20
-1.15978902043912
 10
1.704271338860927
 20
-1.180395783337039
 10
1.741864111005871
 20
-1.205213580429477
 10
1.7766253335374
 20
-1.234334112601187
 10
1.808803411948384
 20
-1.269090069781663
 10
1.836242760344345
 20
-1.309122550107779
 10
1.85315538024166
 20
-1.343820035554329
 10
1.865236866548432
 20
-1.381638261014549
 10
1.869667878873754
 20
-1.405705169065488
 10
1.871691353216819
 20
-1.430421959121758
  0
LWPOLYLINE
  5
128
330
B3
100
AcDbEntity
  8
AM_4
100
AcDbPolyline
 90
        7
 70
     0
 43
0.0
 10
0.261778649981279
 20
-0.6249999999999998
 10
0.3181725652641536
 20
-0.6273783136926588
 10
0.3741372888001484
 20
-0.6344951543673696
 10
0.4292468952507306
 20
-0.6462963585693321
 10
0.4830819672347211
 20
-0.662692112008807
 10
0.5352327873478164
 20
-0.6835576331020935
 10
0.5853024563594299
 20
-0.7087341226347255
  0
LINE
  5
129
330
B3
100
AcDbEntity
  8
AM_4
100
AcDbLine
 10
0.7401349059993698
 20
-0.7087341226347257
 30
0.0
 11
0.5853024563594303
 21
-0.7087341226347255
 31
0.0
  0
LWPOLYLINE
  5
12A
330
B3
100
AcDbEntity
  8
AM_4
100
AcDbPolyline
 90
        7
 70
     0
 43
0.0
 10
0.3979267414117915
 20
-0.6249999999999999
 10
0.4441259780742494
 20
-0.6264786383257563
 10
0.490209719139252
 20
-0.6308881476255058
 10
0.5363732425576926
 20
-0.638257521412251
 10
0.5820299690415496
 20
-0.6485082560133902
 10
0.6624816912771245
 20
-0.6740848867203698
 10
0.7401349059993698
 20
-0.7087341226347257
  0
LINE
  5
12B
330
B3
100
AcDbEntity
  8
AM_4
100
AcDbLine
 10
1.871691353216819
 20
-1.430421959121758
 30
0.0
 11
1.555873875493883
 21
-1.430421959121758
 31
0.0
  0
LINE
  5
12C
330
B3
100
AcDbEntity
  8
AM_4
100
AcDbLine
 10
1.555873875493883
 20
-1.430421959121758
 30
0.0
 11
1.555873875493883
 21
-1.803958040878242
 31
0.0
  0
LINE
  5
12D
330
B3
100
AcDbEntity
  8
AM_4
100
AcDbLine
 10
1.882942176080337
 20
-1.803958040878242
 30
0.0
 11
1.555873875493883
 21
-1.803958040878242
 31
0.0
  0
LINE
  5
12E
330
B3
100
AcDbEntity
  8
AM_4
100
AcDbLine
 10
1.871691353216819
 20
-1.430421959121758
 30
0.0
 11
1.882942176080337
 21
-1.803958040878242
 31
0.0
  0
LWPOLYLINE
  5
12F
330
B3
100
AcDbEntity
  8
AM_4
100
AcDbPolyline
 90
       13
 70
     0
 43
0.0
 10
-1.394111972304808
 20
-2.074590979560878
 10
-1.417915701052839
 20
-2.059943054718551
 10
-1.440307163294235
 20
-2.043346929352921
 10
-1.461115946481007
 20
-2.024928909999037
 10
-1.480183683208415
 20
-2.004829168905284
 10
-1.497365256486551
 20
-1.983200677237942
 10
-1.51252990416825
 20
-1.96020804087824
 10
-1.525562214127988
 20
-1.936026247672208
 10
-1.53636300261785
 20
-1.910839335667511
 10
-1.544850069115733
 20
-1.884838992472777
 10
-1.550958821920956
 20
-1.858223096399155
 10
-1.554642769736107
 20
-1.831194210486882
 10
-1.555873875493883
 20
-1.80395804087824
  0
LINE
  5
130
330
B3
100
AcDbEntity
  8
AM_4
100
AcDbLine
 10
-1.882942176080337
 20
-1.80395804087824
 30
0.0
 11
-1.555873875493883
 21
-1.80395804087824
 31
0.0
  0
LWPOLYLINE
  5
131
330
B3
100
AcDbEntity
  8
AM_4
100
AcDbPolyline
 90
       10
 70
     0
 43
0.0
 10
-1.68944629666168
 20
-2.074590979560879
 10
-1.730109018987069
 20
-2.053037347479897
 10
-1.768592991461147
 20
-2.026500842584448
 10
-1.803891979092523
 20
-1.994725877453392
 10
-1.829424508606783
 20
-1.964880747762528
 10
-1.851351487935571
 20
-1.931094165050578
 10
-1.866059093741535
 20
-1.899786073142323
 10
-1.876608612983025
 20
-1.866177729258891
 10
-1.881802464183731
 20
-1.835258769423899
 10
-1.882942176080337
 20
-1.80395804087824
  0
LINE
  5
132
330
B3
100
AcDbEntity
  8
AM_4
100
AcDbLine
 10
-0.7401349059993704
 20
-0.7087341226347259
 30
0.0
 11
-0.5853024563594309
 21
-0.7087341226347257
 31
0.0
  0
LWPOLYLINE
  5
133
330
B3
100
AcDbEntity
  8
AM_4
100
AcDbPolyline
 90
        7
 70
     0
 43
0.0
 10
-0.5853024563594307
 20
-0.7087341226347256
 10
-0.5352327873478173
 20
-0.6835576331020935
 10
-0.483081967234722
 20
-0.662692112008807
 10
-0.4292468952507315
 20
-0.6462963585693321
 10
-0.3741372888001492
 20
-0.6344951543673698
 10
-0.3181725652641544
 20
-0.6273783136926588
 10
-0.2617786499812798
 20
-0.6249999999999998
  0
LWPOLYLINE
  5
134
330
B3
100
AcDbEntity
  8
AM_4
100
AcDbPolyline
 90
        7
 70
     0
 43
0.0
 10
-0.7401349059993704
 20
-0.7087341226347259
 10
-0.6847231016671629
 20
-0.682951120059214
 10
-0.6268179528779286
 20
-0.6615250494669243
 10
-0.5658505387659691
 20
-0.6445333160360686
 10
-0.5029360375561884
 20
-0.6326231216795299
 10
-0.4507970673593474
 20
-0.6269356636237786
 10
-0.3979267414117919
 20
-0.6249999999999999
  0
LINE
  5
135
330
B3
100
AcDbEntity
  8
AM_4
100
AcDbLine
 10
-0.7778950065054262
 20
-2.525645877365273
 30
0.0
 11
-0.5853024563594306
 21
-2.525645877365273
 31
0.0
  0
LINE
  5
136
330
B3
100
AcDbEntity
  8
AM_4
100
AcDbLine
 10
-0.5853024563594306
 20
-2.525645877365273
 30
0.0
 11
-1.394111972304808
 21
-2.074590979560879
 31
0.0
  0
LINE
  5
137
330
B3
100
AcDbEntity
  8
AM_4
100
AcDbLine
 10
-1.68944629666168
 20
-2.074590979560879
 30
0.0
 11
-1.394111972304808
 21
-2.074590979560879
 31
0.0
  0
LWPOLYLINE
  5
138
330
B3
100
AcDbEntity
  8
AM_4
100
AcDbPolyline
 90
        5
 70
     0
 43
0.0
 10
-0.7778950065054262
 20
-2.525645877365274
 10
-1.023691441611064
 20
-2.398813759293732
 10
-1.262565262376399
 20
-2.279002512488034
 10
-1.492698494789452
 20
-2.167123972880378
 10
-1.689446296661679
 20
-2.074590979560879
  0
LINE
  5
139
330
B3
100
AcDbEntity
  8
AM_4
100
AcDbLine
 10
0.7124417799356378
 20
-2.329631779935637
 30
0.0
 11
1.218275443689941
 21
-1.823798116181334
 31
0.0
  0
LINE
  5
13A
330
B3
100
AcDbEntity
  8
AM_4
100
AcDbLine
 10
-0.7124417799356378
 20
-0.904748220064362
 30
0.0
 11
-1.218275443689941
 21
-1.410581883818665
 31
0.0
  0
ARC
  5
13B
330
B3
100
AcDbEntity
  8
AM_4
100
AcDbCircle
 10
-1.011667327508606
 20
-1.617189999999999
 30
0.0
 40
0.2921879999999998
100
AcDbArc
 50
135.0000000000001
 51
225.0
  0
LINE
  5
13C
330
B3
100
AcDbEntity
  8
AM_4
100
AcDbLine
 10
-1.21827544368994
 20
-1.823798116181334
 30
0.0
 11
-0.7124417799356382
 21
-2.329631779935637
 31
0.0
  0
ARC
  5
13D
330
B3
100
AcDbEntity
  8
AM_4
100
AcDbCircle
 10
-0.0000000000000001
 20
-1.617189999999998
 30
0.0
 40
1.007544827586208
100
AcDbArc
 50
225.0000000000001
 51
314.9999999999999
  0
ARC
  5
13E
330
B3
100
AcDbEntity
  8
AM_4
100
AcDbCircle
 10
1.011667327508605
 20
-1.617189999999999
 30
0.0
 40
0.2921880000000004
100
AcDbArc
 50
315.0000000000001
 51
44.99999999999991
  0
LINE
  5
13F
330
B3
100
AcDbEntity
  8
AM_4
100
AcDbLine
 10
1.218275443689941
 20
-1.410581883818665
 30
0.0
 11
0.7124417799356376
 21
-0.9047482200643618
 31
0.0
  0
ARC
  5
140
330
B3
100
AcDbEntity
  8
AM_4
100
AcDbCircle
 10
0.0
 20
-1.61719
 30
0.0
 40
1.007544827586207
100
AcDbArc
 50
45.00000000000002
 51
135.0
  0
LINE
  5
141
330
B3
100
AcDbEntity
  8
AM_4
100
AcDbLine
 10
3.812499999999999
 20
-0.6249999999999999
 30
0.0
 11
1.1744796426569
 21
-0.6249999999999999
 31
0.0
  0
LINE
  5
142
330
B3
100
AcDbEntity
  8
AM_4
100
AcDbLine
 10
1.1744796426569
 20
-0.6249999999999999
 30
0.0
 11
1.212030888952031
 21
-0.1337195592180155
 31
0.0
  0
LWPOLYLINE
  5
143
330
B3
100
AcDbEntity
  8
AM_4
100
AcDbPolyline
 90
       11
 70
     0
 43
0.0
 10
1.074494983811096
 20
0.0000000000000003
 10
1.099834815304261
 20
-0.0020895654494777
 10
1.124631518698747
 20
-0.0084160177391619
 10
1.146938381220436
 20
-0.0184151889823934
 10
1.167529149295225
 20
-0.0324382663169871
 10
1.182123504128563
 20
-0.0465635293583017
 10
1.194534756524167
 20
-0.0632124716965124
 10
1.20280315277078
 20
-0.0790392116839067
 10
1.208699892529219
 20
-0.0962091093593921
 10
1.211888693304265
 20
-0.1147862268042739
 10
1.212030888952031
 20
-0.1337195592180155
  0
LINE
  5
144
330
B3
100
AcDbEntity
  8
AM_4
100
AcDbLine
 10
-1.174479642656899
 20
-0.6249999999999999
 30
0.0
 11
-3.812499999999998
 21
-0.6249999999999999
 31
0.0
  0
LINE
  5
145
330
B3
100
AcDbEntity
  8
AM_4
100
AcDbLine
 10
-1.21203088895203
 20
-0.1337195592180155
 30
0.0
 11
-1.174479642656899
 21
-0.6249999999999999
 31
0.0
  0
LWPOLYLINE
  5
146
330
B3
100
AcDbEntity
  8
AM_4
100
AcDbPolyline
 90
       12
 70
     0
 43
0.0
 10
-1.21203088895203
 20
-0.1337195592180155
 10
-1.212044773748862
 20
-0.1164646374726185
 10
-1.209368579357006
 20
-0.0989364433440845
 10
-1.204321792097666
 20
-0.0826982912195007
 10
-1.196905276068867
 20
-0.067194412815074
 10
-1.187304763176805
 20
-0.0528137021915056
 10
-1.175796130769704
 20
-0.0398825173723483
 10
-1.157409547456045
 20
-0.0248502935316413
 10
-1.136548566283539
 20
-0.0131814647307208
 10
-1.11464672041987
 20
-0.0053192221534964
 10
-1.091562769299221
 20
-0.0009400618786356
 10
-1.074494983811095
 20
0.0000000000000003
  0
LINE
  5
147
330
B3
100
AcDbEntity
  8
AM_4
100
AcDbLine
 10
0.9164620260754368
 20
-1.53284258977301
 30
0.0
 11
0.9164620260754368
 21
-1.701537410226989
 31
0.0
  0
LINE
  5
148
330
B3
100
AcDbEntity
  8
AM_4
100
AcDbLine
 10
1.208650026075437
 20
-1.53284258977301
 30
0.0
 11
1.062556026075437
 21
-1.448495179546021
 31
0.0
  0
LINE
  5
149
330
B3
100
AcDbEntity
  8
AM_4
100
AcDbLine
 10
1.062556026075437
 20
-1.448495179546021
 30
0.0
 11
0.9164620260754368
 21
-1.53284258977301
 31
0.0
  0
LINE
  5
14A
330
B3
100
AcDbEntity
  8
AM_4
100
AcDbLine
 10
0.9164620260754368
 20
-1.701537410226989
 30
0.0
 11
1.062556026075437
 21
-1.785884820453978
 31
0.0
  0
LINE
  5
14B
330
B3
100
AcDbEntity
  8
AM_4
100
AcDbLine
 10
1.062556026075437
 20
-1.785884820453978
 30
0.0
 11
1.208650026075437
 21
-1.701537410226989
 31
0.0
  0
LINE
  5
14C
330
B3
100
AcDbEntity
  8
AM_4
100
AcDbLine
 10
1.208650026075437
 20
-1.701537410226989
 30
0.0
 11
1.208650026075437
 21
-1.53284258977301
 31
0.0
  0
LINE
  5
14D
330
B3
100
AcDbEntity
  8
AM_4
100
AcDbLine
 10
-1.062556026075437
 20
-1.448495179546021
 30
0.0
 11
-1.208650026075437
 21
-1.532842589773011
 31
0.0
  0
LINE
  5
14E
330
B3
100
AcDbEntity
  8
AM_4
100
AcDbLine
 10
-1.208650026075437
 20
-1.532842589773011
 30
0.0
 11
-1.208650026075437
 21
-1.701537410226989
 31
0.0
  0
LINE
  5
14F
330
B3
100
AcDbEntity
  8
AM_4
100
AcDbLine
 10
-1.208650026075437
 20
-1.701537410226989
 30
0.0
 11
-1.062556026075437
 21
-1.785884820453978
 31
0.0
  0
LINE
  5
150
330
B3
100
AcDbEntity
  8
AM_4
100
AcDbLine
 10
-1.062556026075437
 20
-1.785884820453978
 30
0.0
 11
-0.9164620260754368
 21
-1.701537410226989
 31
0.0
  0
LINE
  5
151
330
B3
100
AcDbEntity
  8
AM_4
100
AcDbLine
 10
-0.9164620260754368
 20
-1.701537410226989
 30
0.0
 11
-0.9164620260754368
 21
-1.532842589773011
 31
0.0
  0
LINE
  5
152
330
B3
100
AcDbEntity
  8
AM_4
100
AcDbLine
 10
-0.9164620260754368
 20
-1.532842589773011
 30
0.0
 11
-1.062556026075437
 21
-1.448495179546021
 31
0.0
  0
LINE
  5
153
330
B3
100
AcDbEntity
  8
AM_4
100
AcDbLine
 10
2.59375
 20
-0.6249999999999998
 30
0.0
 11
2.59375
 21
0.0000000000000002
 31
0.0
  0
LINE
  5
154
330
B3
100
AcDbEntity
  8
AM_4
100
AcDbLine
 10
3.812499999999999
 20
-0.6249999999999999
 30
0.0
 11
3.812499999999999
 21
0.0000000000000002
 31
0.0
  0
LINE
  5
155
330
B3
100
AcDbEntity
  8
AM_4
100
AcDbLine
 10
3.812499999999999
 20
0.0000000000000002
 30
0.0
 11
-3.812499999999998
 21
0.0000000000000002
 31
0.0
  0
LINE
  5
156
330
B3
100
AcDbEntity
  8
AM_4
100
AcDbLine
 10
-2.59375
 20
-0.6249999999999998
 30
0.0
 11
-2.59375
 21
0.0000000000000002
 31
0.0
  0
LINE
  5
157
330
B3
100
AcDbEntity
  8
AM_4
100
AcDbLine
 10
-3.812499999999998
 20
0.0000000000000002
 30
0.0
 11
-3.812499999999998
 21
-0.6249999999999999
 31
0.0
  0
ENDBLK
  5
B6
330
B3
100
AcDbEntity
  8
0
100
AcDbBlockEnd
  0
ENDSEC
  0
SECTION
  2
ENTITIES
  0
INSERT
  5
6F
330
1F
100
AcDbEntity
  8
0
100
AcDbBlockReference
  2
1_033323_4
 10
0.0
 20
0.0
 30
0.0
  0
POINT
  5
159
330
1F
100
AcDbEntity
  8
ConnectionPoints
100
AcDbPoint
 10
0.0
 20
-1.5625
 30
0.0000000000000001
  0
POINT
  5
15A
330
1F
100
AcDbEntity
  8
ConnectionPoints
100
AcDbPoint
 10
0.0
 20
-1.5625
 30
0.0000000000000001
  0
ENDSEC
  0
SECTION
  2
OBJECTS
  0
DICTIONARY
  5
C
330
0
100
AcDbDictionary
281
     1
  3
ACAD_DETAILVIEWSTYLE
350
162
  3
ACAD_GROUP
350
D
  3
ACAD_LAYOUT
350
1A
  3
ACAD_MATERIAL
350
43
  3
ACAD_MLEADERSTYLE
350
6B
  3
ACAD_MLINESTYLE
350
17
  3
ACAD_PLOTSETTINGS
350
19
  3
ACAD_PLOTSTYLENAME
350
E
  3
ACAD_SCALELIST
350
47
  3
ACAD_SECTIONVIEWSTYLE
350
163
  3
ACAD_TABLESTYLE
350
69
  3
ACAD_VISUALSTYLE
350
2A
  3
ACDB_RECOMPOSE_DATA
350
15F
  3
AcDbVariableDictionary
350
15B
  0
SUN
  5
6D
330
29
100
AcDbSun
 90
        1
290
     0
 63
     7
421
 16777215
 40
1.0
291
     1
 91
  2455826
 92
 54000000
292
     0
 70
     2
 71
   256
280
     1
  0
DICTIONARY
  5
162
102
{ACAD_REACTORS
330
C
102
}
330
C
100
AcDbDictionary
281
     1
  0
DICTIONARY
  5
D
102
{ACAD_REACTORS
330
C
102
}
330
C
100
AcDbDictionary
281
     1
  0
DICTIONARY
  5
1A
102
{ACAD_REACTORS
330
C
102
}
330
C
100
AcDbDictionary
281
     1
  3
Layout1
350
1E
  3
Layout2
350
26
  3
Model
350
22
  0
DICTIONARY
  5
43
102
{ACAD_REACTORS
330
C
102
}
330
C
100
AcDbDictionary
281
     1
  3
ByBlock
350
45
  3
ByLayer
350
44
  3
Global
350
46
  0
DICTIONARY
  5
6B
102
{ACAD_REACTORS
330
C
102
}
330
C
100
AcDbDictionary
281
     1
  3
Standard
350
6C
  0
DICTIONARY
  5
17
102
{ACAD_REACTORS
330
C
102
}
330
C
100
AcDbDictionary
281
     1
  3
Standard
350
18
  0
DICTIONARY
  5
19
102
{ACAD_REACTORS
330
C
102
}
330
C
100
AcDbDictionary
281
     1
  0
ACDBDICTIONARYWDFLT
  5
E
102
{ACAD_REACTORS
330
C
102
}
330
C
100
AcDbDictionary
281
     1
  3
Normal
350
F
100
AcDbDictionaryWithDefault
340
F
  0
DICTIONARY
  5
47
102
{ACAD_REACTORS
330
C
102
}
330
C
100
AcDbDictionary
281
     1
  3
A0
350
48
  3
A1
350
49
  3
A2
350
4A
  3
A3
350
4B
  3
A4
350
4C
  3
A5
350
4D
  3
A6
350
4E
  3
A7
350
4F
  3
A8
350
50
  3
A9
350
51
  3
B0
350
52
  3
B1
350
53
  3
B2
350
54
  3
B3
350
55
  3
B4
350
56
  3
B5
350
57
  3
B6
350
58
  3
B7
350
59
  3
B8
350
5A
  3
B9
350
5B
  3
C0
350
5C
  3
C1
350
5D
  3
C2
350
5E
  3
C3
350
5F
  3
C4
350
60
  3
C5
350
61
  3
C6
350
62
  3
C7
350
63
  3
C8
350
64
  3
C9
350
65
  3
D0
350
66
  3
D1
350
67
  3
D2
350
68
  0
DICTIONARY
  5
163
102
{ACAD_REACTORS
330
C
102
}
330
C
100
AcDbDictionary
281
     1
  0
DICTIONARY
  5
69
102
{ACAD_REACTORS
330
C
102
}
330
C
100
AcDbDictionary
281
     1
  3
Standard
350
6A
  0
DICTIONARY
  5
2A
102
{ACAD_REACTORS
330
C
102
}
330
C
100
AcDbDictionary
281
     1
  3
2dWireframe
350
2F
  3
Basic
350
32
  3
Brighten
350
36
  3
ColorChange
350
3A
  3
Conceptual
350
34
  3
Dim
350
35
  3
EdgeColorOff
350
3D
  3
Facepattern
350
39
  3
Flat
350
2B
  3
FlatWithEdges
350
2C
  3
Gouraud
350
2D
  3
GouraudWithEdges
350
2E
  3
Hidden
350
31
  3
JitterOff
350
3B
  3
Linepattern
350
38
  3
OverhangOff
350
3C
  3
Realistic
350
33
  3
Shaded
350
42
  3
Shaded with edges
350
41
  3
Shades of Gray
350
3E
  3
Sketchy
350
3F
  3
Thicken
350
37
  3
Wireframe
350
30
  3
X-Ray
350
40
  0
XRECORD
  5
15F
102
{ACAD_REACTORS
330
C
102
}
330
C
100
AcDbXrecord
280
     1
 90
        1
330
6A
  0
DICTIONARY
  5
15B
102
{ACAD_REACTORS
330
C
102
}
330
C
100
AcDbDictionary
281
     1
  3
CANNOSCALE
350
15C
  3
CMLEADERSTYLE
350
161
  3
CTABLESTYLE
350
160
  0
LAYOUT
  5
1E
102
{ACAD_REACTORS
330
1A
102
}
330
1A
100
AcDbPlotSettings
  1

  2
none_device
  4

  6

 40
0.0
 41
0.0
 42
0.0
 43
0.0
 44
0.0
 45
0.0
 46
0.0
 47
0.0
 48
0.0
 49
0.0
140
0.0
141
0.0
142
1.0
143
1.0
 70
   688
 72
     0
 73
     0
 74
     5
  7

 75
    16
 76
     0
 77
     2
 78
   300
147
1.0
148
0.0
149
0.0
100
AcDbLayout
  1
Layout1
 70
     1
 71
     1
 10
0.0
 20
0.0
 11
12.0
 21
9.0
 12
0.0
 22
0.0
 32
0.0
 14
1.000000000000000E+20
 24
1.000000000000000E+20
 34
1.000000000000000E+20
 15
-1.000000000000000E+20
 25
-1.000000000000000E+20
 35
-1.000000000000000E+20
146
0.0
 13
0.0
 23
0.0
 33
0.0
 16
1.0
 26
0.0
 36
0.0
 17
0.0
 27
1.0
 37
0.0
 76
     0
330
1B
  0
LAYOUT
  5
26
102
{ACAD_REACTORS
330
1A
102
}
330
1A
100
AcDbPlotSettings
  1

  2
none_device
  4

  6

 40
0.0
 41
0.0
 42
0.0
 43
0.0
 44
0.0
 45
0.0
 46
0.0
 47
0.0
 48
0.0
 49
0.0
140
0.0
141
0.0
142
1.0
143
1.0
 70
   688
 72
     0
 73
     0
 74
     5
  7

 75
    16
 76
     0
 77
     2
 78
   300
147
1.0
148
0.0
149
0.0
100
AcDbLayout
  1
Layout2
 70
     1
 71
     2
 10
0.0
 20
0.0
 11
0.0
 21
0.0
 12
0.0
 22
0.0
 32
0.0
 14
0.0
 24
0.0
 34
0.0
 15
0.0
 25
0.0
 35
0.0
146
0.0
 13
0.0
 23
0.0
 33
0.0
 16
1.0
 26
0.0
 36
0.0
 17
0.0
 27
1.0
 37
0.0
 76
     0
330
23
  0
LAYOUT
  5
22
102
{ACAD_REACTORS
330
1A
102
}
330
1A
100
AcDbPlotSettings
  1

  2
none_device
  4
Letter_(8.50_x_11.00_Inches)
  6

 40
6.35
 41
6.35
 42
6.35000508
 43
6.35000508
 44
215.9
 45
279.4
 46
0.0
 47
0.0
 48
0.0
 49
0.0
140
0.0
141
0.0
142
1.0
143
1.0
 70
  1712
 72
     0
 73
     0
 74
     0
  7

 75
     0
 76
     0
 77
     2
 78
   300
147
1.0
148
0.0
149
0.0
100
AcDbLayout
  1
Model
 70
     1
 71
     0
 10
0.0
 20
0.0
 11
12.0
 21
9.0
 12
0.0
 22
0.0
 32
0.0
 14
1.000000000000000E+20
 24
1.000000000000000E+20
 34
1.000000000000000E+20
 15
-1.000000000000000E+20
 25
-1.000000000000000E+20
 35
-1.000000000000000E+20
146
0.0
 13
0.0
 23
0.0
 33
0.0
 16
1.0
 26
0.0
 36
0.0
 17
0.0
 27
1.0
 37
0.0
 76
     0
330
1F
331
29
  0
MATERIAL
  5
45
102
{ACAD_REACTORS
330
43
102
}
330
43
100
AcDbMaterial
  1
ByBlock
 72
     1
 94
      127
  0
MATERIAL
  5
44
102
{ACAD_REACTORS
330
43
102
}
330
43
100
AcDbMaterial
  1
ByLayer
 72
     1
 94
      127
  0
MATERIAL
  5
46
102
{ACAD_REACTORS
330
43
102
}
330
43
100
AcDbMaterial
  1
Global
 72
     1
 94
      127
  0
MLEADERSTYLE
  5
6C
102
{ACAD_REACTORS
330
6B
102
}
330
6B
100
AcDbMLeaderStyle
179
     2
170
     2
171
     1
172
     0
 90
        2
 40
0.0
 41
0.0
173
     1
 91
-1056964608
340
14
 92
       -2
290
     1
 42
0.09
291
     1
 43
0.36
  3
Standard
341
0
 44
0.18
300

342
11
174
     1
178
     6
175
     1
176
     0
 93
-1056964608
 45
0.18
292
     0
297
     0
 46
0.18
343
0
 94
-1056964608
 47
1.0
 49
1.0
140
1.0
293
     1
141
0.0
294
     1
177
     0
142
1.0
295
     0
296
     0
143
0.125
271
     0
272
     9
273
     9
298
     0
  0
MLINESTYLE
  5
18
102
{ACAD_REACTORS
330
17
102
}
330
17
100
AcDbMlineStyle
  2
Standard
 70
     0
  3

 62
   256
 51
90.0
 52
90.0
 71
     2
 49
0.5
 62
   256
  6
BYLAYER
 49
-0.5
 62
   256
  6
BYLAYER
  0
ACDBPLACEHOLDER
  5
F
102
{ACAD_REACTORS
330
E
102
}
330
E
  0
SCALE
  5
48
102
{ACAD_REACTORS
330
47
102
}
330
47
100
AcDbScale
 70
     0
300
1:1
140
1.0
141
1.0
290
     1
  0
SCALE
  5
49
102
{ACAD_REACTORS
330
47
102
}
330
47
100
AcDbScale
 70
     0
300
1:2
140
1.0
141
2.0
290
     0
  0
SCALE
  5
4A
102
{ACAD_REACTORS
330
47
102
}
330
47
100
AcDbScale
 70
     0
300
1:4
140
1.0
141
4.0
290
     0
  0
SCALE
  5
4B
102
{ACAD_REACTORS
330
47
102
}
330
47
100
AcDbScale
 70
     0
300
1:5
140
1.0
141
5.0
290
     0
  0
SCALE
  5
4C
102
{ACAD_REACTORS
330
47
102
}
330
47
100
AcDbScale
 70
     0
300
1:8
140
1.0
141
8.0
290
     0
  0
SCALE
  5
4D
102
{ACAD_REACTORS
330
47
102
}
330
47
100
AcDbScale
 70
     0
300
1:10
140
1.0
141
10.0
290
     0
  0
SCALE
  5
4E
102
{ACAD_REACTORS
330
47
102
}
330
47
100
AcDbScale
 70
     0
300
1:16
140
1.0
141
16.0
290
     0
  0
SCALE
  5
4F
102
{ACAD_REACTORS
330
47
102
}
330
47
100
AcDbScale
 70
     0
300
1:20
140
1.0
141
20.0
290
     0
  0
SCALE
  5
50
102
{ACAD_REACTORS
330
47
102
}
330
47
100
AcDbScale
 70
     0
300
1:30
140
1.0
141
30.0
290
     0
  0
SCALE
  5
51
102
{ACAD_REACTORS
330
47
102
}
330
47
100
AcDbScale
 70
     0
300
1:40
140
1.0
141
40.0
290
     0
  0
SCALE
  5
52
102
{ACAD_REACTORS
330
47
102
}
330
47
100
AcDbScale
 70
     0
300
1:50
140
1.0
141
50.0
290
     0
  0
SCALE
  5
53
102
{ACAD_REACTORS
330
47
102
}
330
47
100
AcDbScale
 70
     0
300
1:100
140
1.0
141
100.0
290
     0
  0
SCALE
  5
54
102
{ACAD_REACTORS
330
47
102
}
330
47
100
AcDbScale
 70
     0
300
2:1
140
2.0
141
1.0
290
     0
  0
SCALE
  5
55
102
{ACAD_REACTORS
330
47
102
}
330
47
100
AcDbScale
 70
     0
300
4:1
140
4.0
141
1.0
290
     0
  0
SCALE
  5
56
102
{ACAD_REACTORS
330
47
102
}
330
47
100
AcDbScale
 70
     0
300
8:1
140
8.0
141
1.0
290
     0
  0
SCALE
  5
57
102
{ACAD_REACTORS
330
47
102
}
330
47
100
AcDbScale
 70
     0
300
10:1
140
10.0
141
1.0
290
     0
  0
SCALE
  5
58
102
{ACAD_REACTORS
330
47
102
}
330
47
100
AcDbScale
 70
     0
300
100:1
140
100.0
141
1.0
290
     0
  0
SCALE
  5
59
102
{ACAD_REACTORS
330
47
102
}
330
47
100
AcDbScale
 70
     0
300
1/128" = 1'-0"
140
0.0078125
141
12.0
290
     0
  0
SCALE
  5
5A
102
{ACAD_REACTORS
330
47
102
}
330
47
100
AcDbScale
 70
     0
300
1/64" = 1'-0"
140
0.015625
141
12.0
290
     0
  0
SCALE
  5
5B
102
{ACAD_REACTORS
330
47
102
}
330
47
100
AcDbScale
 70
     0
300
1/32" = 1'-0"
140
0.03125
141
12.0
290
     0
  0
SCALE
  5
5C
102
{ACAD_REACTORS
330
47
102
}
330
47
100
AcDbScale
 70
     0
300
1/16" = 1'-0"
140
0.0625
141
12.0
290
     0
  0
SCALE
  5
5D
102
{ACAD_REACTORS
330
47
102
}
330
47
100
AcDbScale
 70
     0
300
3/32" = 1'-0"
140
0.09375
141
12.0
290
     0
  0
SCALE
  5
5E
102
{ACAD_REACTORS
330
47
102
}
330
47
100
AcDbScale
 70
     0
300
1/8" = 1'-0"
140
0.125
141
12.0
290
     0
  0
SCALE
  5
5F
102
{ACAD_REACTORS
330
47
102
}
330
47
100
AcDbScale
 70
     0
300
3/16" = 1'-0"
140
0.1875
141
12.0
290
     0
  0
SCALE
  5
60
102
{ACAD_REACTORS
330
47
102
}
330
47
100
AcDbScale
 70
     0
300
1/4" = 1'-0"
140
0.25
141
12.0
290
     0
  0
SCALE
  5
61
102
{ACAD_REACTORS
330
47
102
}
330
47
100
AcDbScale
 70
     0
300
3/8" = 1'-0"
140
0.375
141
12.0
290
     0
  0
SCALE
  5
62
102
{ACAD_REACTORS
330
47
102
}
330
47
100
AcDbScale
 70
     0
300
1/2" = 1'-0"
140
0.5
141
12.0
290
     0
  0
SCALE
  5
63
102
{ACAD_REACTORS
330
47
102
}
330
47
100
AcDbScale
 70
     0
300
3/4" = 1'-0"
140
0.75
141
12.0
290
     0
  0
SCALE
  5
64
102
{ACAD_REACTORS
330
47
102
}
330
47
100
AcDbScale
 70
     0
300
1" = 1'-0"
140
1.0
141
12.0
290
     0
  0
SCALE
  5
65
102
{ACAD_REACTORS
330
47
102
}
330
47
100
AcDbScale
 70
     0
300
1-1/2" = 1'-0"
140
1.5
141
12.0
290
     0
  0
SCALE
  5
66
102
{ACAD_REACTORS
330
47
102
}
330
47
100
AcDbScale
 70
     0
300
3" = 1'-0"
140
3.0
141
12.0
290
     0
  0
SCALE
  5
67
102
{ACAD_REACTORS
330
47
102
}
330
47
100
AcDbScale
 70
     0
300
6" = 1'-0"
140
6.0
141
12.0
290
     0
  0
SCALE
  5
68
102
{ACAD_REACTORS
330
47
102
}
330
47
100
AcDbScale
 70
     0
300
1'-0" = 1'-0"
140
12.0
141
12.0
290
     0
  0
TABLESTYLE
  5
6A
102
{ACAD_REACTORS
330
69
102
}
102
{ACAD_XDICTIONARY
360
15D
102
}
330
69
100
AcDbTableStyle
  3
Standard
 70
     0
 71
     0
 40
0.06
 41
0.06
280
     0
281
     0
  7
Standard
140
0.18
170
     2
 62
     0
 63
   257
283
     0
 90
        4
 91
        0
  1

274
    -2
284
     1
 64
     0
275
    -2
285
     1
 65
     0
276
    -2
286
     1
 66
     0
277
    -2
287
     1
 67
     0
278
    -2
288
     1
 68
     0
279
    -2
289
     1
 69
     0
  7
Standard
140
0.25
170
     5
 62
     0
 63
   257
283
     0
 90
        4
 91
        0
  1

274
    -2
284
     1
 64
     0
275
    -2
285
     1
 65
     0
276
    -2
286
     1
 66
     0
277
    -2
287
     1
 67
     0
278
    -2
288
     1
 68
     0
279
    -2
289
     1
 69
     0
  7
Standard
140
0.18
170
     5
 62
     0
 63
   257
283
     0
 90
        4
 91
        0
  1

274
    -2
284
     1
 64
     0
275
    -2
285
     1
 65
     0
276
    -2
286
     1
 66
     0
277
    -2
287
     1
 67
     0
278
    -2
288
     1
 68
     0
279
    -2
289
     1
 69
     0
  0
VISUALSTYLE
  5
2F
102
{ACAD_REACTORS
330
2A
102
}
330
2A
100
AcDbVisualStyle
  2
2dWireframe
 70
     4
177
     3
291
     0
 70
    58
 90
        0
176
     1
 90
        2
176
     1
 90
        0
176
     1
 90
        0
176
     1
 40
0.6
176
     1
 40
30.0
176
     1
 62
     7
420
 16777215
176
     1
 90
        1
176
     1
 90
        4
176
     1
 62
     7
176
     1
 62
   257
176
     1
 90
        1
176
     1
 90
        1
176
     1
 40
1.0
176
     1
 90
        0
176
     1
 62
   257
176
     1
 40
1.0
176
     1
 90
        1
176
     1
 90
        6
176
     1
 90
        2
176
     1
 62
     7
176
     1
 90
        5
176
     1
 90
        0
176
     1
 90
        0
176
     1
290
     0
176
     1
 90
        1
176
     1
 40
0.0
176
     1
 90
        0
176
     1
290
     1
176
     1
290
     1
176
     1
290
     0
176
     1
290
     0
176
     1
290
     0
176
     1
290
     0
176
     1
290
     0
176
     1
290
     0
176
     1
290
     0
176
     1
 90
       50
176
     1
 40
0.0
176
     1
 40
1.0
176
     1
 90
        0
176
     1
 62
    18
420
        0
176
     1
 90
       50
176
     1
 90
        3
176
     1
 62
     5
420
      255
176
     1
290
     0
176
     1
 90
       50
176
     1
 90
       50
176
     1
 90
       50
176
     1
290
     0
176
     1
 90
       50
176
     1
 62
   256
176
     0
 40
1.0
176
     0
 90
        2
176
     1
  1
strokes_ogs.tif
176
     1
290
     0
176
     1
 40
1.0
176
     1
 40
1.0
176
     1
  0
VISUALSTYLE
  5
32
102
{ACAD_REACTORS
330
2A
102
}
330
2A
100
AcDbVisualStyle
  2
Basic
 70
     7
177
     3
291
     1
 70
    58
 90
        1
176
     1
 90
        0
176
     1
 90
        1
176
     1
 90
        0
176
     1
 40
0.6
176
     1
 40
30.0
176
     1
 62
     7
420
 16777215
176
     1
 90
        0
176
     1
 90
        4
176
     1
 62
     7
176
     1
 62
   257
176
     1
 90
        1
176
     1
 90
        1
176
     1
 40
1.0
176
     1
 90
        8
176
     1
 62
     7
176
     1
 40
1.0
176
     1
 90
        1
176
     1
 90
        6
176
     1
 90
        2
176
     1
 62
     7
176
     1
 90
        5
176
     1
 90
        0
176
     1
 90
        0
176
     1
290
     0
176
     1
 90
        1
176
     1
 40
0.0
176
     1
 90
        0
176
     1
290
     0
176
     1
290
     1
176
     1
290
     1
176
     1
290
     0
176
     1
290
     0
176
     1
290
     0
176
     1
290
     0
176
     1
290
     0
176
     1
290
     0
176
     1
 90
       50
176
     1
 40
0.0
176
     1
 40
1.0
176
     1
 90
        0
176
     1
 62
    18
420
        0
176
     1
 90
       50
176
     1
 90
        3
176
     1
 62
     5
420
      255
176
     1
290
     0
176
     1
 90
       50
176
     1
 90
       50
176
     1
 90
       50
176
     1
290
     0
176
     1
 90
       50
176
     1
 62
   256
176
     0
 40
1.0
176
     0
 90
        2
176
     1
  1
strokes_ogs.tif
176
     1
290
     0
176
     1
 40
1.0
176
     1
 40
1.0
176
     1
  0
VISUALSTYLE
  5
36
102
{ACAD_REACTORS
330
2A
102
}
330
2A
100
AcDbVisualStyle
  2
Brighten
 70
    12
177
     3
291
     1
 70
    58
 90
        2
176
     1
 90
        2
176
     1
 90
        0
176
     1
 90
        0
176
     1
 40
0.6
176
     1
 40
30.0
176
     1
 62
     7
420
 16777215
176
     1
 90
        1
176
     1
 90
        4
176
     1
 62
     7
176
     1
 62
   257
176
     1
 90
        1
176
     1
 90
        1
176
     1
 40
1.0
176
     1
 90
        8
176
     1
 62
     7
176
     1
 40
1.0
176
     1
 90
        1
176
     1
 90
        6
176
     1
 90
        2
176
     1
 62
     7
176
     1
 90
        5
176
     1
 90
        0
176
     1
 90
        0
176
     1
290
     0
176
     1
 90
        1
176
     1
 40
50.0
176
     1
 90
        0
176
     1
290
     0
176
     1
290
     1
176
     1
290
     1
176
     1
290
     0
176
     1
290
     0
176
     1
290
     0
176
     1
290
     0
176
     1
290
     0
176
     1
290
     0
176
     1
 90
       50
176
     1
 40
0.0
176
     1
 40
1.0
176
     1
 90
        0
176
     1
 62
    18
420
        0
176
     1
 90
       50
176
     1
 90
        3
176
     1
 62
     5
420
      255
176
     1
290
     0
176
     1
 90
       50
176
     1
 90
       50
176
     1
 90
       50
176
     1
290
     0
176
     1
 90
       50
176
     1
 62
   256
176
     0
 40
1.0
176
     0
 90
        2
176
     1
  1
strokes_ogs.tif
176
     1
290
     0
176
     1
 40
1.0
176
     1
 40
1.0
176
     1
  0
VISUALSTYLE
  5
3A
102
{ACAD_REACTORS
330
2A
102
}
330
2A
100
AcDbVisualStyle
  2
ColorChange
 70
    16
177
     3
291
     1
 70
    58
 90
        2
176
     1
 90
        2
176
     1
 90
        3
176
     1
 90
        0
176
     1
 40
0.6
176
     1
 40
30.0
176
     1
 62
     8
420
  8421504
176
     1
 90
        1
176
     1
 90
        4
176
     1
 62
     7
176
     1
 62
   257
176
     1
 90
        1
176
     1
 90
        1
176
     1
 40
1.0
176
     1
 90
        8
176
     1
 62
     8
420
  8421504
176
     1
 40
1.0
176
     1
 90
        1
176
     1
 90
        6
176
     1
 90
        2
176
     1
 62
     7
176
     1
 90
        5
176
     1
 90
        0
176
     1
 90
        0
176
     1
290
     0
176
     1
 90
        1
176
     1
 40
0.0
176
     1
 90
        0
176
     1
290
     0
176
     1
290
     1
176
     1
290
     1
176
     1
290
     0
176
     1
290
     0
176
     1
290
     0
176
     1
290
     0
176
     1
290
     0
176
     1
290
     0
176
     1
 90
       50
176
     1
 40
0.0
176
     1
 40
1.0
176
     1
 90
        0
176
     1
 62
    18
420
        0
176
     1
 90
       50
176
     1
 90
        3
176
     1
 62
     5
420
      255
176
     1
290
     0
176
     1
 90
       50
176
     1
 90
       50
176
     1
 90
       50
176
     1
290
     0
176
     1
 90
       50
176
     1
 62
   256
176
     0
 40
1.0
176
     0
 90
        2
176
     1
  1
strokes_ogs.tif
176
     1
290
     0
176
     1
 40
1.0
176
     1
 40
1.0
176
     1
  0
VISUALSTYLE
  5
34
102
{ACAD_REACTORS
330
2A
102
}
330
2A
100
AcDbVisualStyle
  2
Conceptual
 70
     9
177
     3
291
     0
 70
    58
 90
        3
176
     1
 90
        2
176
     1
 90
        0
176
     1
 90
        0
176
     1
 40
0.6
176
     1
 40
30.0
176
     1
 62
     7
420
 16777215
176
     1
 90
        2
176
     1
 90
        2
176
     1
 62
     7
176
     1
 62
   257
176
     1
 90
        1
176
     1
 90
        1
176
     1
 40
179.0
176
     1
 90
        8
176
     1
 62
     7
176
     1
 40
1.0
176
     1
 90
        1
176
     1
 90
        6
176
     1
 90
        2
176
     1
 62
     7
176
     1
 90
        3
176
     1
 90
        0
176
     1
 90
        0
176
     1
290
     0
176
     1
 90
        1
176
     1
 40
0.0
176
     1
 90
        0
176
     1
290
     0
176
     1
290
     1
176
     1
290
     1
176
     1
290
     0
176
     1
290
     0
176
     1
290
     0
176
     1
290
     0
176
     1
290
     0
176
     1
290
     0
176
     1
 90
       50
176
     1
 40
0.0
176
     1
 40
1.0
176
     1
 90
        0
176
     1
 62
    18
420
        0
176
     1
 90
       50
176
     1
 90
        3
176
     1
 62
     5
420
      255
176
     1
290
     0
176
     1
 90
       50
176
     1
 90
       50
176
     1
 90
       50
176
     1
290
     0
176
     1
 90
       50
176
     1
 62
   256
176
     0
 40
1.0
176
     0
 90
        2
176
     1
  1
strokes_ogs.tif
176
     1
290
     0
176
     1
 40
1.0
176
     1
 40
1.0
176
     1
  0
VISUALSTYLE
  5
35
102
{ACAD_REACTORS
330
2A
102
}
330
2A
100
AcDbVisualStyle
  2
Dim
 70
    11
177
     3
291
     1
 70
    58
 90
        2
176
     1
 90
        2
176
     1
 90
        0
176
     1
 90
        0
176
     1
 40
0.6
176
     1
 40
30.0
176
     1
 62
     7
420
 16777215
176
     1
 90
        1
176
     1
 90
        4
176
     1
 62
     7
176
     1
 62
   257
176
     1
 90
        1
176
     1
 90
        1
176
     1
 40
1.0
176
     1
 90
        8
176
     1
 62
     7
176
     1
 40
1.0
176
     1
 90
        1
176
     1
 90
        6
176
     1
 90
        2
176
     1
 62
     7
176
     1
 90
        5
176
     1
 90
        0
176
     1
 90
        0
176
     1
290
     0
176
     1
 90
        1
176
     1
 40
-50.0
176
     1
 90
        0
176
     1
290
     0
176
     1
290
     1
176
     1
290
     1
176
     1
290
     0
176
     1
290
     0
176
     1
290
     0
176
     1
290
     0
176
     1
290
     0
176
     1
290
     0
176
     1
 90
       50
176
     1
 40
0.0
176
     1
 40
1.0
176
     1
 90
        0
176
     1
 62
    18
420
        0
176
     1
 90
       50
176
     1
 90
        3
176
     1
 62
     5
420
      255
176
     1
290
     0
176
     1
 90
       50
176
     1
 90
       50
176
     1
 90
       50
176
     1
290
     0
176
     1
 90
       50
176
     1
 62
   256
176
     0
 40
1.0
176
     0
 90
        2
176
     1
  1
strokes_ogs.tif
176
     1
290
     0
176
     1
 40
1.0
176
     1
 40
1.0
176
     1
  0
VISUALSTYLE
  5
3D
102
{ACAD_REACTORS
330
2A
102
}
330
2A
100
AcDbVisualStyle
  2
EdgeColorOff
 70
    22
177
     3
291
     1
 70
    58
 90
        2
176
     0
 90
        2
176
     0
 90
        0
176
     0
 90
        0
176
     0
 40
0.6
176
     0
 40
30.0
176
     0
 62
     7
420
 16777215
176
     0
 90
        1
176
     0
 90
        4
176
     0
 62
     7
176
     0
 62
   257
176
     0
 90
        1
176
     0
 90
        1
176
     0
 40
1.0
176
     0
 90
        8
176
     2
 62
     7
176
     0
 40
1.0
176
     0
 90
        1
176
     0
 90
        6
176
     0
 90
        2
176
     0
 62
     7
176
     0
 90
        5
176
     0
 90
        0
176
     0
 90
        0
176
     0
290
     0
176
     0
 90
        1
176
     0
 40
0.0
176
     0
 90
        0
176
     0
290
     0
176
     0
290
     1
176
     0
290
     1
176
     0
290
     0
176
     0
290
     0
176
     0
290
     0
176
     0
290
     0
176
     0
290
     0
176
     0
290
     0
176
     0
 90
       50
176
     0
 40
0.0
176
     0
 40
1.0
176
     0
 90
        0
176
     0
 62
    18
420
        0
176
     0
 90
       50
176
     0
 90
        3
176
     0
 62
     5
420
      255
176
     0
290
     0
176
     0
 90
       50
176
     0
 90
       50
176
     0
 90
       50
176
     0
290
     0
176
     0
 90
       50
176
     0
 62
   256
176
     0
 40
1.0
176
     0
 90
        2
176
     0
  1
strokes_ogs.tif
176
     0
290
     0
176
     0
 40
1.0
176
     0
 40
1.0
176
     0
  0
VISUALSTYLE
  5
39
102
{ACAD_REACTORS
330
2A
102
}
330
2A
100
AcDbVisualStyle
  2
Facepattern
 70
    15
177
     3
291
     1
 70
    58
 90
        2
176
     1
 90
        2
176
     1
 90
        0
176
     1
 90
        0
176
     1
 40
0.6
176
     1
 40
30.0
176
     1
 62
     7
420
 16777215
176
     1
 90
        1
176
     1
 90
        4
176
     1
 62
     7
176
     1
 62
   257
176
     1
 90
        1
176
     1
 90
        1
176
     1
 40
1.0
176
     1
 90
        8
176
     1
 62
     7
176
     1
 40
1.0
176
     1
 90
        1
176
     1
 90
        6
176
     1
 90
        2
176
     1
 62
     7
176
     1
 90
        5
176
     1
 90
        0
176
     1
 90
        0
176
     1
290
     0
176
     1
 90
        1
176
     1
 40
0.0
176
     1
 90
        0
176
     1
290
     0
176
     1
290
     1
176
     1
290
     1
176
     1
290
     0
176
     1
290
     0
176
     1
290
     0
176
     1
290
     0
176
     1
290
     0
176
     1
290
     0
176
     1
 90
       50
176
     1
 40
0.0
176
     1
 40
1.0
176
     1
 90
        0
176
     1
 62
    18
420
        0
176
     1
 90
       50
176
     1
 90
        3
176
     1
 62
     5
420
      255
176
     1
290
     0
176
     1
 90
       50
176
     1
 90
       50
176
     1
 90
       50
176
     1
290
     0
176
     1
 90
       50
176
     1
 62
   256
176
     0
 40
1.0
176
     0
 90
        2
176
     1
  1
strokes_ogs.tif
176
     1
290
     0
176
     1
 40
1.0
176
     1
 40
1.0
176
     1
  0
VISUALSTYLE
  5
2B
102
{ACAD_REACTORS
330
2A
102
}
330
2A
100
AcDbVisualStyle
  2
Flat
 70
     0
177
     3
291
     1
 70
    58
 90
        2
176
     1
 90
        1
176
     1
 90
        1
176
     1
 90
        2
176
     1
 40
0.6
176
     1
 40
30.0
176
     1
 62
     7
420
 16777215
176
     1
 90
        0
176
     1
 90
        0
176
     1
 62
     7
176
     1
 62
   257
176
     1
 90
        1
176
     1
 90
        1
176
     1
 40
1.0
176
     1
 90
        8
176
     1
 62
     7
176
     1
 40
1.0
176
     1
 90
        1
176
     1
 90
        6
176
     1
 90
        2
176
     1
 62
     7
176
     1
 90
        5
176
     1
 90
        0
176
     1
 90
        0
176
     1
290
     0
176
     1
 90
       13
176
     1
 40
0.0
176
     1
 90
        0
176
     1
290
     0
176
     1
290
     1
176
     1
290
     1
176
     1
290
     0
176
     1
290
     0
176
     1
290
     0
176
     1
290
     0
176
     1
290
     0
176
     1
290
     0
176
     1
 90
       50
176
     1
 40
0.0
176
     1
 40
1.0
176
     1
 90
        0
176
     1
 62
    18
420
        0
176
     1
 90
       50
176
     1
 90
        3
176
     1
 62
     5
420
      255
176
     1
290
     0
176
     1
 90
       50
176
     1
 90
       50
176
     1
 90
       50
176
     1
290
     0
176
     1
 90
       50
176
     1
 62
   256
176
     0
 40
1.0
176
     0
 90
        2
176
     1
  1
strokes_ogs.tif
176
     1
290
     0
176
     1
 40
1.0
176
     1
 40
1.0
176
     1
  0
VISUALSTYLE
  5
2C
102
{ACAD_REACTORS
330
2A
102
}
330
2A
100
AcDbVisualStyle
  2
FlatWithEdges
 70
     1
177
     3
291
     1
 70
    58
 90
        2
176
     1
 90
        1
176
     1
 90
        1
176
     1
 90
        2
176
     1
 40
0.6
176
     1
 40
30.0
176
     1
 62
     7
420
 16777215
176
     1
 90
        1
176
     1
 90
        0
176
     1
 62
     7
176
     1
 62
   257
176
     1
 90
        1
176
     1
 90
        1
176
     1
 40
1.0
176
     1
 90
        0
176
     1
 62
   257
176
     1
 40
1.0
176
     1
 90
        1
176
     1
 90
        6
176
     1
 90
        2
176
     1
 62
     7
176
     1
 90
        5
176
     1
 90
        0
176
     1
 90
        0
176
     1
290
     0
176
     1
 90
       13
176
     1
 40
0.0
176
     1
 90
        0
176
     1
290
     0
176
     1
290
     1
176
     1
290
     1
176
     1
290
     0
176
     1
290
     0
176
     1
290
     0
176
     1
290
     0
176
     1
290
     0
176
     1
290
     0
176
     1
 90
       50
176
     1
 40
0.0
176
     1
 40
1.0
176
     1
 90
        0
176
     1
 62
    18
420
        0
176
     1
 90
       50
176
     1
 90
        3
176
     1
 62
     5
420
      255
176
     1
290
     0
176
     1
 90
       50
176
     1
 90
       50
176
     1
 90
       50
176
     1
290
     0
176
     1
 90
       50
176
     1
 62
   256
176
     0
 40
1.0
176
     0
 90
        2
176
     1
  1
strokes_ogs.tif
176
     1
290
     0
176
     1
 40
1.0
176
     1
 40
1.0
176
     1
  0
VISUALSTYLE
  5
2D
102
{ACAD_REACTORS
330
2A
102
}
330
2A
100
AcDbVisualStyle
  2
Gouraud
 70
     2
177
     3
291
     1
 70
    58
 90
        2
176
     1
 90
        2
176
     1
 90
        1
176
     1
 90
        2
176
     1
 40
0.6
176
     1
 40
30.0
176
     1
 62
     7
420
 16777215
176
     1
 90
        0
176
     1
 90
        0
176
     1
 62
     7
176
     1
 62
   257
176
     1
 90
        1
176
     1
 90
        1
176
     1
 40
1.0
176
     1
 90
        0
176
     1
 62
     7
176
     1
 40
1.0
176
     1
 90
        1
176
     1
 90
        6
176
     1
 90
        2
176
     1
 62
     7
176
     1
 90
        5
176
     1
 90
        0
176
     1
 90
        0
176
     1
290
     0
176
     1
 90
       13
176
     1
 40
0.0
176
     1
 90
        0
176
     1
290
     0
176
     1
290
     1
176
     1
290
     1
176
     1
290
     0
176
     1
290
     0
176
     1
290
     0
176
     1
290
     0
176
     1
290
     0
176
     1
290
     0
176
     1
 90
       50
176
     1
 40
0.0
176
     1
 40
1.0
176
     1
 90
        0
176
     1
 62
    18
420
        0
176
     1
 90
       50
176
     1
 90
        3
176
     1
 62
     5
420
      255
176
     1
290
     0
176
     1
 90
       50
176
     1
 90
       50
176
     1
 90
       50
176
     1
290
     0
176
     1
 90
       50
176
     1
 62
   256
176
     0
 40
1.0
176
     0
 90
        2
176
     1
  1
strokes_ogs.tif
176
     1
290
     0
176
     1
 40
1.0
176
     1
 40
1.0
176
     1
  0
VISUALSTYLE
  5
2E
102
{ACAD_REACTORS
330
2A
102
}
330
2A
100
AcDbVisualStyle
  2
GouraudWithEdges
 70
     3
177
     3
291
     1
 70
    58
 90
        2
176
     1
 90
        2
176
     1
 90
        1
176
     1
 90
        2
176
     1
 40
0.6
176
     1
 40
30.0
176
     1
 62
     7
420
 16777215
176
     1
 90
        1
176
     1
 90
        0
176
     1
 62
     7
176
     1
 62
   257
176
     1
 90
        1
176
     1
 90
        1
176
     1
 40
1.0
176
     1
 90
        0
176
     1
 62
   257
176
     1
 40
1.0
176
     1
 90
        1
176
     1
 90
        6
176
     1
 90
        2
176
     1
 62
     7
176
     1
 90
        5
176
     1
 90
        0
176
     1
 90
        0
176
     1
290
     0
176
     1
 90
       13
176
     1
 40
0.0
176
     1
 90
        0
176
     1
290
     0
176
     1
290
     1
176
     1
290
     1
176
     1
290
     0
176
     1
290
     0
176
     1
290
     0
176
     1
290
     0
176
     1
290
     0
176
     1
290
     0
176
     1
 90
       50
176
     1
 40
0.0
176
     1
 40
1.0
176
     1
 90
        0
176
     1
 62
    18
420
        0
176
     1
 90
       50
176
     1
 90
        3
176
     1
 62
     5
420
      255
176
     1
290
     0
176
     1
 90
       50
176
     1
 90
       50
176
     1
 90
       50
176
     1
290
     0
176
     1
 90
       50
176
     1
 62
   256
176
     0
 40
1.0
176
     0
 90
        2
176
     1
  1
strokes_ogs.tif
176
     1
290
     0
176
     1
 40
1.0
176
     1
 40
1.0
176
     1
  0
VISUALSTYLE
  5
31
102
{ACAD_REACTORS
330
2A
102
}
330
2A
100
AcDbVisualStyle
  2
Hidden
 70
     6
177
     3
291
     0
 70
    58
 90
        1
176
     1
 90
        2
176
     1
 90
        2
176
     1
 90
        0
176
     1
 40
0.6
176
     1
 40
30.0
176
     1
 62
     7
420
 16777215
176
     1
 90
        2
176
     1
 90
        2
176
     1
 62
     7
176
     1
 62
   257
176
     1
 90
        2
176
     1
 90
        1
176
     1
 40
40.0
176
     1
 90
        0
176
     1
 62
   257
176
     1
 40
1.0
176
     1
 90
        1
176
     1
 90
        6
176
     1
 90
        2
176
     1
 62
     7
176
     1
 90
        3
176
     1
 90
        0
176
     1
 90
        0
176
     1
290
     0
176
     1
 90
        1
176
     1
 40
0.0
176
     1
 90
        0
176
     1
290
     0
176
     1
290
     1
176
     1
290
     1
176
     1
290
     0
176
     1
290
     0
176
     1
290
     0
176
     1
290
     0
176
     1
290
     0
176
     1
290
     0
176
     1
 90
       50
176
     1
 40
0.0
176
     1
 40
1.0
176
     1
 90
        0
176
     1
 62
    18
420
        0
176
     1
 90
       50
176
     1
 90
        3
176
     1
 62
     5
420
      255
176
     1
290
     0
176
     1
 90
       50
176
     1
 90
       50
176
     1
 90
       50
176
     1
290
     0
176
     1
 90
       50
176
     1
 62
   256
176
     0
 40
1.0
176
     0
 90
        2
176
     1
  1
strokes_ogs.tif
176
     1
290
     0
176
     1
 40
1.0
176
     1
 40
1.0
176
     1
  0
VISUALSTYLE
  5
3B
102
{ACAD_REACTORS
330
2A
102
}
330
2A
100
AcDbVisualStyle
  2
JitterOff
 70
    20
177
     3
291
     1
 70
    58
 90
        2
176
     0
 90
        2
176
     0
 90
        0
176
     0
 90
        0
176
     0
 40
0.6
176
     0
 40
30.0
176
     0
 62
     7
420
 16777215
176
     0
 90
        1
176
     0
 90
        4
176
     0
 62
     7
176
     0
 62
   257
176
     0
 90
        1
176
     0
 90
        1
176
     0
 40
1.0
176
     0
 90
       10
176
     2
 62
     7
176
     0
 40
1.0
176
     0
 90
        1
176
     0
 90
        6
176
     0
 90
        2
176
     0
 62
     7
176
     0
 90
        5
176
     0
 90
        0
176
     0
 90
        0
176
     0
290
     0
176
     0
 90
        1
176
     0
 40
0.0
176
     0
 90
        0
176
     0
290
     0
176
     0
290
     1
176
     0
290
     1
176
     0
290
     0
176
     0
290
     0
176
     0
290
     0
176
     0
290
     0
176
     0
290
     0
176
     0
290
     0
176
     0
 90
       50
176
     0
 40
0.0
176
     0
 40
1.0
176
     0
 90
        0
176
     0
 62
    18
420
        0
176
     0
 90
       50
176
     0
 90
        3
176
     0
 62
     5
420
      255
176
     0
290
     0
176
     0
 90
       50
176
     0
 90
       50
176
     0
 90
       50
176
     0
290
     0
176
     0
 90
       50
176
     0
 62
   256
176
     0
 40
1.0
176
     0
 90
        2
176
     0
  1
strokes_ogs.tif
176
     0
290
     0
176
     0
 40
1.0
176
     0
 40
1.0
176
     0
  0
VISUALSTYLE
  5
38
102
{ACAD_REACTORS
330
2A
102
}
330
2A
100
AcDbVisualStyle
  2
Linepattern
 70
    14
177
     3
291
     1
 70
    58
 90
        2
176
     1
 90
        2
176
     1
 90
        0
176
     1
 90
        0
176
     1
 40
0.6
176
     1
 40
30.0
176
     1
 62
     7
420
 16777215
176
     1
 90
        1
176
     1
 90
        4
176
     1
 62
     7
176
     1
 62
   257
176
     1
 90
        7
176
     1
 90
        7
176
     1
 40
1.0
176
     1
 90
        8
176
     1
 62
     7
176
     1
 40
1.0
176
     1
 90
        1
176
     1
 90
        6
176
     1
 90
        2
176
     1
 62
     7
176
     1
 90
        5
176
     1
 90
        0
176
     1
 90
        0
176
     1
290
     0
176
     1
 90
        1
176
     1
 40
0.0
176
     1
 90
        0
176
     1
290
     0
176
     1
290
     1
176
     1
290
     1
176
     1
290
     0
176
     1
290
     0
176
     1
290
     0
176
     1
290
     0
176
     1
290
     0
176
     1
290
     0
176
     1
 90
       50
176
     1
 40
0.0
176
     1
 40
1.0
176
     1
 90
        0
176
     1
 62
    18
420
        0
176
     1
 90
       50
176
     1
 90
        3
176
     1
 62
     5
420
      255
176
     1
290
     0
176
     1
 90
       50
176
     1
 90
       50
176
     1
 90
       50
176
     1
290
     0
176
     1
 90
       50
176
     1
 62
   256
176
     0
 40
1.0
176
     0
 90
        2
176
     1
  1
strokes_ogs.tif
176
     1
290
     0
176
     1
 40
1.0
176
     1
 40
1.0
176
     1
  0
VISUALSTYLE
  5
3C
102
{ACAD_REACTORS
330
2A
102
}
330
2A
100
AcDbVisualStyle
  2
OverhangOff
 70
    21
177
     3
291
     1
 70
    58
 90
        2
176
     0
 90
        2
176
     0
 90
        0
176
     0
 90
        0
176
     0
 40
0.6
176
     0
 40
30.0
176
     0
 62
     7
420
 16777215
176
     0
 90
        1
176
     0
 90
        4
176
     0
 62
     7
176
     0
 62
   257
176
     0
 90
        1
176
     0
 90
        1
176
     0
 40
1.0
176
     0
 90
        9
176
     2
 62
     7
176
     0
 40
1.0
176
     0
 90
        1
176
     0
 90
        6
176
     0
 90
        2
176
     0
 62
     7
176
     0
 90
        5
176
     0
 90
        0
176
     0
 90
        0
176
     0
290
     0
176
     0
 90
        1
176
     0
 40
0.0
176
     0
 90
        0
176
     0
290
     0
176
     0
290
     1
176
     0
290
     1
176
     0
290
     0
176
     0
290
     0
176
     0
290
     0
176
     0
290
     0
176
     0
290
     0
176
     0
290
     0
176
     0
 90
       50
176
     0
 40
0.0
176
     0
 40
1.0
176
     0
 90
        0
176
     0
 62
    18
420
        0
176
     0
 90
       50
176
     0
 90
        3
176
     0
 62
     5
420
      255
176
     0
290
     0
176
     0
 90
       50
176
     0
 90
       50
176
     0
 90
       50
176
     0
290
     0
176
     0
 90
       50
176
     0
 62
   256
176
     0
 40
1.0
176
     0
 90
        2
176
     0
  1
strokes_ogs.tif
176
     0
290
     0
176
     0
 40
1.0
176
     0
 40
1.0
176
     0
  0
VISUALSTYLE
  5
33
102
{ACAD_REACTORS
330
2A
102
}
330
2A
100
AcDbVisualStyle
  2
Realistic
 70
     8
177
     3
291
     0
 70
    58
 90
        2
176
     1
 90
        3
176
     1
 90
        0
176
     1
 90
        2
176
     1
 40
0.6
176
     1
 40
30.0
176
     1
 62
     7
420
 16777215
176
     1
 90
        0
176
     1
 90
        0
176
     1
 62
     7
176
     1
 62
   257
176
     1
 90
        1
176
     1
 90
        1
176
     1
 40
1.0
176
     1
 90
        8
176
     1
 62
   257
176
     1
 40
1.0
176
     1
 90
        1
176
     1
 90
        6
176
     1
 90
        2
176
     1
 62
     7
176
     1
 90
        3
176
     1
 90
        0
176
     1
 90
        0
176
     1
290
     0
176
     1
 90
       13
176
     1
 40
0.0
176
     1
 90
        0
176
     1
290
     0
176
     1
290
     1
176
     1
290
     1
176
     1
290
     0
176
     1
290
     0
176
     1
290
     0
176
     1
290
     0
176
     1
290
     0
176
     1
290
     0
176
     1
 90
       50
176
     1
 40
0.0
176
     1
 40
1.0
176
     1
 90
        0
176
     1
 62
    18
420
        0
176
     1
 90
       50
176
     1
 90
        3
176
     1
 62
     5
420
      255
176
     1
290
     0
176
     1
 90
       50
176
     1
 90
       50
176
     1
 90
       50
176
     1
290
     0
176
     1
 90
       50
176
     1
 62
   256
176
     0
 40
1.0
176
     0
 90
        2
176
     1
  1
strokes_ogs.tif
176
     1
290
     0
176
     1
 40
1.0
176
     1
 40
1.0
176
     1
  0
VISUALSTYLE
  5
42
102
{ACAD_REACTORS
330
2A
102
}
330
2A
100
AcDbVisualStyle
  2
Shaded
 70
    27
177
     3
291
     0
 70
    58
 90
        2
176
     1
 90
        2
176
     1
 90
        1
176
     1
 90
        2
176
     1
 40
0.6
176
     1
 40
30.0
176
     1
 62
     7
420
 16777215
176
     1
 90
        0
176
     1
 90
        4
176
     1
 62
     7
176
     1
 62
   257
176
     1
 90
        1
176
     1
 90
        1
176
     1
 40
1.0
176
     1
 90
        8
176
     1
 62
   257
176
     1
 40
1.0
176
     1
 90
        1
176
     1
 90
        6
176
     1
 90
        2
176
     1
 62
     8
420
  7895160
176
     1
 90
        3
176
     1
 90
        0
176
     1
 90
        0
176
     1
290
     0
176
     1
 90
        5
176
     1
 40
0.0
176
     1
 90
        0
176
     1
290
     0
176
     1
290
     1
176
     1
290
     1
176
     1
290
     0
176
     1
290
     0
176
     1
290
     0
176
     1
290
     0
176
     1
290
     0
176
     1
290
     0
176
     1
 90
       50
176
     1
 40
0.0
176
     1
 40
1.0
176
     1
 90
        0
176
     1
 62
    18
420
        0
176
     1
 90
       50
176
     1
 90
        3
176
     1
 62
     5
420
      255
176
     1
290
     0
176
     1
 90
       50
176
     1
 90
       50
176
     1
 90
       50
176
     1
290
     0
176
     1
 90
       50
176
     1
 62
   256
176
     0
 40
1.0
176
     0
 90
        2
176
     1
  1
strokes_ogs.tif
176
     1
290
     0
176
     1
 40
1.0
176
     1
 40
1.0
176
     1
  0
VISUALSTYLE
  5
41
102
{ACAD_REACTORS
330
2A
102
}
330
2A
100
AcDbVisualStyle
  2
Shaded with edges
 70
    26
177
     3
291
     0
 70
    58
 90
        2
176
     1
 90
        2
176
     1
 90
        1
176
     1
 90
        2
176
     1
 40
0.6
176
     1
 40
30.0
176
     1
 62
     7
420
 16777215
176
     1
 90
        1
176
     1
 90
       10
176
     1
 62
     7
176
     1
 62
   257
176
     1
 90
        2
176
     1
 90
        1
176
     1
 40
1.0
176
     1
 90
        8
176
     1
 62
   257
176
     1
 40
1.0
176
     1
 90
        1
176
     1
 90
        6
176
     1
 90
        2
176
     1
 62
     7
176
     1
 90
        3
176
     1
 90
        0
176
     1
 90
        0
176
     1
290
     0
176
     1
 90
        5
176
     1
 40
0.0
176
     1
 90
        0
176
     1
290
     0
176
     1
290
     1
176
     1
290
     1
176
     1
290
     0
176
     1
290
     0
176
     1
290
     0
176
     1
290
     0
176
     1
290
     0
176
     1
290
     0
176
     1
 90
       50
176
     1
 40
0.0
176
     1
 40
1.0
176
     1
 90
        0
176
     1
 62
    18
420
        0
176
     1
 90
       50
176
     1
 90
        3
176
     1
 62
     5
420
      255
176
     1
290
     0
176
     1
 90
       50
176
     1
 90
       50
176
     1
 90
       50
176
     1
290
     0
176
     1
 90
       50
176
     1
 62
   256
176
     0
 40
1.0
176
     0
 90
        2
176
     1
  1
strokes_ogs.tif
176
     1
290
     0
176
     1
 40
1.0
176
     1
 40
1.0
176
     1
  0
VISUALSTYLE
  5
3E
102
{ACAD_REACTORS
330
2A
102
}
330
2A
100
AcDbVisualStyle
  2
Shades of Gray
 70
    23
177
     3
291
     0
 70
    58
 90
        2
176
     1
 90
        2
176
     1
 90
        3
176
     1
 90
        0
176
     1
 40
0.6
176
     1
 40
30.0
176
     1
 62
     7
420
 16777215
176
     1
 90
        2
176
     1
 90
        2
176
     1
 62
     7
176
     1
 62
     7
176
     1
 90
        1
176
     1
 90
        1
176
     1
 40
40.0
176
     1
 90
        8
176
     1
 62
     7
176
     1
 40
1.0
176
     1
 90
        1
176
     1
 90
        6
176
     1
 90
        2
176
     1
 62
     7
176
     1
 90
        3
176
     1
 90
        0
176
     1
 90
        0
176
     1
290
     0
176
     1
 90
        1
176
     1
 40
0.0
176
     1
 90
        0
176
     1
290
     0
176
     1
290
     1
176
     1
290
     1
176
     1
290
     0
176
     1
290
     0
176
     1
290
     0
176
     1
290
     0
176
     1
290
     0
176
     1
290
     0
176
     1
 90
       50
176
     1
 40
0.0
176
     1
 40
1.0
176
     1
 90
        0
176
     1
 62
    18
420
        0
176
     1
 90
       50
176
     1
 90
        3
176
     1
 62
     5
420
      255
176
     1
290
     0
176
     1
 90
       50
176
     1
 90
       50
176
     1
 90
       50
176
     1
290
     0
176
     1
 90
       50
176
     1
 62
   256
176
     0
 40
1.0
176
     0
 90
        2
176
     1
  1
strokes_ogs.tif
176
     1
290
     0
176
     1
 40
1.0
176
     1
 40
1.0
176
     1
  0
VISUALSTYLE
  5
3F
102
{ACAD_REACTORS
330
2A
102
}
330
2A
100
AcDbVisualStyle
  2
Sketchy
 70
    24
177
     3
291
     0
 70
    58
 90
        1
176
     1
 90
        2
176
     1
 90
        2
176
     1
 90
        0
176
     1
 40
0.6
176
     1
 40
30.0
176
     1
 62
     7
420
 16777215
176
     1
 90
        2
176
     1
 90
        2
176
     1
 62
     7
176
     1
 62
     7
176
     1
 90
        1
176
     1
 90
        1
176
     1
 40
40.0
176
     1
 90
       11
176
     1
 62
     7
176
     1
 40
1.0
176
     1
 90
        1
176
     1
 90
        6
176
     1
 90
        2
176
     1
 62
     7
176
     1
 90
        6
176
     1
 90
        0
176
     1
 90
        0
176
     1
290
     0
176
     1
 90
        1
176
     1
 40
0.0
176
     1
 90
        0
176
     1
290
     0
176
     1
290
     1
176
     1
290
     1
176
     1
290
     0
176
     1
290
     0
176
     1
290
     0
176
     1
290
     0
176
     1
290
     0
176
     1
290
     0
176
     1
 90
       50
176
     1
 40
0.0
176
     1
 40
1.0
176
     1
 90
        0
176
     1
 62
    18
420
        0
176
     1
 90
       50
176
     1
 90
        3
176
     1
 62
     5
420
      255
176
     1
290
     0
176
     1
 90
       50
176
     1
 90
       50
176
     1
 90
       50
176
     1
290
     0
176
     1
 90
       50
176
     1
 62
   256
176
     0
 40
1.0
176
     0
 90
        2
176
     1
  1
strokes_ogs.tif
176
     1
290
     0
176
     1
 40
1.0
176
     1
 40
1.0
176
     1
  0
VISUALSTYLE
  5
37
102
{ACAD_REACTORS
330
2A
102
}
330
2A
100
AcDbVisualStyle
  2
Thicken
 70
    13
177
     3
291
     1
 70
    58
 90
        2
176
     1
 90
        2
176
     1
 90
        0
176
     1
 90
        0
176
     1
 40
0.6
176
     1
 40
30.0
176
     1
 62
     7
420
 16777215
176
     1
 90
        1
176
     1
 90
        4
176
     1
 62
     7
176
     1
 62
   257
176
     1
 90
        1
176
     1
 90
        1
176
     1
 40
1.0
176
     1
 90
       12
176
     1
 62
     7
176
     1
 40
1.0
176
     1
 90
        1
176
     1
 90
        6
176
     1
 90
        2
176
     1
 62
     7
176
     1
 90
        5
176
     1
 90
        0
176
     1
 90
        0
176
     1
290
     0
176
     1
 90
        1
176
     1
 40
0.0
176
     1
 90
        0
176
     1
290
     0
176
     1
290
     1
176
     1
290
     1
176
     1
290
     0
176
     1
290
     0
176
     1
290
     0
176
     1
290
     0
176
     1
290
     0
176
     1
290
     0
176
     1
 90
       50
176
     1
 40
0.0
176
     1
 40
1.0
176
     1
 90
        0
176
     1
 62
    18
420
        0
176
     1
 90
       50
176
     1
 90
        3
176
     1
 62
     5
420
      255
176
     1
290
     0
176
     1
 90
       50
176
     1
 90
       50
176
     1
 90
       50
176
     1
290
     0
176
     1
 90
       50
176
     1
 62
   256
176
     0
 40
1.0
176
     0
 90
        2
176
     1
  1
strokes_ogs.tif
176
     1
290
     0
176
     1
 40
1.0
176
     1
 40
1.0
176
     1
  0
VISUALSTYLE
  5
30
102
{ACAD_REACTORS
330
2A
102
}
330
2A
100
AcDbVisualStyle
  2
Wireframe
 70
     5
177
     3
291
     0
 70
    58
 90
        0
176
     1
 90
        2
176
     1
 90
        0
176
     1
 90
        0
176
     1
 40
0.6
176
     1
 40
30.0
176
     1
 62
     7
420
 16777215
176
     1
 90
        1
176
     1
 90
        4
176
     1
 62
     7
176
     1
 62
   257
176
     1
 90
        1
176
     1
 90
        1
176
     1
 40
1.0
176
     1
 90
        0
176
     1
 62
   257
176
     1
 40
1.0
176
     1
 90
        1
176
     1
 90
        6
176
     1
 90
        2
176
     1
 62
     7
176
     1
 90
        3
176
     1
 90
        0
176
     1
 90
        0
176
     1
290
     0
176
     1
 90
        1
176
     1
 40
0.0
176
     1
 90
        0
176
     1
290
     0
176
     1
290
     1
176
     1
290
     1
176
     1
290
     0
176
     1
290
     0
176
     1
290
     0
176
     1
290
     0
176
     1
290
     0
176
     1
290
     0
176
     1
 90
       50
176
     1
 40
0.0
176
     1
 40
1.0
176
     1
 90
        0
176
     1
 62
    18
420
        0
176
     1
 90
       50
176
     1
 90
        3
176
     1
 62
     5
420
      255
176
     1
290
     0
176
     1
 90
       50
176
     1
 90
       50
176
     1
 90
       50
176
     1
290
     0
176
     1
 90
       50
176
     1
 62
   256
176
     0
 40
1.0
176
     0
 90
        2
176
     1
  1
strokes_ogs.tif
176
     1
290
     0
176
     1
 40
1.0
176
     1
 40
1.0
176
     1
  0
VISUALSTYLE
  5
40
102
{ACAD_REACTORS
330
2A
102
}
330
2A
100
AcDbVisualStyle
  2
X-Ray
 70
    25
177
     3
291
     0
 70
    58
 90
        2
176
     1
 90
        2
176
     1
 90
        1
176
     1
 90
        1
176
     1
 40
0.5
176
     1
 40
30.0
176
     1
 62
     7
420
 16777215
176
     1
 90
        1
176
     1
 90
        0
176
     1
 62
     7
176
     1
 62
   257
176
     1
 90
        1
176
     1
 90
        1
176
     1
 40
1.0
176
     1
 90
        8
176
     1
 62
     7
176
     1
 40
1.0
176
     1
 90
        1
176
     1
 90
        6
176
     1
 90
        2
176
     1
 62
     7
176
     1
 90
        3
176
     1
 90
        0
176
     1
 90
        0
176
     1
290
     0
176
     1
 90
       13
176
     1
 40
0.0
176
     1
 90
        0
176
     1
290
     0
176
     1
290
     1
176
     1
290
     1
176
     1
290
     0
176
     1
290
     0
176
     1
290
     0
176
     1
290
     0
176
     1
290
     0
176
     1
290
     0
176
     1
 90
       50
176
     1
 40
0.0
176
     1
 40
1.0
176
     1
 90
        0
176
     1
 62
    18
420
        0
176
     1
 90
       50
176
     1
 90
        3
176
     1
 62
     5
420
      255
176
     1
290
     0
176
     1
 90
       50
176
     1
 90
       50
176
     1
 90
       50
176
     1
290
     0
176
     1
 90
       50
176
     1
 62
   256
176
     0
 40
1.0
176
     0
 90
        2
176
     1
  1
strokes_ogs.tif
176
     1
290
     0
176
     1
 40
1.0
176
     1
 40
1.0
176
     1
  0
DICTIONARYVAR
  5
15C
102
{ACAD_REACTORS
330
15B
102
}
330
15B
100
DictionaryVariables
280
     0
  1
1:1
  0
DICTIONARYVAR
  5
161
102
{ACAD_REACTORS
330
15B
102
}
330
15B
100
DictionaryVariables
280
     0
  1
Standard
  0
DICTIONARYVAR
  5
160
102
{ACAD_REACTORS
330
15B
102
}
330
15B
100
DictionaryVariables
280
     0
  1
Standard
  0
DICTIONARY
  5
15D
330
6A
100
AcDbDictionary
280
     1
281
     1
  3
ACAD_ROUNDTRIP_2008_TABLESTYLE_CELLSTYLEMAP
360
15E
  0
CELLSTYLEMAP
  5
15E
102
{ACAD_REACTORS
330
15D
102
}
330
15D
100
AcDbCellStyleMap
 90
        3
300
CELLSTYLE
  1
TABLEFORMAT_BEGIN
 90
        5
170
     1
 91
        0
 92
    32768
 62
   257
 93
        1
300
CONTENTFORMAT
  1
CONTENTFORMAT_BEGIN
 90
        0
 91
        0
 92
        4
 93
        0
300

 40
0.0
140
1.0
 94
        5
 62
     0
340
11
144
0.25
309
CONTENTFORMAT_END
171
     1
301
MARGIN
  1
CELLMARGIN_BEGIN
 40
0.06
 40
0.06
 40
0.06
 40
0.06
 40
0.06
 40
0.06
309
CELLMARGIN_END
 94
        6
 95
        1
302
GRIDFORMAT
  1
GRIDFORMAT_BEGIN
 90
        0
 91
        1
 62
     0
 92
       -2
340
14
 93
        0
 40
0.045
309
GRIDFORMAT_END
 95
        2
302
GRIDFORMAT
  1
GRIDFORMAT_BEGIN
 90
        0
 91
        1
 62
     0
 92
       -2
340
14
 93
        0
 40
0.045
309
GRIDFORMAT_END
 95
        4
302
GRIDFORMAT
  1
GRIDFORMAT_BEGIN
 90
        0
 91
        1
 62
     0
 92
       -2
340
14
 93
        0
 40
0.045
309
GRIDFORMAT_END
 95
        8
302
GRIDFORMAT
  1
GRIDFORMAT_BEGIN
 90
        0
 91
        1
 62
     0
 92
       -2
340
14
 93
        0
 40
0.045
309
GRIDFORMAT_END
 95
       16
302
GRIDFORMAT
  1
GRIDFORMAT_BEGIN
 90
        0
 91
        1
 62
     0
 92
       -2
340
14
 93
        0
 40
0.045
309
GRIDFORMAT_END
 95
       32
302
GRIDFORMAT
  1
GRIDFORMAT_BEGIN
 90
        0
 91
        1
 62
     0
 92
       -2
340
14
 93
        0
 40
0.045
309
GRIDFORMAT_END
309
TABLEFORMAT_END
  1
CELLSTYLE_BEGIN
 90
        1
 91
        1
300
_TITLE
309
CELLSTYLE_END
300
CELLSTYLE
  1
TABLEFORMAT_BEGIN
 90
        5
170
     1
 91
        0
 92
        0
 62
   257
 93
        1
300
CONTENTFORMAT
  1
CONTENTFORMAT_BEGIN
 90
        0
 91
        0
 92
        4
 93
        0
300

 40
0.0
140
1.0
 94
        5
 62
     0
340
11
144
0.18
309
CONTENTFORMAT_END
171
     1
301
MARGIN
  1
CELLMARGIN_BEGIN
 40
0.06
 40
0.06
 40
0.06
 40
0.06
 40
0.06
 40
0.06
309
CELLMARGIN_END
 94
        6
 95
        1
302
GRIDFORMAT
  1
GRIDFORMAT_BEGIN
 90
        0
 91
        1
 62
     0
 92
       -2
340
14
 93
        0
 40
0.045
309
GRIDFORMAT_END
 95
        2
302
GRIDFORMAT
  1
GRIDFORMAT_BEGIN
 90
        0
 91
        1
 62
     0
 92
       -2
340
14
 93
        0
 40
0.045
309
GRIDFORMAT_END
 95
        4
302
GRIDFORMAT
  1
GRIDFORMAT_BEGIN
 90
        0
 91
        1
 62
     0
 92
       -2
340
14
 93
        0
 40
0.045
309
GRIDFORMAT_END
 95
        8
302
GRIDFORMAT
  1
GRIDFORMAT_BEGIN
 90
        0
 91
        1
 62
     0
 92
       -2
340
14
 93
        0
 40
0.045
309
GRIDFORMAT_END
 95
       16
302
GRIDFORMAT
  1
GRIDFORMAT_BEGIN
 90
        0
 91
        1
 62
     0
 92
       -2
340
14
 93
        0
 40
0.045
309
GRIDFORMAT_END
 95
       32
302
GRIDFORMAT
  1
GRIDFORMAT_BEGIN
 90
        0
 91
        1
 62
     0
 92
       -2
340
14
 93
        0
 40
0.045
309
GRIDFORMAT_END
309
TABLEFORMAT_END
  1
CELLSTYLE_BEGIN
 90
        2
 91
        1
300
_HEADER
309
CELLSTYLE_END
300
CELLSTYLE
  1
TABLEFORMAT_BEGIN
 90
        5
170
     1
 91
        0
 92
        0
 62
   257
 93
        1
300
CONTENTFORMAT
  1
CONTENTFORMAT_BEGIN
 90
        0
 91
        0
 92
        4
 93
        0
300

 40
0.0
140
1.0
 94
        2
 62
     0
340
11
144
0.18
309
CONTENTFORMAT_END
171
     1
301
MARGIN
  1
CELLMARGIN_BEGIN
 40
0.06
 40
0.06
 40
0.06
 40
0.06
 40
0.06
 40
0.06
309
CELLMARGIN_END
 94
        6
 95
        1
302
GRIDFORMAT
  1
GRIDFORMAT_BEGIN
 90
        0
 91
        1
 62
     0
 92
       -2
340
14
 93
        0
 40
0.045
309
GRIDFORMAT_END
 95
        2
302
GRIDFORMAT
  1
GRIDFORMAT_BEGIN
 90
        0
 91
        1
 62
     0
 92
       -2
340
14
 93
        0
 40
0.045
309
GRIDFORMAT_END
 95
        4
302
GRIDFORMAT
  1
GRIDFORMAT_BEGIN
 90
        0
 91
        1
 62
     0
 92
       -2
340
14
 93
        0
 40
0.045
309
GRIDFORMAT_END
 95
        8
302
GRIDFORMAT
  1
GRIDFORMAT_BEGIN
 90
        0
 91
        1
 62
     0
 92
       -2
340
14
 93
        0
 40
0.045
309
GRIDFORMAT_END
 95
       16
302
GRIDFORMAT
  1
GRIDFORMAT_BEGIN
 90
        0
 91
        1
 62
     0
 92
       -2
340
14
 93
        0
 40
0.045
309
GRIDFORMAT_END
 95
       32
302
GRIDFORMAT
  1
GRIDFORMAT_BEGIN
 90
        0
 91
        1
 62
     0
 92
       -2
340
14
 93
        0
 40
0.045
309
GRIDFORMAT_END
309
TABLEFORMAT_END
  1
CELLSTYLE_BEGIN
 90
        3
 91
        2
300
_DATA
309
CELLSTYLE_END
  0
ENDSEC
  0
EOF