0
SECTION
  2
HEADER
  9
$ACADVER
  1
AC1027
  9
$ACADMAINTVER
 70
     8
  9
$DWGCODEPAGE
  3
ANSI_1252
  9
$REQUIREDVERSIONS
160
                 0
  9
$COMMENTS
  1
File was created by Cadenas
  9
$CUSTOMPROPERTYTAG
  1
NN
  9
$CUSTOMPROPERTY
  1
Double-Interlock B-1 Units Gray Iron - Inch
  9
$CUSTOMPROPERTYTAG
  1
NT
  9
$CUSTOMPROPERTY
  1
Double-Interlock Bearings -Inserts
  9
$CUSTOMPROPERTYTAG
  1
NB
  9
$CUSTOMPROPERTY
  1
023568
  9
$CUSTOMPROPERTYTAG
  1
NBSYN
  9
$CUSTOMPROPERTY
  1
$PN.
  9
$CUSTOMPROPERTYTAG
  1
LINA
  9
$CUSTOMPROPERTY
  1
023568
  9
$CUSTOMPROPERTYTAG
  1
SS
  9
$CUSTOMPROPERTY
  1
4-7/16
  9
$CUSTOMPROPERTYTAG
  1
PN
  9
$CUSTOMPROPERTY
  1
023568
  9
$CUSTOMPROPERTYTAG
  1
DESCRIPTION
  9
$CUSTOMPROPERTY
  1
B1U-DI-407R
  9
$CUSTOMPROPERTYTAG
  1
A
  9
$CUSTOMPROPERTY
  1
6-3/4
  9
$CUSTOMPROPERTYTAG
  1
B
  9
$CUSTOMPROPERTY
  1
4-5/8
  9
$CUSTOMPROPERTYTAG
  1
D
  9
$CUSTOMPROPERTY
  1
8-3/4
  9
$CUSTOMPROPERTYTAG
  1
H
  9
$CUSTOMPROPERTY
  1
3/4
  9
$CUSTOMPROPERTYTAG
  1
J
  9
$CUSTOMPROPERTY
  1
5.91
  9
$CUSTOMPROPERTYTAG
  1
L
  9
$CUSTOMPROPERTY
  1
6-29/64
  9
$CUSTOMPROPERTYTAG
  1
COMPANY
  9
$CUSTOMPROPERTY
  1
baldor
  9
$INSBASE
 10
0.0
 20
0.0
 30
0.0
  9
$EXTMIN
 10
1.000000000000000E+20
 20
1.000000000000000E+20
 30
1.000000000000000E+20
  9
$EXTMAX
 10
-1.000000000000000E+20
 20
-1.000000000000000E+20
 30
-1.000000000000000E+20
  9
$LIMMIN
 10
0.0
 20
0.0
  9
$LIMMAX
 10
12.0
 20
9.0
  9
$ORTHOMODE
 70
     0
  9
$REGENMODE
 70
     1
  9
$FILLMODE
 70
     1
  9
$QTEXTMODE
 70
     0
  9
$MIRRTEXT
 70
     1
  9
$LTSCALE
 40
1.0
  9
$ATTMODE
 70
     1
  9
$TEXTSIZE
 40
0.2
  9
$TRACEWID
 40
0.05
  9
$TEXTSTYLE
  7
Standard
  9
$CLAYER
  8
0
  9
$CELTYPE
  6
ByLayer
  9
$CECOLOR
 62
   256
  9
$CELTSCALE
 40
1.0
  9
$DISPSILH
 70
     0
  9
$DIMSCALE
 40
1.0
  9
$DIMASZ
 40
0.18
  9
$DIMEXO
 40
0.0625
  9
$DIMDLI
 40
0.38
  9
$DIMRND
 40
0.0
  9
$DIMDLE
 40
0.0
  9
$DIMEXE
 40
0.18
  9
$DIMTP
 40
0.0
  9
$DIMTM
 40
0.0
  9
$DIMTXT
 40
0.18
  9
$DIMCEN
 40
0.09
  9
$DIMTSZ
 40
0.0
  9
$DIMTOL
 70
     0
  9
$DIMLIM
 70
     0
  9
$DIMTIH
 70
     1
  9
$DIMTOH
 70
     1
  9
$DIMSE1
 70
     0
  9
$DIMSE2
 70
     0
  9
$DIMTAD
 70
     0
  9
$DIMZIN
 70
     0
  9
$DIMBLK
  1

  9
$DIMASO
 70
     1
  9
$DIMSHO
 70
     1
  9
$DIMPOST
  1

  9
$DIMAPOST
  1

  9
$DIMALT
 70
     0
  9
$DIMALTD
 70
     2
  9
$DIMALTF
 40
25.4
  9
$DIMLFAC
 40
1.0
  9
$DIMTOFL
 70
     0
  9
$DIMTVP
 40
0.0
  9
$DIMTIX
 70
     0
  9
$DIMSOXD
 70
     0
  9
$DIMSAH
 70
     0
  9
$DIMBLK1
  1

  9
$DIMBLK2
  1

  9
$DIMSTYLE
  2
Standard
  9
$DIMCLRD
 70
     0
  9
$DIMCLRE
 70
     0
  9
$DIMCLRT
 70
     0
  9
$DIMTFAC
 40
1.0
  9
$DIMGAP
 40
0.09
  9
$DIMJUST
 70
     0
  9
$DIMSD1
 70
     0
  9
$DIMSD2
 70
     0
  9
$DIMTOLJ
 70
     1
  9
$DIMTZIN
 70
     0
  9
$DIMALTZ
 70
     0
  9
$DIMALTTZ
 70
     0
  9
$DIMUPT
 70
     0
  9
$DIMDEC
 70
     4
  9
$DIMTDEC
 70
     4
  9
$DIMALTU
 70
     2
  9
$DIMALTTD
 70
     2
  9
$DIMTXSTY
  7
Standard
  9
$DIMAUNIT
 70
     0
  9
$DIMADEC
 70
     0
  9
$DIMALTRND
 40
0.0
  9
$DIMAZIN
 70
     0
  9
$DIMDSEP
 70
    46
  9
$DIMATFIT
 70
     3
  9
$DIMFRAC
 70
     0
  9
$DIMLDRBLK
  1

  9
$DIMLUNIT
 70
     2
  9
$DIMLWD
 70
    -2
  9
$DIMLWE
 70
    -2
  9
$DIMTMOVE
 70
     0
  9
$DIMFXL
 40
1.0
  9
$DIMFXLON
 70
     0
  9
$DIMJOGANG
 40
0.7853981633974483
  9
$DIMTFILL
 70
     0
  9
$DIMTFILLCLR
 70
     0
  9
$DIMARCSYM
 70
     0
  9
$DIMLTYPE
  6

  9
$DIMLTEX1
  6

  9
$DIMLTEX2
  6

  9
$DIMTXTDIRECTION
 70
     0
  9
$LUNITS
 70
     2
  9
$LUPREC
 70
     4
  9
$SKETCHINC
 40
0.1
  9
$FILLETRAD
 40
0.5
  9
$AUNITS
 70
     0
  9
$AUPREC
 70
     0
  9
$MENU
  1
.
  9
$ELEVATION
 40
0.0
  9
$PELEVATION
 40
0.0
  9
$THICKNESS
 40
0.0
  9
$LIMCHECK
 70
     0
  9
$CHAMFERA
 40
0.0
  9
$CHAMFERB
 40
0.0
  9
$CHAMFERC
 40
0.0
  9
$CHAMFERD
 40
0.0
  9
$SKPOLY
 70
     0
  9
$TDCREATE
 40
2458168.970593715
  9
$TDUCREATE
 40
2458168.928927049
  9
$TDUPDATE
 40
2458168.9705939
  9
$TDUUPDATE
 40
2458168.928927234
  9
$TDINDWG
 40
0.0000000116
  9
$TDUSRTIMER
 40
0.0000000116
  9
$USRTIMER
 70
     1
  9
$ANGBASE
 50
0.0
  9
$ANGDIR
 70
     0
  9
$PDMODE
 70
     0
  9
$PDSIZE
 40
0.0
  9
$PLINEWID
 40
0.0
  9
$SPLFRAME
 70
     0
  9
$SPLINETYPE
 70
     6
  9
$SPLINESEGS
 70
     8
  9
$HANDSEED
  5
165
  9
$SURFTAB1
 70
     6
  9
$SURFTAB2
 70
     6
  9
$SURFTYPE
 70
     6
  9
$SURFU
 70
     6
  9
$SURFV
 70
     6
  9
$UCSBASE
  2

  9
$UCSNAME
  2

  9
$UCSORG
 10
0.0
 20
0.0
 30
0.0
  9
$UCSXDIR
 10
1.0
 20
0.0
 30
0.0
  9
$UCSYDIR
 10
0.0
 20
1.0
 30
0.0
  9
$UCSORTHOREF
  2

  9
$UCSORTHOVIEW
 70
     0
  9
$UCSORGTOP
 10
0.0
 20
0.0
 30
0.0
  9
$UCSORGBOTTOM
 10
0.0
 20
0.0
 30
0.0
  9
$UCSORGLEFT
 10
0.0
 20
0.0
 30
0.0
  9
$UCSORGRIGHT
 10
0.0
 20
0.0
 30
0.0
  9
$UCSORGFRONT
 10
0.0
 20
0.0
 30
0.0
  9
$UCSORGBACK
 10
0.0
 20
0.0
 30
0.0
  9
$PUCSBASE
  2

  9
$PUCSNAME
  2

  9
$PUCSORG
 10
0.0
 20
0.0
 30
0.0
  9
$PUCSXDIR
 10
1.0
 20
0.0
 30
0.0
  9
$PUCSYDIR
 10
0.0
 20
1.0
 30
0.0
  9
$PUCSORTHOREF
  2

  9
$PUCSORTHOVIEW
 70
     0
  9
$PUCSORGTOP
 10
0.0
 20
0.0
 30
0.0
  9
$PUCSORGBOTTOM
 10
0.0
 20
0.0
 30
0.0
  9
$PUCSORGLEFT
 10
0.0
 20
0.0
 30
0.0
  9
$PUCSORGRIGHT
 10
0.0
 20
0.0
 30
0.0
  9
$PUCSORGFRONT
 10
0.0
 20
0.0
 30
0.0
  9
$PUCSORGBACK
 10
0.0
 20
0.0
 30
0.0
  9
$USERI1
 70
     0
  9
$USERI2
 70
     0
  9
$USERI3
 70
     0
  9
$USERI4
 70
     0
  9
$USERI5
 70
     0
  9
$USERR1
 40
0.0
  9
$USERR2
 40
0.0
  9
$USERR3
 40
0.0
  9
$USERR4
 40
0.0
  9
$USERR5
 40
0.0
  9
$WORLDVIEW
 70
     1
  9
$SHADEDGE
 70
     3
  9
$SHADEDIF
 70
    70
  9
$TILEMODE
 70
     1
  9
$MAXACTVP
 70
    64
  9
$PINSBASE
 10
0.0
 20
0.0
 30
0.0
  9
$PLIMCHECK
 70
     0
  9
$PEXTMIN
 10
1.000000000000000E+20
 20
1.000000000000000E+20
 30
1.000000000000000E+20
  9
$PEXTMAX
 10
-1.000000000000000E+20
 20
-1.000000000000000E+20
 30
-1.000000000000000E+20
  9
$PLIMMIN
 10
0.0
 20
0.0
  9
$PLIMMAX
 10
12.0
 20
9.0
  9
$UNITMODE
 70
     0
  9
$VISRETAIN
 70
     1
  9
$PLINEGEN
 70
     0
  9
$PSLTSCALE
 70
     1
  9
$TREEDEPTH
 70
  3020
  9
$CMLSTYLE
  2
Standard
  9
$CMLJUST
 70
     0
  9
$CMLSCALE
 40
1.0
  9
$PROXYGRAPHICS
 70
     1
  9
$MEASUREMENT
 70
     0
  9
$CELWEIGHT
370
    -1
  9
$ENDCAPS
280
     0
  9
$JOINSTYLE
280
     0
  9
$LWDISPLAY
290
     0
  9
$INSUNITS
 70
     1
  9
$HYPERLINKBASE
  1

  9
$STYLESHEET
  1

  9
$XEDIT
290
     1
  9
$CEPSNTYPE
380
     0
  9
$PSTYLEMODE
290
     1
  9
$FINGERPRINTGUID
  2
{1953772D-A5CC-495C-82A7-7F6C4B57DD3E}
  9
$VERSIONGUID
  2
{FAEB1C32-E019-11D5-929B-00C0DF256EC4}
  9
$EXTNAMES
290
     1
  9
$PSVPSCALE
 40
0.0
  9
$OLESTARTUP
290
     0
  9
$SORTENTS
280
   127
  9
$INDEXCTL
280
     0
  9
$HIDETEXT
280
     1
  9
$XCLIPFRAME
280
     2
  9
$HALOGAP
280
     0
  9
$OBSCOLOR
 70
   257
  9
$OBSLTYPE
280
     0
  9
$INTERSECTIONDISPLAY
280
     0
  9
$INTERSECTIONCOLOR
 70
   257
  9
$DIMASSOC
280
     2
  9
$PROJECTNAME
  1

  9
$CAMERADISPLAY
290
     0
  9
$LENSLENGTH
 40
50.0
  9
$CAMERAHEIGHT
 40
0.0
  9
$STEPSPERSEC
 40
2.0
  9
$STEPSIZE
 40
6.0
  9
$3DDWFPREC
 40
2.0
  9
$PSOLWIDTH
 40
0.25
  9
$PSOLHEIGHT
 40
4.0
  9
$LOFTANG1
 40
1.570796326794897
  9
$LOFTANG2
 40
1.570796326794897
  9
$LOFTMAG1
 40
0.0
  9
$LOFTMAG2
 40
0.0
  9
$LOFTPARAM
 70
     7
  9
$LOFTNORMALS
280
     1
  9
$LATITUDE
 40
37.795
  9
$LONGITUDE
 40
-122.394
  9
$NORTHDIRECTION
 40
0.0
  9
$TIMEZONE
 70
 -8000
  9
$LIGHTGLYPHDISPLAY
280
     1
  9
$TILEMODELIGHTSYNCH
280
     1
  9
$CMATERIAL
347
44
  9
$SOLIDHIST
280
     0
  9
$SHOWHIST
280
     1
  9
$DWFFRAME
280
     2
  9
$DGNFRAME
280
     2
  9
$REALWORLDSCALE
290
     1
  9
$INTERFERECOLOR
 62
   256
  9
$CSHADOW
280
     0
  9
$SHADOWPLANELOCATION
 40
0.0
  0
ENDSEC
  0
SECTION
  2
CLASSES
  0
CLASS
  1
ACDBDICTIONARYWDFLT
  2
AcDbDictionaryWithDefault
  3
ObjectDBX Classes
 90
        0
 91
        4
280
     0
281
     0
  0
CLASS
  1
VISUALSTYLE
  2
AcDbVisualStyle
  3
ObjectDBX Classes
 90
     4095
 91
        4
280
     0
281
     0
  0
CLASS
  1
MATERIAL
  2
AcDbMaterial
  3
ObjectDBX Classes
 90
     1153
 91
        4
280
     0
281
     0
  0
CLASS
  1
SCALE
  2
AcDbScale
  3
ObjectDBX Classes
 90
     1153
 91
        4
280
     0
281
     0
  0
CLASS
  1
TABLESTYLE
  2
AcDbTableStyle
  3
ObjectDBX Classes
 90
     4095
 91
        4
280
     0
281
     0
  0
CLASS
  1
MLEADERSTYLE
  2
AcDbMLeaderStyle
  3
ACDB_MLEADERSTYLE_CLASS
 90
     4095
 91
        4
280
     0
281
     0
  0
CLASS
  1
SUN
  2
AcDbSun
  3
SCENEOE
 90
     1153
 91
        4
280
     0
281
     0
  0
CLASS
  1
DICTIONARYVAR
  2
AcDbDictionaryVar
  3
ObjectDBX Classes
 90
        0
 91
        4
280
     0
281
     0
  0
CLASS
  1
CELLSTYLEMAP
  2
AcDbCellStyleMap
  3
ObjectDBX Classes
 90
     1152
 91
        4
280
     0
281
     0
  0
ENDSEC
  0
SECTION
  2
TABLES
  0
TABLE
  2
VPORT
  5
8
330
0
100
AcDbSymbolTable
 70
     1
  0
VPORT
  5
29
330
8
100
AcDbSymbolTableRecord
100
AcDbViewportTableRecord
  2
*Active
 70
     0
 10
0.0
 20
0.0
 11
1.0
 21
1.0
 12
0.0
 22
0.0
 13
0.0
 23
0.0
 14
0.5
 24
0.5
 15
0.5
 25
0.5
 16
0.0
 26
0.0
 36
1.0
 17
0.0
 27
0.0
 37
0.0
 40
7.573500000000001
 41
1.178451178451178
 42
50.0
 43
0.0
 44
0.0
 50
0.0
 51
0.0
 71
     0
 72
   100
 73
     1
 74
     3
 75
     0
 76
     0
 77
     0
 78
     0
281
     0
 65
     1
110
0.0
120
0.0
130
0.0
111
1.0
121
0.0
131
0.0
112
0.0
122
1.0
132
0.0
 79
     0
146
0.0
348
2F
 60
     3
 61
     5
292
     1
282
     1
141
0.0
142
0.0
 63
   250
361
6D
  0
ENDTAB
  0
TABLE
  2
LTYPE
  5
5
330
0
100
AcDbSymbolTable
 70
     3
  0
LTYPE
  5
14
330
5
100
AcDbSymbolTableRecord
100
AcDbLinetypeTableRecord
  2
ByBlock
 70
     0
  3

 72
    65
 73
     0
 40
0.0
  0
LTYPE
  5
15
330
5
100
AcDbSymbolTableRecord
100
AcDbLinetypeTableRecord
  2
ByLayer
 70
     0
  3

 72
    65
 73
     0
 40
0.0
  0
LTYPE
  5
16
330
5
100
AcDbSymbolTableRecord
100
AcDbLinetypeTableRecord
  2
Continuous
 70
     0
  3
Solid line
 72
    65
 73
     0
 40
0.0
  0
LTYPE
  5
97
330
5
100
AcDbSymbolTableRecord
100
AcDbLinetypeTableRecord
  2
Dashed
 70
     0
  3

 72
    65
 73
     2
 40
2.0
 49
1.0
 74
     0
 49
-1.0
 74
     0
  0
LTYPE
  5
AB
330
5
100
AcDbSymbolTableRecord
100
AcDbLinetypeTableRecord
  2
Center
 70
     0
  3

 72
    65
 73
     4
 40
1.5
 49
0.45
 74
     0
 49
-0.5
 74
     0
 49
0.05
 74
     0
 49
-0.5
 74
     0
  0
ENDTAB
  0
TABLE
  2
LAYER
  5
2
330
0
100
AcDbSymbolTable
 70
     7
  0
LAYER
  5
10
330
2
100
AcDbSymbolTableRecord
100
AcDbLayerTableRecord
  2
0
 70
     0
 62
     7
  6
Continuous
370
    -3
390
F
347
46
348
0
  0
LAYER
  5
72
330
2
100
AcDbSymbolTableRecord
100
AcDbLayerTableRecord
  2
AM_6
 70
     0
 62
    -2
  6
Continuous
370
    35
390
F
347
46
348
0
  0
LAYER
  5
98
330
2
100
AcDbSymbolTableRecord
100
AcDbLayerTableRecord
  2
AM_9
 70
     0
 62
     6
  6
Dashed
370
    25
390
F
347
46
348
0
  0
LAYER
  5
AC
330
2
100
AcDbSymbolTableRecord
100
AcDbLayerTableRecord
  2
AM_7
 70
     0
 62
     7
  6
Center
370
    25
390
F
347
46
348
0
  0
LAYER
  5
AE
330
2
100
AcDbSymbolTableRecord
100
AcDbLayerTableRecord
  2
AM_4
 70
     0
 62
     7
  6
Continuous
370
    50
390
F
347
46
348
0
  0
LAYER
  5
BB
330
2
100
AcDbSymbolTableRecord
100
AcDbLayerTableRecord
  2
AM_5
 70
     0
 62
     3
  6
Continuous
370
    25
390
F
347
46
348
0
  0
LAYER
  5
154
330
2
100
AcDbSymbolTableRecord
100
AcDbLayerTableRecord
  2
ConnectionPoints
 70
     0
 62
     7
  6
Continuous
370
    50
390
F
347
46
348
0
  0
ENDTAB
  0
TABLE
  2
STYLE
  5
3
330
0
100
AcDbSymbolTable
 70
     1
  0
STYLE
  5
11
330
3
100
AcDbSymbolTableRecord
100
AcDbTextStyleTableRecord
  2
Standard
 70
     0
 40
0.0
 41
1.0
 50
0.0
 71
     0
 42
0.2
  3
txt
  4

  0
ENDTAB
  0
TABLE
  2
VIEW
  5
6
330
0
100
AcDbSymbolTable
 70
     0
  0
ENDTAB
  0
TABLE
  2
UCS
  5
7
330
0
100
AcDbSymbolTable
 70
     0
  0
ENDTAB
  0
TABLE
  2
APPID
  5
9
330
0
100
AcDbSymbolTable
 70
     1
  0
APPID
  5
12
330
9
100
AcDbSymbolTableRecord
100
AcDbRegAppTableRecord
  2
ACAD
 70
     0
  0
ENDTAB
  0
TABLE
  2
DIMSTYLE
  5
A
330
0
100
AcDbSymbolTable
 70
     1
100
AcDbDimStyleTable
  0
DIMSTYLE
105
27
330
A
100
AcDbSymbolTableRecord
100
AcDbDimStyleTableRecord
  2
Standard
 70
     0
178
     0
340
11
  0
ENDTAB
  0
TABLE
  2
BLOCK_RECORD
  5
1
330
0
100
AcDbSymbolTable
 70
     6
  0
BLOCK_RECORD
  5
1F
330
1
100
AcDbSymbolTableRecord
100
AcDbBlockTableRecord
  2
*Model_Space
340
22
 70
     0
280
     1
281
     0
  0
BLOCK_RECORD
  5
1B
330
1
100
AcDbSymbolTableRecord
100
AcDbBlockTableRecord
  2
*Paper_Space
340
1E
 70
     0
280
     1
281
     0
  0
BLOCK_RECORD
  5
23
330
1
100
AcDbSymbolTableRecord
100
AcDbBlockTableRecord
  2
*Paper_Space0
340
26
 70
     0
280
     1
281
     0
  0
BLOCK_RECORD
  5
6E
330
1
100
AcDbSymbolTableRecord
100
AcDbBlockTableRecord
  2
1_023568_4
340
0
102
{BLKREFS
331
6F
102
}
 70
     0
280
     1
281
     0
  0
BLOCK_RECORD
  5
82
330
1
100
AcDbSymbolTableRecord
100
AcDbBlockTableRecord
  2
2_4_7_16C_1_0_in_023568_4
340
0
102
{BLKREFS
331
83
102
}
 70
     0
280
     1
281
     0
  0
BLOCK_RECORD
  5
BE
330
1
100
AcDbSymbolTableRecord
100
AcDbBlockTableRecord
  2
3_4_7_16C_2_0_in_023568_4
340
0
102
{BLKREFS
331
BF
102
}
 70
     0
280
     1
281
     0
  0
BLOCK_RECORD
  5
F3
330
1
100
AcDbSymbolTableRecord
100
AcDbBlockTableRecord
  2
4_405015E_Inch_0_in_023568_4
340
0
102
{BLKREFS
331
F4
102
}
 70
     0
280
     1
281
     0
  0
BLOCK_RECORD
  5
110
330
1
100
AcDbSymbolTableRecord
100
AcDbBlockTableRecord
  2
5_023568_Insert_0_in_023568_4
340
0
102
{BLKREFS
331
111
102
}
 70
     0
280
     1
281
     0
  0
ENDTAB
  0
ENDSEC
  0
SECTION
  2
BLOCKS
  0
BLOCK
  5
20
330
1F
100
AcDbEntity
  8
0
100
AcDbBlockBegin
  2
*Model_Space
 70
     0
 10
0.0
 20
0.0
 30
0.0
  3
*Model_Space
  1

  0
ENDBLK
  5
21
330
1F
100
AcDbEntity
  8
0
100
AcDbBlockEnd
  0
BLOCK
  5
1C
330
1B
100
AcDbEntity
 67
     1
  8
0
100
AcDbBlockBegin
  2
*Paper_Space
 70
     0
 10
0.0
 20
0.0
 30
0.0
  3
*Paper_Space
  1

  0
ENDBLK
  5
1D
330
1B
100
AcDbEntity
 67
     1
  8
0
100
AcDbBlockEnd
  0
BLOCK
  5
24
330
23
100
AcDbEntity
  8
0
100
AcDbBlockBegin
  2
*Paper_Space0
 70
     0
 10
0.0
 20
0.0
 30
0.0
  3
*Paper_Space0
  1

  0
ENDBLK
  5
25
330
23
100
AcDbEntity
  8
0
100
AcDbBlockEnd
  0
BLOCK
  5
70
330
6E
100
AcDbEntity
  8
0
100
AcDbBlockBegin
  2
1_023568_4
 70
     2
 10
0.0
 20
0.0
 30
0.0
  3
1_023568_4
  1

  0
ATTDEF
  5
73
330
6E
100
AcDbEntity
  8
AM_6
100
AcDbText
 10
9.375
 20
3.7125
 30
0.0
 40
0.5
  1
Double-Interlock B-1 Units Gray Iron - Inch
100
AcDbAttributeDefinition
  3

  2
NN
 70
     8
280
     0
  0
ATTDEF
  5
74
330
6E
100
AcDbEntity
  8
AM_6
100
AcDbText
 10
9.375
 20
3.2125
 30
0.0
 40
0.5
  1
Double-Interlock Bearings -Inserts
100
AcDbAttributeDefinition
  3

  2
NT
 70
     8
280
     0
  0
ATTDEF
  5
75
330
6E
100
AcDbEntity
  8
AM_6
100
AcDbText
 10
9.375
 20
2.7125
 30
0.0
 40
0.5
  1
023568
100
AcDbAttributeDefinition
  3

  2
NB
 70
     8
280
     0
  0
ATTDEF
  5
76
330
6E
100
AcDbEntity
  8
AM_6
100
AcDbText
 10
9.375
 20
2.2125
 30
0.0
 40
0.5
  1
$PN.
100
AcDbAttributeDefinition
  3

  2
NBSYN
 70
     8
280
     0
  0
ATTDEF
  5
77
330
6E
100
AcDbEntity
  8
AM_6
100
AcDbText
 10
9.375
 20
1.7125
 30
0.0
 40
0.5
  1
023568
100
AcDbAttributeDefinition
  3

  2
LINA
 70
     8
280
     0
  0
ATTDEF
  5
78
330
6E
100
AcDbEntity
  8
AM_6
100
AcDbText
 10
9.375
 20
1.2125
 30
0.0
 40
0.5
  1
4-7/16
100
AcDbAttributeDefinition
  3

  2
SS
 70
     8
280
     0
  0
ATTDEF
  5
79
330
6E
100
AcDbEntity
  8
AM_6
100
AcDbText
 10
9.375
 20
0.7124999999999999
 30
0.0
 40
0.5
  1
023568
100
AcDbAttributeDefinition
  3

  2
PN
 70
     8
280
     0
  0
ATTDEF
  5
7A
330
6E
100
AcDbEntity
  8
AM_6
100
AcDbText
 10
9.375
 20
0.2124999999999999
 30
0.0
 40
0.5
  1
B1U-DI-407R
100
AcDbAttributeDefinition
  3

  2
DESCRIPTION
 70
     8
280
     0
  0
ATTDEF
  5
7B
330
6E
100
AcDbEntity
  8
AM_6
100
AcDbText
 10
9.375
 20
-0.2875000000000001
 30
0.0
 40
0.5
  1
6-3/4
100
AcDbAttributeDefinition
  3

  2
A
 70
     8
280
     0
  0
ATTDEF
  5
7C
330
6E
100
AcDbEntity
  8
AM_6
100
AcDbText
 10
9.375
 20
-0.7875000000000001
 30
0.0
 40
0.5
  1
4-5/8
100
AcDbAttributeDefinition
  3

  2
B
 70
     8
280
     0
  0
ATTDEF
  5
7D
330
6E
100
AcDbEntity
  8
AM_6
100
AcDbText
 10
9.375
 20
-1.2875
 30
0.0
 40
0.5
  1
8-3/4
100
AcDbAttributeDefinition
  3

  2
D
 70
     8
280
     0
  0
ATTDEF
  5
7E
330
6E
100
AcDbEntity
  8
AM_6
100
AcDbText
 10
9.375
 20
-1.7875
 30
0.0
 40
0.5
  1
3/4
100
AcDbAttributeDefinition
  3

  2
H
 70
     8
280
     0
  0
ATTDEF
  5
7F
330
6E
100
AcDbEntity
  8
AM_6
100
AcDbText
 10
9.375
 20
-2.2875
 30
0.0
 40
0.5
  1
5.91
100
AcDbAttributeDefinition
  3

  2
J
 70
     8
280
     0
  0
ATTDEF
  5
80
330
6E
100
AcDbEntity
  8
AM_6
100
AcDbText
 10
9.375
 20
-2.7875
 30
0.0
 40
0.5
  1
6-29/64
100
AcDbAttributeDefinition
  3

  2
L
 70
     8
280
     0
  0
ATTDEF
  5
81
330
6E
100
AcDbEntity
  8
AM_6
100
AcDbText
 10
9.375
 20
-3.2875
 30
0.0
 40
0.5
  1
baldor
100
AcDbAttributeDefinition
  3

  2
COMPANY
 70
     8
280
     0
  0
INSERT
  5
83
330
6E
100
AcDbEntity
  8
0
100
AcDbBlockReference
  2
2_4_7_16C_1_0_in_023568_4
 10
0.0
 20
0.0
 30
0.0
  0
INSERT
  5
BF
330
6E
100
AcDbEntity
  8
0
100
AcDbBlockReference
  2
3_4_7_16C_2_0_in_023568_4
 10
0.0
 20
0.0
 30
0.0
  0
INSERT
  5
F4
330
6E
100
AcDbEntity
  8
0
100
AcDbBlockReference
  2
4_405015E_Inch_0_in_023568_4
 10
0.0
 20
0.0
 30
0.0
  0
INSERT
  5
111
330
6E
100
AcDbEntity
  8
0
100
AcDbBlockReference
  2
5_023568_Insert_0_in_023568_4
 10
0.0
 20
0.0
 30
0.0
  0
ENDBLK
  5
71
330
6E
100
AcDbEntity
  8
0
100
AcDbBlockEnd
  0
BLOCK
  5
84
330
82
100
AcDbEntity
  8
0
100
AcDbBlockBegin
  2
2_4_7_16C_1_0_in_023568_4
 70
     2
 10
0.0
 20
0.0
 30
0.0
  3
2_4_7_16C_1_0_in_023568_4
  1

  0
ATTDEF
  5
86
330
82
100
AcDbEntity
  8
AM_6
100
AcDbText
 10
8.21875
 20
3.375
 30
0.0
 40
0.5
  1
E-Type Collar -Inch
100
AcDbAttributeDefinition
  3

  2
NN
 70
     8
280
     0
  0
ATTDEF
  5
87
330
82
100
AcDbEntity
  8
AM_6
100
AcDbText
 10
8.21875
 20
2.875
 30
0.0
 40
0.5
  1
E-Type Bearings
100
AcDbAttributeDefinition
  3

  2
NT
 70
     8
280
     0
  0
ATTDEF
  5
88
330
82
100
AcDbEntity
  8
AM_6
100
AcDbText
 10
8.21875
 20
2.375
 30
0.0
 40
0.5
  1
4-7/16C
100
AcDbAttributeDefinition
  3

  2
NB
 70
     8
280
     0
  0
ATTDEF
  5
89
330
82
100
AcDbEntity
  8
AM_6
100
AcDbText
 10
8.21875
 20
1.875
 30
0.0
 40
0.5
  1
$BORE.C
100
AcDbAttributeDefinition
  3

  2
NBSYN
 70
     8
280
     0
  0
ATTDEF
  5
8A
330
82
100
AcDbEntity
  8
AM_6
100
AcDbText
 10
8.21875
 20
1.375
 30
0.0
 40
0.5
  1
4-7/16C
100
AcDbAttributeDefinition
  3

  2
LINA
 70
     8
280
     0
  0
ATTDEF
  5
8B
330
82
100
AcDbEntity
  8
AM_6
100
AcDbText
 10
8.21875
 20
0.875
 30
0.0
 40
0.5
  1
4-7/16
100
AcDbAttributeDefinition
  3

  2
BORE
 70
     8
280
     0
  0
ATTDEF
  5
8C
330
82
100
AcDbEntity
  8
AM_6
100
AcDbText
 10
8.21875
 20
0.375
 30
0.0
 40
0.5
  1
6.43750
100
AcDbAttributeDefinition
  3

  2
L
 70
     8
280
     0
  0
ATTDEF
  5
8D
330
82
100
AcDbEntity
  8
AM_6
100
AcDbText
 10
8.21875
 20
-0.125
 30
0.0
 40
0.5
  1
6.75
100
AcDbAttributeDefinition
  3

  2
A
 70
     8
280
     0
  0
ATTDEF
  5
8E
330
82
100
AcDbEntity
  8
AM_6
100
AcDbText
 10
8.21875
 20
-0.625
 30
0.0
 40
0.5
  1
3.25
100
AcDbAttributeDefinition
  3

  2
B
 70
     8
280
     0
  0
ATTDEF
  5
8F
330
82
100
AcDbEntity
  8
AM_6
100
AcDbText
 10
8.21875
 20
-1.125
 30
0.0
 40
0.5
  1
5.00
100
AcDbAttributeDefinition
  3

  2
C
 70
     8
280
     0
  0
ATTDEF
  5
90
330
82
100
AcDbEntity
  8
AM_6
100
AcDbText
 10
8.21875
 20
-1.625
 30
0.0
 40
0.5
  1
7.00
100
AcDbAttributeDefinition
  3

  2
D
 70
     8
280
     0
  0
ATTDEF
  5
91
330
82
100
AcDbEntity
  8
AM_6
100
AcDbText
 10
8.21875
 20
-2.125
 30
0.0
 40
0.5
  1
0.78
100
AcDbAttributeDefinition
  3

  2
E
 70
     8
280
     0
  0
ATTDEF
  5
92
330
82
100
AcDbEntity
  8
AM_6
100
AcDbText
 10
8.21875
 20
-2.625
 30
0.0
 40
0.5
  1
0.62
100
AcDbAttributeDefinition
  3

  2
F
 70
     8
280
     0
  0
ATTDEF
  5
93
330
82
100
AcDbEntity
  8
AM_6
100
AcDbText
 10
8.21875
 20
-3.125
 30
0.0
 40
0.5
  1
5/8-11
100
AcDbAttributeDefinition
  3

  2
CS
 70
     8
280
     0
  0
ATTDEF
  5
94
330
82
100
AcDbEntity
  8
AM_6
100
AcDbText
 10
8.21875
 20
-3.625
 30
0.0
 40
0.5
  1
0.6250
100
AcDbAttributeDefinition
  3

  2
NDM
 70
     8
280
     0
  0
ATTDEF
  5
95
330
82
100
AcDbEntity
  8
AM_6
100
AcDbText
 10
8.21875
 20
-4.125
 30
0.0
 40
0.5
  1
0.5270
100
AcDbAttributeDefinition
  3

  2
KDM
 70
     8
280
     0
  0
ATTDEF
  5
96
330
82
100
AcDbEntity
  8
AM_6
100
AcDbText
 10
8.21875
 20
-4.625
 30
0.0
 40
0.5
  1
baldor
100
AcDbAttributeDefinition
  3

  2
COMPANY
 70
     8
280
     0
  0
LINE
  5
99
330
82
100
AcDbEntity
  8
AM_9
100
AcDbLine
 10
2.324485551990042
 20
2.987921134079551
 30
0.0
 11
2.316891225470886
 21
2.997393435674297
 31
0.0
  0
LINE
  5
9A
330
82
100
AcDbEntity
  8
AM_9
100
AcDbLine
 10
2.316959261109287
 20
2.512691424264828
 30
0.0
 11
2.324485551990042
 21
2.52207886592045
 31
0.0
  0
LWPOLYLINE
  5
9B
330
82
100
AcDbEntity
  8
AM_9
100
AcDbPolyline
 90
       26
 70
     0
 43
0.0
 10
2.316817997122819
 20
2.997484771823685
 10
2.31589497057023
 20
2.998620850913376
 10
2.2985228492135
 20
3.01501538314773
 10
2.279033869357458
 20
3.024161448187613
 10
2.25819579243783
 20
3.025312141157323
 10
2.236062992567633
 20
3.018046082574479
 10
2.214363751324469
 20
3.002762789840523
 10
2.192805815700118
 20
2.978913561748869
 10
2.173819102413299
 20
2.949002720358839
 10
2.156744393889381
 20
2.911551847804663
 10
2.144030355171107
 20
2.871869168484763
 10
2.13472853720772
 20
2.826927023532754
 10
2.130149011436811
 20
2.78386465533129
 10
2.129563725415937
 20
2.7385418707431
 10
2.13282311507426
 20
2.696858426679573
 10
2.139817141058741
 20
2.655647191448046
 10
2.149905618434999
 20
2.617952192259089
 10
2.163097459890992
 20
2.582975868315247
 10
2.178962952078355
 20
2.551899882855931
 10
2.19707690224325
 20
2.525600058956835
 10
2.217026918212701
 20
2.504915004906295
 10
2.238109319120771
 20
2.490931137430506
 10
2.259429996882418
 20
2.484532626553726
 10
2.28061457639402
 20
2.486269453099534
 10
2.300252604583845
 20
2.496232437588119
 10
2.316823441524255
 20
2.512522018320005
  0
LWPOLYLINE
  5
9C
330
82
100
AcDbEntity
  8
AM_9
100
AcDbPolyline
 90
        4
 70
     0
 43
0.0
 10
2.316823441524255
 20
2.512522018320005
 10
2.318631165513536
 20
2.514835484649316
 10
2.331602285967654
 20
2.535324939864303
 10
2.343200855209431
 20
2.561137936045281
  0
LINE
  5
9D
330
82
100
AcDbEntity
  8
AM_9
100
AcDbLine
 10
2.272596986253968
 20
2.4917
 30
0.0
 11
2.872587846402014
 21
2.4917
 31
0.0
  0
LINE
  5
9E
330
82
100
AcDbEntity
  8
AM_9
100
AcDbLine
 10
2.872587846402014
 20
3.0183
 30
0.0
 11
2.272596986253968
 21
3.0183
 31
0.0
  0
LINE
  5
9F
330
82
100
AcDbEntity
  8
AM_9
100
AcDbLine
 10
2.82069928066594
 20
2.52207886592045
 30
0.0
 11
2.853101888699082
 21
2.481663527579105
 31
0.0
  0
LINE
  5
A0
330
82
100
AcDbEntity
  8
AM_9
100
AcDbLine
 10
2.852954349323606
 20
3.028152448537003
 30
0.0
 11
2.82069928066594
 21
2.987921134079551
 31
0.0
  0
ELLIPSE
  5
A1
330
82
100
AcDbEntity
  8
AM_9
100
AcDbEllipse
 10
2.872587846402178
 20
2.754999999999938
 30
0.0
 11
-4.836742533231233E-17
 21
-0.2632999999999326
 31
0.0
210
0.0
220
0.0
230
1.0
 40
0.4226182617409681
 41
3.485093915352834
 42
5.931436891148637
  0
LINE
  5
A2
330
82
100
AcDbEntity
  8
AM_9
100
AcDbLine
 10
2.324295695528199
 20
2.987109428067484
 30
0.0
 11
2.316817997122819
 21
2.997484771823685
 31
0.0
  0
LWPOLYLINE
  5
A3
330
82
100
AcDbEntity
  8
AM_9
100
AcDbPolyline
 90
       13
 70
     0
 43
0.0
 10
2.343200855209431
 20
2.561137936045281
 10
2.35284941906479
 20
2.590922609266
 10
2.360802977051098
 20
2.625361504859067
 10
2.367147387483262
 20
2.666625966359503
 10
2.371052644364665
 20
2.712130709932782
 10
2.372211055664696
 20
2.75512197943964
 10
2.37096660087238
 20
2.799419076317277
 10
2.367535221413235
 20
2.840041295323744
 10
2.361777273875156
 20
2.879417343416289
 10
2.353868906949901
 20
2.915293618628422
 10
2.34361404383554
 20
2.947769979336691
 10
2.330938810741102
 20
2.975910349000717
 10
2.324295695528199
 20
2.987109428067484
  0
LWPOLYLINE
  5
A4
330
82
100
AcDbEntity
  8
AM_9
100
AcDbPolyline
 90
       38
 70
     0
 43
0.0
 10
-0.1916979582435588
 20
2.553397228143254
 10
-0.1583856800217693
 20
2.529161317480329
 10
-0.121969957738367
 20
2.509856192188115
 10
-0.0758332681663185
 20
2.493826728359923
 10
-0.0276900255873293
 20
2.485431741069183
 10
0.0226738966895627
 20
2.485041035469064
 10
0.072406448960571
 20
2.49293669058013
 10
0.120438872840008
 20
2.509214792725996
 10
0.1649816966187533
 20
2.533384630613271
 10
0.2039147396029122
 20
2.564385682101254
 10
0.2367937142355043
 20
2.601723027356619
 10
0.2612516676758498
 20
2.642389175647178
 10
0.2781007693577628
 20
2.686765161661826
 10
0.2861954976101881
 20
2.730540671172998
 10
0.2866161512793263
 20
2.77506226263029
 10
0.2796680176425481
 20
2.817198673292773
 10
0.2659023368588907
 20
2.857611573709104
 10
0.2455150115550055
 20
2.895546927761883
 10
0.2193743120801812
 20
2.929763357779447
 10
0.1865351645777699
 20
2.960833788954143
 10
0.1491961647220117
 20
2.986353949484821
 10
0.1058096012203619
 20
3.00671644590187
 10
0.0596985290568697
 20
3.019902687899306
 10
0.0100592759010808
 20
3.025640851840677
 10
-0.0398555911203669
 20
3.023205932498213
 10
-0.0894144268291329
 20
3.012312059995627
 10
-0.136412527901758
 20
2.993272110291938
 10
-0.1790176848242441
 20
2.96667011493844
 10
-0.2163353456705051
 20
2.93309348390803
 10
-0.245935059941969
 20
2.894870011748754
 10
-0.2682749777841524
 20
2.851990272575162
 10
-0.2816718259979394
 20
2.808567052970326
 10
-0.2872682951268908
 20
2.763458310322243
 10
-0.2850198345659891
 20
2.720439385781249
 10
-0.2756297086276778
 20
2.678405773149243
 10
-0.2595124009537628
 20
2.638853881258933
 10
-0.2372849965845628
 20
2.602398153368128
 10
-0.1916979582435588
 20
2.553397228143254
  0
LINE
  5
A5
330
82
100
AcDbEntity
  8
AM_9
100
AcDbLine
 10
-2.5
 20
3.375
 30
0.0
 11
-2.5
 21
2.135
 31
0.0
  0
LINE
  5
A6
330
82
100
AcDbEntity
  8
AM_9
100
AcDbLine
 10
2.5
 20
2.135
 30
0.0
 11
2.5
 21
3.375
 31
0.0
  0
LINE
  5
A7
330
82
100
AcDbEntity
  8
AM_9
100
AcDbLine
 10
-3.218750000000001
 20
2.3125
 30
0.0
 11
-3.218750000000001
 21
2.135
 31
0.0
  0
LINE
  5
A8
330
82
100
AcDbEntity
  8
AM_9
100
AcDbLine
 10
3.218750000000001
 20
2.135
 30
0.0
 11
3.218750000000001
 21
2.3125
 31
0.0
  0
LINE
  5
A9
330
82
100
AcDbEntity
  8
AM_9
100
AcDbLine
 10
3.218750000000001
 20
2.135
 30
0.0
 11
-3.218750000000001
 21
2.135
 31
0.0
  0
ELLIPSE
  5
AA
330
82
100
AcDbEntity
  8
AM_9
100
AcDbEllipse
 10
2.272596986253967
 20
2.755
 30
0.0
 11
-4.836742533232465E-17
 21
-0.2632999999999996
 31
0.0
210
0.0
220
0.0
230
1.0
 40
0.4226182617406986
 41
0.0
 42
6.283185307179586
  0
LINE
  5
AD
330
82
100
AcDbEntity
  8
AM_7
100
AcDbLine
 10
-0.2764649999999995
 20
2.755
 30
0.0
 11
0.2764650000000005
 21
2.755
 31
0.0
  0
ELLIPSE
  5
AF
330
82
100
AcDbEntity
  8
AM_4
100
AcDbEllipse
 10
2.872587846402014
 20
2.755
 30
0.0
 11
-4.836742533232465E-17
 21
-0.2632999999999996
 31
0.0
210
0.0
220
0.0
230
1.0
 40
0.4226182617407002
 41
5.931436891149892
 42
9.768279222531321
  0
LWPOLYLINE
  5
B0
330
82
100
AcDbEntity
  8
AM_4
100
AcDbPolyline
 90
       14
 70
     0
 43
0.0
 10
2.853297893035827
 20
2.481419054129764
 10
2.837770657037911
 20
2.503701723863878
 10
2.820403616458852
 20
2.536879608252919
 10
2.805318868701386
 20
2.576001564102114
 10
2.792979546593647
 20
2.620764293666815
 10
2.784130509777264
 20
2.669745940020434
 10
2.779224373772498
 20
2.722366395024814
 10
2.778735171098766
 20
2.775906312735755
 10
2.7828620693234
 20
2.83037132527321
 10
2.791298882440298
 20
2.88157522201905
 10
2.804207903920361
 20
2.930571851413196
 10
2.820084743700653
 20
2.972409702809991
 10
2.839459665655883
 20
3.009022793275615
 10
2.853291807291129
 20
3.028573354313949
  0
LWPOLYLINE
  5
B1
330
82
100
AcDbEntity
  8
AM_4
100
AcDbPolyline
 90
       19
 70
     0
 43
0.0
 10
2.853291807291129
 20
3.028573354313949
 10
2.859622697133699
 20
3.036026080539084
 10
2.881757413449333
 20
3.055588057226362
 10
2.902696270407738
 20
3.065478078096044
 10
2.924040061636676
 20
3.067031823357097
 10
2.943309472990852
 20
3.060417711836527
 10
2.9617770240809
 20
3.045686231618825
 10
2.978097790080297
 20
3.024029312793966
 10
2.992793367330783
 20
2.995045861172562
 10
3.00528812015812
 20
2.959833521331547
 10
3.015577196899873
 20
2.918486792027881
 10
3.02334782852588
 20
2.872197832402547
 10
3.028471275053418
 20
2.821546523411298
 10
3.030700001901926
 20
2.768767337972357
 10
3.029928241479888
 20
2.714126400063965
 10
3.026125649853624
 20
2.661382708820506
 10
3.019055582132801
 20
2.609825302248244
 10
3.011427924588894
 20
2.572975981038991
 10
3.001726667455946
 20
2.538831962284629
  0
CIRCLE
  5
B2
330
82
100
AcDbEntity
  8
AM_4
100
AcDbCircle
 10
0.0000000000000005
 20
2.755
 30
0.0
 40
0.2633
  0
LINE
  5
B3
330
82
100
AcDbEntity
  8
AM_4
100
AcDbLine
 10
3.012083333333334
 20
3.375
 30
0.0
 11
-3.012083333333334
 21
3.375
 31
0.0
  0
ARC
  5
B4
330
82
100
AcDbEntity
  8
AM_4
100
AcDbCircle
 10
-3.012083333333333
 20
3.168333333333333
 30
0.0
 40
0.2066666666666674
100
AcDbArc
 50
90.0
 51
179.9999991462263
  0
ARC
  5
B5
330
82
100
AcDbEntity
  8
AM_4
100
AcDbCircle
 10
3.012083333333333
 20
3.168333333333333
 30
0.0
 40
0.2066666666666674
100
AcDbArc
 50
0.0000008537736463
 51
90.0
  0
LWPOLYLINE
  5
B6
330
82
100
AcDbEntity
  8
AM_4
100
AcDbPolyline
 90
       10
 70
     0
 43
0.0
 10
3.001726667455946
 20
2.538831962284629
 10
2.989787419753793
 20
2.50811418883871
 10
2.975611148081338
 20
2.482045981979182
 10
2.958050998875713
 20
2.460590610831067
 10
2.938041773730486
 20
2.446956354360316
 10
2.918150525082472
 20
2.442509306147417
 10
2.896957066616419
 20
2.446419790126591
 10
2.876725852727824
 20
2.458014242124147
 10
2.856519979560645
 20
2.477516391718403
 10
2.853297893035827
 20
2.481419054129764
  0
LWPOLYLINE
  5
B7
330
82
100
AcDbEntity
  8
AM_4
100
AcDbPolyline
 90
       38
 70
     0
 43
0.0
 10
-0.1931237425286227
 20
2.51673798901069
 10
-0.2247773876337402
 20
2.549401647574749
 10
-0.2513290149572195
 20
2.586344947468285
 10
-0.2747867284002582
 20
2.632830457146165
 10
-0.2904584675348543
 20
2.682508933550436
 10
-0.2980260708949466
 20
2.735826722532212
 10
-0.2967712970511809
 20
2.789669551047541
 10
-0.2863776799781778
 20
2.843367253834602
 10
-0.2671442659799154
 20
2.894544969929137
 10
-0.2395978365428449
 20
2.941348760415386
 10
-0.2044256619029115
 20
2.982699930660611
 10
-0.1637423537940593
 20
3.016216295743006
 10
-0.1178269926243191
 20
3.042105152413026
 10
-0.0702878883653983
 20
3.058667126998933
 10
-0.0205929442817162
 20
3.066754731771814
 10
0.0277681682200893
 20
3.066110940617107
 10
0.0753345744140878
 20
3.057375022173391
 10
0.1203142436341149
 20
3.040941366600955
 10
0.1620256165509873
 20
3.017431357345547
 10
0.2002686312207578
 20
2.986676194903271
 10
0.2331120086950287
 20
2.950201699607331
 10
0.2607878312060569
 20
2.907078031636618
 10
0.2812086254768114
 20
2.860058193747882
 10
0.2942032510781567
 20
2.808322157706709
 10
0.2986179598855027
 20
2.755148362223601
 10
0.2940511997023751
 20
2.700784048664941
 10
0.2805202212477247
 20
2.647948017056843
 10
0.2581882587860341
 20
2.598159141481853
 10
0.2277043691432583
 20
2.552931250455906
 10
0.1906195354219566
 20
2.514586683809149
 10
0.1474248037181279
 20
2.483297265825307
 10
0.1013588849669651
 20
2.461122396009956
 10
0.0521277834459689
 20
2.447306501545387
 10
0.0034850129552516
 20
2.442555437871874
 10
-0.0452597742700076
 20
2.446116501087451
 10
-0.0916944341274206
 20
2.457652773126838
 10
-0.1356070307627073
 20
2.476631553720965
 10
-0.1931237425529901
 20
2.51673798895315
  0
LINE
  5
B8
330
82
100
AcDbEntity
  8
AM_4
100
AcDbLine
 10
-3.218750000000001
 20
3.168333333333333
 30
0.0
 11
-3.218750000000001
 21
2.3125
 31
0.0
  0
LINE
  5
B9
330
82
100
AcDbEntity
  8
AM_4
100
AcDbLine
 10
3.218750000000001
 20
2.3125
 30
0.0
 11
3.218750000000001
 21
3.168333333333333
 31
0.0
  0
LINE
  5
BA
330
82
100
AcDbEntity
  8
AM_4
100
AcDbLine
 10
3.218750000000001
 20
3.168333333333333
 30
0.0
 11
-3.218750000000001
 21
3.168333333333333
 31
0.0
  0
ARC
  5
BC
330
82
100
AcDbEntity
  8
AM_5
100
AcDbCircle
 10
0.0000000000000033
 20
2.755000000000002
 30
0.0
 40
0.3124999999999972
100
AcDbArc
 50
63.85157066748221
 51
75.00000000000075
  0
ARC
  5
BD
330
82
100
AcDbEntity
  8
AM_5
100
AcDbCircle
 10
0.0000000000000021
 20
2.754999999999999
 30
0.0
 40
0.3125000000000006
100
AcDbArc
 50
75.0000000000007
 51
15.00000000000027
  0
ENDBLK
  5
85
330
82
100
AcDbEntity
  8
0
100
AcDbBlockEnd
  0
BLOCK
  5
C0
330
BE
100
AcDbEntity
  8
0
100
AcDbBlockBegin
  2
3_4_7_16C_2_0_in_023568_4
 70
     2
 10
0.0
 20
0.0
 30
0.0
  3
3_4_7_16C_2_0_in_023568_4
  1

  0
ATTDEF
  5
C2
330
BE
100
AcDbEntity
  8
AM_6
100
AcDbText
 10
8.21875
 20
-2.135
 30
0.0
 40
0.5
  1
E-Type Collar -Inch
100
AcDbAttributeDefinition
  3

  2
NN
 70
     8
280
     0
  0
ATTDEF
  5
C3
330
BE
100
AcDbEntity
  8
AM_6
100
AcDbText
 10
8.21875
 20
-2.635
 30
0.0
 40
0.5
  1
E-Type Bearings
100
AcDbAttributeDefinition
  3

  2
NT
 70
     8
280
     0
  0
ATTDEF
  5
C4
330
BE
100
AcDbEntity
  8
AM_6
100
AcDbText
 10
8.21875
 20
-3.135
 30
0.0
 40
0.5
  1
4-7/16C
100
AcDbAttributeDefinition
  3

  2
NB
 70
     8
280
     0
  0
ATTDEF
  5
C5
330
BE
100
AcDbEntity
  8
AM_6
100
AcDbText
 10
8.21875
 20
-3.635
 30
0.0
 40
0.5
  1
$BORE.C
100
AcDbAttributeDefinition
  3

  2
NBSYN
 70
     8
280
     0
  0
ATTDEF
  5
C6
330
BE
100
AcDbEntity
  8
AM_6
100
AcDbText
 10
8.21875
 20
-4.135
 30
0.0
 40
0.5
  1
4-7/16C
100
AcDbAttributeDefinition
  3

  2
LINA
 70
     8
280
     0
  0
ATTDEF
  5
C7
330
BE
100
AcDbEntity
  8
AM_6
100
AcDbText
 10
8.21875
 20
-4.635
 30
0.0
 40
0.5
  1
4-7/16
100
AcDbAttributeDefinition
  3

  2
BORE
 70
     8
280
     0
  0
ATTDEF
  5
C8
330
BE
100
AcDbEntity
  8
AM_6
100
AcDbText
 10
8.21875
 20
-5.135
 30
0.0
 40
0.5
  1
6.43750
100
AcDbAttributeDefinition
  3

  2
L
 70
     8
280
     0
  0
ATTDEF
  5
C9
330
BE
100
AcDbEntity
  8
AM_6
100
AcDbText
 10
8.21875
 20
-5.635
 30
0.0
 40
0.5
  1
6.75
100
AcDbAttributeDefinition
  3

  2
A
 70
     8
280
     0
  0
ATTDEF
  5
CA
330
BE
100
AcDbEntity
  8
AM_6
100
AcDbText
 10
8.21875
 20
-6.135
 30
0.0
 40
0.5
  1
3.25
100
AcDbAttributeDefinition
  3

  2
B
 70
     8
280
     0
  0
ATTDEF
  5
CB
330
BE
100
AcDbEntity
  8
AM_6
100
AcDbText
 10
8.21875
 20
-6.635
 30
0.0
 40
0.5
  1
5.00
100
AcDbAttributeDefinition
  3

  2
C
 70
     8
280
     0
  0
ATTDEF
  5
CC
330
BE
100
AcDbEntity
  8
AM_6
100
AcDbText
 10
8.21875
 20
-7.135
 30
0.0
 40
0.5
  1
7.00
100
AcDbAttributeDefinition
  3

  2
D
 70
     8
280
     0
  0
ATTDEF
  5
CD
330
BE
100
AcDbEntity
  8
AM_6
100
AcDbText
 10
8.21875
 20
-7.635
 30
0.0
 40
0.5
  1
0.78
100
AcDbAttributeDefinition
  3

  2
E
 70
     8
280
     0
  0
ATTDEF
  5
CE
330
BE
100
AcDbEntity
  8
AM_6
100
AcDbText
 10
8.21875
 20
-8.135
 30
0.0
 40
0.5
  1
0.62
100
AcDbAttributeDefinition
  3

  2
F
 70
     8
280
     0
  0
ATTDEF
  5
CF
330
BE
100
AcDbEntity
  8
AM_6
100
AcDbText
 10
8.21875
 20
-8.635
 30
0.0
 40
0.5
  1
5/8-11
100
AcDbAttributeDefinition
  3

  2
CS
 70
     8
280
     0
  0
ATTDEF
  5
D0
330
BE
100
AcDbEntity
  8
AM_6
100
AcDbText
 10
8.21875
 20
-9.135
 30
0.0
 40
0.5
  1
0.6250
100
AcDbAttributeDefinition
  3

  2
NDM
 70
     8
280
     0
  0
ATTDEF
  5
D1
330
BE
100
AcDbEntity
  8
AM_6
100
AcDbText
 10
8.21875
 20
-9.635
 30
0.0
 40
0.5
  1
0.5270
100
AcDbAttributeDefinition
  3

  2
KDM
 70
     8
280
     0
  0
ATTDEF
  5
D2
330
BE
100
AcDbEntity
  8
AM_6
100
AcDbText
 10
8.21875
 20
-10.135
 30
0.0
 40
0.5
  1
baldor
100
AcDbAttributeDefinition
  3

  2
COMPANY
 70
     8
280
     0
  0
LINE
  5
D3
330
BE
100
AcDbEntity
  8
AM_9
100
AcDbLine
 10
2.324485551990042
 20
-2.52207886592045
 30
0.0
 11
2.316950329330447
 21
-2.512680283776894
 31
0.0
  0
LINE
  5
D4
330
BE
100
AcDbEntity
  8
AM_9
100
AcDbLine
 10
2.317042593857101
 20
-2.997204635916674
 30
0.0
 11
2.324485551990042
 21
-2.987921134079551
 31
0.0
  0
LWPOLYLINE
  5
D5
330
BE
100
AcDbEntity
  8
AM_9
100
AcDbPolyline
 90
       26
 70
     0
 43
0.0
 10
2.316814509121242
 20
-2.512510878566227
 10
2.314618024084274
 20
-2.509856192188114
 10
2.296770136053332
 20
-2.493826728359923
 10
2.277332793773729
 20
-2.485431741069183
 10
2.256087574917697
 20
-2.485041035469064
 10
2.23421868177197
 20
-2.49293669058013
 10
2.212233615340986
 20
-2.509214792725996
 10
2.191106055235394
 20
-2.53338463061327
 10
2.172039250150911
 20
-2.564385682101254
 10
2.155509657028695
 20
-2.601723027356619
 10
2.142955329123387
 20
-2.642389175647177
 10
2.134176589205052
 20
-2.686765161661826
 10
2.129924966709983
 20
-2.730540671172997
 10
2.129700571780227
 20
-2.77506226263029
 10
2.133356585982534
 20
-2.817198673292772
 10
2.140541905483726
 20
-2.857611573709104
 10
2.151057845048618
 20
-2.895546927761883
 10
2.164317791394345
 20
-2.929763357779447
 10
2.180618256719433
 20
-2.960833788954143
 10
2.198678054056721
 20
-2.986353949484821
 10
2.21901763165074
 20
-3.006716445901869
 10
2.239893686225771
 20
-3.019902687899305
 10
2.26149375436081
 20
-3.025640851840677
 10
2.282325221725054
 20
-3.023205932498213
 10
2.302102090152584
 20
-3.012312059995627
 10
2.316821233223921
 20
-2.997480735952773
  0
LWPOLYLINE
  5
D6
330
BE
100
AcDbEntity
  8
AM_9
100
AcDbPolyline
 90
       12
 70
     0
 43
0.0
 10
2.322099181515202
 20
-2.990384024486899
 10
2.335605606780138
 20
-2.96667011493844
 10
2.348697575827197
 20
-2.93309348390803
 10
2.358716045565417
 20
-2.894870011748754
 10
2.366063938353267
 20
-2.851990272575162
 10
2.370384548876377
 20
-2.808567052970326
 10
2.372166329573059
 20
-2.763458310322243
 10
2.371453112558443
 20
-2.720439385781249
 10
2.36844275688463
 20
-2.678405773149243
 10
2.363204346679381
 20
-2.638853881258933
 10
2.355821569673044
 20
-2.602398153368128
 10
2.340113686257207
 20
-2.553397228143254
  0
LWPOLYLINE
  5
D7
330
BE
100
AcDbEntity
  8
AM_9
100
AcDbPolyline
 90
        3
 70
     0
 43
0.0
 10
2.316821233223921
 20
-2.997480735952773
 10
2.320044395103427
 20
-2.993272110291938
 10
2.322099181515202
 20
-2.990384024486899
  0
LINE
  5
D8
330
BE
100
AcDbEntity
  8
AM_9
100
AcDbLine
 10
2.272596986253967
 20
-3.0183
 30
0.0
 11
2.872587846402014
 21
-3.0183
 31
0.0
  0
LINE
  5
D9
330
BE
100
AcDbEntity
  8
AM_9
100
AcDbLine
 10
2.872587846402014
 20
-2.4917
 30
0.0
 11
2.272596986253967
 21
-2.4917
 31
0.0
  0
ELLIPSE
  5
DA
330
BE
100
AcDbEntity
  8
AM_9
100
AcDbEllipse
 10
2.872587846402014
 20
-2.754999999999999
 30
0.0
 11
-4.836742533232489E-17
 21
-0.263300000000001
 31
0.0
210
0.0
220
0.0
230
1.0
 40
0.4226182617406981
 41
3.496266968874004
 42
5.937198954799181
  0
LINE
  5
DB
330
BE
100
AcDbEntity
  8
AM_9
100
AcDbLine
 10
2.82069928066594
 20
-2.98792113407955
 30
0.0
 11
2.852939749608296
 21
-3.028134238507942
 31
0.0
  0
LINE
  5
DC
330
BE
100
AcDbEntity
  8
AM_9
100
AcDbLine
 10
2.853187820908066
 20
-2.481556345487558
 30
0.0
 11
2.82069928066594
 21
-2.52207886592045
 31
0.0
  0
LWPOLYLINE
  5
DD
330
BE
100
AcDbEntity
  8
AM_9
100
AcDbPolyline
 90
       39
 70
     0
 43
0.0
 10
-0.2004855335474914
 20
-2.56113793604528
 10
-0.2284870403631727
 20
-2.590922609266
 10
-0.2522235207574039
 20
-2.625361504859066
 10
-0.2716170892950249
 20
-2.666625966359503
 10
-0.2837708593570372
 20
-2.712130709932781
 10
-0.2874090510260164
 20
-2.75512197943964
 10
-0.2835012365354684
 20
-2.799419076317277
 10
-0.2728165394547187
 20
-2.840041295323744
 10
-0.2551744219456225
 20
-2.879417343416289
 10
-0.2314953906135319
 20
-2.915293618628422
 10
-0.2016678074271649
 20
-2.947769979336691
 10
-0.1660416034112359
 20
-2.975910349000717
 10
-0.1253505053837709
 20
-2.998620850913376
 10
-0.0802650003011226
 20
-3.01501538314773
 10
-0.0318205490037136
 20
-3.024161448187613
 10
0.0177851735965183
 20
-3.025312141157323
 10
0.0682908908293392
 20
-3.018046082574479
 10
0.1158743863841469
 20
-3.002762789840522
 10
0.1614546016346622
 20
-2.978913561748869
 10
0.2003322707517028
 20
-2.949002720358838
 10
0.2343650563525925
 20
-2.911551847804663
 10
0.2591720791280003
 20
-2.871869168484763
 10
0.2770471746647936
 20
-2.826927023532753
 10
0.285765311892418
 20
-2.78386465533129
 10
0.2868756933141804
 20
-2.7385418707431
 10
0.2806810642026699
 20
-2.696858426679573
 10
0.2672965945145538
 20
-2.655647191448046
 10
0.2477634103868063
 20
-2.617952192259088
 10
0.2218009032832168
 20
-2.582975868315247
 10
0.1899105666194736
 20
-2.551899882855931
 10
0.1525499724393806
 20
-2.525600058956835
 10
0.110130174285984
 20
-2.504915004906295
 10
0.0637083966896343
 20
-2.490931137430506
 10
0.014905178190104
 20
-2.484532626553726
 10
-0.0356723312723026
 20
-2.486269453099534
 10
-0.084669712527991
 20
-2.496232437588119
 10
-0.1326316164390673
 20
-2.514835484649316
 10
-0.167874627386378
 20
-2.535324939864303
 10
-0.2004855335474913
 20
-2.561137936045281
  0
LWPOLYLINE
  5
DE
330
BE
100
AcDbEntity
  8
AM_9
100
AcDbPolyline
 90
        3
 70
     0
 43
0.0
 10
2.340113686257207
 20
-2.553397228143254
 10
2.328152511009697
 20
-2.529161317480328
 10
2.316814509121242
 20
-2.512510878566227
  0
LINE
  5
DF
330
BE
100
AcDbEntity
  8
AM_9
100
AcDbLine
 10
2.5
 20
-3.375
 30
0.0
 11
2.5
 21
-2.135
 31
0.0
  0
LINE
  5
E0
330
BE
100
AcDbEntity
  8
AM_9
100
AcDbLine
 10
-2.5
 20
-2.135
 30
0.0
 11
-2.5
 21
-3.375
 31
0.0
  0
LINE
  5
E1
330
BE
100
AcDbEntity
  8
AM_9
100
AcDbLine
 10
-3.21875
 20
-2.135
 30
0.0
 11
3.21875
 21
-2.135
 31
0.0
  0
LINE
  5
E2
330
BE
100
AcDbEntity
  8
AM_9
100
AcDbLine
 10
3.21875
 20
-2.3125
 30
0.0
 11
3.21875
 21
-2.135
 31
0.0
  0
LINE
  5
E3
330
BE
100
AcDbEntity
  8
AM_9
100
AcDbLine
 10
-3.21875
 20
-2.135
 30
0.0
 11
-3.21875
 21
-2.3125
 31
0.0
  0
ELLIPSE
  5
E4
330
BE
100
AcDbEntity
  8
AM_9
100
AcDbEllipse
 10
2.272596986253967
 20
-2.754999999999999
 30
0.0
 11
-4.836742533232481E-17
 21
-0.2633000000000005
 31
0.0
210
0.0
220
0.0
230
1.0
 40
0.4226182617407005
 41
0.0
 42
6.283185307179586
  0
LINE
  5
E5
330
BE
100
AcDbEntity
  8
AM_7
100
AcDbLine
 10
-0.276465
 20
-2.755
 30
0.0
 11
0.276465
 21
-2.755
 31
0.0
  0
ELLIPSE
  5
E6
330
BE
100
AcDbEntity
  8
AM_4
100
AcDbEllipse
 10
2.872587846402014
 20
-2.755
 30
0.0
 11
-4.836742533232465E-17
 21
-0.2632999999999996
 31
0.0
210
0.0
220
0.0
230
1.0
 40
0.4226182617406986
 41
5.937198954799173
 42
9.779452276053592
  0
LWPOLYLINE
  5
E7
330
BE
100
AcDbEntity
  8
AM_4
100
AcDbPolyline
 90
       15
 70
     0
 43
0.0
 10
2.85328351676813
 20
-3.028563011093418
 10
2.845004912968042
 20
-3.017431357345547
 10
2.826887863189988
 20
-2.986676194903271
 10
2.811000275568852
 20
-2.950201699607331
 10
2.797374763617285
 20
-2.907078031636618
 10
2.787179872830168
 20
-2.860058193747882
 10
2.780633677024549
 20
-2.808322157706708
 10
2.778395418739432
 20
-2.755148362223601
 10
2.780710805614778
 20
-2.700784048664941
 10
2.787525454811304
 20
-2.647948017056843
 10
2.798664080635865
 20
-2.598159141481852
 10
2.813637373126995
 20
-2.552931250455905
 10
2.83149688181445
 20
-2.514586683809148
 10
2.851812322691213
 20
-2.483297265825307
 10
2.85329221342092
 20
-2.481426139040348
  0
LWPOLYLINE
  5
E8
330
BE
100
AcDbEntity
  8
AM_4
100
AcDbPolyline
 90
        8
 70
     0
 43
0.0
 10
2.85329221342092
 20
-2.481426139040348
 10
2.872890834855761
 20
-2.461122396009956
 10
2.894765453474351
 20
-2.447306501545387
 10
2.91569873143319
 20
-2.442555437871874
 10
2.93601739037792
 20
-2.446116501087451
 10
2.954742346780136
 20
-2.457652773126838
 10
2.971898101951924
 20
-2.476631553720964
 10
2.993540223312188
 20
-2.516737988961897
  0
LWPOLYLINE
  5
E9
330
BE
100
AcDbEntity
  8
AM_4
100
AcDbPolyline
 90
       19
 70
     0
 43
0.0
 10
2.993540223312188
 20
-2.516737988961897
 10
3.005051092790513
 20
-2.549401647574749
 10
3.014487918097675
 20
-2.586344947468284
 10
3.02265974845454
 20
-2.632830457146164
 10
3.0280294216127
 20
-2.682508933550436
 10
3.030600772121837
 20
-2.735826722532211
 10
3.030173249376928
 20
-2.789669551047541
 10
3.026639933098541
 20
-2.843367253834602
 10
3.020013553739952
 20
-2.894544969929136
 10
3.010343450590927
 20
-2.941348760415386
 10
2.997682850093038
 20
-2.982699930660611
 10
2.982598636858604
 20
-3.016216295743006
 10
2.96501881738332
 20
-3.042105152413026
 10
2.946182627479429
 20
-3.058667126998933
 10
2.925821440339173
 20
-3.066754731771814
 10
2.905329667063936
 20
-3.066110940617107
 10
2.884541312507352
 20
-3.05737502217339
 10
2.86428946995176
 20
-3.040941366600955
 10
2.85328351676813
 20
-3.028563011093418
  0
LINE
  5
EA
330
BE
100
AcDbEntity
  8
AM_4
100
AcDbLine
 10
3.21875
 20
-3.168333333333333
 30
0.0
 11
3.21875
 21
-2.3125
 31
0.0
  0
LINE
  5
EB
330
BE
100
AcDbEntity
  8
AM_4
100
AcDbLine
 10
-3.21875
 20
-2.3125
 30
0.0
 11
-3.21875
 21
-3.168333333333333
 31
0.0
  0
LINE
  5
EC
330
BE
100
AcDbEntity
  8
AM_4
100
AcDbLine
 10
-3.012083333333333
 20
-3.375
 30
0.0
 11
3.012083333314423
 21
-3.375
 31
0.0
  0
LINE
  5
ED
330
BE
100
AcDbEntity
  8
AM_4
100
AcDbLine
 10
-3.21875
 20
-3.168333333333333
 30
0.0
 11
3.21875
 21
-3.168333333333333
 31
0.0
  0
ARC
  5
EE
330
BE
100
AcDbEntity
  8
AM_4
100
AcDbCircle
 10
3.012083333333333
 20
-3.168333333333333
 30
0.0
 40
0.2066666666666674
100
AcDbArc
 50
270.0
 51
0.0000008537736463
  0
ARC
  5
EF
330
BE
100
AcDbEntity
  8
AM_4
100
AcDbCircle
 10
-3.012083333333333
 20
-3.168333333333333
 30
0.0
 40
0.2066666666666674
100
AcDbArc
 50
179.9999991462263
 51
270.0
  0
LWPOLYLINE
  5
F0
330
BE
100
AcDbEntity
  8
AM_4
100
AcDbPolyline
 90
       39
 70
     0
 43
0.0
 10
-0.2155544720181512
 20
-2.538831962341532
 10
-0.1829694781001245
 20
-2.50811418883871
 10
-0.1453008403654411
 20
-2.482045981979181
 10
-0.1000486253615216
 20
-2.460590610831067
 10
-0.0502072330918372
 20
-2.446956354360316
 10
-0.0023025080262372
 20
-2.442509306147417
 10
0.047107951009527
 20
-2.44641979012659
 10
0.0928460961026895
 20
-2.458014242124146
 10
0.1372512745760242
 20
-2.477516391718402
 10
0.1774022234106239
 20
-2.503701723863878
 10
0.2137509250358742
 20
-2.536879608252919
 10
0.2447049604270846
 20
-2.576001564102114
 10
0.269619767975388
 20
-2.620764293666815
 10
0.2872713868129432
 20
-2.669745940020434
 10
0.2969823964300817
 20
-2.722366395024813
 10
0.2979477961114825
 20
-2.775906312735755
 10
0.28978719414464
 20
-2.83037132527321
 10
0.2729859287607939
 20
-2.881575222019049
 10
0.2469628315799005
 20
-2.930571851413196
 10
0.2144110745622994
 20
-2.972409702809991
 10
0.17382487469527
 20
-3.009022793275614
 10
0.1305113363741598
 20
-3.036026080539084
 10
0.0815944914391151
 20
-3.055588057226362
 10
0.0338846429086099
 20
-3.065478078096043
 10
-0.0163253574105991
 20
-3.067031823357097
 10
-0.0631609592098733
 20
-3.060417711836526
 10
-0.1095272588044802
 20
-3.045686231618824
 10
-0.1518318896436421
 20
-3.024029312793966
 10
-0.1910966054029327
 20
-2.995045861172561
 10
-0.2254367797034186
 20
-2.959833521331547
 10
-0.2544306611511546
 20
-2.918486792027881
 10
-0.2767874323869599
 20
-2.872197832402546
 10
-0.2917568397515269
 20
-2.821546523411298
 10
-0.2983275421955908
 20
-2.768767337972357
 10
-0.2960481367162207
 20
-2.714126400063964
 10
-0.2848803573311217
 20
-2.661382708820506
 10
-0.2643877492676159
 20
-2.609825302248244
 10
-0.2426571948460751
 20
-2.57297598103899
 10
-0.2155544720824572
 20
-2.5388319623012
  0
CIRCLE
  5
F1
330
BE
100
AcDbEntity
  8
AM_4
100
AcDbCircle
 10
0.0
 20
-2.755
 30
0.0
 40
0.2633
  0
CIRCLE
  5
F2
330
BE
100
AcDbEntity
  8
AM_5
100
AcDbCircle
 10
0.0000000000000001
 20
-2.755
 30
0.0
 40
0.3124999999999999
  0
ENDBLK
  5
C1
330
BE
100
AcDbEntity
  8
0
100
AcDbBlockEnd
  0
BLOCK
  5
F5
330
F3
100
AcDbEntity
  8
0
100
AcDbBlockBegin
  2
4_405015E_Inch_0_in_023568_4
 70
     2
 10
0.0
 20
0.0
 30
0.0
  3
4_405015E_Inch_0_in_023568_4
  1

  0
ATTDEF
  5
F7
330
F3
100
AcDbEntity
  8
AM_6
100
AcDbText
 10
5.21875
 20
0.2525907427704616
 30
0.0
 40
0.5
  1
405015E -Inch
100
AcDbAttributeDefinition
  3

  2
NN
 70
     8
280
     0
  0
ATTDEF
  5
F8
330
F3
100
AcDbEntity
  8
AM_6
100
AcDbText
 10
5.21875
 20
-0.2474092572295384
 30
0.0
 40
0.5
  1
Grease Fitting
100
AcDbAttributeDefinition
  3

  2
NT
 70
     8
280
     0
  0
ATTDEF
  5
F9
330
F3
100
AcDbEntity
  8
AM_6
100
AcDbText
 10
5.21875
 20
-0.7474092572295384
 30
0.0
 40
0.5
  1
405015E-Inch
100
AcDbAttributeDefinition
  3

  2
NB
 70
     8
280
     0
  0
ATTDEF
  5
FA
330
F3
100
AcDbEntity
  8
AM_6
100
AcDbText
 10
5.21875
 20
-1.247409257229538
 30
0.0
 40
0.5
  1
$MN.-Inch
100
AcDbAttributeDefinition
  3

  2
NBSYN
 70
     8
280
     0
  0
ATTDEF
  5
FB
330
F3
100
AcDbEntity
  8
AM_6
100
AcDbText
 10
5.21875
 20
-1.747409257229538
 30
0.0
 40
0.5
  1
405015E
100
AcDbAttributeDefinition
  3

  2
LINA
 70
     8
280
     0
  0
ATTDEF
  5
FC
330
F3
100
AcDbEntity
  8
AM_6
100
AcDbText
 10
5.21875
 20
-2.247409257229538
 30
0.0
 40
0.5
  1
405015E
100
AcDbAttributeDefinition
  3

  2
MN
 70
     8
280
     0
  0
ATTDEF
  5
FD
330
F3
100
AcDbEntity
  8
AM_6
100
AcDbText
 10
5.21875
 20
-2.747409257229538
 30
0.0
 40
0.5
  1
1/8 x 27PTF
100
AcDbAttributeDefinition
  3

  2
T
 70
     8
280
     0
  0
ATTDEF
  5
FE
330
F3
100
AcDbEntity
  8
AM_6
100
AcDbText
 10
5.21875
 20
-3.247409257229538
 30
0.0
 40
0.5
  1
baldor
100
AcDbAttributeDefinition
  3

  2
COMPANY
 70
     8
280
     0
  0
CIRCLE
  5
FF
330
F3
100
AcDbEntity
  8
AM_9
100
AcDbCircle
 10
0.0
 20
0.0000000000000003
 30
0.0
 40
0.161902872472269
  0
CIRCLE
  5
100
330
F3
100
AcDbEntity
  8
AM_9
100
AcDbCircle
 10
0.0
 20
0.0000000000000003
 30
0.0
 40
0.1986176267812154
  0
CIRCLE
  5
101
330
F3
100
AcDbEntity
  8
AM_9
100
AcDbCircle
 10
0.0
 20
0.0000000000000003
 30
0.0
 40
0.2057518972230696
  0
CIRCLE
  5
102
330
F3
100
AcDbEntity
  8
AM_9
100
AcDbCircle
 10
0.0
 20
0.0000000000000003
 30
0.0
 40
0.1188200907348975
  0
CIRCLE
  5
103
330
F3
100
AcDbEntity
  8
AM_9
100
AcDbCircle
 10
0.0
 20
0.0000000000000004
 30
0.0
 40
0.105
  0
LINE
  5
104
330
F3
100
AcDbEntity
  8
AM_4
100
AcDbLine
 10
0.21875
 20
0.126295371385231
 30
0.0
 11
0.0
 21
0.2525907427704616
 31
0.0
  0
LINE
  5
105
330
F3
100
AcDbEntity
  8
AM_4
100
AcDbLine
 10
0.21875
 20
-0.1262953713852303
 30
0.0
 11
0.21875
 21
0.126295371385231
 31
0.0
  0
LINE
  5
106
330
F3
100
AcDbEntity
  8
AM_4
100
AcDbLine
 10
0.0
 20
0.2525907427704616
 30
0.0
 11
-0.21875
 21
0.126295371385231
 31
0.0
  0
LINE
  5
107
330
F3
100
AcDbEntity
  8
AM_4
100
AcDbLine
 10
-0.21875
 20
-0.1262953713852303
 30
0.0
 11
0.0
 21
-0.2525907427704608
 31
0.0
  0
LINE
  5
108
330
F3
100
AcDbEntity
  8
AM_4
100
AcDbLine
 10
-0.21875
 20
0.126295371385231
 30
0.0
 11
-0.21875
 21
-0.1262953713852303
 31
0.0
  0
LINE
  5
109
330
F3
100
AcDbEntity
  8
AM_4
100
AcDbLine
 10
0.0
 20
-0.2525907427704608
 30
0.0
 11
0.21875
 21
-0.1262953713852303
 31
0.0
  0
CIRCLE
  5
10A
330
F3
100
AcDbEntity
  8
AM_4
100
AcDbCircle
 10
0.0
 20
0.0000000000000003
 30
0.0
 40
0.1725340532830154
  0
CIRCLE
  5
10B
330
F3
100
AcDbEntity
  8
AM_4
100
AcDbCircle
 10
0.0
 20
0.0000000000000004
 30
0.0
 40
0.1026779019331875
  0
CIRCLE
  5
10C
330
F3
100
AcDbEntity
  8
AM_4
100
AcDbCircle
 10
0.0
 20
0.0000000000000004
 30
0.0
 40
0.135
  0
ARC
  5
10D
330
F3
100
AcDbEntity
  8
AM_5
100
AcDbCircle
 10
0.0
 20
0.0000000000000003
 30
0.0
 40
0.202500005
100
AcDbArc
 50
75.00000000000001
 51
15.0
  0
CIRCLE
  5
10E
330
F3
100
AcDbEntity
  8
AM_4
100
AcDbCircle
 10
0.0000000000000001
 20
0.0000000000000003
 30
0.0
 40
0.2187500000000001
  0
CIRCLE
  5
10F
330
F3
100
AcDbEntity
  8
AM_4
100
AcDbCircle
 10
0.0
 20
0.0000000000000003
 30
0.0
 40
0.21375
  0
ENDBLK
  5
F6
330
F3
100
AcDbEntity
  8
0
100
AcDbBlockEnd
  0
BLOCK
  5
112
330
110
100
AcDbEntity
  8
0
100
AcDbBlockBegin
  2
5_023568_Insert_0_in_023568_4
 70
     2
 10
0.0
 20
0.0
 30
0.0
  3
5_023568_Insert_0_in_023568_4
  1

  0
ATTDEF
  5
114
330
110
100
AcDbEntity
  8
AM_6
100
AcDbText
 10
9.375
 20
3.7125
 30
0.0
 40
0.5
  1
B-1 Unit -Insert -Inch
100
AcDbAttributeDefinition
  3

  2
NN
 70
     8
280
     0
  0
ATTDEF
  5
115
330
110
100
AcDbEntity
  8
AM_6
100
AcDbText
 10
9.375
 20
3.2125
 30
0.0
 40
0.5
  1
Double-Interlock Bearings
100
AcDbAttributeDefinition
  3

  2
NT
 70
     8
280
     0
  0
ATTDEF
  5
116
330
110
100
AcDbEntity
  8
AM_6
100
AcDbText
 10
9.375
 20
2.7125
 30
0.0
 40
0.5
  1
023568-Insert
100
AcDbAttributeDefinition
  3

  2
NB
 70
     8
280
     0
  0
ATTDEF
  5
117
330
110
100
AcDbEntity
  8
AM_6
100
AcDbText
 10
9.375
 20
2.2125
 30
0.0
 40
0.5
  1
$PN.-Insert
100
AcDbAttributeDefinition
  3

  2
NBSYN
 70
     8
280
     0
  0
ATTDEF
  5
118
330
110
100
AcDbEntity
  8
AM_6
100
AcDbText
 10
9.375
 20
1.7125
 30
0.0
 40
0.5
  1
023568-Insert
100
AcDbAttributeDefinition
  3

  2
LINA
 70
     8
280
     0
  0
ATTDEF
  5
119
330
110
100
AcDbEntity
  8
AM_6
100
AcDbText
 10
9.375
 20
1.2125
 30
0.0
 40
0.5
  1
4-7/16
100
AcDbAttributeDefinition
  3

  2
SS
 70
     8
280
     0
  0
ATTDEF
  5
11A
330
110
100
AcDbEntity
  8
AM_6
100
AcDbText
 10
9.375
 20
0.7124999999999999
 30
0.0
 40
0.5
  1
023568
100
AcDbAttributeDefinition
  3

  2
PN
 70
     8
280
     0
  0
ATTDEF
  5
11B
330
110
100
AcDbEntity
  8
AM_6
100
AcDbText
 10
9.375
 20
0.2124999999999999
 30
0.0
 40
0.5
  1
B1U-DI-407R
100
AcDbAttributeDefinition
  3

  2
DESCRIPTION
 70
     8
280
     0
  0
ATTDEF
  5
11C
330
110
100
AcDbEntity
  8
AM_6
100
AcDbText
 10
9.375
 20
-0.2875000000000001
 30
0.0
 40
0.5
  1
6-3/4
100
AcDbAttributeDefinition
  3

  2
A
 70
     8
280
     0
  0
ATTDEF
  5
11D
330
110
100
AcDbEntity
  8
AM_6
100
AcDbText
 10
9.375
 20
-0.7875000000000001
 30
0.0
 40
0.5
  1
4-5/8
100
AcDbAttributeDefinition
  3

  2
B
 70
     8
280
     0
  0
ATTDEF
  5
11E
330
110
100
AcDbEntity
  8
AM_6
100
AcDbText
 10
9.375
 20
-1.2875
 30
0.0
 40
0.5
  1
8-3/4
100
AcDbAttributeDefinition
  3

  2
D
 70
     8
280
     0
  0
ATTDEF
  5
11F
330
110
100
AcDbEntity
  8
AM_6
100
AcDbText
 10
9.375
 20
-1.7875
 30
0.0
 40
0.5
  1
-
100
AcDbAttributeDefinition
  3

  2
H
 70
     8
280
     0
  0
ATTDEF
  5
120
330
110
100
AcDbEntity
  8
AM_6
100
AcDbText
 10
9.375
 20
-2.2875
 30
0.0
 40
0.5
  1
5.91
100
AcDbAttributeDefinition
  3

  2
J
 70
     8
280
     0
  0
ATTDEF
  5
121
330
110
100
AcDbEntity
  8
AM_6
100
AcDbText
 10
9.375
 20
-2.7875
 30
0.0
 40
0.5
  1
6-29/64
100
AcDbAttributeDefinition
  3

  2
L
 70
     8
280
     0
  0
ATTDEF
  5
122
330
110
100
AcDbEntity
  8
AM_6
100
AcDbText
 10
9.375
 20
-3.2875
 30
0.0
 40
0.5
  1
baldor
100
AcDbAttributeDefinition
  3

  2
COMPANY
 70
     8
280
     0
  0
LINE
  5
123
330
110
100
AcDbEntity
  8
AM_9
100
AcDbLine
 10
2.265732818591403
 20
3.145
 30
0.0
 11
2.010661848813759
 21
3.145
 31
0.0
  0
LINE
  5
124
330
110
100
AcDbEntity
  8
AM_9
100
AcDbLine
 10
2.0108078744384
 20
2.365
 30
0.0
 11
2.265586448179834
 21
2.365
 31
0.0
  0
LWPOLYLINE
  5
125
330
110
100
AcDbEntity
  8
AM_9
100
AcDbPolyline
 90
       21
 70
     0
 43
0.0
 10
2.010883375946459
 20
3.144999998791815
 10
1.992637080369743
 20
3.142701460187932
 10
1.964263606016432
 20
3.130612194742177
 10
1.934874597676671
 20
3.107710836839201
 10
1.907019930676197
 20
3.07573257510038
 10
1.880417602268087
 20
3.033884850784742
 10
1.857354243671963
 20
2.984889380343772
 10
1.837993307492582
 20
2.927819289453875
 10
1.824346860150327
 20
2.867359796576655
 10
1.816384413756529
 20
2.801773751407042
 10
1.814968658007742
 20
2.737568274194968
 10
1.81994597388212
 20
2.671995983194444
 10
1.830679049552662
 20
2.61102585134714
 10
1.847217938706389
 20
2.552416700430995
 10
1.868090465965668
 20
2.50044359504786
 10
1.893319418905554
 20
2.45422947931446
 10
1.920741002584183
 20
2.417178458517698
 10
1.950467595558331
 20
2.388820950329588
 10
1.979510870226052
 20
2.371650667996254
 10
2.008647456676044
 20
2.365035292849706
 10
2.01085891652831
 20
2.365000000946961
  0
LWPOLYLINE
  5
126
330
110
100
AcDbEntity
  8
AM_9
100
AcDbPolyline
 90
        6
 70
     0
 43
0.0
 10
2.120688174893114
 20
2.511984944643075
 10
2.126716111722927
 20
2.540386965091127
 10
2.135484774915338
 20
2.597500948148805
 10
2.141353117227074
 20
2.660951023882611
 10
2.143616189581723
 20
2.707253413837569
 10
2.144383138759292
 20
2.755
  0
LWPOLYLINE
  5
127
330
110
100
AcDbEntity
  8
AM_9
100
AcDbPolyline
 90
        7
 70
     0
 43
0.0
 10
2.01085891652831
 20
2.365000000946961
 10
2.034941922393102
 20
2.369430528179051
 10
2.059624735854459
 20
2.384783407621372
 10
2.08079636749366
 20
2.409747468912758
 10
2.099414514826627
 20
2.445010416289977
 10
2.114514599104584
 20
2.488273303682576
 10
2.120688174893114
 20
2.511984944643075
  0
LWPOLYLINE
  5
128
330
110
100
AcDbEntity
  8
AM_9
100
AcDbPolyline
 90
       21
 70
     0
 43
0.0
 10
2.265783204387584
 20
2.36500000135454
 10
2.247311258350221
 20
2.367365232864151
 10
2.218644363557163
 20
2.379893699057691
 10
2.189964238117228
 20
2.402728232997124
 10
2.162194513097455
 20
2.435497311679949
 10
2.136528697837836
 20
2.47707905070519
 10
2.113849777764381
 20
2.527008316437076
 10
2.09541659512164
 20
2.583405038212915
 10
2.082174709821313
 20
2.644836956083066
 10
2.074717473449861
 20
2.709448771419976
 10
2.073518721305757
 20
2.774708854447165
 10
2.078422346465016
 20
2.83940827812604
 10
2.089205129318325
 20
2.901346153931686
 10
2.105249316332166
 20
2.959210327151314
 10
2.126055398478711
 20
3.011754636571493
 10
2.150502805702975
 20
3.057140952837801
 10
2.177833961761869
 20
3.094311366846313
 10
2.206690727193555
 20
3.121880796168568
 10
2.235843821670368
 20
3.13884969753079
 10
2.2643933853177
 20
3.144986445149262
 10
2.265761144811101
 20
3.144999999502792
  0
LWPOLYLINE
  5
129
330
110
100
AcDbEntity
  8
AM_9
100
AcDbPolyline
 90
       11
 70
     0
 43
0.0
 10
2.265761144811101
 20
3.144999999502792
 10
2.291126862745232
 20
3.140055758216104
 10
2.315696239258886
 20
3.124484847233463
 10
2.337517000520263
 20
3.09861645570849
 10
2.356340391291954
 20
3.063318809010775
 10
2.372092646299097
 20
3.01896373273641
 10
2.384565460311588
 20
2.967201460704579
 10
2.393793079604179
 20
2.90901471634766
 10
2.399793556216567
 20
2.846394023199816
 10
2.402086358317877
 20
2.801024649156564
 10
2.402850899037565
 20
2.755
  0
LINE
  5
12A
330
110
100
AcDbEntity
  8
AM_9
100
AcDbLine
 10
2.265732818591405
 20
-2.365
 30
0.0
 11
2.01066184881376
 21
-2.365
 31
0.0
  0
LINE
  5
12B
330
110
100
AcDbEntity
  8
AM_9
100
AcDbLine
 10
2.010807874438399
 20
-3.145
 30
0.0
 11
2.265586448179834
 21
-3.145
 31
0.0
  0
LWPOLYLINE
  5
12C
330
110
100
AcDbEntity
  8
AM_9
100
AcDbPolyline
 90
       21
 70
     0
 43
0.0
 10
2.010883375946459
 20
-2.365000001208185
 10
1.992637080369743
 20
-2.367298539812068
 10
1.964263606016432
 20
-2.379387805257823
 10
1.934874597676671
 20
-2.402289163160799
 10
1.907019930676197
 20
-2.43426742489962
 10
1.880417602268087
 20
-2.476115149215258
 10
1.857354243671963
 20
-2.525110619656227
 10
1.837993307492582
 20
-2.582180710546125
 10
1.824346860150327
 20
-2.642640203423344
 10
1.816384413756529
 20
-2.708226248592958
 10
1.814968658007742
 20
-2.772431725805032
 10
1.81994597388212
 20
-2.838004016805556
 10
1.830679049552662
 20
-2.89897414865286
 10
1.847217938706389
 20
-2.957583299569005
 10
1.868090465965668
 20
-3.00955640495214
 10
1.893319418905554
 20
-3.05577052068554
 10
1.920741002584183
 20
-3.092821541482302
 10
1.950467595558331
 20
-3.121179049670411
 10
1.979510870226052
 20
-3.138349332003747
 10
2.008647456676044
 20
-3.144964707150294
 10
2.01085891652831
 20
-3.144999999053039
  0
LWPOLYLINE
  5
12D
330
110
100
AcDbEntity
  8
AM_9
100
AcDbPolyline
 90
        6
 70
     0
 43
0.0
 10
2.120688174893114
 20
-2.998015055356923
 10
2.126716111722927
 20
-2.969613034908873
 10
2.135484774915338
 20
-2.912499051851194
 10
2.141353117227074
 20
-2.849048976117389
 10
2.143616189581723
 20
-2.802746586162431
 10
2.144383138759292
 20
-2.755
  0
LWPOLYLINE
  5
12E
330
110
100
AcDbEntity
  8
AM_9
100
AcDbPolyline
 90
        7
 70
     0
 43
0.0
 10
2.01085891652831
 20
-3.144999999053039
 10
2.034941922393102
 20
-3.140569471820949
 10
2.059624735854459
 20
-3.125216592378628
 10
2.08079636749366
 20
-3.100252531087242
 10
2.099414514826627
 20
-3.064989583710024
 10
2.114514599104584
 20
-3.021726696317424
 10
2.120688174893114
 20
-2.998015055356923
  0
LWPOLYLINE
  5
12F
330
110
100
AcDbEntity
  8
AM_9
100
AcDbPolyline
 90
       21
 70
     0
 43
0.0
 10
2.265783204387584
 20
-3.14499999864546
 10
2.247311258350222
 20
-3.142634767135848
 10
2.218644363557163
 20
-3.130106300942309
 10
2.189964238117228
 20
-3.107271767002876
 10
2.162194513097456
 20
-3.074502688320051
 10
2.136528697837837
 20
-3.03292094929481
 10
2.113849777764382
 20
-2.982991683562923
 10
2.095416595121641
 20
-2.926594961787085
 10
2.082174709821313
 20
-2.865163043916934
 10
2.074717473449862
 20
-2.800551228580025
 10
2.073518721305759
 20
-2.735291145552835
 10
2.078422346465017
 20
-2.67059172187396
 10
2.089205129318326
 20
-2.608653846068314
 10
2.105249316332167
 20
-2.550789672848685
 10
2.126055398478712
 20
-2.498245363428507
 10
2.150502805702976
 20
-2.452859047162198
 10
2.17783396176187
 20
-2.415688633153687
 10
2.206690727193556
 20
-2.388119203831432
 10
2.23584382167037
 20
-2.371150302469211
 10
2.264393385317701
 20
-2.365013554850738
 10
2.265761144811103
 20
-2.365000000497208
  0
LWPOLYLINE
  5
130
330
110
100
AcDbEntity
  8
AM_9
100
AcDbPolyline
 90
       11
 70
     0
 43
0.0
 10
2.265761144811103
 20
-2.365000000497208
 10
2.291126862745234
 20
-2.369944241783897
 10
2.315696239258887
 20
-2.385515152766537
 10
2.337517000520264
 20
-2.41138354429151
 10
2.356340391291954
 20
-2.446681190989226
 10
2.372092646299098
 20
-2.491036267263591
 10
2.384565460311589
 20
-2.542798539295422
 10
2.39379307960418
 20
-2.600985283652341
 10
2.399793556216569
 20
-2.663605976800184
 10
2.402086358317878
 20
-2.708975350843436
 10
2.402850899037566
 20
-2.755
  0
LWPOLYLINE
  5
131
330
110
100
AcDbEntity
  8
AM_9
100
AcDbPolyline
 90
        7
 70
     0
 43
0.0
 10
2.120664571827212
 20
-2.511885173103512
 10
2.107594315333797
 20
-2.466305311041579
 10
2.090393425047168
 20
-2.425988192161695
 10
2.070313719103414
 20
-2.395757283651582
 10
2.046484404751818
 20
-2.375061397687813
 10
2.020962949984711
 20
-2.365749256703123
 10
2.010883375946459
 20
-2.365000001208185
  0
LWPOLYLINE
  5
132
330
110
100
AcDbEntity
  8
AM_9
100
AcDbPolyline
 90
        6
 70
     0
 43
0.0
 10
2.144383138759292
 20
-2.755
 10
2.142999242480254
 20
-2.691021215620637
 10
2.13865334762639
 20
-2.627042431241275
 10
2.131512676614241
 20
-2.568458779638513
 10
2.121050883035888
 20
-2.513528040285474
 10
2.120664571827212
 20
-2.511885173103512
  0
LWPOLYLINE
  5
133
330
110
100
AcDbEntity
  8
AM_9
100
AcDbPolyline
 90
        7
 70
     0
 43
0.0
 10
2.120664571827211
 20
2.99811482689649
 10
2.107594315333797
 20
3.043694688958421
 10
2.090393425047168
 20
3.084011807838305
 10
2.070313719103414
 20
3.114242716348418
 10
2.046484404751818
 20
3.134938602312188
 10
2.020962949984711
 20
3.144250743296876
 10
2.010883375946459
 20
3.144999998791815
  0
LWPOLYLINE
  5
134
330
110
100
AcDbEntity
  8
AM_9
100
AcDbPolyline
 90
        6
 70
     0
 43
0.0
 10
2.144383138759292
 20
2.755
 10
2.142999242480254
 20
2.818978784379362
 10
2.13865334762639
 20
2.882957568758725
 10
2.131512676614241
 20
2.941541220361487
 10
2.121050883035888
 20
2.996471959714527
 10
2.120664571827211
 20
2.99811482689649
  0
LINE
  5
135
330
110
100
AcDbEntity
  8
AM_9
100
AcDbLine
 10
2.21875
 20
-3.375
 30
0.0
 11
2.21875
 21
3.375
 31
0.0
  0
LINE
  5
136
330
110
100
AcDbEntity
  8
AM_9
100
AcDbLine
 10
-2.21875
 20
3.375
 30
0.0
 11
-2.21875
 21
-3.375
 31
0.0
  0
LWPOLYLINE
  5
137
330
110
100
AcDbEntity
  8
AM_9
100
AcDbPolyline
 90
       39
 70
     0
 43
0.0
 10
0.0
 20
3.145
 10
0.0641053131297654
 20
3.139695345472927
 10
0.1282106262595307
 20
3.123323275553064
 10
0.1869160607823132
 20
3.09728991545417
 10
0.2419540733869499
 20
3.060872892508412
 10
0.2891320547759546
 20
3.016730118444619
 10
0.3293812041574036
 20
2.963825339333662
 10
0.3594868404053577
 20
2.906225697470281
 10
0.3800600976648056
 20
2.842488983095122
 10
0.3892869242336088
 20
2.77857309103059
 10
0.3876324625614047
 20
2.712092262136286
 10
0.3753932550850183
 20
2.649264934687331
 10
0.3522781676481376
 20
2.58766771800256
 10
0.3200677173175802
 20
2.532162264571026
 10
0.2779408144020892
 20
2.481414723185798
 10
0.2287945962158522
 20
2.439162964897362
 10
0.171604896419229
 20
2.404783267782726
 10
0.111117229305772
 20
2.381164526360314
 10
0.0455734888471006
 20
2.367671899916488
 10
-0.0187468623167665
 20
2.365450830891303
 10
-0.0843937558743647
 20
2.374240635086387
 10
-0.1455154405732334
 20
2.393164047454129
 10
-0.2042298209619149
 20
2.422749822829447
 10
-0.2561031191246939
 20
2.460872149610747
 10
-0.302153592196995
 20
2.508416937478561
 10
-0.3388817740547091
 20
2.561973724033403
 10
-0.3668839000120043
 20
2.622726783089011
 10
-0.3837213811933409
 20
2.685301351411417
 10
-0.3899866391750406
 20
2.751771801592741
 10
-0.3852392958666394
 20
2.815751007565108
 10
-0.3694849042310829
 20
2.879823497568958
 10
-0.3440857920314837
 20
2.938589127461477
 10
-0.30833718395268
 20
2.99380573902679
 10
-0.2646898173494636
 20
3.041425034854685
 10
-0.2122145509325931
 20
3.082207861110454
 10
-0.1549288610798933
 20
3.112906479411155
 10
-0.0914096255852299
 20
3.134136229276982
 10
-0.046362516572651
 20
3.142234447146753
 10
-0.0000000000000001
 20
3.145
  0
LWPOLYLINE
  5
138
330
110
100
AcDbEntity
  8
AM_9
100
AcDbPolyline
 90
       11
 70
     0
 43
0.0
 10
2.402850899037565
 20
2.755
 10
2.401313441402158
 20
2.689978493599073
 10
2.396705519739894
 20
2.626800646048546
 10
2.388953199728143
 20
2.567313379812904
 10
2.378019814162874
 20
2.513067601969556
 10
2.363697455559759
 20
2.4652864059837
 10
2.346108274285411
 20
2.425625561383839
 10
2.325194356802712
 20
2.39518289003607
 10
2.301361453803466
 20
2.374943084940538
 10
2.275230373669896
 20
2.365697947985888
 10
2.265783204387584
 20
2.36500000135454
  0
LINE
  5
139
330
110
100
AcDbEntity
  8
AM_9
100
AcDbLine
 10
2.5
 20
2.073
 30
0.0
 11
2.5
 21
3.375
 31
0.0
  0
LINE
  5
13A
330
110
100
AcDbEntity
  8
AM_9
100
AcDbLine
 10
-2.5
 20
3.375
 30
0.0
 11
-2.5
 21
2.073
 31
0.0
  0
LWPOLYLINE
  5
13B
330
110
100
AcDbEntity
  8
AM_9
100
AcDbPolyline
 90
       39
 70
     0
 43
0.0
 10
0.0
 20
-2.365
 10
0.0641053131297654
 20
-2.370304654527073
 10
0.1282106262595308
 20
-2.386676724446935
 10
0.1869160607823134
 20
-2.41271008454583
 10
0.2419540733869499
 20
-2.449127107491588
 10
0.2891320547759546
 20
-2.49326988155538
 10
0.3293812041574036
 20
-2.546174660666339
 10
0.3594868404053579
 20
-2.60377430252972
 10
0.3800600976648057
 20
-2.667511016904879
 10
0.3892869242336088
 20
-2.731426908969409
 10
0.3876324625614048
 20
-2.797907737863714
 10
0.3753932550850183
 20
-2.860735065312669
 10
0.3522781676481374
 20
-2.92233228199744
 10
0.3200677173175802
 20
-2.977837735428975
 10
0.2779408144020896
 20
-3.028585276814201
 10
0.2287945962158524
 20
-3.070837035102638
 10
0.1716048964192293
 20
-3.105216732217273
 10
0.111117229305772
 20
-3.128835473639686
 10
0.0455734888471003
 20
-3.142328100083512
 10
-0.0187468623167669
 20
-3.144549169108697
 10
-0.084393755874365
 20
-3.135759364913613
 10
-0.1455154405732338
 20
-3.116835952545871
 10
-0.2042298209619153
 20
-3.087250177170553
 10
-0.2561031191246944
 20
-3.049127850389253
 10
-0.3021535921969954
 20
-3.001583062521438
 10
-0.3388817740547094
 20
-2.948026275966597
 10
-0.3668839000120045
 20
-2.887273216910989
 10
-0.3837213811933409
 20
-2.824698648588583
 10
-0.3899866391750406
 20
-2.758228198407259
 10
-0.3852392958666393
 20
-2.694248992434891
 10
-0.3694849042310827
 20
-2.630176502431042
 10
-0.3440857920314831
 20
-2.571410872538522
 10
-0.3083371839526796
 20
-2.51619426097321
 10
-0.264689817349463
 20
-2.468574965145314
 10
-0.2122145509325924
 20
-2.427792138889546
 10
-0.154928861079893
 20
-2.397093520588845
 10
-0.0914096255852297
 20
-2.375863770723018
 10
-0.046362516572651
 20
-2.367765552853248
 10
0.0
 20
-2.365
  0
LWPOLYLINE
  5
13C
330
110
100
AcDbEntity
  8
AM_9
100
AcDbPolyline
 90
       11
 70
     0
 43
0.0
 10
2.402850899037566
 20
-2.755
 10
2.401313441402159
 20
-2.820021506400927
 10
2.396705519739895
 20
-2.883199353951454
 10
2.388953199728145
 20
-2.942686620187096
 10
2.378019814162875
 20
-2.996932398030444
 10
2.363697455559759
 20
-3.0447135940163
 10
2.346108274285412
 20
-3.084374438616161
 10
2.325194356802713
 20
-3.11481710996393
 10
2.301361453803466
 20
-3.135056915059462
 10
2.275230373669897
 20
-3.144302052014112
 10
2.265783204387584
 20
-3.14499999864546
  0
LINE
  5
13D
330
110
100
AcDbEntity
  8
AM_9
100
AcDbLine
 10
2.500000000000001
 20
-3.375
 30
0.0
 11
2.500000000000001
 21
-2.073
 31
0.0
  0
LINE
  5
13E
330
110
100
AcDbEntity
  8
AM_9
100
AcDbLine
 10
-2.500000000000001
 20
-2.073
 30
0.0
 11
-2.500000000000001
 21
-3.375
 31
0.0
  0
LINE
  5
13F
330
110
100
AcDbEntity
  8
AM_9
100
AcDbLine
 10
-3.309294871794872
 20
-2.073
 30
0.0
 11
3.309294871794872
 21
-2.073
 31
0.0
  0
LINE
  5
140
330
110
100
AcDbEntity
  8
AM_9
100
AcDbLine
 10
-3.309294871794872
 20
-2.073
 30
0.0
 11
-3.351525183674549
 21
-2.3125
 31
0.0
  0
LINE
  5
141
330
110
100
AcDbEntity
  8
AM_9
100
AcDbLine
 10
3.351525183674549
 20
-2.3125
 30
0.0
 11
3.309294871794872
 21
-2.073
 31
0.0
  0
LINE
  5
142
330
110
100
AcDbEntity
  8
AM_9
100
AcDbLine
 10
3.309294871794872
 20
2.073
 30
0.0
 11
3.351525183674549
 21
2.3125
 31
0.0
  0
LINE
  5
143
330
110
100
AcDbEntity
  8
AM_9
100
AcDbLine
 10
-3.351525183674549
 20
2.3125
 30
0.0
 11
-3.309294871794872
 21
2.073
 31
0.0
  0
LINE
  5
144
330
110
100
AcDbEntity
  8
AM_9
100
AcDbLine
 10
3.309294871794872
 20
2.073
 30
0.0
 11
-3.309294871794872
 21
2.073
 31
0.0
  0
LINE
  5
145
330
110
100
AcDbEntity
  8
AM_7
100
AcDbLine
 10
-0.4002908226216874
 20
0.0000000000000003
 30
0.0
 11
0.4002908226216874
 21
0.0000000000000003
 31
0.0
  0
LINE
  5
146
330
110
100
AcDbEntity
  8
AM_7
100
AcDbLine
 10
0.0
 20
-3.7125
 30
0.0
 11
0.0
 21
3.7125
 31
0.0
  0
LINE
  5
147
330
110
100
AcDbEntity
  8
AM_4
100
AcDbLine
 10
-4.343799999999998
 20
2.3125
 30
0.0
 11
4.343799999999998
 21
2.3125
 31
0.0
  0
LINE
  5
148
330
110
100
AcDbEntity
  8
AM_4
100
AcDbLine
 10
-4.343799999999998
 20
2.3125
 30
0.0
 11
-4.374999999999998
 21
2.2813
 31
0.0
  0
LINE
  5
149
330
110
100
AcDbEntity
  8
AM_4
100
AcDbLine
 10
4.374999999999998
 20
2.2813
 30
0.0
 11
4.343799999999998
 21
2.3125
 31
0.0
  0
LINE
  5
14A
330
110
100
AcDbEntity
  8
AM_4
100
AcDbLine
 10
-4.374999999999998
 20
2.2813
 30
0.0
 11
4.374999999999999
 21
2.2813
 31
0.0
  0
LINE
  5
14B
330
110
100
AcDbEntity
  8
AM_4
100
AcDbLine
 10
4.374999999999999
 20
-2.281299999999999
 30
0.0
 11
4.374999999999999
 21
2.2813
 31
0.0
  0
LINE
  5
14C
330
110
100
AcDbEntity
  8
AM_4
100
AcDbLine
 10
-4.374999999999999
 20
2.2813
 30
0.0
 11
-4.374999999999999
 21
-2.281299999999999
 31
0.0
  0
LINE
  5
14D
330
110
100
AcDbEntity
  8
AM_4
100
AcDbLine
 10
-4.3438
 20
-2.3125
 30
0.0
 11
4.3438
 21
-2.3125
 31
0.0
  0
LINE
  5
14E
330
110
100
AcDbEntity
  8
AM_4
100
AcDbLine
 10
-4.375
 20
-2.281299999999999
 30
0.0
 11
4.375
 21
-2.281299999999999
 31
0.0
  0
LINE
  5
14F
330
110
100
AcDbEntity
  8
AM_4
100
AcDbLine
 10
4.3438
 20
-2.3125
 30
0.0
 11
4.375
 21
-2.281299999999999
 31
0.0
  0
LINE
  5
150
330
110
100
AcDbEntity
  8
AM_4
100
AcDbLine
 10
-4.375
 20
-2.281299999999999
 30
0.0
 11
-4.3438
 21
-2.3125
 31
0.0
  0
LWPOLYLINE
  5
151
330
110
100
AcDbEntity
  8
AM_4
100
AcDbPolyline
 90
       39
 70
     0
 43
0.0
 10
-0.3474366364989397
 20
0.3278429330822531
 10
-0.2879765660852455
 20
0.3806585946086933
 10
-0.218512753655046
 20
0.4239662391834252
 10
-0.1448699620644862
 20
0.4541502928761439
 10
-0.0649176643471042
 20
0.4720864060391372
 10
0.0145241480291545
 20
0.4762675478210708
 10
0.095841187375607
 20
0.4668422946187074
 10
0.1720745052969533
 20
0.4446486421311241
 10
0.245555245507582
 20
0.4090448634325959
 10
0.310267863700419
 20
0.3628952024336512
 10
0.3679208240636201
 20
0.3049064526140832
 10
0.4136842978665628
 20
0.239879718582792
 10
0.4488206348139476
 20
0.1659166415167874
 10
0.470208443137524
 20
0.0897857790725163
 10
0.4787043073490798
 20
0.008791550072016
 10
0.4736665569657279
 20
-0.0694902109227207
 10
0.4550947144990431
 20
-0.1480258679882389
 10
0.4246018783881731
 20
-0.2201775528379699
 10
0.3813463748557692
 20
-0.2881060702791415
 10
0.328479429483874
 20
-0.3466579234611444
 10
0.2648110459812592
 20
-0.3969686620917754
 10
0.1950802754969712
 20
-0.4351394593388455
 10
0.11772762017479
 20
-0.4618571549385629
 10
0.0391945414325328
 20
-0.4748875068681828
 10
-0.0427437187914584
 20
-0.4745841358466513
 10
-0.1210047623683341
 20
-0.4610174956876877
 10
-0.1980362332994766
 20
-0.4338149443097208
 10
-0.2674571505874683
 20
-0.3952077258308523
 10
-0.3311920548319902
 20
-0.3440921573711336
 10
-0.383995077450012
 20
-0.2846004140418931
 10
-0.4272419384728675
 20
-0.2150601059679956
 10
-0.45714269444059
 20
-0.141638240390879
 10
-0.4747283743028291
 20
-0.0618996380549683
 10
-0.4784937660064087
 20
0.0166397095986463
 10
-0.4687642106594683
 20
0.0969769252828855
 10
-0.4464932094895216
 20
0.1720234398592739
 10
-0.4110665060391139
 20
0.2442960644641325
 10
-0.381750906813288
 20
0.2875749853590725
 10
-0.3474366364989397
 20
0.3278429330822531
  0
CIRCLE
  5
152
330
110
100
AcDbEntity
  8
AM_4
100
AcDbCircle
 10
0.0
 20
0.0000000000000003
 30
0.0
 40
0.3812293548777975
  0
CIRCLE
  5
153
330
110
100
AcDbEntity
  8
AM_4
100
AcDbCircle
 10
0.0
 20
0.0000000000000003
 30
0.0
 40
0.303526168426641
  0
ENDBLK
  5
113
330
110
100
AcDbEntity
  8
0
100
AcDbBlockEnd
  0
ENDSEC
  0
SECTION
  2
ENTITIES
  0
INSERT
  5
6F
330
1F
100
AcDbEntity
  8
0
100
AcDbBlockReference
  2
1_023568_4
 10
0.0
 20
0.0
 30
0.0
  0
POINT
  5
155
330
1F
100
AcDbEntity
  8
ConnectionPoints
100
AcDbPoint
 10
0.0
 20
-3.375
 30
0.0000000000000002
  0
POINT
  5
156
330
1F
100
AcDbEntity
  8
ConnectionPoints
100
AcDbPoint
 10
0.0
 20
0.0000000000000003
 30
5.535
  0
POINT
  5
157
330
1F
100
AcDbEntity
  8
ConnectionPoints
100
AcDbPoint
 10
0.0
 20
0.0
 30
0.0
  0
POINT
  5
158
330
1F
100
AcDbEntity
  8
ConnectionPoints
100
AcDbPoint
 10
0.0
 20
-3.375
 30
0.0000000000000002
  0
POINT
  5
159
330
1F
100
AcDbEntity
  8
ConnectionPoints
100
AcDbPoint
 10
0.0
 20
3.375
 30
-0.0000000000000002
  0
POINT
  5
15A
330
1F
100
AcDbEntity
  8
ConnectionPoints
100
AcDbPoint
 10
0.0
 20
0.0000000000000003
 30
5.535
  0
POINT
  5
15B
330
1F
100
AcDbEntity
  8
ConnectionPoints
100
AcDbPoint
 10
0.0
 20
0.0000000000000003
 30
5.535
  0
ENDSEC
  0
SECTION
  2
OBJECTS
  0
DICTIONARY
  5
C
330
0
100
AcDbDictionary
281
     1
  3
ACAD_DETAILVIEWSTYLE
350
163
  3
ACAD_GROUP
350
D
  3
ACAD_LAYOUT
350
1A
  3
ACAD_MATERIAL
350
43
  3
ACAD_MLEADERSTYLE
350
6B
  3
ACAD_MLINESTYLE
350
17
  3
ACAD_PLOTSETTINGS
350
19
  3
ACAD_PLOTSTYLENAME
350
E
  3
ACAD_SCALELIST
350
47
  3
ACAD_SECTIONVIEWSTYLE
350
164
  3
ACAD_TABLESTYLE
350
69
  3
ACAD_VISUALSTYLE
350
2A
  3
ACDB_RECOMPOSE_DATA
350
160
  3
AcDbVariableDictionary
350
15C
  0
SUN
  5
6D
330
29
100
AcDbSun
 90
        1
290
     0
 63
     7
421
 16777215
 40
1.0
291
     1
 91
  2455826
 92
 54000000
292
     0
 70
     2
 71
   256
280
     1
  0
DICTIONARY
  5
163
102
{ACAD_REACTORS
330
C
102
}
330
C
100
AcDbDictionary
281
     1
  0
DICTIONARY
  5
D
102
{ACAD_REACTORS
330
C
102
}
330
C
100
AcDbDictionary
281
     1
  0
DICTIONARY
  5
1A
102
{ACAD_REACTORS
330
C
102
}
330
C
100
AcDbDictionary
281
     1
  3
Layout1
350
1E
  3
Layout2
350
26
  3
Model
350
22
  0
DICTIONARY
  5
43
102
{ACAD_REACTORS
330
C
102
}
330
C
100
AcDbDictionary
281
     1
  3
ByBlock
350
45
  3
ByLayer
350
44
  3
Global
350
46
  0
DICTIONARY
  5
6B
102
{ACAD_REACTORS
330
C
102
}
330
C
100
AcDbDictionary
281
     1
  3
Standard
350
6C
  0
DICTIONARY
  5
17
102
{ACAD_REACTORS
330
C
102
}
330
C
100
AcDbDictionary
281
     1
  3
Standard
350
18
  0
DICTIONARY
  5
19
102
{ACAD_REACTORS
330
C
102
}
330
C
100
AcDbDictionary
281
     1
  0
ACDBDICTIONARYWDFLT
  5
E
102
{ACAD_REACTORS
330
C
102
}
330
C
100
AcDbDictionary
281
     1
  3
Normal
350
F
100
AcDbDictionaryWithDefault
340
F
  0
DICTIONARY
  5
47
102
{ACAD_REACTORS
330
C
102
}
330
C
100
AcDbDictionary
281
     1
  3
A0
350
48
  3
A1
350
49
  3
A2
350
4A
  3
A3
350
4B
  3
A4
350
4C
  3
A5
350
4D
  3
A6
350
4E
  3
A7
350
4F
  3
A8
350
50
  3
A9
350
51
  3
B0
350
52
  3
B1
350
53
  3
B2
350
54
  3
B3
350
55
  3
B4
350
56
  3
B5
350
57
  3
B6
350
58
  3
B7
350
59
  3
B8
350
5A
  3
B9
350
5B
  3
C0
350
5C
  3
C1
350
5D
  3
C2
350
5E
  3
C3
350
5F
  3
C4
350
60
  3
C5
350
61
  3
C6
350
62
  3
C7
350
63
  3
C8
350
64
  3
C9
350
65
  3
D0
350
66
  3
D1
350
67
  3
D2
350
68
  0
DICTIONARY
  5
164
102
{ACAD_REACTORS
330
C
102
}
330
C
100
AcDbDictionary
281
     1
  0
DICTIONARY
  5
69
102
{ACAD_REACTORS
330
C
102
}
330
C
100
AcDbDictionary
281
     1
  3
Standard
350
6A
  0
DICTIONARY
  5
2A
102
{ACAD_REACTORS
330
C
102
}
330
C
100
AcDbDictionary
281
     1
  3
2dWireframe
350
2F
  3
Basic
350
32
  3
Brighten
350
36
  3
ColorChange
350
3A
  3
Conceptual
350
34
  3
Dim
350
35
  3
EdgeColorOff
350
3D
  3
Facepattern
350
39
  3
Flat
350
2B
  3
FlatWithEdges
350
2C
  3
Gouraud
350
2D
  3
GouraudWithEdges
350
2E
  3
Hidden
350
31
  3
JitterOff
350
3B
  3
Linepattern
350
38
  3
OverhangOff
350
3C
  3
Realistic
350
33
  3
Shaded
350
42
  3
Shaded with edges
350
41
  3
Shades of Gray
350
3E
  3
Sketchy
350
3F
  3
Thicken
350
37
  3
Wireframe
350
30
  3
X-Ray
350
40
  0
XRECORD
  5
160
102
{ACAD_REACTORS
330
C
102
}
330
C
100
AcDbXrecord
280
     1
 90
        1
330
6A
  0
DICTIONARY
  5
15C
102
{ACAD_REACTORS
330
C
102
}
330
C
100
AcDbDictionary
281
     1
  3
CANNOSCALE
350
15D
  3
CMLEADERSTYLE
350
162
  3
CTABLESTYLE
350
161
  0
LAYOUT
  5
1E
102
{ACAD_REACTORS
330
1A
102
}
330
1A
100
AcDbPlotSettings
  1

  2
none_device
  4

  6

 40
0.0
 41
0.0
 42
0.0
 43
0.0
 44
0.0
 45
0.0
 46
0.0
 47
0.0
 48
0.0
 49
0.0
140
0.0
141
0.0
142
1.0
143
1.0
 70
   688
 72
     0
 73
     0
 74
     5
  7

 75
    16
 76
     0
 77
     2
 78
   300
147
1.0
148
0.0
149
0.0
100
AcDbLayout
  1
Layout1
 70
     1
 71
     1
 10
0.0
 20
0.0
 11
12.0
 21
9.0
 12
0.0
 22
0.0
 32
0.0
 14
1.000000000000000E+20
 24
1.000000000000000E+20
 34
1.000000000000000E+20
 15
-1.000000000000000E+20
 25
-1.000000000000000E+20
 35
-1.000000000000000E+20
146
0.0
 13
0.0
 23
0.0
 33
0.0
 16
1.0
 26
0.0
 36
0.0
 17
0.0
 27
1.0
 37
0.0
 76
     0
330
1B
  0
LAYOUT
  5
26
102
{ACAD_REACTORS
330
1A
102
}
330
1A
100
AcDbPlotSettings
  1

  2
none_device
  4

  6

 40
0.0
 41
0.0
 42
0.0
 43
0.0
 44
0.0
 45
0.0
 46
0.0
 47
0.0
 48
0.0
 49
0.0
140
0.0
141
0.0
142
1.0
143
1.0
 70
   688
 72
     0
 73
     0
 74
     5
  7

 75
    16
 76
     0
 77
     2
 78
   300
147
1.0
148
0.0
149
0.0
100
AcDbLayout
  1
Layout2
 70
     1
 71
     2
 10
0.0
 20
0.0
 11
0.0
 21
0.0
 12
0.0
 22
0.0
 32
0.0
 14
0.0
 24
0.0
 34
0.0
 15
0.0
 25
0.0
 35
0.0
146
0.0
 13
0.0
 23
0.0
 33
0.0
 16
1.0
 26
0.0
 36
0.0
 17
0.0
 27
1.0
 37
0.0
 76
     0
330
23
  0
LAYOUT
  5
22
102
{ACAD_REACTORS
330
1A
102
}
330
1A
100
AcDbPlotSettings
  1

  2
none_device
  4
Letter_(8.50_x_11.00_Inches)
  6

 40
6.35
 41
6.35
 42
6.35000508
 43
6.35000508
 44
215.9
 45
279.4
 46
0.0
 47
0.0
 48
0.0
 49
0.0
140
0.0
141
0.0
142
1.0
143
1.0
 70
  1712
 72
     0
 73
     0
 74
     0
  7

 75
     0
 76
     0
 77
     2
 78
   300
147
1.0
148
0.0
149
0.0
100
AcDbLayout
  1
Model
 70
     1
 71
     0
 10
0.0
 20
0.0
 11
12.0
 21
9.0
 12
0.0
 22
0.0
 32
0.0
 14
1.000000000000000E+20
 24
1.000000000000000E+20
 34
1.000000000000000E+20
 15
-1.000000000000000E+20
 25
-1.000000000000000E+20
 35
-1.000000000000000E+20
146
0.0
 13
0.0
 23
0.0
 33
0.0
 16
1.0
 26
0.0
 36
0.0
 17
0.0
 27
1.0
 37
0.0
 76
     0
330
1F
331
29
  0
MATERIAL
  5
45
102
{ACAD_REACTORS
330
43
102
}
330
43
100
AcDbMaterial
  1
ByBlock
 72
     1
 94
      127
  0
MATERIAL
  5
44
102
{ACAD_REACTORS
330
43
102
}
330
43
100
AcDbMaterial
  1
ByLayer
 72
     1
 94
      127
  0
MATERIAL
  5
46
102
{ACAD_REACTORS
330
43
102
}
330
43
100
AcDbMaterial
  1
Global
 72
     1
 94
      127
  0
MLEADERSTYLE
  5
6C
102
{ACAD_REACTORS
330
6B
102
}
330
6B
100
AcDbMLeaderStyle
179
     2
170
     2
171
     1
172
     0
 90
        2
 40
0.0
 41
0.0
173
     1
 91
-1056964608
340
14
 92
       -2
290
     1
 42
0.09
291
     1
 43
0.36
  3
Standard
341
0
 44
0.18
300

342
11
174
     1
178
     6
175
     1
176
     0
 93
-1056964608
 45
0.18
292
     0
297
     0
 46
0.18
343
0
 94
-1056964608
 47
1.0
 49
1.0
140
1.0
293
     1
141
0.0
294
     1
177
     0
142
1.0
295
     0
296
     0
143
0.125
271
     0
272
     9
273
     9
298
     0
  0
MLINESTYLE
  5
18
102
{ACAD_REACTORS
330
17
102
}
330
17
100
AcDbMlineStyle
  2
Standard
 70
     0
  3

 62
   256
 51
90.0
 52
90.0
 71
     2
 49
0.5
 62
   256
  6
BYLAYER
 49
-0.5
 62
   256
  6
BYLAYER
  0
ACDBPLACEHOLDER
  5
F
102
{ACAD_REACTORS
330
E
102
}
330
E
  0
SCALE
  5
48
102
{ACAD_REACTORS
330
47
102
}
330
47
100
AcDbScale
 70
     0
300
1:1
140
1.0
141
1.0
290
     1
  0
SCALE
  5
49
102
{ACAD_REACTORS
330
47
102
}
330
47
100
AcDbScale
 70
     0
300
1:2
140
1.0
141
2.0
290
     0
  0
SCALE
  5
4A
102
{ACAD_REACTORS
330
47
102
}
330
47
100
AcDbScale
 70
     0
300
1:4
140
1.0
141
4.0
290
     0
  0
SCALE
  5
4B
102
{ACAD_REACTORS
330
47
102
}
330
47
100
AcDbScale
 70
     0
300
1:5
140
1.0
141
5.0
290
     0
  0
SCALE
  5
4C
102
{ACAD_REACTORS
330
47
102
}
330
47
100
AcDbScale
 70
     0
300
1:8
140
1.0
141
8.0
290
     0
  0
SCALE
  5
4D
102
{ACAD_REACTORS
330
47
102
}
330
47
100
AcDbScale
 70
     0
300
1:10
140
1.0
141
10.0
290
     0
  0
SCALE
  5
4E
102
{ACAD_REACTORS
330
47
102
}
330
47
100
AcDbScale
 70
     0
300
1:16
140
1.0
141
16.0
290
     0
  0
SCALE
  5
4F
102
{ACAD_REACTORS
330
47
102
}
330
47
100
AcDbScale
 70
     0
300
1:20
140
1.0
141
20.0
290
     0
  0
SCALE
  5
50
102
{ACAD_REACTORS
330
47
102
}
330
47
100
AcDbScale
 70
     0
300
1:30
140
1.0
141
30.0
290
     0
  0
SCALE
  5
51
102
{ACAD_REACTORS
330
47
102
}
330
47
100
AcDbScale
 70
     0
300
1:40
140
1.0
141
40.0
290
     0
  0
SCALE
  5
52
102
{ACAD_REACTORS
330
47
102
}
330
47
100
AcDbScale
 70
     0
300
1:50
140
1.0
141
50.0
290
     0
  0
SCALE
  5
53
102
{ACAD_REACTORS
330
47
102
}
330
47
100
AcDbScale
 70
     0
300
1:100
140
1.0
141
100.0
290
     0
  0
SCALE
  5
54
102
{ACAD_REACTORS
330
47
102
}
330
47
100
AcDbScale
 70
     0
300
2:1
140
2.0
141
1.0
290
     0
  0
SCALE
  5
55
102
{ACAD_REACTORS
330
47
102
}
330
47
100
AcDbScale
 70
     0
300
4:1
140
4.0
141
1.0
290
     0
  0
SCALE
  5
56
102
{ACAD_REACTORS
330
47
102
}
330
47
100
AcDbScale
 70
     0
300
8:1
140
8.0
141
1.0
290
     0
  0
SCALE
  5
57
102
{ACAD_REACTORS
330
47
102
}
330
47
100
AcDbScale
 70
     0
300
10:1
140
10.0
141
1.0
290
     0
  0
SCALE
  5
58
102
{ACAD_REACTORS
330
47
102
}
330
47
100
AcDbScale
 70
     0
300
100:1
140
100.0
141
1.0
290
     0
  0
SCALE
  5
59
102
{ACAD_REACTORS
330
47
102
}
330
47
100
AcDbScale
 70
     0
300
1/128" = 1'-0"
140
0.0078125
141
12.0
290
     0
  0
SCALE
  5
5A
102
{ACAD_REACTORS
330
47
102
}
330
47
100
AcDbScale
 70
     0
300
1/64" = 1'-0"
140
0.015625
141
12.0
290
     0
  0
SCALE
  5
5B
102
{ACAD_REACTORS
330
47
102
}
330
47
100
AcDbScale
 70
     0
300
1/32" = 1'-0"
140
0.03125
141
12.0
290
     0
  0
SCALE
  5
5C
102
{ACAD_REACTORS
330
47
102
}
330
47
100
AcDbScale
 70
     0
300
1/16" = 1'-0"
140
0.0625
141
12.0
290
     0
  0
SCALE
  5
5D
102
{ACAD_REACTORS
330
47
102
}
330
47
100
AcDbScale
 70
     0
300
3/32" = 1'-0"
140
0.09375
141
12.0
290
     0
  0
SCALE
  5
5E
102
{ACAD_REACTORS
330
47
102
}
330
47
100
AcDbScale
 70
     0
300
1/8" = 1'-0"
140
0.125
141
12.0
290
     0
  0
SCALE
  5
5F
102
{ACAD_REACTORS
330
47
102
}
330
47
100
AcDbScale
 70
     0
300
3/16" = 1'-0"
140
0.1875
141
12.0
290
     0
  0
SCALE
  5
60
102
{ACAD_REACTORS
330
47
102
}
330
47
100
AcDbScale
 70
     0
300
1/4" = 1'-0"
140
0.25
141
12.0
290
     0
  0
SCALE
  5
61
102
{ACAD_REACTORS
330
47
102
}
330
47
100
AcDbScale
 70
     0
300
3/8" = 1'-0"
140
0.375
141
12.0
290
     0
  0
SCALE
  5
62
102
{ACAD_REACTORS
330
47
102
}
330
47
100
AcDbScale
 70
     0
300
1/2" = 1'-0"
140
0.5
141
12.0
290
     0
  0
SCALE
  5
63
102
{ACAD_REACTORS
330
47
102
}
330
47
100
AcDbScale
 70
     0
300
3/4" = 1'-0"
140
0.75
141
12.0
290
     0
  0
SCALE
  5
64
102
{ACAD_REACTORS
330
47
102
}
330
47
100
AcDbScale
 70
     0
300
1" = 1'-0"
140
1.0
141
12.0
290
     0
  0
SCALE
  5
65
102
{ACAD_REACTORS
330
47
102
}
330
47
100
AcDbScale
 70
     0
300
1-1/2" = 1'-0"
140
1.5
141
12.0
290
     0
  0
SCALE
  5
66
102
{ACAD_REACTORS
330
47
102
}
330
47
100
AcDbScale
 70
     0
300
3" = 1'-0"
140
3.0
141
12.0
290
     0
  0
SCALE
  5
67
102
{ACAD_REACTORS
330
47
102
}
330
47
100
AcDbScale
 70
     0
300
6" = 1'-0"
140
6.0
141
12.0
290
     0
  0
SCALE
  5
68
102
{ACAD_REACTORS
330
47
102
}
330
47
100
AcDbScale
 70
     0
300
1'-0" = 1'-0"
140
12.0
141
12.0
290
     0
  0
TABLESTYLE
  5
6A
102
{ACAD_REACTORS
330
69
102
}
102
{ACAD_XDICTIONARY
360
15E
102
}
330
69
100
AcDbTableStyle
  3
Standard
 70
     0
 71
     0
 40
0.06
 41
0.06
280
     0
281
     0
  7
Standard
140
0.18
170
     2
 62
     0
 63
   257
283
     0
 90
        4
 91
        0
  1

274
    -2
284
     1
 64
     0
275
    -2
285
     1
 65
     0
276
    -2
286
     1
 66
     0
277
    -2
287
     1
 67
     0
278
    -2
288
     1
 68
     0
279
    -2
289
     1
 69
     0
  7
Standard
140
0.25
170
     5
 62
     0
 63
   257
283
     0
 90
        4
 91
        0
  1

274
    -2
284
     1
 64
     0
275
    -2
285
     1
 65
     0
276
    -2
286
     1
 66
     0
277
    -2
287
     1
 67
     0
278
    -2
288
     1
 68
     0
279
    -2
289
     1
 69
     0
  7
Standard
140
0.18
170
     5
 62
     0
 63
   257
283
     0
 90
        4
 91
        0
  1

274
    -2
284
     1
 64
     0
275
    -2
285
     1
 65
     0
276
    -2
286
     1
 66
     0
277
    -2
287
     1
 67
     0
278
    -2
288
     1
 68
     0
279
    -2
289
     1
 69
     0
  0
VISUALSTYLE
  5
2F
102
{ACAD_REACTORS
330
2A
102
}
330
2A
100
AcDbVisualStyle
  2
2dWireframe
 70
     4
177
     3
291
     0
 70
    58
 90
        0
176
     1
 90
        2
176
     1
 90
        0
176
     1
 90
        0
176
     1
 40
0.6
176
     1
 40
30.0
176
     1
 62
     7
420
 16777215
176
     1
 90
        1
176
     1
 90
        4
176
     1
 62
     7
176
     1
 62
   257
176
     1
 90
        1
176
     1
 90
        1
176
     1
 40
1.0
176
     1
 90
        0
176
     1
 62
   257
176
     1
 40
1.0
176
     1
 90
        1
176
     1
 90
        6
176
     1
 90
        2
176
     1
 62
     7
176
     1
 90
        5
176
     1
 90
        0
176
     1
 90
        0
176
     1
290
     0
176
     1
 90
        1
176
     1
 40
0.0
176
     1
 90
        0
176
     1
290
     1
176
     1
290
     1
176
     1
290
     0
176
     1
290
     0
176
     1
290
     0
176
     1
290
     0
176
     1
290
     0
176
     1
290
     0
176
     1
290
     0
176
     1
 90
       50
176
     1
 40
0.0
176
     1
 40
1.0
176
     1
 90
        0
176
     1
 62
    18
420
        0
176
     1
 90
       50
176
     1
 90
        3
176
     1
 62
     5
420
      255
176
     1
290
     0
176
     1
 90
       50
176
     1
 90
       50
176
     1
 90
       50
176
     1
290
     0
176
     1
 90
       50
176
     1
 62
   256
176
     0
 40
1.0
176
     0
 90
        2
176
     1
  1
strokes_ogs.tif
176
     1
290
     0
176
     1
 40
1.0
176
     1
 40
1.0
176
     1
  0
VISUALSTYLE
  5
32
102
{ACAD_REACTORS
330
2A
102
}
330
2A
100
AcDbVisualStyle
  2
Basic
 70
     7
177
     3
291
     1
 70
    58
 90
        1
176
     1
 90
        0
176
     1
 90
        1
176
     1
 90
        0
176
     1
 40
0.6
176
     1
 40
30.0
176
     1
 62
     7
420
 16777215
176
     1
 90
        0
176
     1
 90
        4
176
     1
 62
     7
176
     1
 62
   257
176
     1
 90
        1
176
     1
 90
        1
176
     1
 40
1.0
176
     1
 90
        8
176
     1
 62
     7
176
     1
 40
1.0
176
     1
 90
        1
176
     1
 90
        6
176
     1
 90
        2
176
     1
 62
     7
176
     1
 90
        5
176
     1
 90
        0
176
     1
 90
        0
176
     1
290
     0
176
     1
 90
        1
176
     1
 40
0.0
176
     1
 90
        0
176
     1
290
     0
176
     1
290
     1
176
     1
290
     1
176
     1
290
     0
176
     1
290
     0
176
     1
290
     0
176
     1
290
     0
176
     1
290
     0
176
     1
290
     0
176
     1
 90
       50
176
     1
 40
0.0
176
     1
 40
1.0
176
     1
 90
        0
176
     1
 62
    18
420
        0
176
     1
 90
       50
176
     1
 90
        3
176
     1
 62
     5
420
      255
176
     1
290
     0
176
     1
 90
       50
176
     1
 90
       50
176
     1
 90
       50
176
     1
290
     0
176
     1
 90
       50
176
     1
 62
   256
176
     0
 40
1.0
176
     0
 90
        2
176
     1
  1
strokes_ogs.tif
176
     1
290
     0
176
     1
 40
1.0
176
     1
 40
1.0
176
     1
  0
VISUALSTYLE
  5
36
102
{ACAD_REACTORS
330
2A
102
}
330
2A
100
AcDbVisualStyle
  2
Brighten
 70
    12
177
     3
291
     1
 70
    58
 90
        2
176
     1
 90
        2
176
     1
 90
        0
176
     1
 90
        0
176
     1
 40
0.6
176
     1
 40
30.0
176
     1
 62
     7
420
 16777215
176
     1
 90
        1
176
     1
 90
        4
176
     1
 62
     7
176
     1
 62
   257
176
     1
 90
        1
176
     1
 90
        1
176
     1
 40
1.0
176
     1
 90
        8
176
     1
 62
     7
176
     1
 40
1.0
176
     1
 90
        1
176
     1
 90
        6
176
     1
 90
        2
176
     1
 62
     7
176
     1
 90
        5
176
     1
 90
        0
176
     1
 90
        0
176
     1
290
     0
176
     1
 90
        1
176
     1
 40
50.0
176
     1
 90
        0
176
     1
290
     0
176
     1
290
     1
176
     1
290
     1
176
     1
290
     0
176
     1
290
     0
176
     1
290
     0
176
     1
290
     0
176
     1
290
     0
176
     1
290
     0
176
     1
 90
       50
176
     1
 40
0.0
176
     1
 40
1.0
176
     1
 90
        0
176
     1
 62
    18
420
        0
176
     1
 90
       50
176
     1
 90
        3
176
     1
 62
     5
420
      255
176
     1
290
     0
176
     1
 90
       50
176
     1
 90
       50
176
     1
 90
       50
176
     1
290
     0
176
     1
 90
       50
176
     1
 62
   256
176
     0
 40
1.0
176
     0
 90
        2
176
     1
  1
strokes_ogs.tif
176
     1
290
     0
176
     1
 40
1.0
176
     1
 40
1.0
176
     1
  0
VISUALSTYLE
  5
3A
102
{ACAD_REACTORS
330
2A
102
}
330
2A
100
AcDbVisualStyle
  2
ColorChange
 70
    16
177
     3
291
     1
 70
    58
 90
        2
176
     1
 90
        2
176
     1
 90
        3
176
     1
 90
        0
176
     1
 40
0.6
176
     1
 40
30.0
176
     1
 62
     8
420
  8421504
176
     1
 90
        1
176
     1
 90
        4
176
     1
 62
     7
176
     1
 62
   257
176
     1
 90
        1
176
     1
 90
        1
176
     1
 40
1.0
176
     1
 90
        8
176
     1
 62
     8
420
  8421504
176
     1
 40
1.0
176
     1
 90
        1
176
     1
 90
        6
176
     1
 90
        2
176
     1
 62
     7
176
     1
 90
        5
176
     1
 90
        0
176
     1
 90
        0
176
     1
290
     0
176
     1
 90
        1
176
     1
 40
0.0
176
     1
 90
        0
176
     1
290
     0
176
     1
290
     1
176
     1
290
     1
176
     1
290
     0
176
     1
290
     0
176
     1
290
     0
176
     1
290
     0
176
     1
290
     0
176
     1
290
     0
176
     1
 90
       50
176
     1
 40
0.0
176
     1
 40
1.0
176
     1
 90
        0
176
     1
 62
    18
420
        0
176
     1
 90
       50
176
     1
 90
        3
176
     1
 62
     5
420
      255
176
     1
290
     0
176
     1
 90
       50
176
     1
 90
       50
176
     1
 90
       50
176
     1
290
     0
176
     1
 90
       50
176
     1
 62
   256
176
     0
 40
1.0
176
     0
 90
        2
176
     1
  1
strokes_ogs.tif
176
     1
290
     0
176
     1
 40
1.0
176
     1
 40
1.0
176
     1
  0
VISUALSTYLE
  5
34
102
{ACAD_REACTORS
330
2A
102
}
330
2A
100
AcDbVisualStyle
  2
Conceptual
 70
     9
177
     3
291
     0
 70
    58
 90
        3
176
     1
 90
        2
176
     1
 90
        0
176
     1
 90
        0
176
     1
 40
0.6
176
     1
 40
30.0
176
     1
 62
     7
420
 16777215
176
     1
 90
        2
176
     1
 90
        2
176
     1
 62
     7
176
     1
 62
   257
176
     1
 90
        1
176
     1
 90
        1
176
     1
 40
179.0
176
     1
 90
        8
176
     1
 62
     7
176
     1
 40
1.0
176
     1
 90
        1
176
     1
 90
        6
176
     1
 90
        2
176
     1
 62
     7
176
     1
 90
        3
176
     1
 90
        0
176
     1
 90
        0
176
     1
290
     0
176
     1
 90
        1
176
     1
 40
0.0
176
     1
 90
        0
176
     1
290
     0
176
     1
290
     1
176
     1
290
     1
176
     1
290
     0
176
     1
290
     0
176
     1
290
     0
176
     1
290
     0
176
     1
290
     0
176
     1
290
     0
176
     1
 90
       50
176
     1
 40
0.0
176
     1
 40
1.0
176
     1
 90
        0
176
     1
 62
    18
420
        0
176
     1
 90
       50
176
     1
 90
        3
176
     1
 62
     5
420
      255
176
     1
290
     0
176
     1
 90
       50
176
     1
 90
       50
176
     1
 90
       50
176
     1
290
     0
176
     1
 90
       50
176
     1
 62
   256
176
     0
 40
1.0
176
     0
 90
        2
176
     1
  1
strokes_ogs.tif
176
     1
290
     0
176
     1
 40
1.0
176
     1
 40
1.0
176
     1
  0
VISUALSTYLE
  5
35
102
{ACAD_REACTORS
330
2A
102
}
330
2A
100
AcDbVisualStyle
  2
Dim
 70
    11
177
     3
291
     1
 70
    58
 90
        2
176
     1
 90
        2
176
     1
 90
        0
176
     1
 90
        0
176
     1
 40
0.6
176
     1
 40
30.0
176
     1
 62
     7
420
 16777215
176
     1
 90
        1
176
     1
 90
        4
176
     1
 62
     7
176
     1
 62
   257
176
     1
 90
        1
176
     1
 90
        1
176
     1
 40
1.0
176
     1
 90
        8
176
     1
 62
     7
176
     1
 40
1.0
176
     1
 90
        1
176
     1
 90
        6
176
     1
 90
        2
176
     1
 62
     7
176
     1
 90
        5
176
     1
 90
        0
176
     1
 90
        0
176
     1
290
     0
176
     1
 90
        1
176
     1
 40
-50.0
176
     1
 90
        0
176
     1
290
     0
176
     1
290
     1
176
     1
290
     1
176
     1
290
     0
176
     1
290
     0
176
     1
290
     0
176
     1
290
     0
176
     1
290
     0
176
     1
290
     0
176
     1
 90
       50
176
     1
 40
0.0
176
     1
 40
1.0
176
     1
 90
        0
176
     1
 62
    18
420
        0
176
     1
 90
       50
176
     1
 90
        3
176
     1
 62
     5
420
      255
176
     1
290
     0
176
     1
 90
       50
176
     1
 90
       50
176
     1
 90
       50
176
     1
290
     0
176
     1
 90
       50
176
     1
 62
   256
176
     0
 40
1.0
176
     0
 90
        2
176
     1
  1
strokes_ogs.tif
176
     1
290
     0
176
     1
 40
1.0
176
     1
 40
1.0
176
     1
  0
VISUALSTYLE
  5
3D
102
{ACAD_REACTORS
330
2A
102
}
330
2A
100
AcDbVisualStyle
  2
EdgeColorOff
 70
    22
177
     3
291
     1
 70
    58
 90
        2
176
     0
 90
        2
176
     0
 90
        0
176
     0
 90
        0
176
     0
 40
0.6
176
     0
 40
30.0
176
     0
 62
     7
420
 16777215
176
     0
 90
        1
176
     0
 90
        4
176
     0
 62
     7
176
     0
 62
   257
176
     0
 90
        1
176
     0
 90
        1
176
     0
 40
1.0
176
     0
 90
        8
176
     2
 62
     7
176
     0
 40
1.0
176
     0
 90
        1
176
     0
 90
        6
176
     0
 90
        2
176
     0
 62
     7
176
     0
 90
        5
176
     0
 90
        0
176
     0
 90
        0
176
     0
290
     0
176
     0
 90
        1
176
     0
 40
0.0
176
     0
 90
        0
176
     0
290
     0
176
     0
290
     1
176
     0
290
     1
176
     0
290
     0
176
     0
290
     0
176
     0
290
     0
176
     0
290
     0
176
     0
290
     0
176
     0
290
     0
176
     0
 90
       50
176
     0
 40
0.0
176
     0
 40
1.0
176
     0
 90
        0
176
     0
 62
    18
420
        0
176
     0
 90
       50
176
     0
 90
        3
176
     0
 62
     5
420
      255
176
     0
290
     0
176
     0
 90
       50
176
     0
 90
       50
176
     0
 90
       50
176
     0
290
     0
176
     0
 90
       50
176
     0
 62
   256
176
     0
 40
1.0
176
     0
 90
        2
176
     0
  1
strokes_ogs.tif
176
     0
290
     0
176
     0
 40
1.0
176
     0
 40
1.0
176
     0
  0
VISUALSTYLE
  5
39
102
{ACAD_REACTORS
330
2A
102
}
330
2A
100
AcDbVisualStyle
  2
Facepattern
 70
    15
177
     3
291
     1
 70
    58
 90
        2
176
     1
 90
        2
176
     1
 90
        0
176
     1
 90
        0
176
     1
 40
0.6
176
     1
 40
30.0
176
     1
 62
     7
420
 16777215
176
     1
 90
        1
176
     1
 90
        4
176
     1
 62
     7
176
     1
 62
   257
176
     1
 90
        1
176
     1
 90
        1
176
     1
 40
1.0
176
     1
 90
        8
176
     1
 62
     7
176
     1
 40
1.0
176
     1
 90
        1
176
     1
 90
        6
176
     1
 90
        2
176
     1
 62
     7
176
     1
 90
        5
176
     1
 90
        0
176
     1
 90
        0
176
     1
290
     0
176
     1
 90
        1
176
     1
 40
0.0
176
     1
 90
        0
176
     1
290
     0
176
     1
290
     1
176
     1
290
     1
176
     1
290
     0
176
     1
290
     0
176
     1
290
     0
176
     1
290
     0
176
     1
290
     0
176
     1
290
     0
176
     1
 90
       50
176
     1
 40
0.0
176
     1
 40
1.0
176
     1
 90
        0
176
     1
 62
    18
420
        0
176
     1
 90
       50
176
     1
 90
        3
176
     1
 62
     5
420
      255
176
     1
290
     0
176
     1
 90
       50
176
     1
 90
       50
176
     1
 90
       50
176
     1
290
     0
176
     1
 90
       50
176
     1
 62
   256
176
     0
 40
1.0
176
     0
 90
        2
176
     1
  1
strokes_ogs.tif
176
     1
290
     0
176
     1
 40
1.0
176
     1
 40
1.0
176
     1
  0
VISUALSTYLE
  5
2B
102
{ACAD_REACTORS
330
2A
102
}
330
2A
100
AcDbVisualStyle
  2
Flat
 70
     0
177
     3
291
     1
 70
    58
 90
        2
176
     1
 90
        1
176
     1
 90
        1
176
     1
 90
        2
176
     1
 40
0.6
176
     1
 40
30.0
176
     1
 62
     7
420
 16777215
176
     1
 90
        0
176
     1
 90
        0
176
     1
 62
     7
176
     1
 62
   257
176
     1
 90
        1
176
     1
 90
        1
176
     1
 40
1.0
176
     1
 90
        8
176
     1
 62
     7
176
     1
 40
1.0
176
     1
 90
        1
176
     1
 90
        6
176
     1
 90
        2
176
     1
 62
     7
176
     1
 90
        5
176
     1
 90
        0
176
     1
 90
        0
176
     1
290
     0
176
     1
 90
       13
176
     1
 40
0.0
176
     1
 90
        0
176
     1
290
     0
176
     1
290
     1
176
     1
290
     1
176
     1
290
     0
176
     1
290
     0
176
     1
290
     0
176
     1
290
     0
176
     1
290
     0
176
     1
290
     0
176
     1
 90
       50
176
     1
 40
0.0
176
     1
 40
1.0
176
     1
 90
        0
176
     1
 62
    18
420
        0
176
     1
 90
       50
176
     1
 90
        3
176
     1
 62
     5
420
      255
176
     1
290
     0
176
     1
 90
       50
176
     1
 90
       50
176
     1
 90
       50
176
     1
290
     0
176
     1
 90
       50
176
     1
 62
   256
176
     0
 40
1.0
176
     0
 90
        2
176
     1
  1
strokes_ogs.tif
176
     1
290
     0
176
     1
 40
1.0
176
     1
 40
1.0
176
     1
  0
VISUALSTYLE
  5
2C
102
{ACAD_REACTORS
330
2A
102
}
330
2A
100
AcDbVisualStyle
  2
FlatWithEdges
 70
     1
177
     3
291
     1
 70
    58
 90
        2
176
     1
 90
        1
176
     1
 90
        1
176
     1
 90
        2
176
     1
 40
0.6
176
     1
 40
30.0
176
     1
 62
     7
420
 16777215
176
     1
 90
        1
176
     1
 90
        0
176
     1
 62
     7
176
     1
 62
   257
176
     1
 90
        1
176
     1
 90
        1
176
     1
 40
1.0
176
     1
 90
        0
176
     1
 62
   257
176
     1
 40
1.0
176
     1
 90
        1
176
     1
 90
        6
176
     1
 90
        2
176
     1
 62
     7
176
     1
 90
        5
176
     1
 90
        0
176
     1
 90
        0
176
     1
290
     0
176
     1
 90
       13
176
     1
 40
0.0
176
     1
 90
        0
176
     1
290
     0
176
     1
290
     1
176
     1
290
     1
176
     1
290
     0
176
     1
290
     0
176
     1
290
     0
176
     1
290
     0
176
     1
290
     0
176
     1
290
     0
176
     1
 90
       50
176
     1
 40
0.0
176
     1
 40
1.0
176
     1
 90
        0
176
     1
 62
    18
420
        0
176
     1
 90
       50
176
     1
 90
        3
176
     1
 62
     5
420
      255
176
     1
290
     0
176
     1
 90
       50
176
     1
 90
       50
176
     1
 90
       50
176
     1
290
     0
176
     1
 90
       50
176
     1
 62
   256
176
     0
 40
1.0
176
     0
 90
        2
176
     1
  1
strokes_ogs.tif
176
     1
290
     0
176
     1
 40
1.0
176
     1
 40
1.0
176
     1
  0
VISUALSTYLE
  5
2D
102
{ACAD_REACTORS
330
2A
102
}
330
2A
100
AcDbVisualStyle
  2
Gouraud
 70
     2
177
     3
291
     1
 70
    58
 90
        2
176
     1
 90
        2
176
     1
 90
        1
176
     1
 90
        2
176
     1
 40
0.6
176
     1
 40
30.0
176
     1
 62
     7
420
 16777215
176
     1
 90
        0
176
     1
 90
        0
176
     1
 62
     7
176
     1
 62
   257
176
     1
 90
        1
176
     1
 90
        1
176
     1
 40
1.0
176
     1
 90
        0
176
     1
 62
     7
176
     1
 40
1.0
176
     1
 90
        1
176
     1
 90
        6
176
     1
 90
        2
176
     1
 62
     7
176
     1
 90
        5
176
     1
 90
        0
176
     1
 90
        0
176
     1
290
     0
176
     1
 90
       13
176
     1
 40
0.0
176
     1
 90
        0
176
     1
290
     0
176
     1
290
     1
176
     1
290
     1
176
     1
290
     0
176
     1
290
     0
176
     1
290
     0
176
     1
290
     0
176
     1
290
     0
176
     1
290
     0
176
     1
 90
       50
176
     1
 40
0.0
176
     1
 40
1.0
176
     1
 90
        0
176
     1
 62
    18
420
        0
176
     1
 90
       50
176
     1
 90
        3
176
     1
 62
     5
420
      255
176
     1
290
     0
176
     1
 90
       50
176
     1
 90
       50
176
     1
 90
       50
176
     1
290
     0
176
     1
 90
       50
176
     1
 62
   256
176
     0
 40
1.0
176
     0
 90
        2
176
     1
  1
strokes_ogs.tif
176
     1
290
     0
176
     1
 40
1.0
176
     1
 40
1.0
176
     1
  0
VISUALSTYLE
  5
2E
102
{ACAD_REACTORS
330
2A
102
}
330
2A
100
AcDbVisualStyle
  2
GouraudWithEdges
 70
     3
177
     3
291
     1
 70
    58
 90
        2
176
     1
 90
        2
176
     1
 90
        1
176
     1
 90
        2
176
     1
 40
0.6
176
     1
 40
30.0
176
     1
 62
     7
420
 16777215
176
     1
 90
        1
176
     1
 90
        0
176
     1
 62
     7
176
     1
 62
   257
176
     1
 90
        1
176
     1
 90
        1
176
     1
 40
1.0
176
     1
 90
        0
176
     1
 62
   257
176
     1
 40
1.0
176
     1
 90
        1
176
     1
 90
        6
176
     1
 90
        2
176
     1
 62
     7
176
     1
 90
        5
176
     1
 90
        0
176
     1
 90
        0
176
     1
290
     0
176
     1
 90
       13
176
     1
 40
0.0
176
     1
 90
        0
176
     1
290
     0
176
     1
290
     1
176
     1
290
     1
176
     1
290
     0
176
     1
290
     0
176
     1
290
     0
176
     1
290
     0
176
     1
290
     0
176
     1
290
     0
176
     1
 90
       50
176
     1
 40
0.0
176
     1
 40
1.0
176
     1
 90
        0
176
     1
 62
    18
420
        0
176
     1
 90
       50
176
     1
 90
        3
176
     1
 62
     5
420
      255
176
     1
290
     0
176
     1
 90
       50
176
     1
 90
       50
176
     1
 90
       50
176
     1
290
     0
176
     1
 90
       50
176
     1
 62
   256
176
     0
 40
1.0
176
     0
 90
        2
176
     1
  1
strokes_ogs.tif
176
     1
290
     0
176
     1
 40
1.0
176
     1
 40
1.0
176
     1
  0
VISUALSTYLE
  5
31
102
{ACAD_REACTORS
330
2A
102
}
330
2A
100
AcDbVisualStyle
  2
Hidden
 70
     6
177
     3
291
     0
 70
    58
 90
        1
176
     1
 90
        2
176
     1
 90
        2
176
     1
 90
        0
176
     1
 40
0.6
176
     1
 40
30.0
176
     1
 62
     7
420
 16777215
176
     1
 90
        2
176
     1
 90
        2
176
     1
 62
     7
176
     1
 62
   257
176
     1
 90
        2
176
     1
 90
        1
176
     1
 40
40.0
176
     1
 90
        0
176
     1
 62
   257
176
     1
 40
1.0
176
     1
 90
        1
176
     1
 90
        6
176
     1
 90
        2
176
     1
 62
     7
176
     1
 90
        3
176
     1
 90
        0
176
     1
 90
        0
176
     1
290
     0
176
     1
 90
        1
176
     1
 40
0.0
176
     1
 90
        0
176
     1
290
     0
176
     1
290
     1
176
     1
290
     1
176
     1
290
     0
176
     1
290
     0
176
     1
290
     0
176
     1
290
     0
176
     1
290
     0
176
     1
290
     0
176
     1
 90
       50
176
     1
 40
0.0
176
     1
 40
1.0
176
     1
 90
        0
176
     1
 62
    18
420
        0
176
     1
 90
       50
176
     1
 90
        3
176
     1
 62
     5
420
      255
176
     1
290
     0
176
     1
 90
       50
176
     1
 90
       50
176
     1
 90
       50
176
     1
290
     0
176
     1
 90
       50
176
     1
 62
   256
176
     0
 40
1.0
176
     0
 90
        2
176
     1
  1
strokes_ogs.tif
176
     1
290
     0
176
     1
 40
1.0
176
     1
 40
1.0
176
     1
  0
VISUALSTYLE
  5
3B
102
{ACAD_REACTORS
330
2A
102
}
330
2A
100
AcDbVisualStyle
  2
JitterOff
 70
    20
177
     3
291
     1
 70
    58
 90
        2
176
     0
 90
        2
176
     0
 90
        0
176
     0
 90
        0
176
     0
 40
0.6
176
     0
 40
30.0
176
     0
 62
     7
420
 16777215
176
     0
 90
        1
176
     0
 90
        4
176
     0
 62
     7
176
     0
 62
   257
176
     0
 90
        1
176
     0
 90
        1
176
     0
 40
1.0
176
     0
 90
       10
176
     2
 62
     7
176
     0
 40
1.0
176
     0
 90
        1
176
     0
 90
        6
176
     0
 90
        2
176
     0
 62
     7
176
     0
 90
        5
176
     0
 90
        0
176
     0
 90
        0
176
     0
290
     0
176
     0
 90
        1
176
     0
 40
0.0
176
     0
 90
        0
176
     0
290
     0
176
     0
290
     1
176
     0
290
     1
176
     0
290
     0
176
     0
290
     0
176
     0
290
     0
176
     0
290
     0
176
     0
290
     0
176
     0
290
     0
176
     0
 90
       50
176
     0
 40
0.0
176
     0
 40
1.0
176
     0
 90
        0
176
     0
 62
    18
420
        0
176
     0
 90
       50
176
     0
 90
        3
176
     0
 62
     5
420
      255
176
     0
290
     0
176
     0
 90
       50
176
     0
 90
       50
176
     0
 90
       50
176
     0
290
     0
176
     0
 90
       50
176
     0
 62
   256
176
     0
 40
1.0
176
     0
 90
        2
176
     0
  1
strokes_ogs.tif
176
     0
290
     0
176
     0
 40
1.0
176
     0
 40
1.0
176
     0
  0
VISUALSTYLE
  5
38
102
{ACAD_REACTORS
330
2A
102
}
330
2A
100
AcDbVisualStyle
  2
Linepattern
 70
    14
177
     3
291
     1
 70
    58
 90
        2
176
     1
 90
        2
176
     1
 90
        0
176
     1
 90
        0
176
     1
 40
0.6
176
     1
 40
30.0
176
     1
 62
     7
420
 16777215
176
     1
 90
        1
176
     1
 90
        4
176
     1
 62
     7
176
     1
 62
   257
176
     1
 90
        7
176
     1
 90
        7
176
     1
 40
1.0
176
     1
 90
        8
176
     1
 62
     7
176
     1
 40
1.0
176
     1
 90
        1
176
     1
 90
        6
176
     1
 90
        2
176
     1
 62
     7
176
     1
 90
        5
176
     1
 90
        0
176
     1
 90
        0
176
     1
290
     0
176
     1
 90
        1
176
     1
 40
0.0
176
     1
 90
        0
176
     1
290
     0
176
     1
290
     1
176
     1
290
     1
176
     1
290
     0
176
     1
290
     0
176
     1
290
     0
176
     1
290
     0
176
     1
290
     0
176
     1
290
     0
176
     1
 90
       50
176
     1
 40
0.0
176
     1
 40
1.0
176
     1
 90
        0
176
     1
 62
    18
420
        0
176
     1
 90
       50
176
     1
 90
        3
176
     1
 62
     5
420
      255
176
     1
290
     0
176
     1
 90
       50
176
     1
 90
       50
176
     1
 90
       50
176
     1
290
     0
176
     1
 90
       50
176
     1
 62
   256
176
     0
 40
1.0
176
     0
 90
        2
176
     1
  1
strokes_ogs.tif
176
     1
290
     0
176
     1
 40
1.0
176
     1
 40
1.0
176
     1
  0
VISUALSTYLE
  5
3C
102
{ACAD_REACTORS
330
2A
102
}
330
2A
100
AcDbVisualStyle
  2
OverhangOff
 70
    21
177
     3
291
     1
 70
    58
 90
        2
176
     0
 90
        2
176
     0
 90
        0
176
     0
 90
        0
176
     0
 40
0.6
176
     0
 40
30.0
176
     0
 62
     7
420
 16777215
176
     0
 90
        1
176
     0
 90
        4
176
     0
 62
     7
176
     0
 62
   257
176
     0
 90
        1
176
     0
 90
        1
176
     0
 40
1.0
176
     0
 90
        9
176
     2
 62
     7
176
     0
 40
1.0
176
     0
 90
        1
176
     0
 90
        6
176
     0
 90
        2
176
     0
 62
     7
176
     0
 90
        5
176
     0
 90
        0
176
     0
 90
        0
176
     0
290
     0
176
     0
 90
        1
176
     0
 40
0.0
176
     0
 90
        0
176
     0
290
     0
176
     0
290
     1
176
     0
290
     1
176
     0
290
     0
176
     0
290
     0
176
     0
290
     0
176
     0
290
     0
176
     0
290
     0
176
     0
290
     0
176
     0
 90
       50
176
     0
 40
0.0
176
     0
 40
1.0
176
     0
 90
        0
176
     0
 62
    18
420
        0
176
     0
 90
       50
176
     0
 90
        3
176
     0
 62
     5
420
      255
176
     0
290
     0
176
     0
 90
       50
176
     0
 90
       50
176
     0
 90
       50
176
     0
290
     0
176
     0
 90
       50
176
     0
 62
   256
176
     0
 40
1.0
176
     0
 90
        2
176
     0
  1
strokes_ogs.tif
176
     0
290
     0
176
     0
 40
1.0
176
     0
 40
1.0
176
     0
  0
VISUALSTYLE
  5
33
102
{ACAD_REACTORS
330
2A
102
}
330
2A
100
AcDbVisualStyle
  2
Realistic
 70
     8
177
     3
291
     0
 70
    58
 90
        2
176
     1
 90
        3
176
     1
 90
        0
176
     1
 90
        2
176
     1
 40
0.6
176
     1
 40
30.0
176
     1
 62
     7
420
 16777215
176
     1
 90
        0
176
     1
 90
        0
176
     1
 62
     7
176
     1
 62
   257
176
     1
 90
        1
176
     1
 90
        1
176
     1
 40
1.0
176
     1
 90
        8
176
     1
 62
   257
176
     1
 40
1.0
176
     1
 90
        1
176
     1
 90
        6
176
     1
 90
        2
176
     1
 62
     7
176
     1
 90
        3
176
     1
 90
        0
176
     1
 90
        0
176
     1
290
     0
176
     1
 90
       13
176
     1
 40
0.0
176
     1
 90
        0
176
     1
290
     0
176
     1
290
     1
176
     1
290
     1
176
     1
290
     0
176
     1
290
     0
176
     1
290
     0
176
     1
290
     0
176
     1
290
     0
176
     1
290
     0
176
     1
 90
       50
176
     1
 40
0.0
176
     1
 40
1.0
176
     1
 90
        0
176
     1
 62
    18
420
        0
176
     1
 90
       50
176
     1
 90
        3
176
     1
 62
     5
420
      255
176
     1
290
     0
176
     1
 90
       50
176
     1
 90
       50
176
     1
 90
       50
176
     1
290
     0
176
     1
 90
       50
176
     1
 62
   256
176
     0
 40
1.0
176
     0
 90
        2
176
     1
  1
strokes_ogs.tif
176
     1
290
     0
176
     1
 40
1.0
176
     1
 40
1.0
176
     1
  0
VISUALSTYLE
  5
42
102
{ACAD_REACTORS
330
2A
102
}
330
2A
100
AcDbVisualStyle
  2
Shaded
 70
    27
177
     3
291
     0
 70
    58
 90
        2
176
     1
 90
        2
176
     1
 90
        1
176
     1
 90
        2
176
     1
 40
0.6
176
     1
 40
30.0
176
     1
 62
     7
420
 16777215
176
     1
 90
        0
176
     1
 90
        4
176
     1
 62
     7
176
     1
 62
   257
176
     1
 90
        1
176
     1
 90
        1
176
     1
 40
1.0
176
     1
 90
        8
176
     1
 62
   257
176
     1
 40
1.0
176
     1
 90
        1
176
     1
 90
        6
176
     1
 90
        2
176
     1
 62
     8
420
  7895160
176
     1
 90
        3
176
     1
 90
        0
176
     1
 90
        0
176
     1
290
     0
176
     1
 90
        5
176
     1
 40
0.0
176
     1
 90
        0
176
     1
290
     0
176
     1
290
     1
176
     1
290
     1
176
     1
290
     0
176
     1
290
     0
176
     1
290
     0
176
     1
290
     0
176
     1
290
     0
176
     1
290
     0
176
     1
 90
       50
176
     1
 40
0.0
176
     1
 40
1.0
176
     1
 90
        0
176
     1
 62
    18
420
        0
176
     1
 90
       50
176
     1
 90
        3
176
     1
 62
     5
420
      255
176
     1
290
     0
176
     1
 90
       50
176
     1
 90
       50
176
     1
 90
       50
176
     1
290
     0
176
     1
 90
       50
176
     1
 62
   256
176
     0
 40
1.0
176
     0
 90
        2
176
     1
  1
strokes_ogs.tif
176
     1
290
     0
176
     1
 40
1.0
176
     1
 40
1.0
176
     1
  0
VISUALSTYLE
  5
41
102
{ACAD_REACTORS
330
2A
102
}
330
2A
100
AcDbVisualStyle
  2
Shaded with edges
 70
    26
177
     3
291
     0
 70
    58
 90
        2
176
     1
 90
        2
176
     1
 90
        1
176
     1
 90
        2
176
     1
 40
0.6
176
     1
 40
30.0
176
     1
 62
     7
420
 16777215
176
     1
 90
        1
176
     1
 90
       10
176
     1
 62
     7
176
     1
 62
   257
176
     1
 90
        2
176
     1
 90
        1
176
     1
 40
1.0
176
     1
 90
        8
176
     1
 62
   257
176
     1
 40
1.0
176
     1
 90
        1
176
     1
 90
        6
176
     1
 90
        2
176
     1
 62
     7
176
     1
 90
        3
176
     1
 90
        0
176
     1
 90
        0
176
     1
290
     0
176
     1
 90
        5
176
     1
 40
0.0
176
     1
 90
        0
176
     1
290
     0
176
     1
290
     1
176
     1
290
     1
176
     1
290
     0
176
     1
290
     0
176
     1
290
     0
176
     1
290
     0
176
     1
290
     0
176
     1
290
     0
176
     1
 90
       50
176
     1
 40
0.0
176
     1
 40
1.0
176
     1
 90
        0
176
     1
 62
    18
420
        0
176
     1
 90
       50
176
     1
 90
        3
176
     1
 62
     5
420
      255
176
     1
290
     0
176
     1
 90
       50
176
     1
 90
       50
176
     1
 90
       50
176
     1
290
     0
176
     1
 90
       50
176
     1
 62
   256
176
     0
 40
1.0
176
     0
 90
        2
176
     1
  1
strokes_ogs.tif
176
     1
290
     0
176
     1
 40
1.0
176
     1
 40
1.0
176
     1
  0
VISUALSTYLE
  5
3E
102
{ACAD_REACTORS
330
2A
102
}
330
2A
100
AcDbVisualStyle
  2
Shades of Gray
 70
    23
177
     3
291
     0
 70
    58
 90
        2
176
     1
 90
        2
176
     1
 90
        3
176
     1
 90
        0
176
     1
 40
0.6
176
     1
 40
30.0
176
     1
 62
     7
420
 16777215
176
     1
 90
        2
176
     1
 90
        2
176
     1
 62
     7
176
     1
 62
     7
176
     1
 90
        1
176
     1
 90
        1
176
     1
 40
40.0
176
     1
 90
        8
176
     1
 62
     7
176
     1
 40
1.0
176
     1
 90
        1
176
     1
 90
        6
176
     1
 90
        2
176
     1
 62
     7
176
     1
 90
        3
176
     1
 90
        0
176
     1
 90
        0
176
     1
290
     0
176
     1
 90
        1
176
     1
 40
0.0
176
     1
 90
        0
176
     1
290
     0
176
     1
290
     1
176
     1
290
     1
176
     1
290
     0
176
     1
290
     0
176
     1
290
     0
176
     1
290
     0
176
     1
290
     0
176
     1
290
     0
176
     1
 90
       50
176
     1
 40
0.0
176
     1
 40
1.0
176
     1
 90
        0
176
     1
 62
    18
420
        0
176
     1
 90
       50
176
     1
 90
        3
176
     1
 62
     5
420
      255
176
     1
290
     0
176
     1
 90
       50
176
     1
 90
       50
176
     1
 90
       50
176
     1
290
     0
176
     1
 90
       50
176
     1
 62
   256
176
     0
 40
1.0
176
     0
 90
        2
176
     1
  1
strokes_ogs.tif
176
     1
290
     0
176
     1
 40
1.0
176
     1
 40
1.0
176
     1
  0
VISUALSTYLE
  5
3F
102
{ACAD_REACTORS
330
2A
102
}
330
2A
100
AcDbVisualStyle
  2
Sketchy
 70
    24
177
     3
291
     0
 70
    58
 90
        1
176
     1
 90
        2
176
     1
 90
        2
176
     1
 90
        0
176
     1
 40
0.6
176
     1
 40
30.0
176
     1
 62
     7
420
 16777215
176
     1
 90
        2
176
     1
 90
        2
176
     1
 62
     7
176
     1
 62
     7
176
     1
 90
        1
176
     1
 90
        1
176
     1
 40
40.0
176
     1
 90
       11
176
     1
 62
     7
176
     1
 40
1.0
176
     1
 90
        1
176
     1
 90
        6
176
     1
 90
        2
176
     1
 62
     7
176
     1
 90
        6
176
     1
 90
        0
176
     1
 90
        0
176
     1
290
     0
176
     1
 90
        1
176
     1
 40
0.0
176
     1
 90
        0
176
     1
290
     0
176
     1
290
     1
176
     1
290
     1
176
     1
290
     0
176
     1
290
     0
176
     1
290
     0
176
     1
290
     0
176
     1
290
     0
176
     1
290
     0
176
     1
 90
       50
176
     1
 40
0.0
176
     1
 40
1.0
176
     1
 90
        0
176
     1
 62
    18
420
        0
176
     1
 90
       50
176
     1
 90
        3
176
     1
 62
     5
420
      255
176
     1
290
     0
176
     1
 90
       50
176
     1
 90
       50
176
     1
 90
       50
176
     1
290
     0
176
     1
 90
       50
176
     1
 62
   256
176
     0
 40
1.0
176
     0
 90
        2
176
     1
  1
strokes_ogs.tif
176
     1
290
     0
176
     1
 40
1.0
176
     1
 40
1.0
176
     1
  0
VISUALSTYLE
  5
37
102
{ACAD_REACTORS
330
2A
102
}
330
2A
100
AcDbVisualStyle
  2
Thicken
 70
    13
177
     3
291
     1
 70
    58
 90
        2
176
     1
 90
        2
176
     1
 90
        0
176
     1
 90
        0
176
     1
 40
0.6
176
     1
 40
30.0
176
     1
 62
     7
420
 16777215
176
     1
 90
        1
176
     1
 90
        4
176
     1
 62
     7
176
     1
 62
   257
176
     1
 90
        1
176
     1
 90
        1
176
     1
 40
1.0
176
     1
 90
       12
176
     1
 62
     7
176
     1
 40
1.0
176
     1
 90
        1
176
     1
 90
        6
176
     1
 90
        2
176
     1
 62
     7
176
     1
 90
        5
176
     1
 90
        0
176
     1
 90
        0
176
     1
290
     0
176
     1
 90
        1
176
     1
 40
0.0
176
     1
 90
        0
176
     1
290
     0
176
     1
290
     1
176
     1
290
     1
176
     1
290
     0
176
     1
290
     0
176
     1
290
     0
176
     1
290
     0
176
     1
290
     0
176
     1
290
     0
176
     1
 90
       50
176
     1
 40
0.0
176
     1
 40
1.0
176
     1
 90
        0
176
     1
 62
    18
420
        0
176
     1
 90
       50
176
     1
 90
        3
176
     1
 62
     5
420
      255
176
     1
290
     0
176
     1
 90
       50
176
     1
 90
       50
176
     1
 90
       50
176
     1
290
     0
176
     1
 90
       50
176
     1
 62
   256
176
     0
 40
1.0
176
     0
 90
        2
176
     1
  1
strokes_ogs.tif
176
     1
290
     0
176
     1
 40
1.0
176
     1
 40
1.0
176
     1
  0
VISUALSTYLE
  5
30
102
{ACAD_REACTORS
330
2A
102
}
330
2A
100
AcDbVisualStyle
  2
Wireframe
 70
     5
177
     3
291
     0
 70
    58
 90
        0
176
     1
 90
        2
176
     1
 90
        0
176
     1
 90
        0
176
     1
 40
0.6
176
     1
 40
30.0
176
     1
 62
     7
420
 16777215
176
     1
 90
        1
176
     1
 90
        4
176
     1
 62
     7
176
     1
 62
   257
176
     1
 90
        1
176
     1
 90
        1
176
     1
 40
1.0
176
     1
 90
        0
176
     1
 62
   257
176
     1
 40
1.0
176
     1
 90
        1
176
     1
 90
        6
176
     1
 90
        2
176
     1
 62
     7
176
     1
 90
        3
176
     1
 90
        0
176
     1
 90
        0
176
     1
290
     0
176
     1
 90
        1
176
     1
 40
0.0
176
     1
 90
        0
176
     1
290
     0
176
     1
290
     1
176
     1
290
     1
176
     1
290
     0
176
     1
290
     0
176
     1
290
     0
176
     1
290
     0
176
     1
290
     0
176
     1
290
     0
176
     1
 90
       50
176
     1
 40
0.0
176
     1
 40
1.0
176
     1
 90
        0
176
     1
 62
    18
420
        0
176
     1
 90
       50
176
     1
 90
        3
176
     1
 62
     5
420
      255
176
     1
290
     0
176
     1
 90
       50
176
     1
 90
       50
176
     1
 90
       50
176
     1
290
     0
176
     1
 90
       50
176
     1
 62
   256
176
     0
 40
1.0
176
     0
 90
        2
176
     1
  1
strokes_ogs.tif
176
     1
290
     0
176
     1
 40
1.0
176
     1
 40
1.0
176
     1
  0
VISUALSTYLE
  5
40
102
{ACAD_REACTORS
330
2A
102
}
330
2A
100
AcDbVisualStyle
  2
X-Ray
 70
    25
177
     3
291
     0
 70
    58
 90
        2
176
     1
 90
        2
176
     1
 90
        1
176
     1
 90
        1
176
     1
 40
0.5
176
     1
 40
30.0
176
     1
 62
     7
420
 16777215
176
     1
 90
        1
176
     1
 90
        0
176
     1
 62
     7
176
     1
 62
   257
176
     1
 90
        1
176
     1
 90
        1
176
     1
 40
1.0
176
     1
 90
        8
176
     1
 62
     7
176
     1
 40
1.0
176
     1
 90
        1
176
     1
 90
        6
176
     1
 90
        2
176
     1
 62
     7
176
     1
 90
        3
176
     1
 90
        0
176
     1
 90
        0
176
     1
290
     0
176
     1
 90
       13
176
     1
 40
0.0
176
     1
 90
        0
176
     1
290
     0
176
     1
290
     1
176
     1
290
     1
176
     1
290
     0
176
     1
290
     0
176
     1
290
     0
176
     1
290
     0
176
     1
290
     0
176
     1
290
     0
176
     1
 90
       50
176
     1
 40
0.0
176
     1
 40
1.0
176
     1
 90
        0
176
     1
 62
    18
420
        0
176
     1
 90
       50
176
     1
 90
        3
176
     1
 62
     5
420
      255
176
     1
290
     0
176
     1
 90
       50
176
     1
 90
       50
176
     1
 90
       50
176
     1
290
     0
176
     1
 90
       50
176
     1
 62
   256
176
     0
 40
1.0
176
     0
 90
        2
176
     1
  1
strokes_ogs.tif
176
     1
290
     0
176
     1
 40
1.0
176
     1
 40
1.0
176
     1
  0
DICTIONARYVAR
  5
15D
102
{ACAD_REACTORS
330
15C
102
}
330
15C
100
DictionaryVariables
280
     0
  1
1:1
  0
DICTIONARYVAR
  5
162
102
{ACAD_REACTORS
330
15C
102
}
330
15C
100
DictionaryVariables
280
     0
  1
Standard
  0
DICTIONARYVAR
  5
161
102
{ACAD_REACTORS
330
15C
102
}
330
15C
100
DictionaryVariables
280
     0
  1
Standard
  0
DICTIONARY
  5
15E
330
6A
100
AcDbDictionary
280
     1
281
     1
  3
ACAD_ROUNDTRIP_2008_TABLESTYLE_CELLSTYLEMAP
360
15F
  0
CELLSTYLEMAP
  5
15F
102
{ACAD_REACTORS
330
15E
102
}
330
15E
100
AcDbCellStyleMap
 90
        3
300
CELLSTYLE
  1
TABLEFORMAT_BEGIN
 90
        5
170
     1
 91
        0
 92
    32768
 62
   257
 93
        1
300
CONTENTFORMAT
  1
CONTENTFORMAT_BEGIN
 90
        0
 91
        0
 92
        4
 93
        0
300

 40
0.0
140
1.0
 94
        5
 62
     0
340
11
144
0.25
309
CONTENTFORMAT_END
171
     1
301
MARGIN
  1
CELLMARGIN_BEGIN
 40
0.06
 40
0.06
 40
0.06
 40
0.06
 40
0.06
 40
0.06
309
CELLMARGIN_END
 94
        6
 95
        1
302
GRIDFORMAT
  1
GRIDFORMAT_BEGIN
 90
        0
 91
        1
 62
     0
 92
       -2
340
14
 93
        0
 40
0.045
309
GRIDFORMAT_END
 95
        2
302
GRIDFORMAT
  1
GRIDFORMAT_BEGIN
 90
        0
 91
        1
 62
     0
 92
       -2
340
14
 93
        0
 40
0.045
309
GRIDFORMAT_END
 95
        4
302
GRIDFORMAT
  1
GRIDFORMAT_BEGIN
 90
        0
 91
        1
 62
     0
 92
       -2
340
14
 93
        0
 40
0.045
309
GRIDFORMAT_END
 95
        8
302
GRIDFORMAT
  1
GRIDFORMAT_BEGIN
 90
        0
 91
        1
 62
     0
 92
       -2
340
14
 93
        0
 40
0.045
309
GRIDFORMAT_END
 95
       16
302
GRIDFORMAT
  1
GRIDFORMAT_BEGIN
 90
        0
 91
        1
 62
     0
 92
       -2
340
14
 93
        0
 40
0.045
309
GRIDFORMAT_END
 95
       32
302
GRIDFORMAT
  1
GRIDFORMAT_BEGIN
 90
        0
 91
        1
 62
     0
 92
       -2
340
14
 93
        0
 40
0.045
309
GRIDFORMAT_END
309
TABLEFORMAT_END
  1
CELLSTYLE_BEGIN
 90
        1
 91
        1
300
_TITLE
309
CELLSTYLE_END
300
CELLSTYLE
  1
TABLEFORMAT_BEGIN
 90
        5
170
     1
 91
        0
 92
        0
 62
   257
 93
        1
300
CONTENTFORMAT
  1
CONTENTFORMAT_BEGIN
 90
        0
 91
        0
 92
        4
 93
        0
300

 40
0.0
140
1.0
 94
        5
 62
     0
340
11
144
0.18
309
CONTENTFORMAT_END
171
     1
301
MARGIN
  1
CELLMARGIN_BEGIN
 40
0.06
 40
0.06
 40
0.06
 40
0.06
 40
0.06
 40
0.06
309
CELLMARGIN_END
 94
        6
 95
        1
302
GRIDFORMAT
  1
GRIDFORMAT_BEGIN
 90
        0
 91
        1
 62
     0
 92
       -2
340
14
 93
        0
 40
0.045
309
GRIDFORMAT_END
 95
        2
302
GRIDFORMAT
  1
GRIDFORMAT_BEGIN
 90
        0
 91
        1
 62
     0
 92
       -2
340
14
 93
        0
 40
0.045
309
GRIDFORMAT_END
 95
        4
302
GRIDFORMAT
  1
GRIDFORMAT_BEGIN
 90
        0
 91
        1
 62
     0
 92
       -2
340
14
 93
        0
 40
0.045
309
GRIDFORMAT_END
 95
        8
302
GRIDFORMAT
  1
GRIDFORMAT_BEGIN
 90
        0
 91
        1
 62
     0
 92
       -2
340
14
 93
        0
 40
0.045
309
GRIDFORMAT_END
 95
       16
302
GRIDFORMAT
  1
GRIDFORMAT_BEGIN
 90
        0
 91
        1
 62
     0
 92
       -2
340
14
 93
        0
 40
0.045
309
GRIDFORMAT_END
 95
       32
302
GRIDFORMAT
  1
GRIDFORMAT_BEGIN
 90
        0
 91
        1
 62
     0
 92
       -2
340
14
 93
        0
 40
0.045
309
GRIDFORMAT_END
309
TABLEFORMAT_END
  1
CELLSTYLE_BEGIN
 90
        2
 91
        1
300
_HEADER
309
CELLSTYLE_END
300
CELLSTYLE
  1
TABLEFORMAT_BEGIN
 90
        5
170
     1
 91
        0
 92
        0
 62
   257
 93
        1
300
CONTENTFORMAT
  1
CONTENTFORMAT_BEGIN
 90
        0
 91
        0
 92
        4
 93
        0
300

 40
0.0
140
1.0
 94
        2
 62
     0
340
11
144
0.18
309
CONTENTFORMAT_END
171
     1
301
MARGIN
  1
CELLMARGIN_BEGIN
 40
0.06
 40
0.06
 40
0.06
 40
0.06
 40
0.06
 40
0.06
309
CELLMARGIN_END
 94
        6
 95
        1
302
GRIDFORMAT
  1
GRIDFORMAT_BEGIN
 90
        0
 91
        1
 62
     0
 92
       -2
340
14
 93
        0
 40
0.045
309
GRIDFORMAT_END
 95
        2
302
GRIDFORMAT
  1
GRIDFORMAT_BEGIN
 90
        0
 91
        1
 62
     0
 92
       -2
340
14
 93
        0
 40
0.045
309
GRIDFORMAT_END
 95
        4
302
GRIDFORMAT
  1
GRIDFORMAT_BEGIN
 90
        0
 91
        1
 62
     0
 92
       -2
340
14
 93
        0
 40
0.045
309
GRIDFORMAT_END
 95
        8
302
GRIDFORMAT
  1
GRIDFORMAT_BEGIN
 90
        0
 91
        1
 62
     0
 92
       -2
340
14
 93
        0
 40
0.045
309
GRIDFORMAT_END
 95
       16
302
GRIDFORMAT
  1
GRIDFORMAT_BEGIN
 90
        0
 91
        1
 62
     0
 92
       -2
340
14
 93
        0
 40
0.045
309
GRIDFORMAT_END
 95
       32
302
GRIDFORMAT
  1
GRIDFORMAT_BEGIN
 90
        0
 91
        1
 62
     0
 92
       -2
340
14
 93
        0
 40
0.045
309
GRIDFORMAT_END
309
TABLEFORMAT_END
  1
CELLSTYLE_BEGIN
 90
        3
 91
        2
300
_DATA
309
CELLSTYLE_END
  0
ENDSEC
  0
EOF