0
SECTION
  2
HEADER
  9
$ACADVER
  1
AC1027
  9
$ACADMAINTVER
 70
     8
  9
$DWGCODEPAGE
  3
ANSI_1252
  9
$REQUIREDVERSIONS
160
                 0
  9
$COMMENTS
  1
File was created by Cadenas
  9
$CUSTOMPROPERTYTAG
  1
NN
  9
$CUSTOMPROPERTY
  1
Double-Interlock B-1 Units Gray Iron - Inch
  9
$CUSTOMPROPERTYTAG
  1
NT
  9
$CUSTOMPROPERTY
  1
Double-Interlock Bearings -Inserts
  9
$CUSTOMPROPERTYTAG
  1
NB
  9
$CUSTOMPROPERTY
  1
023556
  9
$CUSTOMPROPERTYTAG
  1
NBSYN
  9
$CUSTOMPROPERTY
  1
$PN.
  9
$CUSTOMPROPERTYTAG
  1
LINA
  9
$CUSTOMPROPERTY
  1
023556
  9
$CUSTOMPROPERTYTAG
  1
SS
  9
$CUSTOMPROPERTY
  1
2-7/16
  9
$CUSTOMPROPERTYTAG
  1
PN
  9
$CUSTOMPROPERTY
  1
023556
  9
$CUSTOMPROPERTYTAG
  1
DESCRIPTION
  9
$CUSTOMPROPERTY
  1
B1U-DI-207R
  9
$CUSTOMPROPERTYTAG
  1
A
  9
$CUSTOMPROPERTY
  1
4
  9
$CUSTOMPROPERTYTAG
  1
B
  9
$CUSTOMPROPERTY
  1
2-3/4
  9
$CUSTOMPROPERTYTAG
  1
D
  9
$CUSTOMPROPERTY
  1
5
  9
$CUSTOMPROPERTYTAG
  1
H
  9
$CUSTOMPROPERTY
  1
11/16
  9
$CUSTOMPROPERTYTAG
  1
J
  9
$CUSTOMPROPERTY
  1
3.32
  9
$CUSTOMPROPERTYTAG
  1
L
  9
$CUSTOMPROPERTY
  1
4-1/16
  9
$CUSTOMPROPERTYTAG
  1
COMPANY
  9
$CUSTOMPROPERTY
  1
baldor
  9
$INSBASE
 10
0.0
 20
0.0
 30
0.0
  9
$EXTMIN
 10
1.000000000000000E+20
 20
1.000000000000000E+20
 30
1.000000000000000E+20
  9
$EXTMAX
 10
-1.000000000000000E+20
 20
-1.000000000000000E+20
 30
-1.000000000000000E+20
  9
$LIMMIN
 10
0.0
 20
0.0
  9
$LIMMAX
 10
12.0
 20
9.0
  9
$ORTHOMODE
 70
     0
  9
$REGENMODE
 70
     1
  9
$FILLMODE
 70
     1
  9
$QTEXTMODE
 70
     0
  9
$MIRRTEXT
 70
     1
  9
$LTSCALE
 40
1.0
  9
$ATTMODE
 70
     1
  9
$TEXTSIZE
 40
0.2
  9
$TRACEWID
 40
0.05
  9
$TEXTSTYLE
  7
Standard
  9
$CLAYER
  8
0
  9
$CELTYPE
  6
ByLayer
  9
$CECOLOR
 62
   256
  9
$CELTSCALE
 40
1.0
  9
$DISPSILH
 70
     0
  9
$DIMSCALE
 40
1.0
  9
$DIMASZ
 40
0.18
  9
$DIMEXO
 40
0.0625
  9
$DIMDLI
 40
0.38
  9
$DIMRND
 40
0.0
  9
$DIMDLE
 40
0.0
  9
$DIMEXE
 40
0.18
  9
$DIMTP
 40
0.0
  9
$DIMTM
 40
0.0
  9
$DIMTXT
 40
0.18
  9
$DIMCEN
 40
0.09
  9
$DIMTSZ
 40
0.0
  9
$DIMTOL
 70
     0
  9
$DIMLIM
 70
     0
  9
$DIMTIH
 70
     1
  9
$DIMTOH
 70
     1
  9
$DIMSE1
 70
     0
  9
$DIMSE2
 70
     0
  9
$DIMTAD
 70
     0
  9
$DIMZIN
 70
     0
  9
$DIMBLK
  1

  9
$DIMASO
 70
     1
  9
$DIMSHO
 70
     1
  9
$DIMPOST
  1

  9
$DIMAPOST
  1

  9
$DIMALT
 70
     0
  9
$DIMALTD
 70
     2
  9
$DIMALTF
 40
25.4
  9
$DIMLFAC
 40
1.0
  9
$DIMTOFL
 70
     0
  9
$DIMTVP
 40
0.0
  9
$DIMTIX
 70
     0
  9
$DIMSOXD
 70
     0
  9
$DIMSAH
 70
     0
  9
$DIMBLK1
  1

  9
$DIMBLK2
  1

  9
$DIMSTYLE
  2
Standard
  9
$DIMCLRD
 70
     0
  9
$DIMCLRE
 70
     0
  9
$DIMCLRT
 70
     0
  9
$DIMTFAC
 40
1.0
  9
$DIMGAP
 40
0.09
  9
$DIMJUST
 70
     0
  9
$DIMSD1
 70
     0
  9
$DIMSD2
 70
     0
  9
$DIMTOLJ
 70
     1
  9
$DIMTZIN
 70
     0
  9
$DIMALTZ
 70
     0
  9
$DIMALTTZ
 70
     0
  9
$DIMUPT
 70
     0
  9
$DIMDEC
 70
     4
  9
$DIMTDEC
 70
     4
  9
$DIMALTU
 70
     2
  9
$DIMALTTD
 70
     2
  9
$DIMTXSTY
  7
Standard
  9
$DIMAUNIT
 70
     0
  9
$DIMADEC
 70
     0
  9
$DIMALTRND
 40
0.0
  9
$DIMAZIN
 70
     0
  9
$DIMDSEP
 70
    46
  9
$DIMATFIT
 70
     3
  9
$DIMFRAC
 70
     0
  9
$DIMLDRBLK
  1

  9
$DIMLUNIT
 70
     2
  9
$DIMLWD
 70
    -2
  9
$DIMLWE
 70
    -2
  9
$DIMTMOVE
 70
     0
  9
$DIMFXL
 40
1.0
  9
$DIMFXLON
 70
     0
  9
$DIMJOGANG
 40
0.7853981633974483
  9
$DIMTFILL
 70
     0
  9
$DIMTFILLCLR
 70
     0
  9
$DIMARCSYM
 70
     0
  9
$DIMLTYPE
  6

  9
$DIMLTEX1
  6

  9
$DIMLTEX2
  6

  9
$DIMTXTDIRECTION
 70
     0
  9
$LUNITS
 70
     2
  9
$LUPREC
 70
     4
  9
$SKETCHINC
 40
0.1
  9
$FILLETRAD
 40
0.5
  9
$AUNITS
 70
     0
  9
$AUPREC
 70
     0
  9
$MENU
  1
.
  9
$ELEVATION
 40
0.0
  9
$PELEVATION
 40
0.0
  9
$THICKNESS
 40
0.0
  9
$LIMCHECK
 70
     0
  9
$CHAMFERA
 40
0.0
  9
$CHAMFERB
 40
0.0
  9
$CHAMFERC
 40
0.0
  9
$CHAMFERD
 40
0.0
  9
$SKPOLY
 70
     0
  9
$TDCREATE
 40
2458169.01588441
  9
$TDUCREATE
 40
2458168.974217743
  9
$TDUPDATE
 40
2458169.015884583
  9
$TDUUPDATE
 40
2458168.974217917
  9
$TDINDWG
 40
0.0000000116
  9
$TDUSRTIMER
 40
0.0000000116
  9
$USRTIMER
 70
     1
  9
$ANGBASE
 50
0.0
  9
$ANGDIR
 70
     0
  9
$PDMODE
 70
     0
  9
$PDSIZE
 40
0.0
  9
$PLINEWID
 40
0.0
  9
$SPLFRAME
 70
     0
  9
$SPLINETYPE
 70
     6
  9
$SPLINESEGS
 70
     8
  9
$HANDSEED
  5
167
  9
$SURFTAB1
 70
     6
  9
$SURFTAB2
 70
     6
  9
$SURFTYPE
 70
     6
  9
$SURFU
 70
     6
  9
$SURFV
 70
     6
  9
$UCSBASE
  2

  9
$UCSNAME
  2

  9
$UCSORG
 10
0.0
 20
0.0
 30
0.0
  9
$UCSXDIR
 10
1.0
 20
0.0
 30
0.0
  9
$UCSYDIR
 10
0.0
 20
1.0
 30
0.0
  9
$UCSORTHOREF
  2

  9
$UCSORTHOVIEW
 70
     0
  9
$UCSORGTOP
 10
0.0
 20
0.0
 30
0.0
  9
$UCSORGBOTTOM
 10
0.0
 20
0.0
 30
0.0
  9
$UCSORGLEFT
 10
0.0
 20
0.0
 30
0.0
  9
$UCSORGRIGHT
 10
0.0
 20
0.0
 30
0.0
  9
$UCSORGFRONT
 10
0.0
 20
0.0
 30
0.0
  9
$UCSORGBACK
 10
0.0
 20
0.0
 30
0.0
  9
$PUCSBASE
  2

  9
$PUCSNAME
  2

  9
$PUCSORG
 10
0.0
 20
0.0
 30
0.0
  9
$PUCSXDIR
 10
1.0
 20
0.0
 30
0.0
  9
$PUCSYDIR
 10
0.0
 20
1.0
 30
0.0
  9
$PUCSORTHOREF
  2

  9
$PUCSORTHOVIEW
 70
     0
  9
$PUCSORGTOP
 10
0.0
 20
0.0
 30
0.0
  9
$PUCSORGBOTTOM
 10
0.0
 20
0.0
 30
0.0
  9
$PUCSORGLEFT
 10
0.0
 20
0.0
 30
0.0
  9
$PUCSORGRIGHT
 10
0.0
 20
0.0
 30
0.0
  9
$PUCSORGFRONT
 10
0.0
 20
0.0
 30
0.0
  9
$PUCSORGBACK
 10
0.0
 20
0.0
 30
0.0
  9
$USERI1
 70
     0
  9
$USERI2
 70
     0
  9
$USERI3
 70
     0
  9
$USERI4
 70
     0
  9
$USERI5
 70
     0
  9
$USERR1
 40
0.0
  9
$USERR2
 40
0.0
  9
$USERR3
 40
0.0
  9
$USERR4
 40
0.0
  9
$USERR5
 40
0.0
  9
$WORLDVIEW
 70
     1
  9
$SHADEDGE
 70
     3
  9
$SHADEDIF
 70
    70
  9
$TILEMODE
 70
     1
  9
$MAXACTVP
 70
    64
  9
$PINSBASE
 10
0.0
 20
0.0
 30
0.0
  9
$PLIMCHECK
 70
     0
  9
$PEXTMIN
 10
1.000000000000000E+20
 20
1.000000000000000E+20
 30
1.000000000000000E+20
  9
$PEXTMAX
 10
-1.000000000000000E+20
 20
-1.000000000000000E+20
 30
-1.000000000000000E+20
  9
$PLIMMIN
 10
0.0
 20
0.0
  9
$PLIMMAX
 10
12.0
 20
9.0
  9
$UNITMODE
 70
     0
  9
$VISRETAIN
 70
     1
  9
$PLINEGEN
 70
     0
  9
$PSLTSCALE
 70
     1
  9
$TREEDEPTH
 70
  3020
  9
$CMLSTYLE
  2
Standard
  9
$CMLJUST
 70
     0
  9
$CMLSCALE
 40
1.0
  9
$PROXYGRAPHICS
 70
     1
  9
$MEASUREMENT
 70
     0
  9
$CELWEIGHT
370
    -1
  9
$ENDCAPS
280
     0
  9
$JOINSTYLE
280
     0
  9
$LWDISPLAY
290
     0
  9
$INSUNITS
 70
     1
  9
$HYPERLINKBASE
  1

  9
$STYLESHEET
  1

  9
$XEDIT
290
     1
  9
$CEPSNTYPE
380
     0
  9
$PSTYLEMODE
290
     1
  9
$FINGERPRINTGUID
  2
{37554052-E636-4C34-AA15-D8792D8A58B8}
  9
$VERSIONGUID
  2
{FAEB1C32-E019-11D5-929B-00C0DF256EC4}
  9
$EXTNAMES
290
     1
  9
$PSVPSCALE
 40
0.0
  9
$OLESTARTUP
290
     0
  9
$SORTENTS
280
   127
  9
$INDEXCTL
280
     0
  9
$HIDETEXT
280
     1
  9
$XCLIPFRAME
280
     2
  9
$HALOGAP
280
     0
  9
$OBSCOLOR
 70
   257
  9
$OBSLTYPE
280
     0
  9
$INTERSECTIONDISPLAY
280
     0
  9
$INTERSECTIONCOLOR
 70
   257
  9
$DIMASSOC
280
     2
  9
$PROJECTNAME
  1

  9
$CAMERADISPLAY
290
     0
  9
$LENSLENGTH
 40
50.0
  9
$CAMERAHEIGHT
 40
0.0
  9
$STEPSPERSEC
 40
2.0
  9
$STEPSIZE
 40
6.0
  9
$3DDWFPREC
 40
2.0
  9
$PSOLWIDTH
 40
0.25
  9
$PSOLHEIGHT
 40
4.0
  9
$LOFTANG1
 40
1.570796326794897
  9
$LOFTANG2
 40
1.570796326794897
  9
$LOFTMAG1
 40
0.0
  9
$LOFTMAG2
 40
0.0
  9
$LOFTPARAM
 70
     7
  9
$LOFTNORMALS
280
     1
  9
$LATITUDE
 40
37.795
  9
$LONGITUDE
 40
-122.394
  9
$NORTHDIRECTION
 40
0.0
  9
$TIMEZONE
 70
 -8000
  9
$LIGHTGLYPHDISPLAY
280
     1
  9
$TILEMODELIGHTSYNCH
280
     1
  9
$CMATERIAL
347
44
  9
$SOLIDHIST
280
     0
  9
$SHOWHIST
280
     1
  9
$DWFFRAME
280
     2
  9
$DGNFRAME
280
     2
  9
$REALWORLDSCALE
290
     1
  9
$INTERFERECOLOR
 62
   256
  9
$CSHADOW
280
     0
  9
$SHADOWPLANELOCATION
 40
0.0
  0
ENDSEC
  0
SECTION
  2
CLASSES
  0
CLASS
  1
ACDBDICTIONARYWDFLT
  2
AcDbDictionaryWithDefault
  3
ObjectDBX Classes
 90
        0
 91
        4
280
     0
281
     0
  0
CLASS
  1
VISUALSTYLE
  2
AcDbVisualStyle
  3
ObjectDBX Classes
 90
     4095
 91
        4
280
     0
281
     0
  0
CLASS
  1
MATERIAL
  2
AcDbMaterial
  3
ObjectDBX Classes
 90
     1153
 91
        4
280
     0
281
     0
  0
CLASS
  1
SCALE
  2
AcDbScale
  3
ObjectDBX Classes
 90
     1153
 91
        4
280
     0
281
     0
  0
CLASS
  1
TABLESTYLE
  2
AcDbTableStyle
  3
ObjectDBX Classes
 90
     4095
 91
        4
280
     0
281
     0
  0
CLASS
  1
MLEADERSTYLE
  2
AcDbMLeaderStyle
  3
ACDB_MLEADERSTYLE_CLASS
 90
     4095
 91
        4
280
     0
281
     0
  0
CLASS
  1
SUN
  2
AcDbSun
  3
SCENEOE
 90
     1153
 91
        4
280
     0
281
     0
  0
CLASS
  1
DICTIONARYVAR
  2
AcDbDictionaryVar
  3
ObjectDBX Classes
 90
        0
 91
        4
280
     0
281
     0
  0
CLASS
  1
CELLSTYLEMAP
  2
AcDbCellStyleMap
  3
ObjectDBX Classes
 90
     1152
 91
        4
280
     0
281
     0
  0
ENDSEC
  0
SECTION
  2
TABLES
  0
TABLE
  2
VPORT
  5
8
330
0
100
AcDbSymbolTable
 70
     1
  0
VPORT
  5
29
330
8
100
AcDbSymbolTableRecord
100
AcDbViewportTableRecord
  2
*Active
 70
     0
 10
0.0
 20
0.0
 11
1.0
 21
1.0
 12
0.0
 22
0.0
 13
0.0
 23
0.0
 14
0.5
 24
0.5
 15
0.5
 25
0.5
 16
0.0
 26
0.0
 36
1.0
 17
0.0
 27
0.0
 37
0.0
 40
4.488
 41
1.136363636363636
 42
50.0
 43
0.0
 44
0.0
 50
0.0
 51
0.0
 71
     0
 72
   100
 73
     1
 74
     3
 75
     0
 76
     0
 77
     0
 78
     0
281
     0
 65
     1
110
0.0
120
0.0
130
0.0
111
1.0
121
0.0
131
0.0
112
0.0
122
1.0
132
0.0
 79
     0
146
0.0
348
2F
 60
     3
 61
     5
292
     1
282
     1
141
0.0
142
0.0
 63
   250
361
6D
  0
ENDTAB
  0
TABLE
  2
LTYPE
  5
5
330
0
100
AcDbSymbolTable
 70
     3
  0
LTYPE
  5
14
330
5
100
AcDbSymbolTableRecord
100
AcDbLinetypeTableRecord
  2
ByBlock
 70
     0
  3

 72
    65
 73
     0
 40
0.0
  0
LTYPE
  5
15
330
5
100
AcDbSymbolTableRecord
100
AcDbLinetypeTableRecord
  2
ByLayer
 70
     0
  3

 72
    65
 73
     0
 40
0.0
  0
LTYPE
  5
16
330
5
100
AcDbSymbolTableRecord
100
AcDbLinetypeTableRecord
  2
Continuous
 70
     0
  3
Solid line
 72
    65
 73
     0
 40
0.0
  0
LTYPE
  5
97
330
5
100
AcDbSymbolTableRecord
100
AcDbLinetypeTableRecord
  2
Dashed
 70
     0
  3

 72
    65
 73
     2
 40
2.0
 49
1.0
 74
     0
 49
-1.0
 74
     0
  0
LTYPE
  5
A9
330
5
100
AcDbSymbolTableRecord
100
AcDbLinetypeTableRecord
  2
Center
 70
     0
  3

 72
    65
 73
     4
 40
1.5
 49
0.45
 74
     0
 49
-0.5
 74
     0
 49
0.05
 74
     0
 49
-0.5
 74
     0
  0
ENDTAB
  0
TABLE
  2
LAYER
  5
2
330
0
100
AcDbSymbolTable
 70
     7
  0
LAYER
  5
10
330
2
100
AcDbSymbolTableRecord
100
AcDbLayerTableRecord
  2
0
 70
     0
 62
     7
  6
Continuous
370
    -3
390
F
347
46
348
0
  0
LAYER
  5
72
330
2
100
AcDbSymbolTableRecord
100
AcDbLayerTableRecord
  2
AM_6
 70
     0
 62
    -2
  6
Continuous
370
    35
390
F
347
46
348
0
  0
LAYER
  5
98
330
2
100
AcDbSymbolTableRecord
100
AcDbLayerTableRecord
  2
AM_9
 70
     0
 62
     6
  6
Dashed
370
    25
390
F
347
46
348
0
  0
LAYER
  5
AA
330
2
100
AcDbSymbolTableRecord
100
AcDbLayerTableRecord
  2
AM_7
 70
     0
 62
     7
  6
Center
370
    25
390
F
347
46
348
0
  0
LAYER
  5
AC
330
2
100
AcDbSymbolTableRecord
100
AcDbLayerTableRecord
  2
AM_4
 70
     0
 62
     7
  6
Continuous
370
    50
390
F
347
46
348
0
  0
LAYER
  5
BA
330
2
100
AcDbSymbolTableRecord
100
AcDbLayerTableRecord
  2
AM_5
 70
     0
 62
     3
  6
Continuous
370
    25
390
F
347
46
348
0
  0
LAYER
  5
156
330
2
100
AcDbSymbolTableRecord
100
AcDbLayerTableRecord
  2
ConnectionPoints
 70
     0
 62
     7
  6
Continuous
370
    50
390
F
347
46
348
0
  0
ENDTAB
  0
TABLE
  2
STYLE
  5
3
330
0
100
AcDbSymbolTable
 70
     1
  0
STYLE
  5
11
330
3
100
AcDbSymbolTableRecord
100
AcDbTextStyleTableRecord
  2
Standard
 70
     0
 40
0.0
 41
1.0
 50
0.0
 71
     0
 42
0.2
  3
txt
  4

  0
ENDTAB
  0
TABLE
  2
VIEW
  5
6
330
0
100
AcDbSymbolTable
 70
     0
  0
ENDTAB
  0
TABLE
  2
UCS
  5
7
330
0
100
AcDbSymbolTable
 70
     0
  0
ENDTAB
  0
TABLE
  2
APPID
  5
9
330
0
100
AcDbSymbolTable
 70
     1
  0
APPID
  5
12
330
9
100
AcDbSymbolTableRecord
100
AcDbRegAppTableRecord
  2
ACAD
 70
     0
  0
ENDTAB
  0
TABLE
  2
DIMSTYLE
  5
A
330
0
100
AcDbSymbolTable
 70
     1
100
AcDbDimStyleTable
  0
DIMSTYLE
105
27
330
A
100
AcDbSymbolTableRecord
100
AcDbDimStyleTableRecord
  2
Standard
 70
     0
178
     0
340
11
  0
ENDTAB
  0
TABLE
  2
BLOCK_RECORD
  5
1
330
0
100
AcDbSymbolTable
 70
     6
  0
BLOCK_RECORD
  5
1F
330
1
100
AcDbSymbolTableRecord
100
AcDbBlockTableRecord
  2
*Model_Space
340
22
 70
     0
280
     1
281
     0
  0
BLOCK_RECORD
  5
1B
330
1
100
AcDbSymbolTableRecord
100
AcDbBlockTableRecord
  2
*Paper_Space
340
1E
 70
     0
280
     1
281
     0
  0
BLOCK_RECORD
  5
23
330
1
100
AcDbSymbolTableRecord
100
AcDbBlockTableRecord
  2
*Paper_Space0
340
26
 70
     0
280
     1
281
     0
  0
BLOCK_RECORD
  5
6E
330
1
100
AcDbSymbolTableRecord
100
AcDbBlockTableRecord
  2
1_023556_4
340
0
102
{BLKREFS
331
6F
102
}
 70
     0
280
     1
281
     0
  0
BLOCK_RECORD
  5
82
330
1
100
AcDbSymbolTableRecord
100
AcDbBlockTableRecord
  2
2_2_7_16C_1_0_in_023556_4
340
0
102
{BLKREFS
331
83
102
}
 70
     0
280
     1
281
     0
  0
BLOCK_RECORD
  5
BD
330
1
100
AcDbSymbolTableRecord
100
AcDbBlockTableRecord
  2
3_2_7_16C_2_0_in_023556_4
340
0
102
{BLKREFS
331
BE
102
}
 70
     0
280
     1
281
     0
  0
BLOCK_RECORD
  5
F1
330
1
100
AcDbSymbolTableRecord
100
AcDbBlockTableRecord
  2
4_405015E_Inch_0_in_023556_4
340
0
102
{BLKREFS
331
F2
102
}
 70
     0
280
     1
281
     0
  0
BLOCK_RECORD
  5
10E
330
1
100
AcDbSymbolTableRecord
100
AcDbBlockTableRecord
  2
5_023556_Insert_0_in_023556_4
340
0
102
{BLKREFS
331
10F
102
}
 70
     0
280
     1
281
     0
  0
ENDTAB
  0
ENDSEC
  0
SECTION
  2
BLOCKS
  0
BLOCK
  5
20
330
1F
100
AcDbEntity
  8
0
100
AcDbBlockBegin
  2
*Model_Space
 70
     0
 10
0.0
 20
0.0
 30
0.0
  3
*Model_Space
  1

  0
ENDBLK
  5
21
330
1F
100
AcDbEntity
  8
0
100
AcDbBlockEnd
  0
BLOCK
  5
1C
330
1B
100
AcDbEntity
 67
     1
  8
0
100
AcDbBlockBegin
  2
*Paper_Space
 70
     0
 10
0.0
 20
0.0
 30
0.0
  3
*Paper_Space
  1

  0
ENDBLK
  5
1D
330
1B
100
AcDbEntity
 67
     1
  8
0
100
AcDbBlockEnd
  0
BLOCK
  5
24
330
23
100
AcDbEntity
  8
0
100
AcDbBlockBegin
  2
*Paper_Space0
 70
     0
 10
0.0
 20
0.0
 30
0.0
  3
*Paper_Space0
  1

  0
ENDBLK
  5
25
330
23
100
AcDbEntity
  8
0
100
AcDbBlockEnd
  0
BLOCK
  5
70
330
6E
100
AcDbEntity
  8
0
100
AcDbBlockBegin
  2
1_023556_4
 70
     2
 10
0.0
 20
0.0
 30
0.0
  3
1_023556_4
  1

  0
ATTDEF
  5
73
330
6E
100
AcDbEntity
  8
AM_6
100
AcDbText
 10
7.5
 20
2.2
 30
0.0
 40
0.5
  1
Double-Interlock B-1 Units Gray Iron - Inch
100
AcDbAttributeDefinition
  3

  2
NN
 70
     8
280
     0
  0
ATTDEF
  5
74
330
6E
100
AcDbEntity
  8
AM_6
100
AcDbText
 10
7.5
 20
1.7
 30
0.0
 40
0.5
  1
Double-Interlock Bearings -Inserts
100
AcDbAttributeDefinition
  3

  2
NT
 70
     8
280
     0
  0
ATTDEF
  5
75
330
6E
100
AcDbEntity
  8
AM_6
100
AcDbText
 10
7.5
 20
1.2
 30
0.0
 40
0.5
  1
023556
100
AcDbAttributeDefinition
  3

  2
NB
 70
     8
280
     0
  0
ATTDEF
  5
76
330
6E
100
AcDbEntity
  8
AM_6
100
AcDbText
 10
7.5
 20
0.7000000000000002
 30
0.0
 40
0.5
  1
$PN.
100
AcDbAttributeDefinition
  3

  2
NBSYN
 70
     8
280
     0
  0
ATTDEF
  5
77
330
6E
100
AcDbEntity
  8
AM_6
100
AcDbText
 10
7.5
 20
0.2000000000000002
 30
0.0
 40
0.5
  1
023556
100
AcDbAttributeDefinition
  3

  2
LINA
 70
     8
280
     0
  0
ATTDEF
  5
78
330
6E
100
AcDbEntity
  8
AM_6
100
AcDbText
 10
7.5
 20
-0.2999999999999998
 30
0.0
 40
0.5
  1
2-7/16
100
AcDbAttributeDefinition
  3

  2
SS
 70
     8
280
     0
  0
ATTDEF
  5
79
330
6E
100
AcDbEntity
  8
AM_6
100
AcDbText
 10
7.5
 20
-0.7999999999999998
 30
0.0
 40
0.5
  1
023556
100
AcDbAttributeDefinition
  3

  2
PN
 70
     8
280
     0
  0
ATTDEF
  5
7A
330
6E
100
AcDbEntity
  8
AM_6
100
AcDbText
 10
7.5
 20
-1.3
 30
0.0
 40
0.5
  1
B1U-DI-207R
100
AcDbAttributeDefinition
  3

  2
DESCRIPTION
 70
     8
280
     0
  0
ATTDEF
  5
7B
330
6E
100
AcDbEntity
  8
AM_6
100
AcDbText
 10
7.5
 20
-1.8
 30
0.0
 40
0.5
  1
4
100
AcDbAttributeDefinition
  3

  2
A
 70
     8
280
     0
  0
ATTDEF
  5
7C
330
6E
100
AcDbEntity
  8
AM_6
100
AcDbText
 10
7.5
 20
-2.3
 30
0.0
 40
0.5
  1
2-3/4
100
AcDbAttributeDefinition
  3

  2
B
 70
     8
280
     0
  0
ATTDEF
  5
7D
330
6E
100
AcDbEntity
  8
AM_6
100
AcDbText
 10
7.5
 20
-2.8
 30
0.0
 40
0.5
  1
5
100
AcDbAttributeDefinition
  3

  2
D
 70
     8
280
     0
  0
ATTDEF
  5
7E
330
6E
100
AcDbEntity
  8
AM_6
100
AcDbText
 10
7.5
 20
-3.3
 30
0.0
 40
0.5
  1
11/16
100
AcDbAttributeDefinition
  3

  2
H
 70
     8
280
     0
  0
ATTDEF
  5
7F
330
6E
100
AcDbEntity
  8
AM_6
100
AcDbText
 10
7.5
 20
-3.8
 30
0.0
 40
0.5
  1
3.32
100
AcDbAttributeDefinition
  3

  2
J
 70
     8
280
     0
  0
ATTDEF
  5
80
330
6E
100
AcDbEntity
  8
AM_6
100
AcDbText
 10
7.5
 20
-4.3
 30
0.0
 40
0.5
  1
4-1/16
100
AcDbAttributeDefinition
  3

  2
L
 70
     8
280
     0
  0
ATTDEF
  5
81
330
6E
100
AcDbEntity
  8
AM_6
100
AcDbText
 10
7.5
 20
-4.8
 30
0.0
 40
0.5
  1
baldor
100
AcDbAttributeDefinition
  3

  2
COMPANY
 70
     8
280
     0
  0
INSERT
  5
83
330
6E
100
AcDbEntity
  8
0
100
AcDbBlockReference
  2
2_2_7_16C_1_0_in_023556_4
 10
0.0
 20
0.0
 30
0.0
  0
INSERT
  5
BE
330
6E
100
AcDbEntity
  8
0
100
AcDbBlockReference
  2
3_2_7_16C_2_0_in_023556_4
 10
0.0
 20
0.0
 30
0.0
  0
INSERT
  5
F2
330
6E
100
AcDbEntity
  8
0
100
AcDbBlockReference
  2
4_405015E_Inch_0_in_023556_4
 10
0.0
 20
0.0
 30
0.0
  0
INSERT
  5
10F
330
6E
100
AcDbEntity
  8
0
100
AcDbBlockReference
  2
5_023556_Insert_0_in_023556_4
 10
0.0
 20
0.0
 30
0.0
  0
ENDBLK
  5
71
330
6E
100
AcDbEntity
  8
0
100
AcDbBlockEnd
  0
BLOCK
  5
84
330
82
100
AcDbEntity
  8
0
100
AcDbBlockBegin
  2
2_2_7_16C_1_0_in_023556_4
 70
     2
 10
0.0
 20
0.0
 30
0.0
  3
2_2_7_16C_1_0_in_023556_4
  1

  0
ATTDEF
  5
86
330
82
100
AcDbEntity
  8
AM_6
100
AcDbText
 10
7.03125
 20
2.0
 30
0.0
 40
0.5
  1
E-Type Collar -Inch
100
AcDbAttributeDefinition
  3

  2
NN
 70
     8
280
     0
  0
ATTDEF
  5
87
330
82
100
AcDbEntity
  8
AM_6
100
AcDbText
 10
7.03125
 20
1.5
 30
0.0
 40
0.5
  1
E-Type Bearings
100
AcDbAttributeDefinition
  3

  2
NT
 70
     8
280
     0
  0
ATTDEF
  5
88
330
82
100
AcDbEntity
  8
AM_6
100
AcDbText
 10
7.03125
 20
1.0
 30
0.0
 40
0.5
  1
2-7/16C
100
AcDbAttributeDefinition
  3

  2
NB
 70
     8
280
     0
  0
ATTDEF
  5
89
330
82
100
AcDbEntity
  8
AM_6
100
AcDbText
 10
7.03125
 20
0.5
 30
0.0
 40
0.5
  1
$BORE.C
100
AcDbAttributeDefinition
  3

  2
NBSYN
 70
     8
280
     0
  0
ATTDEF
  5
8A
330
82
100
AcDbEntity
  8
AM_6
100
AcDbText
 10
7.03125
 20
0.0
 30
0.0
 40
0.5
  1
2-7/16C
100
AcDbAttributeDefinition
  3

  2
LINA
 70
     8
280
     0
  0
ATTDEF
  5
8B
330
82
100
AcDbEntity
  8
AM_6
100
AcDbText
 10
7.03125
 20
-0.5
 30
0.0
 40
0.5
  1
2-7/16
100
AcDbAttributeDefinition
  3

  2
BORE
 70
     8
280
     0
  0
ATTDEF
  5
8C
330
82
100
AcDbEntity
  8
AM_6
100
AcDbText
 10
7.03125
 20
-1.0
 30
0.0
 40
0.5
  1
4.06250
100
AcDbAttributeDefinition
  3

  2
L
 70
     8
280
     0
  0
ATTDEF
  5
8D
330
82
100
AcDbEntity
  8
AM_6
100
AcDbText
 10
7.03125
 20
-1.5
 30
0.0
 40
0.5
  1
4.00
100
AcDbAttributeDefinition
  3

  2
A
 70
     8
280
     0
  0
ATTDEF
  5
8E
330
82
100
AcDbEntity
  8
AM_6
100
AcDbText
 10
7.03125
 20
-2.0
 30
0.0
 40
0.5
  1
1.70
100
AcDbAttributeDefinition
  3

  2
B
 70
     8
280
     0
  0
ATTDEF
  5
8F
330
82
100
AcDbEntity
  8
AM_6
100
AcDbText
 10
7.03125
 20
-2.5
 30
0.0
 40
0.5
  1
2.94
100
AcDbAttributeDefinition
  3

  2
C
 70
     8
280
     0
  0
ATTDEF
  5
90
330
82
100
AcDbEntity
  8
AM_6
100
AcDbText
 10
7.03125
 20
-3.0
 30
0.0
 40
0.5
  1
4.12
100
AcDbAttributeDefinition
  3

  2
D
 70
     8
280
     0
  0
ATTDEF
  5
91
330
82
100
AcDbEntity
  8
AM_6
100
AcDbText
 10
7.03125
 20
-3.5
 30
0.0
 40
0.5
  1
0.41
100
AcDbAttributeDefinition
  3

  2
E
 70
     8
280
     0
  0
ATTDEF
  5
92
330
82
100
AcDbEntity
  8
AM_6
100
AcDbText
 10
7.03125
 20
-4.0
 30
0.0
 40
0.5
  1
0.31
100
AcDbAttributeDefinition
  3

  2
F
 70
     8
280
     0
  0
ATTDEF
  5
93
330
82
100
AcDbEntity
  8
AM_6
100
AcDbText
 10
7.03125
 20
-4.5
 30
0.0
 40
0.5
  1
3/8-16
100
AcDbAttributeDefinition
  3

  2
CS
 70
     8
280
     0
  0
ATTDEF
  5
94
330
82
100
AcDbEntity
  8
AM_6
100
AcDbText
 10
7.03125
 20
-5.0
 30
0.0
 40
0.5
  1
0.3750
100
AcDbAttributeDefinition
  3

  2
NDM
 70
     8
280
     0
  0
ATTDEF
  5
95
330
82
100
AcDbEntity
  8
AM_6
100
AcDbText
 10
7.03125
 20
-5.5
 30
0.0
 40
0.5
  1
0.3070
100
AcDbAttributeDefinition
  3

  2
KDM
 70
     8
280
     0
  0
ATTDEF
  5
96
330
82
100
AcDbEntity
  8
AM_6
100
AcDbText
 10
7.03125
 20
-6.0
 30
0.0
 40
0.5
  1
baldor
100
AcDbAttributeDefinition
  3

  2
COMPANY
 70
     8
280
     0
  0
LINE
  5
99
330
82
100
AcDbEntity
  8
AM_9
100
AcDbLine
 10
1.370573096629555
 20
1.82592226453218
 30
0.0
 11
1.362906385868103
 21
1.83548485002136
 31
0.0
  0
LINE
  5
9A
330
82
100
AcDbEntity
  8
AM_9
100
AcDbLine
 10
1.36295273212775
 20
1.544572957046595
 30
0.0
 11
1.370573096629555
 21
1.55407773546782
 31
0.0
  0
LWPOLYLINE
  5
9B
330
82
100
AcDbEntity
  8
AM_9
100
AcDbPolyline
 90
       26
 70
     0
 43
0.0
 10
1.362873204807985
 20
1.835526236101257
 10
1.362462345954449
 20
1.836033645202895
 10
1.35205770697695
 20
1.84592226568134
 10
1.3403708001452
 20
1.851462694819541
 10
1.327851187873999
 20
1.852204694987162
 10
1.314537222344843
 20
1.847890339424635
 10
1.301465804033895
 20
1.838753413306858
 10
1.288464554091272
 20
1.824464619652971
 10
1.277002033017087
 20
1.806523936179177
 10
1.266683017796866
 20
1.784040770599332
 10
1.258998482867989
 20
1.760222462372669
 10
1.25337074974391
 20
1.733231656816434
 10
1.250600673249956
 20
1.707407858850861
 10
1.250238705874108
 20
1.680221677539698
 10
1.252192382069649
 20
1.655251116569449
 10
1.256391810001666
 20
1.630561129721632
 10
1.262451768848385
 20
1.607971313926027
 10
1.270374592102961
 20
1.587005878699983
 10
1.279913429159371
 20
1.568346267382886
 10
1.290800691489185
 20
1.552543745800934
 10
1.302804648843792
 20
1.540081910056273
 10
1.315484559991998
 20
1.531636785972304
 10
1.328312606040832
 20
1.527737211153408
 10
1.341051086762332
 20
1.528722583874341
 10
1.352855379338819
 20
1.534653510283508
 10
1.362875698899839
 20
1.544476874535657
  0
LWPOLYLINE
  5
9C
330
82
100
AcDbEntity
  8
AM_9
100
AcDbPolyline
 90
        3
 70
     0
 43
0.0
 10
1.369445046646015
 20
1.554067561316982
 10
1.37170335566938
 20
1.558096508212432
 10
1.37867939095409
 20
1.573639819734366
  0
LWPOLYLINE
  5
9D
330
82
100
AcDbEntity
  8
AM_9
100
AcDbPolyline
 90
        3
 70
     0
 43
0.0
 10
1.362875698899839
 20
1.544476874535657
 10
1.363894497986691
 20
1.545778789329426
 10
1.369445046646015
 20
1.554067561316982
  0
LINE
  5
9E
330
82
100
AcDbEntity
  8
AM_9
100
AcDbLine
 10
1.34029327085915
 20
1.53635
 30
0.0
 11
1.810259173827005
 21
1.53635
 31
0.0
  0
LINE
  5
9F
330
82
100
AcDbEntity
  8
AM_9
100
AcDbLine
 10
1.810259173827005
 20
1.84365
 30
0.0
 11
1.34029327085915
 21
1.84365
 31
0.0
  0
LINE
  5
A0
330
82
100
AcDbEntity
  8
AM_9
100
AcDbLine
 10
1.7799793480566
 20
1.55407773546782
 30
0.0
 11
1.80256701771527
 21
1.525904438100399
 31
0.0
  0
LINE
  5
A1
330
82
100
AcDbEntity
  8
AM_9
100
AcDbLine
 10
1.802470904091718
 20
1.853975680666243
 30
0.0
 11
1.7799793480566
 21
1.82592226453218
 31
0.0
  0
ELLIPSE
  5
A2
330
82
100
AcDbEntity
  8
AM_9
100
AcDbEllipse
 10
1.810259173827049
 20
1.690000000000035
 30
0.0
 11
-2.822504710335565E-17
 21
-0.1536500000000383
 31
0.0
210
0.0
220
0.0
230
1.0
 40
0.4226182617407875
 41
3.435945437203888
 42
5.969320891531422
  0
LINE
  5
A3
330
82
100
AcDbEntity
  8
AM_9
100
AcDbLine
 10
1.367900163902116
 20
1.828456741329317
 30
0.0
 11
1.362873204807985
 21
1.835526236101257
 31
0.0
  0
LWPOLYLINE
  5
A4
330
82
100
AcDbEntity
  8
AM_9
100
AcDbPolyline
 90
       13
 70
     0
 43
0.0
 10
1.37867939095409
 20
1.573639819734366
 10
1.38445021253979
 20
1.591502292455359
 10
1.38920542594763
 20
1.612161958540254
 10
1.392997618372285
 20
1.636923525823133
 10
1.395332131980906
 20
1.664240172729329
 10
1.396025305058809
 20
1.69000968719252
 10
1.395287707913192
 20
1.716565268728922
 10
1.393249701567533
 20
1.740897011353681
 10
1.389827776579407
 20
1.764483942158416
 10
1.385121881316344
 20
1.785991999372009
 10
1.379015632740046
 20
1.805467316343778
 10
1.371450423993502
 20
1.822375933542748
 10
1.367900163902116
 20
1.828456741329317
  0
LWPOLYLINE
  5
A5
330
82
100
AcDbEntity
  8
AM_9
100
AcDbPolyline
 90
       38
 70
     0
 43
0.0
 10
-0.115463758015112
 20
1.569289438370362
 10
-0.0954869710184424
 20
1.554705728926732
 10
-0.073642732824236
 20
1.543077262917381
 10
-0.0459412551689487
 20
1.533395802571749
 10
-0.0170257037550205
 20
1.528295237646095
 10
0.0132511754251189
 20
1.527997315861997
 10
0.0431592134287635
 20
1.532679019343003
 10
0.0720625216794593
 20
1.542402011676165
 10
0.0988777176528344
 20
1.556874026234257
 10
0.1223277423615726
 20
1.575461621957355
 10
0.1421423975132657
 20
1.597869816854495
 10
0.1568815306104206
 20
1.622275405848488
 10
0.1670453927447243
 20
1.648921743985311
 10
0.1719330790009004
 20
1.675172826139212
 10
0.1722133112313979
 20
1.701877379624312
 10
0.1680752122644727
 20
1.727120896206091
 10
0.1598540220420834
 20
1.75133601502514
 10
0.1476669329082631
 20
1.774074159602232
 10
0.1320351739173431
 20
1.794591196266356
 10
0.1123692014990254
 20
1.813255087034343
 10
0.0900023711020569
 20
1.828599152053088
 10
0.0639702535400369
 20
1.840878021810585
 10
0.0362940754374333
 20
1.848854740441032
 10
0.0064648574969388
 20
1.852370073700271
 10
-0.0235413774448953
 20
1.850976259825302
 10
-0.0533552478282702
 20
1.844498321371628
 10
-0.0816412611616096
 20
1.833120512588065
 10
-0.1072995041985754
 20
1.817188425922102
 10
-0.1297865355447693
 20
1.797053118707599
 10
-0.1476284367093394
 20
1.774118876585749
 10
-0.1611061512073883
 20
1.748372362384886
 10
-0.1691898510753803
 20
1.722323361674165
 10
-0.1725865419711775
 20
1.695253692110982
 10
-0.1712703175082134
 20
1.669475178627994
 10
-0.1656735967177618
 20
1.644282242319745
 10
-0.1560499737114328
 20
1.620582022152445
 10
-0.1427684943432054
 20
1.598729825610208
 10
-0.1154637580151119
 20
1.569289438370362
  0
LINE
  5
A6
330
82
100
AcDbEntity
  8
AM_9
100
AcDbLine
 10
-1.47
 20
2.0
 30
0.0
 11
-1.47
 21
1.38
 31
0.0
  0
LINE
  5
A7
330
82
100
AcDbEntity
  8
AM_9
100
AcDbLine
 10
1.47
 20
1.38
 30
0.0
 11
1.47
 21
2.0
 31
0.0
  0
ELLIPSE
  5
A8
330
82
100
AcDbEntity
  8
AM_9
100
AcDbEllipse
 10
1.34029327085915
 20
1.69
 30
0.0
 11
-2.822504710334859E-17
 21
-0.1536499999999998
 31
0.0
210
0.0
220
0.0
230
1.0
 40
0.4226182617406995
 41
0.0
 42
6.283185307179586
  0
LINE
  5
AB
330
82
100
AcDbEntity
  8
AM_7
100
AcDbLine
 10
-0.1613324999999997
 20
1.69
 30
0.0
 11
0.1613325000000003
 21
1.69
 31
0.0
  0
ELLIPSE
  5
AD
330
82
100
AcDbEntity
  8
AM_4
100
AcDbEllipse
 10
1.810259173827005
 20
1.69
 30
0.0
 11
-2.822504710334864E-17
 21
-0.1536500000000001
 31
0.0
210
0.0
220
0.0
230
1.0
 40
0.4226182617406989
 41
5.969320891531932
 42
9.71913074438282
  0
LWPOLYLINE
  5
AE
330
82
100
AcDbEntity
  8
AM_4
100
AcDbPolyline
 90
       14
 70
     0
 43
0.0
 10
1.802676519056852
 20
1.525767858588129
 10
1.793191929829587
 20
1.539425463588468
 10
1.782794173879321
 20
1.559434434832376
 10
1.773795809897735
 20
1.582978565855643
 10
1.766449265987611
 20
1.609915778195619
 10
1.76120725719569
 20
1.639325310202632
 10
1.758320798124271
 20
1.670911222254348
 10
1.75806854890056
 20
1.702998300078744
 10
1.760563638816824
 20
1.73562690986095
 10
1.76561909530709
 20
1.766276361523808
 10
1.773334332484615
 20
1.795590139331721
 10
1.782817890373044
 20
1.820618678455015
 10
1.794386881303864
 20
1.842509445242505
 10
1.802672831715434
 20
1.854227541772863
  0
LWPOLYLINE
  5
AF
330
82
100
AcDbEntity
  8
AM_4
100
AcDbPolyline
 90
       19
 70
     0
 43
0.0
 10
1.802672831715434
 20
1.854227541772863
 10
1.806449287334581
 20
1.858673086421113
 10
1.819698207107732
 20
1.870374684485278
 10
1.83227615764313
 20
1.876298446041334
 10
1.84511224211045
 20
1.877212569883759
 10
1.8567379709122
 20
1.873210707418949
 10
1.86789584198873
 20
1.864314332177369
 10
1.877768151237835
 20
1.851243718571203
 10
1.886668537963406
 20
1.833750826504633
 10
1.89422926648122
 20
1.812538461047463
 10
1.900458328352772
 20
1.787631956711834
 10
1.905150170536732
 20
1.759814879758542
 10
1.90823581274623
 20
1.729384049422908
 10
1.90955989547709
 20
1.697734896910505
 10
1.909061460200018
 20
1.664982529195975
 10
1.906726123126247
 20
1.633402547964574
 10
1.90241342418352
 20
1.602548637863366
 10
1.897797335183478
 20
1.58059339081973
 10
1.891946184002538
 20
1.560252264086141
  0
CIRCLE
  5
B0
330
82
100
AcDbEntity
  8
AM_4
100
AcDbCircle
 10
0.0000000000000003
 20
1.69
 30
0.0
 40
0.15365
  0
LINE
  5
B1
330
82
100
AcDbEntity
  8
AM_4
100
AcDbLine
 10
1.927916666666667
 20
2.0
 30
0.0
 11
-1.927916666666667
 21
2.0
 31
0.0
  0
ARC
  5
B2
330
82
100
AcDbEntity
  8
AM_4
100
AcDbCircle
 10
-1.927916666666667
 20
1.896666666666667
 30
0.0
 40
0.1033333333333333
100
AcDbArc
 50
90.0
 51
180.0
  0
ARC
  5
B3
330
82
100
AcDbEntity
  8
AM_4
100
AcDbCircle
 10
1.927916666666667
 20
1.896666666666667
 30
0.0
 40
0.1033333333333333
100
AcDbArc
 50
0.0
 51
90.0
  0
LWPOLYLINE
  5
B4
330
82
100
AcDbEntity
  8
AM_4
100
AcDbPolyline
 90
       10
 70
     0
 43
0.0
 10
1.891946184002538
 20
1.560252264086141
 10
1.884712173628251
 20
1.541827149903503
 10
1.876138588548587
 20
1.526198283976797
 10
1.865536486771414
 20
1.513337203180141
 10
1.85348247423293
 20
1.505169120628459
 10
1.841494273987911
 20
1.502505059238463
 10
1.828742096365317
 20
1.50486929297898
 10
1.816571778332058
 20
1.511866795369222
 10
1.804432125733052
 20
1.523636036420325
 10
1.802676519056852
 20
1.525767858588129
  0
LWPOLYLINE
  5
B5
330
82
100
AcDbEntity
  8
AM_4
100
AcDbPolyline
 90
       38
 70
     0
 43
0.0
 10
-0.1161553818841237
 20
1.547070705293376
 10
-0.1351815022929657
 20
1.566672137683652
 10
-0.1511437031903744
 20
1.588847159619536
 10
-0.1652392070476755
 20
1.616740961797478
 10
-0.1746550120120629
 20
1.646555141894785
 10
-0.1791940866831498
 20
1.678513000457022
 10
-0.1784404953312634
 20
1.710785716259739
 10
-0.1722088860774059
 20
1.742954677460487
 10
-0.1606812621175197
 20
1.77361408782087
 10
-0.1441721929914884
 20
1.801660044583945
 10
-0.1230986283501908
 20
1.826443637532696
 10
-0.0986997544355586
 20
1.846563918051435
 10
-0.0711663045117517
 20
1.862120635656467
 10
-0.0425943756185721
 20
1.872116596303496
 10
-0.0127215538605451
 20
1.877028004913196
 10
0.016418002255032
 20
1.876693637668492
 10
0.045087927265738
 20
1.87148251129042
 10
0.0722167934788395
 20
1.8616238494029
 10
0.0973799059230367
 20
1.847489732026093
 10
0.1204210135138516
 20
1.829004317200677
 10
0.1402086621841668
 20
1.807066043113323
 10
0.1568455251870621
 20
1.781172056482904
 10
0.1691175811535862
 20
1.752933056551789
 10
0.1769085386040724
 20
1.721910891950674
 10
0.179548969929005
 20
1.690026945247891
 10
0.1768010904485046
 20
1.657456111866257
 10
0.1686807205988352
 20
1.625802672949687
 10
0.1552884806177304
 20
1.595977436697595
 10
0.1370163987341716
 20
1.568883334006796
 10
0.1147782590643858
 20
1.545890720485193
 10
0.0888833475921634
 20
1.527119115011543
 10
0.0612169234370842
 20
1.513775085782117
 10
0.0316487786534309
 20
1.505440523298934
 10
0.0023606784758789
 20
1.502536631114294
 10
-0.0269964029531151
 20
1.504634957275816
 10
-0.0549987485517138
 20
1.511545326578185
 10
-0.081486143098476
 20
1.522949818905222
 10
-0.1161553818956806
 20
1.547070705266322
  0
LINE
  5
B6
330
82
100
AcDbEntity
  8
AM_4
100
AcDbLine
 10
-2.03125
 20
1.896666666666667
 30
0.0
 11
-2.03125
 21
1.38
 31
0.0
  0
LINE
  5
B7
330
82
100
AcDbEntity
  8
AM_4
100
AcDbLine
 10
2.03125
 20
1.38
 30
0.0
 11
2.03125
 21
1.896666666666667
 31
0.0
  0
LINE
  5
B8
330
82
100
AcDbEntity
  8
AM_4
100
AcDbLine
 10
2.03125
 20
1.896666666666667
 30
0.0
 11
-2.03125
 21
1.896666666666667
 31
0.0
  0
LINE
  5
B9
330
82
100
AcDbEntity
  8
AM_4
100
AcDbLine
 10
2.03125
 20
1.38
 30
0.0
 11
-2.03125
 21
1.38
 31
0.0
  0
ARC
  5
BB
330
82
100
AcDbEntity
  8
AM_5
100
AcDbCircle
 10
0.0000000000000003
 20
1.69
 30
0.0
 40
0.1875
100
AcDbArc
 50
63.85157066748187
 51
3.851570667481837
  0
ARC
  5
BC
330
82
100
AcDbEntity
  8
AM_5
100
AcDbCircle
 10
0.0000000000005189
 20
1.690000000000062
 30
0.0
 40
0.1874999999994785
100
AcDbArc
 50
3.851570667473694
 51
15.00000000002307
  0
ENDBLK
  5
85
330
82
100
AcDbEntity
  8
0
100
AcDbBlockEnd
  0
BLOCK
  5
BF
330
BD
100
AcDbEntity
  8
0
100
AcDbBlockBegin
  2
3_2_7_16C_2_0_in_023556_4
 70
     2
 10
0.0
 20
0.0
 30
0.0
  3
3_2_7_16C_2_0_in_023556_4
  1

  0
ATTDEF
  5
C1
330
BD
100
AcDbEntity
  8
AM_6
100
AcDbText
 10
7.03125
 20
-1.38
 30
0.0
 40
0.5
  1
E-Type Collar -Inch
100
AcDbAttributeDefinition
  3

  2
NN
 70
     8
280
     0
  0
ATTDEF
  5
C2
330
BD
100
AcDbEntity
  8
AM_6
100
AcDbText
 10
7.03125
 20
-1.88
 30
0.0
 40
0.5
  1
E-Type Bearings
100
AcDbAttributeDefinition
  3

  2
NT
 70
     8
280
     0
  0
ATTDEF
  5
C3
330
BD
100
AcDbEntity
  8
AM_6
100
AcDbText
 10
7.03125
 20
-2.38
 30
0.0
 40
0.5
  1
2-7/16C
100
AcDbAttributeDefinition
  3

  2
NB
 70
     8
280
     0
  0
ATTDEF
  5
C4
330
BD
100
AcDbEntity
  8
AM_6
100
AcDbText
 10
7.03125
 20
-2.88
 30
0.0
 40
0.5
  1
$BORE.C
100
AcDbAttributeDefinition
  3

  2
NBSYN
 70
     8
280
     0
  0
ATTDEF
  5
C5
330
BD
100
AcDbEntity
  8
AM_6
100
AcDbText
 10
7.03125
 20
-3.38
 30
0.0
 40
0.5
  1
2-7/16C
100
AcDbAttributeDefinition
  3

  2
LINA
 70
     8
280
     0
  0
ATTDEF
  5
C6
330
BD
100
AcDbEntity
  8
AM_6
100
AcDbText
 10
7.03125
 20
-3.88
 30
0.0
 40
0.5
  1
2-7/16
100
AcDbAttributeDefinition
  3

  2
BORE
 70
     8
280
     0
  0
ATTDEF
  5
C7
330
BD
100
AcDbEntity
  8
AM_6
100
AcDbText
 10
7.03125
 20
-4.38
 30
0.0
 40
0.5
  1
4.06250
100
AcDbAttributeDefinition
  3

  2
L
 70
     8
280
     0
  0
ATTDEF
  5
C8
330
BD
100
AcDbEntity
  8
AM_6
100
AcDbText
 10
7.03125
 20
-4.88
 30
0.0
 40
0.5
  1
4.00
100
AcDbAttributeDefinition
  3

  2
A
 70
     8
280
     0
  0
ATTDEF
  5
C9
330
BD
100
AcDbEntity
  8
AM_6
100
AcDbText
 10
7.03125
 20
-5.38
 30
0.0
 40
0.5
  1
1.70
100
AcDbAttributeDefinition
  3

  2
B
 70
     8
280
     0
  0
ATTDEF
  5
CA
330
BD
100
AcDbEntity
  8
AM_6
100
AcDbText
 10
7.03125
 20
-5.88
 30
0.0
 40
0.5
  1
2.94
100
AcDbAttributeDefinition
  3

  2
C
 70
     8
280
     0
  0
ATTDEF
  5
CB
330
BD
100
AcDbEntity
  8
AM_6
100
AcDbText
 10
7.03125
 20
-6.38
 30
0.0
 40
0.5
  1
4.12
100
AcDbAttributeDefinition
  3

  2
D
 70
     8
280
     0
  0
ATTDEF
  5
CC
330
BD
100
AcDbEntity
  8
AM_6
100
AcDbText
 10
7.03125
 20
-6.88
 30
0.0
 40
0.5
  1
0.41
100
AcDbAttributeDefinition
  3

  2
E
 70
     8
280
     0
  0
ATTDEF
  5
CD
330
BD
100
AcDbEntity
  8
AM_6
100
AcDbText
 10
7.03125
 20
-7.38
 30
0.0
 40
0.5
  1
0.31
100
AcDbAttributeDefinition
  3

  2
F
 70
     8
280
     0
  0
ATTDEF
  5
CE
330
BD
100
AcDbEntity
  8
AM_6
100
AcDbText
 10
7.03125
 20
-7.88
 30
0.0
 40
0.5
  1
3/8-16
100
AcDbAttributeDefinition
  3

  2
CS
 70
     8
280
     0
  0
ATTDEF
  5
CF
330
BD
100
AcDbEntity
  8
AM_6
100
AcDbText
 10
7.03125
 20
-8.379999999999999
 30
0.0
 40
0.5
  1
0.3750
100
AcDbAttributeDefinition
  3

  2
NDM
 70
     8
280
     0
  0
ATTDEF
  5
D0
330
BD
100
AcDbEntity
  8
AM_6
100
AcDbText
 10
7.03125
 20
-8.879999999999999
 30
0.0
 40
0.5
  1
0.3070
100
AcDbAttributeDefinition
  3

  2
KDM
 70
     8
280
     0
  0
ATTDEF
  5
D1
330
BD
100
AcDbEntity
  8
AM_6
100
AcDbText
 10
7.03125
 20
-9.379999999999999
 30
0.0
 40
0.5
  1
baldor
100
AcDbAttributeDefinition
  3

  2
COMPANY
 70
     8
280
     0
  0
LINE
  5
D2
330
BD
100
AcDbEntity
  8
AM_9
100
AcDbLine
 10
1.370573096629555
 20
-1.55407773546782
 30
0.0
 11
1.362943640073036
 21
-1.544561616648714
 31
0.0
  0
LINE
  5
D3
330
BD
100
AcDbEntity
  8
AM_9
100
AcDbLine
 10
1.363002366930393
 20
-1.835365134129884
 30
0.0
 11
1.370573096629555
 21
-1.82592226453218
 31
0.0
  0
LWPOLYLINE
  5
D4
330
BD
100
AcDbEntity
  8
AM_9
100
AcDbPolyline
 90
       26
 70
     0
 43
0.0
 10
1.362870758955027
 20
-1.544470713784019
 10
1.361722345582696
 20
-1.543077262917381
 10
1.351034063993259
 20
-1.533395802571749
 10
1.339378458226266
 20
-1.528295237646095
 10
1.326614256010011
 20
-1.527997315861997
 10
1.313458235211241
 20
-1.532679019343003
 10
1.300212399266798
 20
-1.542402011676165
 10
1.287467625967342
 20
-1.556874026234256
 10
1.275952008629166
 20
-1.575461621957355
 10
1.265957458711346
 20
-1.597869816854495
 10
1.258363344261785
 20
-1.622275405848488
 10
1.253046103606412
 20
-1.648921743985311
 10
1.250467930555332
 20
-1.675172826139212
 10
1.25031793696678
 20
-1.701877379624312
 10
1.252504891835033
 20
-1.727120896206091
 10
1.256814525415928
 20
-1.75133601502514
 10
1.263126712121886
 20
-1.774074159602232
 10
1.271086964458086
 20
-1.794591196266356
 10
1.280883691376679
 20
-1.813255087034343
 10
1.291736354734563
 20
-1.828599152053088
 10
1.30397260176277
 20
-1.840878021810585
 10
1.316527776949461
 20
-1.848854740441031
 10
1.329523629178863
 20
-1.852370073700271
 10
1.342050610996702
 20
-1.850976259825302
 10
1.353939848551234
 20
-1.844498321371628
 10
1.362874446005801
 20
-1.835524688122726
  0
LWPOLYLINE
  5
D5
330
BD
100
AcDbEntity
  8
AM_9
100
AcDbPolyline
 90
       12
 70
     0
 43
0.0
 10
1.36686003016131
 20
-1.830057899570466
 10
1.374063062848139
 20
-1.817188425922101
 10
1.381919814639623
 20
-1.797053118707599
 10
1.387927446125511
 20
-1.774118876585749
 10
1.3923335231575
 20
-1.748372362384886
 10
1.394923028277636
 20
-1.722323361674165
 10
1.395996704930882
 20
-1.695253692110982
 10
1.395582298384876
 20
-1.669475178627994
 10
1.393800834805258
 20
-1.644282242319745
 10
1.390694314034126
 20
-1.620582022152445
 10
1.38631075514024
 20
-1.598729825610208
 10
1.376953389882087
 20
-1.569289438370362
  0
LWPOLYLINE
  5
D6
330
BD
100
AcDbEntity
  8
AM_9
100
AcDbPolyline
 90
        3
 70
     0
 43
0.0
 10
1.362874446005801
 20
-1.835524688122726
 10
1.364719250926726
 20
-1.833120512588065
 10
1.36686003016131
 20
-1.830057899570466
  0
LINE
  5
D7
330
BD
100
AcDbEntity
  8
AM_9
100
AcDbLine
 10
1.34029327085915
 20
-1.84365
 30
0.0
 11
1.810259173827005
 21
-1.84365
 31
0.0
  0
LINE
  5
D8
330
BD
100
AcDbEntity
  8
AM_9
100
AcDbLine
 10
1.810259173827005
 20
-1.53635
 30
0.0
 11
1.34029327085915
 21
-1.53635
 31
0.0
  0
ELLIPSE
  5
D9
330
BD
100
AcDbEntity
  8
AM_9
100
AcDbEllipse
 10
1.810259173827004
 20
-1.69
 30
0.0
 11
-2.822504710334859E-17
 21
-0.1536499999999998
 31
0.0
210
0.0
220
0.0
230
1.0
 40
0.4226182617406966
 41
3.473381758810284
 42
5.96395686119367
  0
LINE
  5
DA
330
BD
100
AcDbEntity
  8
AM_9
100
AcDbLine
 10
1.779979348056599
 20
-1.82592226453218
 30
0.0
 11
1.802459817752674
 21
-1.853961852824269
 31
0.0
  0
LINE
  5
DB
330
BD
100
AcDbEntity
  8
AM_9
100
AcDbLine
 10
1.802597943379028
 20
-1.52586586493484
 30
0.0
 11
1.779979348056599
 21
-1.55407773546782
 31
0.0
  0
LWPOLYLINE
  5
DC
330
BD
100
AcDbEntity
  8
AM_9
100
AcDbPolyline
 90
       39
 70
     0
 43
0.0
 10
-0.1203997891174559
 20
-1.573639819734366
 10
-0.1372296735781099
 20
-1.591502292455359
 10
-0.1515019595327723
 20
-1.612161958540254
 10
-0.1631682951265879
 20
-1.636923525823132
 10
-0.1704843477765815
 20
-1.664240172729329
 10
-0.1726772085485035
 20
-1.69000968719252
 10
-0.1703441373534054
 20
-1.716565268728922
 10
-0.1639532413147669
 20
-1.740897011353681
 10
-0.153398690079932
 20
-1.764483942158416
 10
-0.1392226520825704
 20
-1.785991999372009
 10
-0.1213664561682598
 20
-1.805467316343778
 10
-0.1000066657426069
 20
-1.822375933542747
 10
-0.075607946107076
 20
-1.836033645202895
 10
-0.0485346204402687
 20
-1.84592226568134
 10
-0.0194379493571086
 20
-1.851462694819541
 10
0.010382953140129
 20
-1.852204694987161
 10
0.0407534256545697
 20
-1.847890339424635
 10
0.0693814756037808
 20
-1.838753413306858
 10
0.0968140168912338
 20
-1.824464619652971
 10
0.1202208485808603
 20
-1.806523936179177
 10
0.1407203522010082
 20
-1.784040770599332
 10
0.1556576988351689
 20
-1.760222462372669
 10
0.1664282947795951
 20
-1.733231656816433
 10
0.1716792036591166
 20
-1.70740785885086
 10
0.1723629232003229
 20
-1.680221677539698
 10
0.1686660074888896
 20
-1.655251116569449
 10
0.1606637967266609
 20
-1.630561129721632
 10
0.1489786988876099
 20
-1.607971313926027
 10
0.1334463894552753
 20
-1.587005878699983
 10
0.1143411119970392
 20
-1.568346267382885
 10
0.0919564811328839
 20
-1.552543745800934
 10
0.0664994555385473
 20
-1.540081910056273
 10
0.0386345759420243
 20
-1.531636785972304
 10
0.0093066036627583
 20
-1.527737211153408
 10
-0.0210966932899491
 20
-1.528722583874341
 10
-0.050569237637768
 20
-1.534653510283508
 10
-0.0794294786535839
 20
-1.545778789329425
 10
-0.1007080854076407
 20
-1.558096508212432
 10
-0.1203997891174559
 20
-1.573639819734366
  0
LWPOLYLINE
  5
DD
330
BD
100
AcDbEntity
  8
AM_9
100
AcDbPolyline
 90
        3
 70
     0
 43
0.0
 10
1.369890792338246
 20
-1.554829896102472
 10
1.369812117787199
 20
-1.554705728926732
 10
1.362870758955027
 20
-1.544470713784019
  0
LINE
  5
DE
330
BD
100
AcDbEntity
  8
AM_9
100
AcDbLine
 10
1.376953389882087
 20
-1.569289438370362
 30
0.0
 11
1.369890792338246
 21
-1.554829896102472
 31
0.0
  0
LINE
  5
DF
330
BD
100
AcDbEntity
  8
AM_9
100
AcDbLine
 10
1.47
 20
-2.0
 30
0.0
 11
1.47
 21
-1.38
 31
0.0
  0
LINE
  5
E0
330
BD
100
AcDbEntity
  8
AM_9
100
AcDbLine
 10
-1.47
 20
-1.38
 30
0.0
 11
-1.47
 21
-2.0
 31
0.0
  0
ELLIPSE
  5
E1
330
BD
100
AcDbEntity
  8
AM_9
100
AcDbEllipse
 10
1.340293270859149
 20
-1.69
 30
0.0
 11
-2.822504710334855E-17
 21
-0.1536499999999996
 31
0.0
210
0.0
220
0.0
230
1.0
 40
0.4226182617406987
 41
0.0
 42
6.283185307179586
  0
LINE
  5
E2
330
BD
100
AcDbEntity
  8
AM_7
100
AcDbLine
 10
-0.1613325
 20
-1.69
 30
0.0
 11
0.1613325
 21
-1.69
 31
0.0
  0
ELLIPSE
  5
E3
330
BD
100
AcDbEntity
  8
AM_4
100
AcDbEllipse
 10
1.810259173827005
 20
-1.69
 30
0.0
 11
-2.822504710334859E-17
 21
-0.1536499999999998
 31
0.0
210
0.0
220
0.0
230
1.0
 40
0.4226182617407009
 41
5.963956861193667
 42
9.756567065989874
  0
LWPOLYLINE
  5
E4
330
BD
100
AcDbEntity
  8
AM_4
100
AcDbPolyline
 90
       15
 70
     0
 43
0.0
 10
1.802667808376442
 20
-1.854221274760351
 10
1.797666409885437
 20
-1.847489732026093
 10
1.786806986054667
 20
-1.829004317200677
 10
1.777292084543533
 20
-1.807066043113323
 10
1.769156066844676
 20
-1.781172056482904
 10
1.763073842876829
 20
-1.752933056551788
 10
1.759179044164696
 20
-1.721910891950673
 10
1.75785094021359
 20
-1.690026945247891
 10
1.759233086603205
 20
-1.657456111866257
 10
1.763291504257725
 20
-1.625802672949687
 10
1.76992291719397
 20
-1.595977436697594
 10
1.778839084917835
 20
-1.568883334006796
 10
1.789487825006163
 20
-1.545890720485193
 10
1.801610646351019
 20
-1.527119115011543
 10
1.802671871123749
 20
-1.525773656566973
  0
LWPOLYLINE
  5
E5
330
BD
100
AcDbEntity
  8
AM_4
100
AcDbPolyline
 90
        8
 70
     0
 43
0.0
 10
1.802671871123749
 20
-1.525773656566973
 10
1.814227513381392
 20
-1.513775085782116
 10
1.82733886885887
 20
-1.505440523298934
 10
1.839935961991675
 20
-1.502536631114294
 10
1.852184268010817
 20
-1.504634957275816
 10
1.86350411931482
 20
-1.511545326578185
 10
1.873893304784371
 20
-1.522949818905222
 10
1.887014651317992
 20
-1.547070705270466
  0
LINE
  5
E6
330
BD
100
AcDbEntity
  8
AM_4
100
AcDbLine
 10
-2.03125
 20
-1.38
 30
0.0
 11
2.03125
 21
-1.38
 31
0.0
  0
LWPOLYLINE
  5
E7
330
BD
100
AcDbEntity
  8
AM_4
100
AcDbPolyline
 90
       19
 70
     0
 43
0.0
 10
1.887014651317992
 20
-1.547070705270466
 10
1.893986413770786
 20
-1.566672137683651
 10
1.899710319952293
 20
-1.588847159619536
 10
1.904670274286224
 20
-1.616740961797478
 10
1.90793220942022
 20
-1.646555141894785
 10
1.909492391333913
 20
-1.678513000457022
 10
1.909232699005737
 20
-1.710785716259739
 10
1.907089767313368
 20
-1.742954677460487
 10
1.903075617493279
 20
-1.77361408782087
 10
1.897224641635173
 20
-1.801660044583945
 10
1.889577750228797
 20
-1.826443637532696
 10
1.880473785063584
 20
-1.846563918051434
 10
1.869883648384874
 20
-1.862120635656467
 10
1.858531271037803
 20
-1.872116596303496
 10
1.846277948433218
 20
-1.877028004913196
 10
1.833936344974624
 20
-1.876693637668492
 10
1.821429128373169
 20
-1.87148251129042
 10
1.809251931031054
 20
-1.861623849402899
 10
1.802667808376442
 20
-1.854221274760351
  0
LINE
  5
E8
330
BD
100
AcDbEntity
  8
AM_4
100
AcDbLine
 10
2.03125
 20
-1.896666666666667
 30
0.0
 11
2.03125
 21
-1.38
 31
0.0
  0
LINE
  5
E9
330
BD
100
AcDbEntity
  8
AM_4
100
AcDbLine
 10
-2.03125
 20
-1.38
 30
0.0
 11
-2.03125
 21
-1.896666666666667
 31
0.0
  0
LINE
  5
EA
330
BD
100
AcDbEntity
  8
AM_4
100
AcDbLine
 10
-1.927916666666667
 20
-2.0
 30
0.0
 11
1.927916666665317
 21
-2.0
 31
0.0
  0
LINE
  5
EB
330
BD
100
AcDbEntity
  8
AM_4
100
AcDbLine
 10
-2.03125
 20
-1.896666666666667
 30
0.0
 11
2.03125
 21
-1.896666666666667
 31
0.0
  0
ARC
  5
EC
330
BD
100
AcDbEntity
  8
AM_4
100
AcDbCircle
 10
1.927916666666666
 20
-1.896666666666666
 30
0.0
 40
0.1033333333333342
100
AcDbArc
 50
270.0
 51
0.0
  0
ARC
  5
ED
330
BD
100
AcDbEntity
  8
AM_4
100
AcDbCircle
 10
-1.927916666666666
 20
-1.896666666666666
 30
0.0
 40
0.1033333333333342
100
AcDbArc
 50
180.0
 51
270.0
  0
LWPOLYLINE
  5
EE
330
BD
100
AcDbEntity
  8
AM_4
100
AcDbPolyline
 90
       39
 70
     0
 43
0.0
 10
-0.1295672609967952
 20
-1.560252264142809
 10
-0.1099674871199902
 20
-1.541827149903503
 10
-0.0873191595039918
 20
-1.526198283976797
 10
-0.0601136960051178
 20
-1.513337203180141
 10
-0.0301638020553841
 20
-1.505169120628458
 10
-0.0013179010444531
 20
-1.502505059238462
 10
0.0284305359368665
 20
-1.50486929297898
 10
0.0559989826088774
 20
-1.511866795369222
 10
0.082762273561879
 20
-1.523636036420325
 10
0.1069355111822404
 20
-1.539425463588468
 10
0.1288116649832947
 20
-1.559434434832376
 10
0.1473887528126832
 20
-1.582978565855643
 10
0.1623233500196552
 20
-1.609915778195619
 10
0.1728568736360702
 20
-1.639325310202632
 10
0.1786145498976475
 20
-1.670911222254348
 10
0.1791163026833939
 20
-1.702998300078744
 10
0.1741433002515942
 20
-1.73562690986095
 10
0.1639982505278063
 20
-1.766276361523808
 10
0.1483329199821384
 20
-1.795590139331721
 10
0.1287622758477004
 20
-1.820618678455015
 10
0.1043921278349535
 20
-1.842509445242505
 10
0.0783636795888751
 20
-1.858673086421113
 10
0.0489898099924172
 20
-1.870374684485277
 10
0.0202778723639901
 20
-1.876298446041334
 10
-0.0099298765264778
 20
-1.877212569883759
 10
-0.0381552079961663
 20
-1.873210707418949
 10
-0.0660950973848305
 20
-1.864314332177368
 10
-0.0915775702846385
 20
-1.851243718571203
 10
-0.1152222506188437
 20
-1.833750826504633
 10
-0.135851918614775
 20
-1.812538461047463
 10
-0.1532536310803199
 20
-1.787631956711834
 10
-0.1666193779775132
 20
-1.759814879758542
 10
-0.17553706284074
 20
-1.729384049422908
 10
-0.1793958786732864
 20
-1.697734896910504
 10
-0.1779409728618023
 20
-1.664982529195975
 10
-0.1711610207365659
 20
-1.633402547964574
 10
-0.1587953401032176
 20
-1.602548637863365
 10
-0.1457731833775861
 20
-1.58059339081973
 10
-0.1295672610612273
 20
-1.560252264102548
  0
CIRCLE
  5
EF
330
BD
100
AcDbEntity
  8
AM_4
100
AcDbCircle
 10
0.0
 20
-1.69
 30
0.0
 40
0.15365
  0
CIRCLE
  5
F0
330
BD
100
AcDbEntity
  8
AM_5
100
AcDbCircle
 10
0.0000000000000001
 20
-1.69
 30
0.0
 40
0.1874999999999999
  0
ENDBLK
  5
C0
330
BD
100
AcDbEntity
  8
0
100
AcDbBlockEnd
  0
BLOCK
  5
F3
330
F1
100
AcDbEntity
  8
0
100
AcDbBlockBegin
  2
4_405015E_Inch_0_in_023556_4
 70
     2
 10
0.0
 20
0.0
 30
0.0
  3
4_405015E_Inch_0_in_023556_4
  1

  0
ATTDEF
  5
F5
330
F1
100
AcDbEntity
  8
AM_6
100
AcDbText
 10
5.21875
 20
0.2525907427704614
 30
0.0
 40
0.5
  1
405015E -Inch
100
AcDbAttributeDefinition
  3

  2
NN
 70
     8
280
     0
  0
ATTDEF
  5
F6
330
F1
100
AcDbEntity
  8
AM_6
100
AcDbText
 10
5.21875
 20
-0.2474092572295386
 30
0.0
 40
0.5
  1
Grease Fitting
100
AcDbAttributeDefinition
  3

  2
NT
 70
     8
280
     0
  0
ATTDEF
  5
F7
330
F1
100
AcDbEntity
  8
AM_6
100
AcDbText
 10
5.21875
 20
-0.7474092572295385
 30
0.0
 40
0.5
  1
405015E-Inch
100
AcDbAttributeDefinition
  3

  2
NB
 70
     8
280
     0
  0
ATTDEF
  5
F8
330
F1
100
AcDbEntity
  8
AM_6
100
AcDbText
 10
5.21875
 20
-1.247409257229539
 30
0.0
 40
0.5
  1
$MN.-Inch
100
AcDbAttributeDefinition
  3

  2
NBSYN
 70
     8
280
     0
  0
ATTDEF
  5
F9
330
F1
100
AcDbEntity
  8
AM_6
100
AcDbText
 10
5.21875
 20
-1.747409257229539
 30
0.0
 40
0.5
  1
405015E
100
AcDbAttributeDefinition
  3

  2
LINA
 70
     8
280
     0
  0
ATTDEF
  5
FA
330
F1
100
AcDbEntity
  8
AM_6
100
AcDbText
 10
5.21875
 20
-2.247409257229538
 30
0.0
 40
0.5
  1
405015E
100
AcDbAttributeDefinition
  3

  2
MN
 70
     8
280
     0
  0
ATTDEF
  5
FB
330
F1
100
AcDbEntity
  8
AM_6
100
AcDbText
 10
5.21875
 20
-2.747409257229538
 30
0.0
 40
0.5
  1
1/8 x 27PTF
100
AcDbAttributeDefinition
  3

  2
T
 70
     8
280
     0
  0
ATTDEF
  5
FC
330
F1
100
AcDbEntity
  8
AM_6
100
AcDbText
 10
5.21875
 20
-3.247409257229538
 30
0.0
 40
0.5
  1
baldor
100
AcDbAttributeDefinition
  3

  2
COMPANY
 70
     8
280
     0
  0
CIRCLE
  5
FD
330
F1
100
AcDbEntity
  8
AM_9
100
AcDbCircle
 10
0.0
 20
0.0000000000000002
 30
0.0
 40
0.161902872472269
  0
CIRCLE
  5
FE
330
F1
100
AcDbEntity
  8
AM_9
100
AcDbCircle
 10
0.0
 20
0.0000000000000002
 30
0.0
 40
0.1986176267812154
  0
CIRCLE
  5
FF
330
F1
100
AcDbEntity
  8
AM_9
100
AcDbCircle
 10
0.0
 20
0.0000000000000002
 30
0.0
 40
0.2057518972230696
  0
CIRCLE
  5
100
330
F1
100
AcDbEntity
  8
AM_9
100
AcDbCircle
 10
0.0
 20
0.0000000000000002
 30
0.0
 40
0.1188200907348975
  0
CIRCLE
  5
101
330
F1
100
AcDbEntity
  8
AM_9
100
AcDbCircle
 10
0.0
 20
0.0000000000000002
 30
0.0
 40
0.105
  0
LINE
  5
102
330
F1
100
AcDbEntity
  8
AM_4
100
AcDbLine
 10
0.21875
 20
0.1262953713852308
 30
0.0
 11
0.0
 21
0.2525907427704614
 31
0.0
  0
LINE
  5
103
330
F1
100
AcDbEntity
  8
AM_4
100
AcDbLine
 10
0.21875
 20
-0.1262953713852305
 30
0.0
 11
0.21875
 21
0.1262953713852308
 31
0.0
  0
LINE
  5
104
330
F1
100
AcDbEntity
  8
AM_4
100
AcDbLine
 10
0.0
 20
0.2525907427704614
 30
0.0
 11
-0.21875
 21
0.1262953713852308
 31
0.0
  0
LINE
  5
105
330
F1
100
AcDbEntity
  8
AM_4
100
AcDbLine
 10
-0.21875
 20
-0.1262953713852304
 30
0.0
 11
0.0
 21
-0.2525907427704611
 31
0.0
  0
LINE
  5
106
330
F1
100
AcDbEntity
  8
AM_4
100
AcDbLine
 10
-0.21875
 20
0.1262953713852308
 30
0.0
 11
-0.21875
 21
-0.1262953713852304
 31
0.0
  0
LINE
  5
107
330
F1
100
AcDbEntity
  8
AM_4
100
AcDbLine
 10
0.0
 20
-0.2525907427704611
 30
0.0
 11
0.21875
 21
-0.1262953713852305
 31
0.0
  0
CIRCLE
  5
108
330
F1
100
AcDbEntity
  8
AM_4
100
AcDbCircle
 10
0.0
 20
0.0000000000000002
 30
0.0
 40
0.21375
  0
CIRCLE
  5
109
330
F1
100
AcDbEntity
  8
AM_4
100
AcDbCircle
 10
0.0
 20
0.0000000000000002
 30
0.0
 40
0.1725340532830154
  0
CIRCLE
  5
10A
330
F1
100
AcDbEntity
  8
AM_4
100
AcDbCircle
 10
0.0
 20
0.0000000000000002
 30
0.0
 40
0.1026779019331875
  0
CIRCLE
  5
10B
330
F1
100
AcDbEntity
  8
AM_4
100
AcDbCircle
 10
0.0
 20
0.0000000000000002
 30
0.0
 40
0.135
  0
ARC
  5
10C
330
F1
100
AcDbEntity
  8
AM_5
100
AcDbCircle
 10
0.0
 20
0.0000000000000001
 30
0.0
 40
0.202500005
100
AcDbArc
 50
75.00000000000001
 51
15.0
  0
CIRCLE
  5
10D
330
F1
100
AcDbEntity
  8
AM_4
100
AcDbCircle
 10
-0.0000000000000001
 20
0.0000000000000002
 30
0.0
 40
0.2187499999999999
  0
ENDBLK
  5
F4
330
F1
100
AcDbEntity
  8
0
100
AcDbBlockEnd
  0
BLOCK
  5
110
330
10E
100
AcDbEntity
  8
0
100
AcDbBlockBegin
  2
5_023556_Insert_0_in_023556_4
 70
     2
 10
0.0
 20
0.0
 30
0.0
  3
5_023556_Insert_0_in_023556_4
  1

  0
ATTDEF
  5
112
330
10E
100
AcDbEntity
  8
AM_6
100
AcDbText
 10
7.5
 20
2.2
 30
0.0
 40
0.5
  1
B-1 Unit -Insert -Inch
100
AcDbAttributeDefinition
  3

  2
NN
 70
     8
280
     0
  0
ATTDEF
  5
113
330
10E
100
AcDbEntity
  8
AM_6
100
AcDbText
 10
7.5
 20
1.7
 30
0.0
 40
0.5
  1
Double-Interlock Bearings
100
AcDbAttributeDefinition
  3

  2
NT
 70
     8
280
     0
  0
ATTDEF
  5
114
330
10E
100
AcDbEntity
  8
AM_6
100
AcDbText
 10
7.5
 20
1.2
 30
0.0
 40
0.5
  1
023556-Insert
100
AcDbAttributeDefinition
  3

  2
NB
 70
     8
280
     0
  0
ATTDEF
  5
115
330
10E
100
AcDbEntity
  8
AM_6
100
AcDbText
 10
7.5
 20
0.7000000000000002
 30
0.0
 40
0.5
  1
$PN.-Insert
100
AcDbAttributeDefinition
  3

  2
NBSYN
 70
     8
280
     0
  0
ATTDEF
  5
116
330
10E
100
AcDbEntity
  8
AM_6
100
AcDbText
 10
7.5
 20
0.2000000000000002
 30
0.0
 40
0.5
  1
023556-Insert
100
AcDbAttributeDefinition
  3

  2
LINA
 70
     8
280
     0
  0
ATTDEF
  5
117
330
10E
100
AcDbEntity
  8
AM_6
100
AcDbText
 10
7.5
 20
-0.2999999999999998
 30
0.0
 40
0.5
  1
2-7/16
100
AcDbAttributeDefinition
  3

  2
SS
 70
     8
280
     0
  0
ATTDEF
  5
118
330
10E
100
AcDbEntity
  8
AM_6
100
AcDbText
 10
7.5
 20
-0.7999999999999998
 30
0.0
 40
0.5
  1
023556
100
AcDbAttributeDefinition
  3

  2
PN
 70
     8
280
     0
  0
ATTDEF
  5
119
330
10E
100
AcDbEntity
  8
AM_6
100
AcDbText
 10
7.5
 20
-1.3
 30
0.0
 40
0.5
  1
B1U-DI-207R
100
AcDbAttributeDefinition
  3

  2
DESCRIPTION
 70
     8
280
     0
  0
ATTDEF
  5
11A
330
10E
100
AcDbEntity
  8
AM_6
100
AcDbText
 10
7.5
 20
-1.8
 30
0.0
 40
0.5
  1
4
100
AcDbAttributeDefinition
  3

  2
A
 70
     8
280
     0
  0
ATTDEF
  5
11B
330
10E
100
AcDbEntity
  8
AM_6
100
AcDbText
 10
7.5
 20
-2.3
 30
0.0
 40
0.5
  1
2-3/4
100
AcDbAttributeDefinition
  3

  2
B
 70
     8
280
     0
  0
ATTDEF
  5
11C
330
10E
100
AcDbEntity
  8
AM_6
100
AcDbText
 10
7.5
 20
-2.8
 30
0.0
 40
0.5
  1
5
100
AcDbAttributeDefinition
  3

  2
D
 70
     8
280
     0
  0
ATTDEF
  5
11D
330
10E
100
AcDbEntity
  8
AM_6
100
AcDbText
 10
7.5
 20
-3.3
 30
0.0
 40
0.5
  1
11/16
100
AcDbAttributeDefinition
  3

  2
H
 70
     8
280
     0
  0
ATTDEF
  5
11E
330
10E
100
AcDbEntity
  8
AM_6
100
AcDbText
 10
7.5
 20
-3.8
 30
0.0
 40
0.5
  1
3.32
100
AcDbAttributeDefinition
  3

  2
J
 70
     8
280
     0
  0
ATTDEF
  5
11F
330
10E
100
AcDbEntity
  8
AM_6
100
AcDbText
 10
7.5
 20
-4.3
 30
0.0
 40
0.5
  1
4-1/16
100
AcDbAttributeDefinition
  3

  2
L
 70
     8
280
     0
  0
ATTDEF
  5
120
330
10E
100
AcDbEntity
  8
AM_6
100
AcDbText
 10
7.5
 20
-4.8
 30
0.0
 40
0.5
  1
baldor
100
AcDbAttributeDefinition
  3

  2
COMPANY
 70
     8
280
     0
  0
LINE
  5
121
330
10E
100
AcDbEntity
  8
AM_9
100
AcDbLine
 10
1.332262887960291
 20
1.895
 30
0.0
 11
1.10445811150062
 21
1.895
 31
0.0
  0
LINE
  5
122
330
10E
100
AcDbEntity
  8
AM_9
100
AcDbLine
 10
1.10453553120586
 20
1.485
 30
0.0
 11
1.33218711039985
 21
1.485
 31
0.0
  0
LWPOLYLINE
  5
123
330
10E
100
AcDbEntity
  8
AM_9
100
AcDbPolyline
 90
       21
 70
     0
 43
0.0
 10
1.10456958458215
 20
1.894999999336731
 10
1.094931128467441
 20
1.893777955043293
 10
1.080040168868903
 20
1.88739191140022
 10
1.064650438772503
 20
1.875308046651647
 10
1.050100127068112
 20
1.858449348482725
 10
1.036230031545063
 20
1.836392699900155
 10
1.024241530013137
 20
1.810607703834948
 10
1.014196028176798
 20
1.780585542498855
 10
1.007131516707927
 20
1.748798641808077
 10
1.003023764245674
 20
1.71433141420948
 10
1.002313613239912
 20
1.680559408661734
 10
1.004927446644613
 20
1.646077385161604
 10
1.01053812321888
 20
1.614000801033933
 10
1.019176584577287
 20
1.583174762694284
 10
1.03006902157107
 20
1.555875393099917
 10
1.043241419139136
 20
1.531616246365221
 10
1.057554439402926
 20
1.512206868586186
 10
1.073087194259603
 20
1.497374158643992
 10
1.088290741493807
 20
1.488418165148342
 10
1.103570798769614
 20
1.48501337854018
 10
1.104557256195906
 20
1.48500000039221
  0
LWPOLYLINE
  5
124
330
10E
100
AcDbEntity
  8
AM_9
100
AcDbPolyline
 90
       10
 70
     0
 43
0.0
 10
1.104557256195906
 20
1.48500000039221
 10
1.117407961734993
 20
1.487396512618448
 10
1.130430134903845
 20
1.495550448477221
 10
1.141633675157046
 20
1.508764505959578
 10
1.151515378289319
 20
1.527403684883885
 10
1.159544980479886
 20
1.550224761370835
 10
1.166050827977469
 20
1.577692885878801
 10
1.170731349152188
 20
1.607750677892398
 10
1.173863421450654
 20
1.64111760872077
 10
1.175461567401798
 20
1.69
  0
LWPOLYLINE
  5
125
330
10E
100
AcDbEntity
  8
AM_9
100
AcDbPolyline
 90
       21
 70
     0
 43
0.0
 10
1.33227992806566
 20
1.485000000764301
 10
1.322484519753496
 20
1.486269790940304
 10
1.307476580024336
 20
1.492916387987284
 10
1.292535745256103
 20
1.505005406575552
 10
1.278146616819186
 20
1.522326662054247
 10
1.264903732586876
 20
1.544293346991632
 10
1.253274252271301
 20
1.57059611052346
 10
1.243858159770483
 20
1.600282365402957
 10
1.237124383126524
 20
1.632584775341657
 10
1.233357859461284
 20
1.66653653916773
 10
1.232790325309992
 20
1.700883725771878
 10
1.235350877507819
 20
1.734921926545163
 10
1.240935527503694
 20
1.767532713685614
 10
1.249234697637844
 20
1.797979976640759
 10
1.259984413163226
 20
1.82555969891944
 10
1.272632178715926
 20
1.849351424487539
 10
1.28677451853363
 20
1.868762329118804
 10
1.301747191318942
 20
1.883118536628131
 10
1.316938967536531
 20
1.891906051146466
 10
1.33188092404375
 20
1.894997909501705
 10
1.332269890195177
 20
1.894999999910733
  0
LWPOLYLINE
  5
126
330
10E
100
AcDbEntity
  8
AM_9
100
AcDbPolyline
 90
       10
 70
     0
 43
0.0
 10
1.332269890195177
 20
1.894999999910733
 10
1.345975800620107
 20
1.892265850087044
 10
1.359002493254403
 20
1.883923388871479
 10
1.370647220752903
 20
1.870147914698168
 10
1.380753620768268
 20
1.851401901534925
 10
1.389245449046793
 20
1.827935396191295
 10
1.396004047691731
 20
1.800593176643088
 10
1.40101409445907
 20
1.769942272724456
 10
1.404270457600155
 20
1.736999292283115
 10
1.405890623028544
 20
1.69
  0
LINE
  5
127
330
10E
100
AcDbEntity
  8
AM_9
100
AcDbLine
 10
1.332262887960291
 20
-1.485
 30
0.0
 11
1.10445811150062
 21
-1.485
 31
0.0
  0
LINE
  5
128
330
10E
100
AcDbEntity
  8
AM_9
100
AcDbLine
 10
1.10453553120586
 20
-1.895
 30
0.0
 11
1.33218711039985
 21
-1.895
 31
0.0
  0
LWPOLYLINE
  5
129
330
10E
100
AcDbEntity
  8
AM_9
100
AcDbPolyline
 90
       21
 70
     0
 43
0.0
 10
1.10456958458215
 20
-1.485000000663269
 10
1.094931128467441
 20
-1.486222044956707
 10
1.080040168868903
 20
-1.49260808859978
 10
1.064650438772503
 20
-1.504691953348352
 10
1.050100127068112
 20
-1.521550651517275
 10
1.036230031545063
 20
-1.543607300099845
 10
1.024241530013137
 20
-1.569392296165052
 10
1.014196028176798
 20
-1.599414457501145
 10
1.007131516707927
 20
-1.631201358191923
 10
1.003023764245674
 20
-1.66566858579052
 10
1.002313613239912
 20
-1.699440591338266
 10
1.004927446644613
 20
-1.733922614838396
 10
1.01053812321888
 20
-1.765999198966067
 10
1.019176584577287
 20
-1.796825237305717
 10
1.03006902157107
 20
-1.824124606900083
 10
1.043241419139136
 20
-1.848383753634779
 10
1.057554439402926
 20
-1.867793131413814
 10
1.073087194259603
 20
-1.882625841356008
 10
1.088290741493807
 20
-1.891581834851658
 10
1.103570798769614
 20
-1.89498662145982
 10
1.104557256195906
 20
-1.89499999960779
  0
LWPOLYLINE
  5
12A
330
10E
100
AcDbEntity
  8
AM_9
100
AcDbPolyline
 90
       10
 70
     0
 43
0.0
 10
1.104557256195906
 20
-1.89499999960779
 10
1.117407961734993
 20
-1.892603487381552
 10
1.130430134903845
 20
-1.884449551522779
 10
1.141633675157046
 20
-1.871235494040422
 10
1.151515378289319
 20
-1.852596315116115
 10
1.159544980479886
 20
-1.829775238629165
 10
1.166050827977469
 20
-1.802307114121199
 10
1.170731349152188
 20
-1.772249322107603
 10
1.173863421450654
 20
-1.73888239127923
 10
1.175461567401798
 20
-1.69
  0
LWPOLYLINE
  5
12B
330
10E
100
AcDbEntity
  8
AM_9
100
AcDbPolyline
 90
       21
 70
     0
 43
0.0
 10
1.33227992806566
 20
-1.894999999235699
 10
1.322484519753496
 20
-1.893730209059696
 10
1.307476580024336
 20
-1.887083612012716
 10
1.292535745256103
 20
-1.874994593424448
 10
1.278146616819186
 20
-1.857673337945753
 10
1.264903732586876
 20
-1.835706653008369
 10
1.253274252271301
 20
-1.809403889476539
 10
1.243858159770483
 20
-1.779717634597043
 10
1.237124383126524
 20
-1.747415224658342
 10
1.233357859461284
 20
-1.713463460832269
 10
1.232790325309992
 20
-1.679116274228122
 10
1.235350877507819
 20
-1.645078073454837
 10
1.240935527503694
 20
-1.612467286314386
 10
1.249234697637844
 20
-1.582020023359241
 10
1.259984413163226
 20
-1.55444030108056
 10
1.272632178715926
 20
-1.530648575512461
 10
1.28677451853363
 20
-1.511237670881196
 10
1.301747191318942
 20
-1.496881463371869
 10
1.316938967536531
 20
-1.488093948853534
 10
1.33188092404375
 20
-1.485002090498295
 10
1.332269890195177
 20
-1.485000000089267
  0
LWPOLYLINE
  5
12C
330
10E
100
AcDbEntity
  8
AM_9
100
AcDbPolyline
 90
       10
 70
     0
 43
0.0
 10
1.332269890195177
 20
-1.485000000089267
 10
1.345975800620107
 20
-1.487734149912956
 10
1.359002493254403
 20
-1.496076611128521
 10
1.370647220752903
 20
-1.509852085301832
 10
1.380753620768268
 20
-1.528598098465075
 10
1.389245449046793
 20
-1.552064603808705
 10
1.396004047691731
 20
-1.579406823356912
 10
1.40101409445907
 20
-1.610057727275543
 10
1.404270457600155
 20
-1.643000707716885
 10
1.405890623028544
 20
-1.69
  0
LWPOLYLINE
  5
12D
330
10E
100
AcDbEntity
  8
AM_9
100
AcDbPolyline
 90
       11
 70
     0
 43
0.0
 10
1.175461567401798
 20
-1.69
 10
1.174713217006864
 20
-1.656344891887692
 10
1.172365911505428
 20
-1.622689783775384
 10
1.168517219470649
 20
-1.591871589300355
 10
1.162894738545294
 20
-1.56297630500495
 10
1.155694656426627
 20
-1.53816185362922
 10
1.146526644412504
 20
-1.516982110081896
 10
1.135872382615562
 20
-1.501117330851087
 10
1.12327713357505
 20
-1.490263940349555
 10
1.109820957119652
 20
-1.485386451729568
 10
1.10456958458215
 20
-1.485000000663269
  0
LWPOLYLINE
  5
12E
330
10E
100
AcDbEntity
  8
AM_9
100
AcDbPolyline
 90
       11
 70
     0
 43
0.0
 10
1.175461567401798
 20
1.69
 10
1.174713217006864
 20
1.723655108112308
 10
1.172365911505428
 20
1.757310216224616
 10
1.168517219470649
 20
1.788128410699644
 10
1.162894738545294
 20
1.81702369499505
 10
1.155694656426627
 20
1.84183814637078
 10
1.146526644412504
 20
1.863017889918104
 10
1.135872382615562
 20
1.878882669148913
 10
1.12327713357505
 20
1.889736059650445
 10
1.109820957119652
 20
1.894613548270432
 10
1.10456958458215
 20
1.894999999336731
  0
LINE
  5
12F
330
10E
100
AcDbEntity
  8
AM_9
100
AcDbLine
 10
1.21875
 20
-2.0
 30
0.0
 11
1.21875
 21
2.0
 31
0.0
  0
LINE
  5
130
330
10E
100
AcDbEntity
  8
AM_9
100
AcDbLine
 10
-1.21875
 20
2.0
 30
0.0
 11
-1.21875
 21
-2.0
 31
0.0
  0
LWPOLYLINE
  5
131
330
10E
100
AcDbEntity
  8
AM_9
100
AcDbPolyline
 90
       38
 70
     0
 43
0.0
 10
0.0
 20
-1.485
 10
0.0337425799948701
 20
-1.487796047775298
 10
0.0674851599897402
 20
-1.496426362380723
 10
0.0983873802480853
 20
-1.510153055605833
 10
0.1273567962895678
 20
-1.529359885337262
 10
0.1521420832116215
 20
-1.552603542563762
 10
0.1732762596272026
 20
-1.580453946444401
 10
0.189053116251305
 20
-1.610728824685952
 10
0.19982058024179
 20
-1.644209873205741
 10
0.2046384715487067
 20
-1.677830531556015
 10
0.2037294275611152
 20
-1.712788601221231
 10
0.1972360132667687
 20
-1.745883406039996
 10
0.1849967719098501
 20
-1.77832437026628
 10
0.1679708723513857
 20
-1.807519300719135
 10
0.1457133216555274
 20
-1.83419649056795
 10
0.1198236665071457
 20
-1.856334869900404
 10
0.0897209782840249
 20
-1.874323482106208
 10
0.0579116372603069
 20
-1.886650050266535
 10
0.0234709854816228
 20
-1.89365194042906
 10
-0.0103822621415713
 20
-1.894736925425834
 10
-0.0449171230672785
 20
-1.890018629270773
 10
-0.0770935778455117
 20
-1.879951520801961
 10
-0.1079865678828581
 20
-1.864252406459368
 10
-0.1352135925565483
 20
-1.844085315289782
 10
-0.159355601684475
 20
-1.818960428860092
 10
-0.1785374247792571
 20
-1.790744170814947
 10
-0.1931195866985981
 20
-1.758773724876312
 10
-0.2018402835971685
 20
-1.725853868932301
 10
-0.2049979448699192
 20
-1.69091793197437
 10
-0.2023647542478387
 20
-1.657235594951047
 10
-0.1939234596592642
 20
-1.623526758813927
 10
-0.1803971037204798
 20
-1.592625029041019
 10
-0.1614081261730249
 20
-1.563617972775743
 10
-0.1383167812360361
 20
-1.538694124276344
 10
-0.1105975159300158
 20
-1.517392962281053
 10
-0.0804191508910079
 20
-1.501432345907445
 10
-0.0470046437876768
 20
-1.490461624086008
 10
0.0
 20
-1.485
  0
LWPOLYLINE
  5
132
330
10E
100
AcDbEntity
  8
AM_9
100
AcDbPolyline
 90
       11
 70
     0
 43
0.0
 10
1.405890623028544
 20
-1.69
 10
1.405035365780322
 20
-1.724225322904128
 10
1.402479054278472
 20
-1.757481371322097
 10
1.398194231252277
 20
-1.788797566945057
 10
1.392184934276705
 20
-1.817349516563767
 10
1.384379043130069
 20
-1.842450744071456
 10
1.374865411534359
 20
-1.863273994117106
 10
1.363655882634404
 20
-1.879226374366815
 10
1.350979522916502
 20
-1.889819507838594
 10
1.337158605461955
 20
-1.894646122837449
 10
1.33227992806566
 20
-1.894999999235699
  0
LINE
  5
133
330
10E
100
AcDbEntity
  8
AM_9
100
AcDbLine
 10
1.47
 20
-1.375
 30
0.0
 11
1.47
 21
-1.349
 31
0.0
  0
LINE
  5
134
330
10E
100
AcDbEntity
  8
AM_9
100
AcDbLine
 10
1.47
 20
-2.0
 30
0.0
 11
1.47
 21
-1.38
 31
0.0
  0
LINE
  5
135
330
10E
100
AcDbEntity
  8
AM_9
100
AcDbLine
 10
-1.47
 20
-1.38
 30
0.0
 11
-1.47
 21
-2.0
 31
0.0
  0
LINE
  5
136
330
10E
100
AcDbEntity
  8
AM_9
100
AcDbLine
 10
-1.47
 20
-1.349
 30
0.0
 11
-1.47
 21
-1.375
 31
0.0
  0
LWPOLYLINE
  5
137
330
10E
100
AcDbEntity
  8
AM_9
100
AcDbPolyline
 90
       38
 70
     0
 43
0.0
 10
0.0
 20
1.895
 10
0.0337425799948701
 20
1.892203952224703
 10
0.0674851599897402
 20
1.883573637619277
 10
0.0983873802480853
 20
1.869846944394167
 10
0.1273567962895678
 20
1.850640114662738
 10
0.1521420832116215
 20
1.827396457436238
 10
0.1732762596272026
 20
1.799546053555599
 10
0.189053116251305
 20
1.769271175314048
 10
0.19982058024179
 20
1.735790126794259
 10
0.2046384715487067
 20
1.702169468443985
 10
0.2037294275611152
 20
1.667211398778769
 10
0.1972360132667687
 20
1.634116593960004
 10
0.1849967719098501
 20
1.60167562973372
 10
0.1679708723513857
 20
1.572480699280865
 10
0.1457133216555274
 20
1.54580350943205
 10
0.1198236665071457
 20
1.523665130099596
 10
0.0897209782840249
 20
1.505676517893792
 10
0.0579116372603069
 20
1.493349949733465
 10
0.0234709854816228
 20
1.48634805957094
 10
-0.0103822621415713
 20
1.485263074574166
 10
-0.0449171230672785
 20
1.489981370729227
 10
-0.0770935778455117
 20
1.500048479198038
 10
-0.1079865678828581
 20
1.515747593540632
 10
-0.1352135925565483
 20
1.535914684710217
 10
-0.159355601684475
 20
1.561039571139908
 10
-0.1785374247792571
 20
1.589255829185054
 10
-0.1931195866985981
 20
1.621226275123688
 10
-0.2018402835971685
 20
1.654146131067699
 10
-0.2049979448699192
 20
1.68908206802563
 10
-0.2023647542478387
 20
1.722764405048953
 10
-0.1939234596592642
 20
1.756473241186072
 10
-0.1803971037204798
 20
1.787374970958981
 10
-0.1614081261730249
 20
1.816382027224257
 10
-0.1383167812360361
 20
1.841305875723656
 10
-0.1105975159300158
 20
1.862607037718947
 10
-0.0804191508910079
 20
1.878567654092554
 10
-0.0470046437876768
 20
1.889538375913992
 10
0.0
 20
1.895
  0
LWPOLYLINE
  5
138
330
10E
100
AcDbEntity
  8
AM_9
100
AcDbPolyline
 90
       11
 70
     0
 43
0.0
 10
1.405890623028544
 20
1.69
 10
1.405035365780322
 20
1.655774677095872
 10
1.402479054278472
 20
1.622518628677903
 10
1.398194231252277
 20
1.591202433054943
 10
1.392184934276705
 20
1.562650483436233
 10
1.384379043130069
 20
1.537549255928544
 10
1.374865411534359
 20
1.516726005882894
 10
1.363655882634404
 20
1.500773625633185
 10
1.350979522916502
 20
1.490180492161406
 10
1.337158605461955
 20
1.485353877162551
 10
1.33227992806566
 20
1.485000000764301
  0
LINE
  5
139
330
10E
100
AcDbEntity
  8
AM_9
100
AcDbLine
 10
1.47
 20
1.38
 30
0.0
 11
1.47
 21
2.0
 31
0.0
  0
LINE
  5
13A
330
10E
100
AcDbEntity
  8
AM_9
100
AcDbLine
 10
1.47
 20
1.349
 30
0.0
 11
1.47
 21
1.375
 31
0.0
  0
LINE
  5
13B
330
10E
100
AcDbEntity
  8
AM_9
100
AcDbLine
 10
-1.47
 20
1.375
 30
0.0
 11
-1.47
 21
1.349
 31
0.0
  0
LINE
  5
13C
330
10E
100
AcDbEntity
  8
AM_9
100
AcDbLine
 10
-1.47
 20
2.0
 30
0.0
 11
-1.47
 21
1.38
 31
0.0
  0
LINE
  5
13D
330
10E
100
AcDbEntity
  8
AM_9
100
AcDbLine
 10
2.083333333333333
 20
1.349
 30
0.0
 11
2.087917834831753
 21
1.375
 31
0.0
  0
LINE
  5
13E
330
10E
100
AcDbEntity
  8
AM_9
100
AcDbLine
 10
-2.087917834831753
 20
1.375
 30
0.0
 11
-2.083333333333333
 21
1.349
 31
0.0
  0
LINE
  5
13F
330
10E
100
AcDbEntity
  8
AM_9
100
AcDbLine
 10
2.083333333333333
 20
1.349
 30
0.0
 11
-2.083333333333333
 21
1.349
 31
0.0
  0
LINE
  5
140
330
10E
100
AcDbEntity
  8
AM_9
100
AcDbLine
 10
-2.083333333333333
 20
-1.349
 30
0.0
 11
2.083333333333333
 21
-1.349
 31
0.0
  0
LINE
  5
141
330
10E
100
AcDbEntity
  8
AM_9
100
AcDbLine
 10
-2.083333333333333
 20
-1.349
 30
0.0
 11
-2.087917834831754
 21
-1.375
 31
0.0
  0
LINE
  5
142
330
10E
100
AcDbEntity
  8
AM_9
100
AcDbLine
 10
2.087917834831754
 20
-1.375
 30
0.0
 11
2.083333333333333
 21
-1.349
 31
0.0
  0
LINE
  5
143
330
10E
100
AcDbEntity
  8
AM_7
100
AcDbLine
 10
-0.3643756247113997
 20
0.0000000000000002
 30
0.0
 11
0.3643756247113997
 21
0.0000000000000002
 31
0.0
  0
LINE
  5
144
330
10E
100
AcDbEntity
  8
AM_7
100
AcDbLine
 10
0.0
 20
-2.2
 30
0.0
 11
0.0
 21
2.2
 31
0.0
  0
LINE
  5
145
330
10E
100
AcDbEntity
  8
AM_4
100
AcDbLine
 10
1.47
 20
-1.38
 30
0.0
 11
1.47
 21
-1.375
 31
0.0
  0
LINE
  5
146
330
10E
100
AcDbEntity
  8
AM_4
100
AcDbLine
 10
-1.47
 20
-1.375
 30
0.0
 11
-1.47
 21
-1.38
 31
0.0
  0
LINE
  5
147
330
10E
100
AcDbEntity
  8
AM_4
100
AcDbLine
 10
1.47
 20
1.375
 30
0.0
 11
1.47
 21
1.38
 31
0.0
  0
LINE
  5
148
330
10E
100
AcDbEntity
  8
AM_4
100
AcDbLine
 10
-1.47
 20
1.38
 30
0.0
 11
-1.47
 21
1.375
 31
0.0
  0
LINE
  5
149
330
10E
100
AcDbEntity
  8
AM_4
100
AcDbLine
 10
-2.4836
 20
-1.375
 30
0.0
 11
2.4836
 21
-1.375
 31
0.0
  0
LINE
  5
14A
330
10E
100
AcDbEntity
  8
AM_4
100
AcDbLine
 10
2.4836
 20
-1.375
 30
0.0
 11
2.5
 21
-1.3586
 31
0.0
  0
LINE
  5
14B
330
10E
100
AcDbEntity
  8
AM_4
100
AcDbLine
 10
-2.5
 20
-1.3586
 30
0.0
 11
-2.4836
 21
-1.375
 31
0.0
  0
LINE
  5
14C
330
10E
100
AcDbEntity
  8
AM_4
100
AcDbLine
 10
-2.4836
 20
1.375
 30
0.0
 11
2.4836
 21
1.375
 31
0.0
  0
LINE
  5
14D
330
10E
100
AcDbEntity
  8
AM_4
100
AcDbLine
 10
-2.4836
 20
1.375
 30
0.0
 11
-2.5
 21
1.3586
 31
0.0
  0
LINE
  5
14E
330
10E
100
AcDbEntity
  8
AM_4
100
AcDbLine
 10
2.5
 20
1.3586
 30
0.0
 11
2.4836
 21
1.375
 31
0.0
  0
LINE
  5
14F
330
10E
100
AcDbEntity
  8
AM_4
100
AcDbLine
 10
-2.5
 20
-1.3586
 30
0.0
 11
2.5
 21
-1.3586
 31
0.0
  0
LINE
  5
150
330
10E
100
AcDbEntity
  8
AM_4
100
AcDbLine
 10
-2.5
 20
1.3586
 30
0.0
 11
2.5
 21
1.3586
 31
0.0
  0
LINE
  5
151
330
10E
100
AcDbEntity
  8
AM_4
100
AcDbLine
 10
2.5
 20
-1.3586
 30
0.0
 11
2.5
 21
1.3586
 31
0.0
  0
LINE
  5
152
330
10E
100
AcDbEntity
  8
AM_4
100
AcDbLine
 10
-2.5
 20
1.3586
 30
0.0
 11
-2.5
 21
-1.3586
 31
0.0
  0
LWPOLYLINE
  5
153
330
10E
100
AcDbEntity
  8
AM_4
100
AcDbPolyline
 90
       39
 70
     0
 43
0.0
 10
-0.2825620645559478
 20
0.2601522425747911
 10
-0.2351492540978516
 20
0.3031398961042673
 10
-0.1795950434655824
 20
0.3385621295012657
 10
-0.1205412567471253
 20
0.3634699925608589
 10
-0.0562675648360716
 20
0.3785792271481656
 10
0.0075406353095105
 20
0.3826091502905907
 10
0.0729827886300405
 20
0.3757535510829807
 10
0.1342856495667515
 20
0.358685092820376
 10
0.1934989892083019
 20
0.3309178349687509
 10
0.2459502256488604
 20
0.2945633294800816
 10
0.2928599022768696
 20
0.2486639866937325
 10
0.330432924210562
 20
0.1968052420634316
 10
0.359530219839992
 20
0.1375834007010014
 10
0.377490425927254
 20
0.076632243110828
 10
0.3851189337013339
 20
0.0115882994226931
 10
0.3818638767975176
 20
-0.0509587830112321
 10
0.3678500152568107
 20
-0.1138417839542108
 10
0.3443489071132849
 20
-0.1716672131360791
 10
0.3107249841510478
 20
-0.2262670260225601
 10
0.2691399686438155
 20
-0.2738321749134156
 10
0.2188404619476503
 20
-0.3149571677766317
 10
0.1632256847198057
 20
-0.3466419453931362
 10
0.1012837980686852
 20
-0.3692220532779976
 10
0.0382715857347334
 20
-0.3807896594927421
 10
-0.0276925746017498
 20
-0.3816926165551229
 10
-0.0906382902429406
 20
-0.3719417149208799
 10
-0.1527877088960807
 20
-0.3513045184671856
 10
-0.2090612796525082
 20
-0.3214439023549023
 10
-0.260969395678659
 20
-0.2815259047574683
 10
-0.3044447879304478
 20
-0.2345374007029134
 10
-0.3403911440595524
 20
-0.1792842301419056
 10
-0.3656340856599473
 20
-0.1206779178383891
 10
-0.3810387353823652
 20
-0.0567248864850131
 10
-0.385247292568504
 20
0.0060625702668452
 10
-0.3786977170430286
 20
0.0705124901047312
 10
-0.3621459096971301
 20
0.1306415391025872
 10
-0.3351564075760209
 20
0.1887620219994575
 10
-0.3111056261790557
 20
0.2257504840114437
 10
-0.2825620645559478
 20
0.2601522425747914
  0
CIRCLE
  5
154
330
10E
100
AcDbEntity
  8
AM_4
100
AcDbCircle
 10
0.0
 20
0.0000000000000002
 30
0.0
 40
0.3470244044870474
  0
CIRCLE
  5
155
330
10E
100
AcDbEntity
  8
AM_4
100
AcDbCircle
 10
0.0
 20
0.0000000000000002
 30
0.0
 40
0.3061804218652856
  0
ENDBLK
  5
111
330
10E
100
AcDbEntity
  8
0
100
AcDbBlockEnd
  0
ENDSEC
  0
SECTION
  2
ENTITIES
  0
INSERT
  5
6F
330
1F
100
AcDbEntity
  8
0
100
AcDbBlockReference
  2
1_023556_4
 10
0.0
 20
0.0
 30
0.0
  0
POINT
  5
157
330
1F
100
AcDbEntity
  8
ConnectionPoints
100
AcDbPoint
 10
0.0
 20
-2.0
 30
0.0000000000000001
  0
POINT
  5
158
330
1F
100
AcDbEntity
  8
ConnectionPoints
100
AcDbPoint
 10
0.0
 20
0.0000000000000002
 30
2.945
  0
POINT
  5
159
330
1F
100
AcDbEntity
  8
ConnectionPoints
100
AcDbPoint
 10
0.0
 20
0.0
 30
0.0
  0
POINT
  5
15A
330
1F
100
AcDbEntity
  8
ConnectionPoints
100
AcDbPoint
 10
0.0
 20
-2.0
 30
0.0000000000000001
  0
POINT
  5
15B
330
1F
100
AcDbEntity
  8
ConnectionPoints
100
AcDbPoint
 10
0.0
 20
2.0
 30
-0.0000000000000001
  0
POINT
  5
15C
330
1F
100
AcDbEntity
  8
ConnectionPoints
100
AcDbPoint
 10
0.0
 20
0.0000000000000002
 30
2.945
  0
POINT
  5
15D
330
1F
100
AcDbEntity
  8
ConnectionPoints
100
AcDbPoint
 10
0.0
 20
0.0000000000000002
 30
2.945
  0
ENDSEC
  0
SECTION
  2
OBJECTS
  0
DICTIONARY
  5
C
330
0
100
AcDbDictionary
281
     1
  3
ACAD_DETAILVIEWSTYLE
350
165
  3
ACAD_GROUP
350
D
  3
ACAD_LAYOUT
350
1A
  3
ACAD_MATERIAL
350
43
  3
ACAD_MLEADERSTYLE
350
6B
  3
ACAD_MLINESTYLE
350
17
  3
ACAD_PLOTSETTINGS
350
19
  3
ACAD_PLOTSTYLENAME
350
E
  3
ACAD_SCALELIST
350
47
  3
ACAD_SECTIONVIEWSTYLE
350
166
  3
ACAD_TABLESTYLE
350
69
  3
ACAD_VISUALSTYLE
350
2A
  3
ACDB_RECOMPOSE_DATA
350
162
  3
AcDbVariableDictionary
350
15E
  0
SUN
  5
6D
330
29
100
AcDbSun
 90
        1
290
     0
 63
     7
421
 16777215
 40
1.0
291
     1
 91
  2455826
 92
 54000000
292
     0
 70
     2
 71
   256
280
     1
  0
DICTIONARY
  5
165
102
{ACAD_REACTORS
330
C
102
}
330
C
100
AcDbDictionary
281
     1
  0
DICTIONARY
  5
D
102
{ACAD_REACTORS
330
C
102
}
330
C
100
AcDbDictionary
281
     1
  0
DICTIONARY
  5
1A
102
{ACAD_REACTORS
330
C
102
}
330
C
100
AcDbDictionary
281
     1
  3
Layout1
350
1E
  3
Layout2
350
26
  3
Model
350
22
  0
DICTIONARY
  5
43
102
{ACAD_REACTORS
330
C
102
}
330
C
100
AcDbDictionary
281
     1
  3
ByBlock
350
45
  3
ByLayer
350
44
  3
Global
350
46
  0
DICTIONARY
  5
6B
102
{ACAD_REACTORS
330
C
102
}
330
C
100
AcDbDictionary
281
     1
  3
Standard
350
6C
  0
DICTIONARY
  5
17
102
{ACAD_REACTORS
330
C
102
}
330
C
100
AcDbDictionary
281
     1
  3
Standard
350
18
  0
DICTIONARY
  5
19
102
{ACAD_REACTORS
330
C
102
}
330
C
100
AcDbDictionary
281
     1
  0
ACDBDICTIONARYWDFLT
  5
E
102
{ACAD_REACTORS
330
C
102
}
330
C
100
AcDbDictionary
281
     1
  3
Normal
350
F
100
AcDbDictionaryWithDefault
340
F
  0
DICTIONARY
  5
47
102
{ACAD_REACTORS
330
C
102
}
330
C
100
AcDbDictionary
281
     1
  3
A0
350
48
  3
A1
350
49
  3
A2
350
4A
  3
A3
350
4B
  3
A4
350
4C
  3
A5
350
4D
  3
A6
350
4E
  3
A7
350
4F
  3
A8
350
50
  3
A9
350
51
  3
B0
350
52
  3
B1
350
53
  3
B2
350
54
  3
B3
350
55
  3
B4
350
56
  3
B5
350
57
  3
B6
350
58
  3
B7
350
59
  3
B8
350
5A
  3
B9
350
5B
  3
C0
350
5C
  3
C1
350
5D
  3
C2
350
5E
  3
C3
350
5F
  3
C4
350
60
  3
C5
350
61
  3
C6
350
62
  3
C7
350
63
  3
C8
350
64
  3
C9
350
65
  3
D0
350
66
  3
D1
350
67
  3
D2
350
68
  0
DICTIONARY
  5
166
102
{ACAD_REACTORS
330
C
102
}
330
C
100
AcDbDictionary
281
     1
  0
DICTIONARY
  5
69
102
{ACAD_REACTORS
330
C
102
}
330
C
100
AcDbDictionary
281
     1
  3
Standard
350
6A
  0
DICTIONARY
  5
2A
102
{ACAD_REACTORS
330
C
102
}
330
C
100
AcDbDictionary
281
     1
  3
2dWireframe
350
2F
  3
Basic
350
32
  3
Brighten
350
36
  3
ColorChange
350
3A
  3
Conceptual
350
34
  3
Dim
350
35
  3
EdgeColorOff
350
3D
  3
Facepattern
350
39
  3
Flat
350
2B
  3
FlatWithEdges
350
2C
  3
Gouraud
350
2D
  3
GouraudWithEdges
350
2E
  3
Hidden
350
31
  3
JitterOff
350
3B
  3
Linepattern
350
38
  3
OverhangOff
350
3C
  3
Realistic
350
33
  3
Shaded
350
42
  3
Shaded with edges
350
41
  3
Shades of Gray
350
3E
  3
Sketchy
350
3F
  3
Thicken
350
37
  3
Wireframe
350
30
  3
X-Ray
350
40
  0
XRECORD
  5
162
102
{ACAD_REACTORS
330
C
102
}
330
C
100
AcDbXrecord
280
     1
 90
        1
330
6A
  0
DICTIONARY
  5
15E
102
{ACAD_REACTORS
330
C
102
}
330
C
100
AcDbDictionary
281
     1
  3
CANNOSCALE
350
15F
  3
CMLEADERSTYLE
350
164
  3
CTABLESTYLE
350
163
  0
LAYOUT
  5
1E
102
{ACAD_REACTORS
330
1A
102
}
330
1A
100
AcDbPlotSettings
  1

  2
none_device
  4

  6

 40
0.0
 41
0.0
 42
0.0
 43
0.0
 44
0.0
 45
0.0
 46
0.0
 47
0.0
 48
0.0
 49
0.0
140
0.0
141
0.0
142
1.0
143
1.0
 70
   688
 72
     0
 73
     0
 74
     5
  7

 75
    16
 76
     0
 77
     2
 78
   300
147
1.0
148
0.0
149
0.0
100
AcDbLayout
  1
Layout1
 70
     1
 71
     1
 10
0.0
 20
0.0
 11
12.0
 21
9.0
 12
0.0
 22
0.0
 32
0.0
 14
1.000000000000000E+20
 24
1.000000000000000E+20
 34
1.000000000000000E+20
 15
-1.000000000000000E+20
 25
-1.000000000000000E+20
 35
-1.000000000000000E+20
146
0.0
 13
0.0
 23
0.0
 33
0.0
 16
1.0
 26
0.0
 36
0.0
 17
0.0
 27
1.0
 37
0.0
 76
     0
330
1B
  0
LAYOUT
  5
26
102
{ACAD_REACTORS
330
1A
102
}
330
1A
100
AcDbPlotSettings
  1

  2
none_device
  4

  6

 40
0.0
 41
0.0
 42
0.0
 43
0.0
 44
0.0
 45
0.0
 46
0.0
 47
0.0
 48
0.0
 49
0.0
140
0.0
141
0.0
142
1.0
143
1.0
 70
   688
 72
     0
 73
     0
 74
     5
  7

 75
    16
 76
     0
 77
     2
 78
   300
147
1.0
148
0.0
149
0.0
100
AcDbLayout
  1
Layout2
 70
     1
 71
     2
 10
0.0
 20
0.0
 11
0.0
 21
0.0
 12
0.0
 22
0.0
 32
0.0
 14
0.0
 24
0.0
 34
0.0
 15
0.0
 25
0.0
 35
0.0
146
0.0
 13
0.0
 23
0.0
 33
0.0
 16
1.0
 26
0.0
 36
0.0
 17
0.0
 27
1.0
 37
0.0
 76
     0
330
23
  0
LAYOUT
  5
22
102
{ACAD_REACTORS
330
1A
102
}
330
1A
100
AcDbPlotSettings
  1

  2
none_device
  4
Letter_(8.50_x_11.00_Inches)
  6

 40
6.35
 41
6.35
 42
6.35000508
 43
6.35000508
 44
215.9
 45
279.4
 46
0.0
 47
0.0
 48
0.0
 49
0.0
140
0.0
141
0.0
142
1.0
143
1.0
 70
  1712
 72
     0
 73
     0
 74
     0
  7

 75
     0
 76
     0
 77
     2
 78
   300
147
1.0
148
0.0
149
0.0
100
AcDbLayout
  1
Model
 70
     1
 71
     0
 10
0.0
 20
0.0
 11
12.0
 21
9.0
 12
0.0
 22
0.0
 32
0.0
 14
1.000000000000000E+20
 24
1.000000000000000E+20
 34
1.000000000000000E+20
 15
-1.000000000000000E+20
 25
-1.000000000000000E+20
 35
-1.000000000000000E+20
146
0.0
 13
0.0
 23
0.0
 33
0.0
 16
1.0
 26
0.0
 36
0.0
 17
0.0
 27
1.0
 37
0.0
 76
     0
330
1F
331
29
  0
MATERIAL
  5
45
102
{ACAD_REACTORS
330
43
102
}
330
43
100
AcDbMaterial
  1
ByBlock
 72
     1
 94
      127
  0
MATERIAL
  5
44
102
{ACAD_REACTORS
330
43
102
}
330
43
100
AcDbMaterial
  1
ByLayer
 72
     1
 94
      127
  0
MATERIAL
  5
46
102
{ACAD_REACTORS
330
43
102
}
330
43
100
AcDbMaterial
  1
Global
 72
     1
 94
      127
  0
MLEADERSTYLE
  5
6C
102
{ACAD_REACTORS
330
6B
102
}
330
6B
100
AcDbMLeaderStyle
179
     2
170
     2
171
     1
172
     0
 90
        2
 40
0.0
 41
0.0
173
     1
 91
-1056964608
340
14
 92
       -2
290
     1
 42
0.09
291
     1
 43
0.36
  3
Standard
341
0
 44
0.18
300

342
11
174
     1
178
     6
175
     1
176
     0
 93
-1056964608
 45
0.18
292
     0
297
     0
 46
0.18
343
0
 94
-1056964608
 47
1.0
 49
1.0
140
1.0
293
     1
141
0.0
294
     1
177
     0
142
1.0
295
     0
296
     0
143
0.125
271
     0
272
     9
273
     9
298
     0
  0
MLINESTYLE
  5
18
102
{ACAD_REACTORS
330
17
102
}
330
17
100
AcDbMlineStyle
  2
Standard
 70
     0
  3

 62
   256
 51
90.0
 52
90.0
 71
     2
 49
0.5
 62
   256
  6
BYLAYER
 49
-0.5
 62
   256
  6
BYLAYER
  0
ACDBPLACEHOLDER
  5
F
102
{ACAD_REACTORS
330
E
102
}
330
E
  0
SCALE
  5
48
102
{ACAD_REACTORS
330
47
102
}
330
47
100
AcDbScale
 70
     0
300
1:1
140
1.0
141
1.0
290
     1
  0
SCALE
  5
49
102
{ACAD_REACTORS
330
47
102
}
330
47
100
AcDbScale
 70
     0
300
1:2
140
1.0
141
2.0
290
     0
  0
SCALE
  5
4A
102
{ACAD_REACTORS
330
47
102
}
330
47
100
AcDbScale
 70
     0
300
1:4
140
1.0
141
4.0
290
     0
  0
SCALE
  5
4B
102
{ACAD_REACTORS
330
47
102
}
330
47
100
AcDbScale
 70
     0
300
1:5
140
1.0
141
5.0
290
     0
  0
SCALE
  5
4C
102
{ACAD_REACTORS
330
47
102
}
330
47
100
AcDbScale
 70
     0
300
1:8
140
1.0
141
8.0
290
     0
  0
SCALE
  5
4D
102
{ACAD_REACTORS
330
47
102
}
330
47
100
AcDbScale
 70
     0
300
1:10
140
1.0
141
10.0
290
     0
  0
SCALE
  5
4E
102
{ACAD_REACTORS
330
47
102
}
330
47
100
AcDbScale
 70
     0
300
1:16
140
1.0
141
16.0
290
     0
  0
SCALE
  5
4F
102
{ACAD_REACTORS
330
47
102
}
330
47
100
AcDbScale
 70
     0
300
1:20
140
1.0
141
20.0
290
     0
  0
SCALE
  5
50
102
{ACAD_REACTORS
330
47
102
}
330
47
100
AcDbScale
 70
     0
300
1:30
140
1.0
141
30.0
290
     0
  0
SCALE
  5
51
102
{ACAD_REACTORS
330
47
102
}
330
47
100
AcDbScale
 70
     0
300
1:40
140
1.0
141
40.0
290
     0
  0
SCALE
  5
52
102
{ACAD_REACTORS
330
47
102
}
330
47
100
AcDbScale
 70
     0
300
1:50
140
1.0
141
50.0
290
     0
  0
SCALE
  5
53
102
{ACAD_REACTORS
330
47
102
}
330
47
100
AcDbScale
 70
     0
300
1:100
140
1.0
141
100.0
290
     0
  0
SCALE
  5
54
102
{ACAD_REACTORS
330
47
102
}
330
47
100
AcDbScale
 70
     0
300
2:1
140
2.0
141
1.0
290
     0
  0
SCALE
  5
55
102
{ACAD_REACTORS
330
47
102
}
330
47
100
AcDbScale
 70
     0
300
4:1
140
4.0
141
1.0
290
     0
  0
SCALE
  5
56
102
{ACAD_REACTORS
330
47
102
}
330
47
100
AcDbScale
 70
     0
300
8:1
140
8.0
141
1.0
290
     0
  0
SCALE
  5
57
102
{ACAD_REACTORS
330
47
102
}
330
47
100
AcDbScale
 70
     0
300
10:1
140
10.0
141
1.0
290
     0
  0
SCALE
  5
58
102
{ACAD_REACTORS
330
47
102
}
330
47
100
AcDbScale
 70
     0
300
100:1
140
100.0
141
1.0
290
     0
  0
SCALE
  5
59
102
{ACAD_REACTORS
330
47
102
}
330
47
100
AcDbScale
 70
     0
300
1/128" = 1'-0"
140
0.0078125
141
12.0
290
     0
  0
SCALE
  5
5A
102
{ACAD_REACTORS
330
47
102
}
330
47
100
AcDbScale
 70
     0
300
1/64" = 1'-0"
140
0.015625
141
12.0
290
     0
  0
SCALE
  5
5B
102
{ACAD_REACTORS
330
47
102
}
330
47
100
AcDbScale
 70
     0
300
1/32" = 1'-0"
140
0.03125
141
12.0
290
     0
  0
SCALE
  5
5C
102
{ACAD_REACTORS
330
47
102
}
330
47
100
AcDbScale
 70
     0
300
1/16" = 1'-0"
140
0.0625
141
12.0
290
     0
  0
SCALE
  5
5D
102
{ACAD_REACTORS
330
47
102
}
330
47
100
AcDbScale
 70
     0
300
3/32" = 1'-0"
140
0.09375
141
12.0
290
     0
  0
SCALE
  5
5E
102
{ACAD_REACTORS
330
47
102
}
330
47
100
AcDbScale
 70
     0
300
1/8" = 1'-0"
140
0.125
141
12.0
290
     0
  0
SCALE
  5
5F
102
{ACAD_REACTORS
330
47
102
}
330
47
100
AcDbScale
 70
     0
300
3/16" = 1'-0"
140
0.1875
141
12.0
290
     0
  0
SCALE
  5
60
102
{ACAD_REACTORS
330
47
102
}
330
47
100
AcDbScale
 70
     0
300
1/4" = 1'-0"
140
0.25
141
12.0
290
     0
  0
SCALE
  5
61
102
{ACAD_REACTORS
330
47
102
}
330
47
100
AcDbScale
 70
     0
300
3/8" = 1'-0"
140
0.375
141
12.0
290
     0
  0
SCALE
  5
62
102
{ACAD_REACTORS
330
47
102
}
330
47
100
AcDbScale
 70
     0
300
1/2" = 1'-0"
140
0.5
141
12.0
290
     0
  0
SCALE
  5
63
102
{ACAD_REACTORS
330
47
102
}
330
47
100
AcDbScale
 70
     0
300
3/4" = 1'-0"
140
0.75
141
12.0
290
     0
  0
SCALE
  5
64
102
{ACAD_REACTORS
330
47
102
}
330
47
100
AcDbScale
 70
     0
300
1" = 1'-0"
140
1.0
141
12.0
290
     0
  0
SCALE
  5
65
102
{ACAD_REACTORS
330
47
102
}
330
47
100
AcDbScale
 70
     0
300
1-1/2" = 1'-0"
140
1.5
141
12.0
290
     0
  0
SCALE
  5
66
102
{ACAD_REACTORS
330
47
102
}
330
47
100
AcDbScale
 70
     0
300
3" = 1'-0"
140
3.0
141
12.0
290
     0
  0
SCALE
  5
67
102
{ACAD_REACTORS
330
47
102
}
330
47
100
AcDbScale
 70
     0
300
6" = 1'-0"
140
6.0
141
12.0
290
     0
  0
SCALE
  5
68
102
{ACAD_REACTORS
330
47
102
}
330
47
100
AcDbScale
 70
     0
300
1'-0" = 1'-0"
140
12.0
141
12.0
290
     0
  0
TABLESTYLE
  5
6A
102
{ACAD_REACTORS
330
69
102
}
102
{ACAD_XDICTIONARY
360
160
102
}
330
69
100
AcDbTableStyle
  3
Standard
 70
     0
 71
     0
 40
0.06
 41
0.06
280
     0
281
     0
  7
Standard
140
0.18
170
     2
 62
     0
 63
   257
283
     0
 90
        4
 91
        0
  1

274
    -2
284
     1
 64
     0
275
    -2
285
     1
 65
     0
276
    -2
286
     1
 66
     0
277
    -2
287
     1
 67
     0
278
    -2
288
     1
 68
     0
279
    -2
289
     1
 69
     0
  7
Standard
140
0.25
170
     5
 62
     0
 63
   257
283
     0
 90
        4
 91
        0
  1

274
    -2
284
     1
 64
     0
275
    -2
285
     1
 65
     0
276
    -2
286
     1
 66
     0
277
    -2
287
     1
 67
     0
278
    -2
288
     1
 68
     0
279
    -2
289
     1
 69
     0
  7
Standard
140
0.18
170
     5
 62
     0
 63
   257
283
     0
 90
        4
 91
        0
  1

274
    -2
284
     1
 64
     0
275
    -2
285
     1
 65
     0
276
    -2
286
     1
 66
     0
277
    -2
287
     1
 67
     0
278
    -2
288
     1
 68
     0
279
    -2
289
     1
 69
     0
  0
VISUALSTYLE
  5
2F
102
{ACAD_REACTORS
330
2A
102
}
330
2A
100
AcDbVisualStyle
  2
2dWireframe
 70
     4
177
     3
291
     0
 70
    58
 90
        0
176
     1
 90
        2
176
     1
 90
        0
176
     1
 90
        0
176
     1
 40
0.6
176
     1
 40
30.0
176
     1
 62
     7
420
 16777215
176
     1
 90
        1
176
     1
 90
        4
176
     1
 62
     7
176
     1
 62
   257
176
     1
 90
        1
176
     1
 90
        1
176
     1
 40
1.0
176
     1
 90
        0
176
     1
 62
   257
176
     1
 40
1.0
176
     1
 90
        1
176
     1
 90
        6
176
     1
 90
        2
176
     1
 62
     7
176
     1
 90
        5
176
     1
 90
        0
176
     1
 90
        0
176
     1
290
     0
176
     1
 90
        1
176
     1
 40
0.0
176
     1
 90
        0
176
     1
290
     1
176
     1
290
     1
176
     1
290
     0
176
     1
290
     0
176
     1
290
     0
176
     1
290
     0
176
     1
290
     0
176
     1
290
     0
176
     1
290
     0
176
     1
 90
       50
176
     1
 40
0.0
176
     1
 40
1.0
176
     1
 90
        0
176
     1
 62
    18
420
        0
176
     1
 90
       50
176
     1
 90
        3
176
     1
 62
     5
420
      255
176
     1
290
     0
176
     1
 90
       50
176
     1
 90
       50
176
     1
 90
       50
176
     1
290
     0
176
     1
 90
       50
176
     1
 62
   256
176
     0
 40
1.0
176
     0
 90
        2
176
     1
  1
strokes_ogs.tif
176
     1
290
     0
176
     1
 40
1.0
176
     1
 40
1.0
176
     1
  0
VISUALSTYLE
  5
32
102
{ACAD_REACTORS
330
2A
102
}
330
2A
100
AcDbVisualStyle
  2
Basic
 70
     7
177
     3
291
     1
 70
    58
 90
        1
176
     1
 90
        0
176
     1
 90
        1
176
     1
 90
        0
176
     1
 40
0.6
176
     1
 40
30.0
176
     1
 62
     7
420
 16777215
176
     1
 90
        0
176
     1
 90
        4
176
     1
 62
     7
176
     1
 62
   257
176
     1
 90
        1
176
     1
 90
        1
176
     1
 40
1.0
176
     1
 90
        8
176
     1
 62
     7
176
     1
 40
1.0
176
     1
 90
        1
176
     1
 90
        6
176
     1
 90
        2
176
     1
 62
     7
176
     1
 90
        5
176
     1
 90
        0
176
     1
 90
        0
176
     1
290
     0
176
     1
 90
        1
176
     1
 40
0.0
176
     1
 90
        0
176
     1
290
     0
176
     1
290
     1
176
     1
290
     1
176
     1
290
     0
176
     1
290
     0
176
     1
290
     0
176
     1
290
     0
176
     1
290
     0
176
     1
290
     0
176
     1
 90
       50
176
     1
 40
0.0
176
     1
 40
1.0
176
     1
 90
        0
176
     1
 62
    18
420
        0
176
     1
 90
       50
176
     1
 90
        3
176
     1
 62
     5
420
      255
176
     1
290
     0
176
     1
 90
       50
176
     1
 90
       50
176
     1
 90
       50
176
     1
290
     0
176
     1
 90
       50
176
     1
 62
   256
176
     0
 40
1.0
176
     0
 90
        2
176
     1
  1
strokes_ogs.tif
176
     1
290
     0
176
     1
 40
1.0
176
     1
 40
1.0
176
     1
  0
VISUALSTYLE
  5
36
102
{ACAD_REACTORS
330
2A
102
}
330
2A
100
AcDbVisualStyle
  2
Brighten
 70
    12
177
     3
291
     1
 70
    58
 90
        2
176
     1
 90
        2
176
     1
 90
        0
176
     1
 90
        0
176
     1
 40
0.6
176
     1
 40
30.0
176
     1
 62
     7
420
 16777215
176
     1
 90
        1
176
     1
 90
        4
176
     1
 62
     7
176
     1
 62
   257
176
     1
 90
        1
176
     1
 90
        1
176
     1
 40
1.0
176
     1
 90
        8
176
     1
 62
     7
176
     1
 40
1.0
176
     1
 90
        1
176
     1
 90
        6
176
     1
 90
        2
176
     1
 62
     7
176
     1
 90
        5
176
     1
 90
        0
176
     1
 90
        0
176
     1
290
     0
176
     1
 90
        1
176
     1
 40
50.0
176
     1
 90
        0
176
     1
290
     0
176
     1
290
     1
176
     1
290
     1
176
     1
290
     0
176
     1
290
     0
176
     1
290
     0
176
     1
290
     0
176
     1
290
     0
176
     1
290
     0
176
     1
 90
       50
176
     1
 40
0.0
176
     1
 40
1.0
176
     1
 90
        0
176
     1
 62
    18
420
        0
176
     1
 90
       50
176
     1
 90
        3
176
     1
 62
     5
420
      255
176
     1
290
     0
176
     1
 90
       50
176
     1
 90
       50
176
     1
 90
       50
176
     1
290
     0
176
     1
 90
       50
176
     1
 62
   256
176
     0
 40
1.0
176
     0
 90
        2
176
     1
  1
strokes_ogs.tif
176
     1
290
     0
176
     1
 40
1.0
176
     1
 40
1.0
176
     1
  0
VISUALSTYLE
  5
3A
102
{ACAD_REACTORS
330
2A
102
}
330
2A
100
AcDbVisualStyle
  2
ColorChange
 70
    16
177
     3
291
     1
 70
    58
 90
        2
176
     1
 90
        2
176
     1
 90
        3
176
     1
 90
        0
176
     1
 40
0.6
176
     1
 40
30.0
176
     1
 62
     8
420
  8421504
176
     1
 90
        1
176
     1
 90
        4
176
     1
 62
     7
176
     1
 62
   257
176
     1
 90
        1
176
     1
 90
        1
176
     1
 40
1.0
176
     1
 90
        8
176
     1
 62
     8
420
  8421504
176
     1
 40
1.0
176
     1
 90
        1
176
     1
 90
        6
176
     1
 90
        2
176
     1
 62
     7
176
     1
 90
        5
176
     1
 90
        0
176
     1
 90
        0
176
     1
290
     0
176
     1
 90
        1
176
     1
 40
0.0
176
     1
 90
        0
176
     1
290
     0
176
     1
290
     1
176
     1
290
     1
176
     1
290
     0
176
     1
290
     0
176
     1
290
     0
176
     1
290
     0
176
     1
290
     0
176
     1
290
     0
176
     1
 90
       50
176
     1
 40
0.0
176
     1
 40
1.0
176
     1
 90
        0
176
     1
 62
    18
420
        0
176
     1
 90
       50
176
     1
 90
        3
176
     1
 62
     5
420
      255
176
     1
290
     0
176
     1
 90
       50
176
     1
 90
       50
176
     1
 90
       50
176
     1
290
     0
176
     1
 90
       50
176
     1
 62
   256
176
     0
 40
1.0
176
     0
 90
        2
176
     1
  1
strokes_ogs.tif
176
     1
290
     0
176
     1
 40
1.0
176
     1
 40
1.0
176
     1
  0
VISUALSTYLE
  5
34
102
{ACAD_REACTORS
330
2A
102
}
330
2A
100
AcDbVisualStyle
  2
Conceptual
 70
     9
177
     3
291
     0
 70
    58
 90
        3
176
     1
 90
        2
176
     1
 90
        0
176
     1
 90
        0
176
     1
 40
0.6
176
     1
 40
30.0
176
     1
 62
     7
420
 16777215
176
     1
 90
        2
176
     1
 90
        2
176
     1
 62
     7
176
     1
 62
   257
176
     1
 90
        1
176
     1
 90
        1
176
     1
 40
179.0
176
     1
 90
        8
176
     1
 62
     7
176
     1
 40
1.0
176
     1
 90
        1
176
     1
 90
        6
176
     1
 90
        2
176
     1
 62
     7
176
     1
 90
        3
176
     1
 90
        0
176
     1
 90
        0
176
     1
290
     0
176
     1
 90
        1
176
     1
 40
0.0
176
     1
 90
        0
176
     1
290
     0
176
     1
290
     1
176
     1
290
     1
176
     1
290
     0
176
     1
290
     0
176
     1
290
     0
176
     1
290
     0
176
     1
290
     0
176
     1
290
     0
176
     1
 90
       50
176
     1
 40
0.0
176
     1
 40
1.0
176
     1
 90
        0
176
     1
 62
    18
420
        0
176
     1
 90
       50
176
     1
 90
        3
176
     1
 62
     5
420
      255
176
     1
290
     0
176
     1
 90
       50
176
     1
 90
       50
176
     1
 90
       50
176
     1
290
     0
176
     1
 90
       50
176
     1
 62
   256
176
     0
 40
1.0
176
     0
 90
        2
176
     1
  1
strokes_ogs.tif
176
     1
290
     0
176
     1
 40
1.0
176
     1
 40
1.0
176
     1
  0
VISUALSTYLE
  5
35
102
{ACAD_REACTORS
330
2A
102
}
330
2A
100
AcDbVisualStyle
  2
Dim
 70
    11
177
     3
291
     1
 70
    58
 90
        2
176
     1
 90
        2
176
     1
 90
        0
176
     1
 90
        0
176
     1
 40
0.6
176
     1
 40
30.0
176
     1
 62
     7
420
 16777215
176
     1
 90
        1
176
     1
 90
        4
176
     1
 62
     7
176
     1
 62
   257
176
     1
 90
        1
176
     1
 90
        1
176
     1
 40
1.0
176
     1
 90
        8
176
     1
 62
     7
176
     1
 40
1.0
176
     1
 90
        1
176
     1
 90
        6
176
     1
 90
        2
176
     1
 62
     7
176
     1
 90
        5
176
     1
 90
        0
176
     1
 90
        0
176
     1
290
     0
176
     1
 90
        1
176
     1
 40
-50.0
176
     1
 90
        0
176
     1
290
     0
176
     1
290
     1
176
     1
290
     1
176
     1
290
     0
176
     1
290
     0
176
     1
290
     0
176
     1
290
     0
176
     1
290
     0
176
     1
290
     0
176
     1
 90
       50
176
     1
 40
0.0
176
     1
 40
1.0
176
     1
 90
        0
176
     1
 62
    18
420
        0
176
     1
 90
       50
176
     1
 90
        3
176
     1
 62
     5
420
      255
176
     1
290
     0
176
     1
 90
       50
176
     1
 90
       50
176
     1
 90
       50
176
     1
290
     0
176
     1
 90
       50
176
     1
 62
   256
176
     0
 40
1.0
176
     0
 90
        2
176
     1
  1
strokes_ogs.tif
176
     1
290
     0
176
     1
 40
1.0
176
     1
 40
1.0
176
     1
  0
VISUALSTYLE
  5
3D
102
{ACAD_REACTORS
330
2A
102
}
330
2A
100
AcDbVisualStyle
  2
EdgeColorOff
 70
    22
177
     3
291
     1
 70
    58
 90
        2
176
     0
 90
        2
176
     0
 90
        0
176
     0
 90
        0
176
     0
 40
0.6
176
     0
 40
30.0
176
     0
 62
     7
420
 16777215
176
     0
 90
        1
176
     0
 90
        4
176
     0
 62
     7
176
     0
 62
   257
176
     0
 90
        1
176
     0
 90
        1
176
     0
 40
1.0
176
     0
 90
        8
176
     2
 62
     7
176
     0
 40
1.0
176
     0
 90
        1
176
     0
 90
        6
176
     0
 90
        2
176
     0
 62
     7
176
     0
 90
        5
176
     0
 90
        0
176
     0
 90
        0
176
     0
290
     0
176
     0
 90
        1
176
     0
 40
0.0
176
     0
 90
        0
176
     0
290
     0
176
     0
290
     1
176
     0
290
     1
176
     0
290
     0
176
     0
290
     0
176
     0
290
     0
176
     0
290
     0
176
     0
290
     0
176
     0
290
     0
176
     0
 90
       50
176
     0
 40
0.0
176
     0
 40
1.0
176
     0
 90
        0
176
     0
 62
    18
420
        0
176
     0
 90
       50
176
     0
 90
        3
176
     0
 62
     5
420
      255
176
     0
290
     0
176
     0
 90
       50
176
     0
 90
       50
176
     0
 90
       50
176
     0
290
     0
176
     0
 90
       50
176
     0
 62
   256
176
     0
 40
1.0
176
     0
 90
        2
176
     0
  1
strokes_ogs.tif
176
     0
290
     0
176
     0
 40
1.0
176
     0
 40
1.0
176
     0
  0
VISUALSTYLE
  5
39
102
{ACAD_REACTORS
330
2A
102
}
330
2A
100
AcDbVisualStyle
  2
Facepattern
 70
    15
177
     3
291
     1
 70
    58
 90
        2
176
     1
 90
        2
176
     1
 90
        0
176
     1
 90
        0
176
     1
 40
0.6
176
     1
 40
30.0
176
     1
 62
     7
420
 16777215
176
     1
 90
        1
176
     1
 90
        4
176
     1
 62
     7
176
     1
 62
   257
176
     1
 90
        1
176
     1
 90
        1
176
     1
 40
1.0
176
     1
 90
        8
176
     1
 62
     7
176
     1
 40
1.0
176
     1
 90
        1
176
     1
 90
        6
176
     1
 90
        2
176
     1
 62
     7
176
     1
 90
        5
176
     1
 90
        0
176
     1
 90
        0
176
     1
290
     0
176
     1
 90
        1
176
     1
 40
0.0
176
     1
 90
        0
176
     1
290
     0
176
     1
290
     1
176
     1
290
     1
176
     1
290
     0
176
     1
290
     0
176
     1
290
     0
176
     1
290
     0
176
     1
290
     0
176
     1
290
     0
176
     1
 90
       50
176
     1
 40
0.0
176
     1
 40
1.0
176
     1
 90
        0
176
     1
 62
    18
420
        0
176
     1
 90
       50
176
     1
 90
        3
176
     1
 62
     5
420
      255
176
     1
290
     0
176
     1
 90
       50
176
     1
 90
       50
176
     1
 90
       50
176
     1
290
     0
176
     1
 90
       50
176
     1
 62
   256
176
     0
 40
1.0
176
     0
 90
        2
176
     1
  1
strokes_ogs.tif
176
     1
290
     0
176
     1
 40
1.0
176
     1
 40
1.0
176
     1
  0
VISUALSTYLE
  5
2B
102
{ACAD_REACTORS
330
2A
102
}
330
2A
100
AcDbVisualStyle
  2
Flat
 70
     0
177
     3
291
     1
 70
    58
 90
        2
176
     1
 90
        1
176
     1
 90
        1
176
     1
 90
        2
176
     1
 40
0.6
176
     1
 40
30.0
176
     1
 62
     7
420
 16777215
176
     1
 90
        0
176
     1
 90
        0
176
     1
 62
     7
176
     1
 62
   257
176
     1
 90
        1
176
     1
 90
        1
176
     1
 40
1.0
176
     1
 90
        8
176
     1
 62
     7
176
     1
 40
1.0
176
     1
 90
        1
176
     1
 90
        6
176
     1
 90
        2
176
     1
 62
     7
176
     1
 90
        5
176
     1
 90
        0
176
     1
 90
        0
176
     1
290
     0
176
     1
 90
       13
176
     1
 40
0.0
176
     1
 90
        0
176
     1
290
     0
176
     1
290
     1
176
     1
290
     1
176
     1
290
     0
176
     1
290
     0
176
     1
290
     0
176
     1
290
     0
176
     1
290
     0
176
     1
290
     0
176
     1
 90
       50
176
     1
 40
0.0
176
     1
 40
1.0
176
     1
 90
        0
176
     1
 62
    18
420
        0
176
     1
 90
       50
176
     1
 90
        3
176
     1
 62
     5
420
      255
176
     1
290
     0
176
     1
 90
       50
176
     1
 90
       50
176
     1
 90
       50
176
     1
290
     0
176
     1
 90
       50
176
     1
 62
   256
176
     0
 40
1.0
176
     0
 90
        2
176
     1
  1
strokes_ogs.tif
176
     1
290
     0
176
     1
 40
1.0
176
     1
 40
1.0
176
     1
  0
VISUALSTYLE
  5
2C
102
{ACAD_REACTORS
330
2A
102
}
330
2A
100
AcDbVisualStyle
  2
FlatWithEdges
 70
     1
177
     3
291
     1
 70
    58
 90
        2
176
     1
 90
        1
176
     1
 90
        1
176
     1
 90
        2
176
     1
 40
0.6
176
     1
 40
30.0
176
     1
 62
     7
420
 16777215
176
     1
 90
        1
176
     1
 90
        0
176
     1
 62
     7
176
     1
 62
   257
176
     1
 90
        1
176
     1
 90
        1
176
     1
 40
1.0
176
     1
 90
        0
176
     1
 62
   257
176
     1
 40
1.0
176
     1
 90
        1
176
     1
 90
        6
176
     1
 90
        2
176
     1
 62
     7
176
     1
 90
        5
176
     1
 90
        0
176
     1
 90
        0
176
     1
290
     0
176
     1
 90
       13
176
     1
 40
0.0
176
     1
 90
        0
176
     1
290
     0
176
     1
290
     1
176
     1
290
     1
176
     1
290
     0
176
     1
290
     0
176
     1
290
     0
176
     1
290
     0
176
     1
290
     0
176
     1
290
     0
176
     1
 90
       50
176
     1
 40
0.0
176
     1
 40
1.0
176
     1
 90
        0
176
     1
 62
    18
420
        0
176
     1
 90
       50
176
     1
 90
        3
176
     1
 62
     5
420
      255
176
     1
290
     0
176
     1
 90
       50
176
     1
 90
       50
176
     1
 90
       50
176
     1
290
     0
176
     1
 90
       50
176
     1
 62
   256
176
     0
 40
1.0
176
     0
 90
        2
176
     1
  1
strokes_ogs.tif
176
     1
290
     0
176
     1
 40
1.0
176
     1
 40
1.0
176
     1
  0
VISUALSTYLE
  5
2D
102
{ACAD_REACTORS
330
2A
102
}
330
2A
100
AcDbVisualStyle
  2
Gouraud
 70
     2
177
     3
291
     1
 70
    58
 90
        2
176
     1
 90
        2
176
     1
 90
        1
176
     1
 90
        2
176
     1
 40
0.6
176
     1
 40
30.0
176
     1
 62
     7
420
 16777215
176
     1
 90
        0
176
     1
 90
        0
176
     1
 62
     7
176
     1
 62
   257
176
     1
 90
        1
176
     1
 90
        1
176
     1
 40
1.0
176
     1
 90
        0
176
     1
 62
     7
176
     1
 40
1.0
176
     1
 90
        1
176
     1
 90
        6
176
     1
 90
        2
176
     1
 62
     7
176
     1
 90
        5
176
     1
 90
        0
176
     1
 90
        0
176
     1
290
     0
176
     1
 90
       13
176
     1
 40
0.0
176
     1
 90
        0
176
     1
290
     0
176
     1
290
     1
176
     1
290
     1
176
     1
290
     0
176
     1
290
     0
176
     1
290
     0
176
     1
290
     0
176
     1
290
     0
176
     1
290
     0
176
     1
 90
       50
176
     1
 40
0.0
176
     1
 40
1.0
176
     1
 90
        0
176
     1
 62
    18
420
        0
176
     1
 90
       50
176
     1
 90
        3
176
     1
 62
     5
420
      255
176
     1
290
     0
176
     1
 90
       50
176
     1
 90
       50
176
     1
 90
       50
176
     1
290
     0
176
     1
 90
       50
176
     1
 62
   256
176
     0
 40
1.0
176
     0
 90
        2
176
     1
  1
strokes_ogs.tif
176
     1
290
     0
176
     1
 40
1.0
176
     1
 40
1.0
176
     1
  0
VISUALSTYLE
  5
2E
102
{ACAD_REACTORS
330
2A
102
}
330
2A
100
AcDbVisualStyle
  2
GouraudWithEdges
 70
     3
177
     3
291
     1
 70
    58
 90
        2
176
     1
 90
        2
176
     1
 90
        1
176
     1
 90
        2
176
     1
 40
0.6
176
     1
 40
30.0
176
     1
 62
     7
420
 16777215
176
     1
 90
        1
176
     1
 90
        0
176
     1
 62
     7
176
     1
 62
   257
176
     1
 90
        1
176
     1
 90
        1
176
     1
 40
1.0
176
     1
 90
        0
176
     1
 62
   257
176
     1
 40
1.0
176
     1
 90
        1
176
     1
 90
        6
176
     1
 90
        2
176
     1
 62
     7
176
     1
 90
        5
176
     1
 90
        0
176
     1
 90
        0
176
     1
290
     0
176
     1
 90
       13
176
     1
 40
0.0
176
     1
 90
        0
176
     1
290
     0
176
     1
290
     1
176
     1
290
     1
176
     1
290
     0
176
     1
290
     0
176
     1
290
     0
176
     1
290
     0
176
     1
290
     0
176
     1
290
     0
176
     1
 90
       50
176
     1
 40
0.0
176
     1
 40
1.0
176
     1
 90
        0
176
     1
 62
    18
420
        0
176
     1
 90
       50
176
     1
 90
        3
176
     1
 62
     5
420
      255
176
     1
290
     0
176
     1
 90
       50
176
     1
 90
       50
176
     1
 90
       50
176
     1
290
     0
176
     1
 90
       50
176
     1
 62
   256
176
     0
 40
1.0
176
     0
 90
        2
176
     1
  1
strokes_ogs.tif
176
     1
290
     0
176
     1
 40
1.0
176
     1
 40
1.0
176
     1
  0
VISUALSTYLE
  5
31
102
{ACAD_REACTORS
330
2A
102
}
330
2A
100
AcDbVisualStyle
  2
Hidden
 70
     6
177
     3
291
     0
 70
    58
 90
        1
176
     1
 90
        2
176
     1
 90
        2
176
     1
 90
        0
176
     1
 40
0.6
176
     1
 40
30.0
176
     1
 62
     7
420
 16777215
176
     1
 90
        2
176
     1
 90
        2
176
     1
 62
     7
176
     1
 62
   257
176
     1
 90
        2
176
     1
 90
        1
176
     1
 40
40.0
176
     1
 90
        0
176
     1
 62
   257
176
     1
 40
1.0
176
     1
 90
        1
176
     1
 90
        6
176
     1
 90
        2
176
     1
 62
     7
176
     1
 90
        3
176
     1
 90
        0
176
     1
 90
        0
176
     1
290
     0
176
     1
 90
        1
176
     1
 40
0.0
176
     1
 90
        0
176
     1
290
     0
176
     1
290
     1
176
     1
290
     1
176
     1
290
     0
176
     1
290
     0
176
     1
290
     0
176
     1
290
     0
176
     1
290
     0
176
     1
290
     0
176
     1
 90
       50
176
     1
 40
0.0
176
     1
 40
1.0
176
     1
 90
        0
176
     1
 62
    18
420
        0
176
     1
 90
       50
176
     1
 90
        3
176
     1
 62
     5
420
      255
176
     1
290
     0
176
     1
 90
       50
176
     1
 90
       50
176
     1
 90
       50
176
     1
290
     0
176
     1
 90
       50
176
     1
 62
   256
176
     0
 40
1.0
176
     0
 90
        2
176
     1
  1
strokes_ogs.tif
176
     1
290
     0
176
     1
 40
1.0
176
     1
 40
1.0
176
     1
  0
VISUALSTYLE
  5
3B
102
{ACAD_REACTORS
330
2A
102
}
330
2A
100
AcDbVisualStyle
  2
JitterOff
 70
    20
177
     3
291
     1
 70
    58
 90
        2
176
     0
 90
        2
176
     0
 90
        0
176
     0
 90
        0
176
     0
 40
0.6
176
     0
 40
30.0
176
     0
 62
     7
420
 16777215
176
     0
 90
        1
176
     0
 90
        4
176
     0
 62
     7
176
     0
 62
   257
176
     0
 90
        1
176
     0
 90
        1
176
     0
 40
1.0
176
     0
 90
       10
176
     2
 62
     7
176
     0
 40
1.0
176
     0
 90
        1
176
     0
 90
        6
176
     0
 90
        2
176
     0
 62
     7
176
     0
 90
        5
176
     0
 90
        0
176
     0
 90
        0
176
     0
290
     0
176
     0
 90
        1
176
     0
 40
0.0
176
     0
 90
        0
176
     0
290
     0
176
     0
290
     1
176
     0
290
     1
176
     0
290
     0
176
     0
290
     0
176
     0
290
     0
176
     0
290
     0
176
     0
290
     0
176
     0
290
     0
176
     0
 90
       50
176
     0
 40
0.0
176
     0
 40
1.0
176
     0
 90
        0
176
     0
 62
    18
420
        0
176
     0
 90
       50
176
     0
 90
        3
176
     0
 62
     5
420
      255
176
     0
290
     0
176
     0
 90
       50
176
     0
 90
       50
176
     0
 90
       50
176
     0
290
     0
176
     0
 90
       50
176
     0
 62
   256
176
     0
 40
1.0
176
     0
 90
        2
176
     0
  1
strokes_ogs.tif
176
     0
290
     0
176
     0
 40
1.0
176
     0
 40
1.0
176
     0
  0
VISUALSTYLE
  5
38
102
{ACAD_REACTORS
330
2A
102
}
330
2A
100
AcDbVisualStyle
  2
Linepattern
 70
    14
177
     3
291
     1
 70
    58
 90
        2
176
     1
 90
        2
176
     1
 90
        0
176
     1
 90
        0
176
     1
 40
0.6
176
     1
 40
30.0
176
     1
 62
     7
420
 16777215
176
     1
 90
        1
176
     1
 90
        4
176
     1
 62
     7
176
     1
 62
   257
176
     1
 90
        7
176
     1
 90
        7
176
     1
 40
1.0
176
     1
 90
        8
176
     1
 62
     7
176
     1
 40
1.0
176
     1
 90
        1
176
     1
 90
        6
176
     1
 90
        2
176
     1
 62
     7
176
     1
 90
        5
176
     1
 90
        0
176
     1
 90
        0
176
     1
290
     0
176
     1
 90
        1
176
     1
 40
0.0
176
     1
 90
        0
176
     1
290
     0
176
     1
290
     1
176
     1
290
     1
176
     1
290
     0
176
     1
290
     0
176
     1
290
     0
176
     1
290
     0
176
     1
290
     0
176
     1
290
     0
176
     1
 90
       50
176
     1
 40
0.0
176
     1
 40
1.0
176
     1
 90
        0
176
     1
 62
    18
420
        0
176
     1
 90
       50
176
     1
 90
        3
176
     1
 62
     5
420
      255
176
     1
290
     0
176
     1
 90
       50
176
     1
 90
       50
176
     1
 90
       50
176
     1
290
     0
176
     1
 90
       50
176
     1
 62
   256
176
     0
 40
1.0
176
     0
 90
        2
176
     1
  1
strokes_ogs.tif
176
     1
290
     0
176
     1
 40
1.0
176
     1
 40
1.0
176
     1
  0
VISUALSTYLE
  5
3C
102
{ACAD_REACTORS
330
2A
102
}
330
2A
100
AcDbVisualStyle
  2
OverhangOff
 70
    21
177
     3
291
     1
 70
    58
 90
        2
176
     0
 90
        2
176
     0
 90
        0
176
     0
 90
        0
176
     0
 40
0.6
176
     0
 40
30.0
176
     0
 62
     7
420
 16777215
176
     0
 90
        1
176
     0
 90
        4
176
     0
 62
     7
176
     0
 62
   257
176
     0
 90
        1
176
     0
 90
        1
176
     0
 40
1.0
176
     0
 90
        9
176
     2
 62
     7
176
     0
 40
1.0
176
     0
 90
        1
176
     0
 90
        6
176
     0
 90
        2
176
     0
 62
     7
176
     0
 90
        5
176
     0
 90
        0
176
     0
 90
        0
176
     0
290
     0
176
     0
 90
        1
176
     0
 40
0.0
176
     0
 90
        0
176
     0
290
     0
176
     0
290
     1
176
     0
290
     1
176
     0
290
     0
176
     0
290
     0
176
     0
290
     0
176
     0
290
     0
176
     0
290
     0
176
     0
290
     0
176
     0
 90
       50
176
     0
 40
0.0
176
     0
 40
1.0
176
     0
 90
        0
176
     0
 62
    18
420
        0
176
     0
 90
       50
176
     0
 90
        3
176
     0
 62
     5
420
      255
176
     0
290
     0
176
     0
 90
       50
176
     0
 90
       50
176
     0
 90
       50
176
     0
290
     0
176
     0
 90
       50
176
     0
 62
   256
176
     0
 40
1.0
176
     0
 90
        2
176
     0
  1
strokes_ogs.tif
176
     0
290
     0
176
     0
 40
1.0
176
     0
 40
1.0
176
     0
  0
VISUALSTYLE
  5
33
102
{ACAD_REACTORS
330
2A
102
}
330
2A
100
AcDbVisualStyle
  2
Realistic
 70
     8
177
     3
291
     0
 70
    58
 90
        2
176
     1
 90
        3
176
     1
 90
        0
176
     1
 90
        2
176
     1
 40
0.6
176
     1
 40
30.0
176
     1
 62
     7
420
 16777215
176
     1
 90
        0
176
     1
 90
        0
176
     1
 62
     7
176
     1
 62
   257
176
     1
 90
        1
176
     1
 90
        1
176
     1
 40
1.0
176
     1
 90
        8
176
     1
 62
   257
176
     1
 40
1.0
176
     1
 90
        1
176
     1
 90
        6
176
     1
 90
        2
176
     1
 62
     7
176
     1
 90
        3
176
     1
 90
        0
176
     1
 90
        0
176
     1
290
     0
176
     1
 90
       13
176
     1
 40
0.0
176
     1
 90
        0
176
     1
290
     0
176
     1
290
     1
176
     1
290
     1
176
     1
290
     0
176
     1
290
     0
176
     1
290
     0
176
     1
290
     0
176
     1
290
     0
176
     1
290
     0
176
     1
 90
       50
176
     1
 40
0.0
176
     1
 40
1.0
176
     1
 90
        0
176
     1
 62
    18
420
        0
176
     1
 90
       50
176
     1
 90
        3
176
     1
 62
     5
420
      255
176
     1
290
     0
176
     1
 90
       50
176
     1
 90
       50
176
     1
 90
       50
176
     1
290
     0
176
     1
 90
       50
176
     1
 62
   256
176
     0
 40
1.0
176
     0
 90
        2
176
     1
  1
strokes_ogs.tif
176
     1
290
     0
176
     1
 40
1.0
176
     1
 40
1.0
176
     1
  0
VISUALSTYLE
  5
42
102
{ACAD_REACTORS
330
2A
102
}
330
2A
100
AcDbVisualStyle
  2
Shaded
 70
    27
177
     3
291
     0
 70
    58
 90
        2
176
     1
 90
        2
176
     1
 90
        1
176
     1
 90
        2
176
     1
 40
0.6
176
     1
 40
30.0
176
     1
 62
     7
420
 16777215
176
     1
 90
        0
176
     1
 90
        4
176
     1
 62
     7
176
     1
 62
   257
176
     1
 90
        1
176
     1
 90
        1
176
     1
 40
1.0
176
     1
 90
        8
176
     1
 62
   257
176
     1
 40
1.0
176
     1
 90
        1
176
     1
 90
        6
176
     1
 90
        2
176
     1
 62
     8
420
  7895160
176
     1
 90
        3
176
     1
 90
        0
176
     1
 90
        0
176
     1
290
     0
176
     1
 90
        5
176
     1
 40
0.0
176
     1
 90
        0
176
     1
290
     0
176
     1
290
     1
176
     1
290
     1
176
     1
290
     0
176
     1
290
     0
176
     1
290
     0
176
     1
290
     0
176
     1
290
     0
176
     1
290
     0
176
     1
 90
       50
176
     1
 40
0.0
176
     1
 40
1.0
176
     1
 90
        0
176
     1
 62
    18
420
        0
176
     1
 90
       50
176
     1
 90
        3
176
     1
 62
     5
420
      255
176
     1
290
     0
176
     1
 90
       50
176
     1
 90
       50
176
     1
 90
       50
176
     1
290
     0
176
     1
 90
       50
176
     1
 62
   256
176
     0
 40
1.0
176
     0
 90
        2
176
     1
  1
strokes_ogs.tif
176
     1
290
     0
176
     1
 40
1.0
176
     1
 40
1.0
176
     1
  0
VISUALSTYLE
  5
41
102
{ACAD_REACTORS
330
2A
102
}
330
2A
100
AcDbVisualStyle
  2
Shaded with edges
 70
    26
177
     3
291
     0
 70
    58
 90
        2
176
     1
 90
        2
176
     1
 90
        1
176
     1
 90
        2
176
     1
 40
0.6
176
     1
 40
30.0
176
     1
 62
     7
420
 16777215
176
     1
 90
        1
176
     1
 90
       10
176
     1
 62
     7
176
     1
 62
   257
176
     1
 90
        2
176
     1
 90
        1
176
     1
 40
1.0
176
     1
 90
        8
176
     1
 62
   257
176
     1
 40
1.0
176
     1
 90
        1
176
     1
 90
        6
176
     1
 90
        2
176
     1
 62
     7
176
     1
 90
        3
176
     1
 90
        0
176
     1
 90
        0
176
     1
290
     0
176
     1
 90
        5
176
     1
 40
0.0
176
     1
 90
        0
176
     1
290
     0
176
     1
290
     1
176
     1
290
     1
176
     1
290
     0
176
     1
290
     0
176
     1
290
     0
176
     1
290
     0
176
     1
290
     0
176
     1
290
     0
176
     1
 90
       50
176
     1
 40
0.0
176
     1
 40
1.0
176
     1
 90
        0
176
     1
 62
    18
420
        0
176
     1
 90
       50
176
     1
 90
        3
176
     1
 62
     5
420
      255
176
     1
290
     0
176
     1
 90
       50
176
     1
 90
       50
176
     1
 90
       50
176
     1
290
     0
176
     1
 90
       50
176
     1
 62
   256
176
     0
 40
1.0
176
     0
 90
        2
176
     1
  1
strokes_ogs.tif
176
     1
290
     0
176
     1
 40
1.0
176
     1
 40
1.0
176
     1
  0
VISUALSTYLE
  5
3E
102
{ACAD_REACTORS
330
2A
102
}
330
2A
100
AcDbVisualStyle
  2
Shades of Gray
 70
    23
177
     3
291
     0
 70
    58
 90
        2
176
     1
 90
        2
176
     1
 90
        3
176
     1
 90
        0
176
     1
 40
0.6
176
     1
 40
30.0
176
     1
 62
     7
420
 16777215
176
     1
 90
        2
176
     1
 90
        2
176
     1
 62
     7
176
     1
 62
     7
176
     1
 90
        1
176
     1
 90
        1
176
     1
 40
40.0
176
     1
 90
        8
176
     1
 62
     7
176
     1
 40
1.0
176
     1
 90
        1
176
     1
 90
        6
176
     1
 90
        2
176
     1
 62
     7
176
     1
 90
        3
176
     1
 90
        0
176
     1
 90
        0
176
     1
290
     0
176
     1
 90
        1
176
     1
 40
0.0
176
     1
 90
        0
176
     1
290
     0
176
     1
290
     1
176
     1
290
     1
176
     1
290
     0
176
     1
290
     0
176
     1
290
     0
176
     1
290
     0
176
     1
290
     0
176
     1
290
     0
176
     1
 90
       50
176
     1
 40
0.0
176
     1
 40
1.0
176
     1
 90
        0
176
     1
 62
    18
420
        0
176
     1
 90
       50
176
     1
 90
        3
176
     1
 62
     5
420
      255
176
     1
290
     0
176
     1
 90
       50
176
     1
 90
       50
176
     1
 90
       50
176
     1
290
     0
176
     1
 90
       50
176
     1
 62
   256
176
     0
 40
1.0
176
     0
 90
        2
176
     1
  1
strokes_ogs.tif
176
     1
290
     0
176
     1
 40
1.0
176
     1
 40
1.0
176
     1
  0
VISUALSTYLE
  5
3F
102
{ACAD_REACTORS
330
2A
102
}
330
2A
100
AcDbVisualStyle
  2
Sketchy
 70
    24
177
     3
291
     0
 70
    58
 90
        1
176
     1
 90
        2
176
     1
 90
        2
176
     1
 90
        0
176
     1
 40
0.6
176
     1
 40
30.0
176
     1
 62
     7
420
 16777215
176
     1
 90
        2
176
     1
 90
        2
176
     1
 62
     7
176
     1
 62
     7
176
     1
 90
        1
176
     1
 90
        1
176
     1
 40
40.0
176
     1
 90
       11
176
     1
 62
     7
176
     1
 40
1.0
176
     1
 90
        1
176
     1
 90
        6
176
     1
 90
        2
176
     1
 62
     7
176
     1
 90
        6
176
     1
 90
        0
176
     1
 90
        0
176
     1
290
     0
176
     1
 90
        1
176
     1
 40
0.0
176
     1
 90
        0
176
     1
290
     0
176
     1
290
     1
176
     1
290
     1
176
     1
290
     0
176
     1
290
     0
176
     1
290
     0
176
     1
290
     0
176
     1
290
     0
176
     1
290
     0
176
     1
 90
       50
176
     1
 40
0.0
176
     1
 40
1.0
176
     1
 90
        0
176
     1
 62
    18
420
        0
176
     1
 90
       50
176
     1
 90
        3
176
     1
 62
     5
420
      255
176
     1
290
     0
176
     1
 90
       50
176
     1
 90
       50
176
     1
 90
       50
176
     1
290
     0
176
     1
 90
       50
176
     1
 62
   256
176
     0
 40
1.0
176
     0
 90
        2
176
     1
  1
strokes_ogs.tif
176
     1
290
     0
176
     1
 40
1.0
176
     1
 40
1.0
176
     1
  0
VISUALSTYLE
  5
37
102
{ACAD_REACTORS
330
2A
102
}
330
2A
100
AcDbVisualStyle
  2
Thicken
 70
    13
177
     3
291
     1
 70
    58
 90
        2
176
     1
 90
        2
176
     1
 90
        0
176
     1
 90
        0
176
     1
 40
0.6
176
     1
 40
30.0
176
     1
 62
     7
420
 16777215
176
     1
 90
        1
176
     1
 90
        4
176
     1
 62
     7
176
     1
 62
   257
176
     1
 90
        1
176
     1
 90
        1
176
     1
 40
1.0
176
     1
 90
       12
176
     1
 62
     7
176
     1
 40
1.0
176
     1
 90
        1
176
     1
 90
        6
176
     1
 90
        2
176
     1
 62
     7
176
     1
 90
        5
176
     1
 90
        0
176
     1
 90
        0
176
     1
290
     0
176
     1
 90
        1
176
     1
 40
0.0
176
     1
 90
        0
176
     1
290
     0
176
     1
290
     1
176
     1
290
     1
176
     1
290
     0
176
     1
290
     0
176
     1
290
     0
176
     1
290
     0
176
     1
290
     0
176
     1
290
     0
176
     1
 90
       50
176
     1
 40
0.0
176
     1
 40
1.0
176
     1
 90
        0
176
     1
 62
    18
420
        0
176
     1
 90
       50
176
     1
 90
        3
176
     1
 62
     5
420
      255
176
     1
290
     0
176
     1
 90
       50
176
     1
 90
       50
176
     1
 90
       50
176
     1
290
     0
176
     1
 90
       50
176
     1
 62
   256
176
     0
 40
1.0
176
     0
 90
        2
176
     1
  1
strokes_ogs.tif
176
     1
290
     0
176
     1
 40
1.0
176
     1
 40
1.0
176
     1
  0
VISUALSTYLE
  5
30
102
{ACAD_REACTORS
330
2A
102
}
330
2A
100
AcDbVisualStyle
  2
Wireframe
 70
     5
177
     3
291
     0
 70
    58
 90
        0
176
     1
 90
        2
176
     1
 90
        0
176
     1
 90
        0
176
     1
 40
0.6
176
     1
 40
30.0
176
     1
 62
     7
420
 16777215
176
     1
 90
        1
176
     1
 90
        4
176
     1
 62
     7
176
     1
 62
   257
176
     1
 90
        1
176
     1
 90
        1
176
     1
 40
1.0
176
     1
 90
        0
176
     1
 62
   257
176
     1
 40
1.0
176
     1
 90
        1
176
     1
 90
        6
176
     1
 90
        2
176
     1
 62
     7
176
     1
 90
        3
176
     1
 90
        0
176
     1
 90
        0
176
     1
290
     0
176
     1
 90
        1
176
     1
 40
0.0
176
     1
 90
        0
176
     1
290
     0
176
     1
290
     1
176
     1
290
     1
176
     1
290
     0
176
     1
290
     0
176
     1
290
     0
176
     1
290
     0
176
     1
290
     0
176
     1
290
     0
176
     1
 90
       50
176
     1
 40
0.0
176
     1
 40
1.0
176
     1
 90
        0
176
     1
 62
    18
420
        0
176
     1
 90
       50
176
     1
 90
        3
176
     1
 62
     5
420
      255
176
     1
290
     0
176
     1
 90
       50
176
     1
 90
       50
176
     1
 90
       50
176
     1
290
     0
176
     1
 90
       50
176
     1
 62
   256
176
     0
 40
1.0
176
     0
 90
        2
176
     1
  1
strokes_ogs.tif
176
     1
290
     0
176
     1
 40
1.0
176
     1
 40
1.0
176
     1
  0
VISUALSTYLE
  5
40
102
{ACAD_REACTORS
330
2A
102
}
330
2A
100
AcDbVisualStyle
  2
X-Ray
 70
    25
177
     3
291
     0
 70
    58
 90
        2
176
     1
 90
        2
176
     1
 90
        1
176
     1
 90
        1
176
     1
 40
0.5
176
     1
 40
30.0
176
     1
 62
     7
420
 16777215
176
     1
 90
        1
176
     1
 90
        0
176
     1
 62
     7
176
     1
 62
   257
176
     1
 90
        1
176
     1
 90
        1
176
     1
 40
1.0
176
     1
 90
        8
176
     1
 62
     7
176
     1
 40
1.0
176
     1
 90
        1
176
     1
 90
        6
176
     1
 90
        2
176
     1
 62
     7
176
     1
 90
        3
176
     1
 90
        0
176
     1
 90
        0
176
     1
290
     0
176
     1
 90
       13
176
     1
 40
0.0
176
     1
 90
        0
176
     1
290
     0
176
     1
290
     1
176
     1
290
     1
176
     1
290
     0
176
     1
290
     0
176
     1
290
     0
176
     1
290
     0
176
     1
290
     0
176
     1
290
     0
176
     1
 90
       50
176
     1
 40
0.0
176
     1
 40
1.0
176
     1
 90
        0
176
     1
 62
    18
420
        0
176
     1
 90
       50
176
     1
 90
        3
176
     1
 62
     5
420
      255
176
     1
290
     0
176
     1
 90
       50
176
     1
 90
       50
176
     1
 90
       50
176
     1
290
     0
176
     1
 90
       50
176
     1
 62
   256
176
     0
 40
1.0
176
     0
 90
        2
176
     1
  1
strokes_ogs.tif
176
     1
290
     0
176
     1
 40
1.0
176
     1
 40
1.0
176
     1
  0
DICTIONARYVAR
  5
15F
102
{ACAD_REACTORS
330
15E
102
}
330
15E
100
DictionaryVariables
280
     0
  1
1:1
  0
DICTIONARYVAR
  5
164
102
{ACAD_REACTORS
330
15E
102
}
330
15E
100
DictionaryVariables
280
     0
  1
Standard
  0
DICTIONARYVAR
  5
163
102
{ACAD_REACTORS
330
15E
102
}
330
15E
100
DictionaryVariables
280
     0
  1
Standard
  0
DICTIONARY
  5
160
330
6A
100
AcDbDictionary
280
     1
281
     1
  3
ACAD_ROUNDTRIP_2008_TABLESTYLE_CELLSTYLEMAP
360
161
  0
CELLSTYLEMAP
  5
161
102
{ACAD_REACTORS
330
160
102
}
330
160
100
AcDbCellStyleMap
 90
        3
300
CELLSTYLE
  1
TABLEFORMAT_BEGIN
 90
        5
170
     1
 91
        0
 92
    32768
 62
   257
 93
        1
300
CONTENTFORMAT
  1
CONTENTFORMAT_BEGIN
 90
        0
 91
        0
 92
        4
 93
        0
300

 40
0.0
140
1.0
 94
        5
 62
     0
340
11
144
0.25
309
CONTENTFORMAT_END
171
     1
301
MARGIN
  1
CELLMARGIN_BEGIN
 40
0.06
 40
0.06
 40
0.06
 40
0.06
 40
0.06
 40
0.06
309
CELLMARGIN_END
 94
        6
 95
        1
302
GRIDFORMAT
  1
GRIDFORMAT_BEGIN
 90
        0
 91
        1
 62
     0
 92
       -2
340
14
 93
        0
 40
0.045
309
GRIDFORMAT_END
 95
        2
302
GRIDFORMAT
  1
GRIDFORMAT_BEGIN
 90
        0
 91
        1
 62
     0
 92
       -2
340
14
 93
        0
 40
0.045
309
GRIDFORMAT_END
 95
        4
302
GRIDFORMAT
  1
GRIDFORMAT_BEGIN
 90
        0
 91
        1
 62
     0
 92
       -2
340
14
 93
        0
 40
0.045
309
GRIDFORMAT_END
 95
        8
302
GRIDFORMAT
  1
GRIDFORMAT_BEGIN
 90
        0
 91
        1
 62
     0
 92
       -2
340
14
 93
        0
 40
0.045
309
GRIDFORMAT_END
 95
       16
302
GRIDFORMAT
  1
GRIDFORMAT_BEGIN
 90
        0
 91
        1
 62
     0
 92
       -2
340
14
 93
        0
 40
0.045
309
GRIDFORMAT_END
 95
       32
302
GRIDFORMAT
  1
GRIDFORMAT_BEGIN
 90
        0
 91
        1
 62
     0
 92
       -2
340
14
 93
        0
 40
0.045
309
GRIDFORMAT_END
309
TABLEFORMAT_END
  1
CELLSTYLE_BEGIN
 90
        1
 91
        1
300
_TITLE
309
CELLSTYLE_END
300
CELLSTYLE
  1
TABLEFORMAT_BEGIN
 90
        5
170
     1
 91
        0
 92
        0
 62
   257
 93
        1
300
CONTENTFORMAT
  1
CONTENTFORMAT_BEGIN
 90
        0
 91
        0
 92
        4
 93
        0
300

 40
0.0
140
1.0
 94
        5
 62
     0
340
11
144
0.18
309
CONTENTFORMAT_END
171
     1
301
MARGIN
  1
CELLMARGIN_BEGIN
 40
0.06
 40
0.06
 40
0.06
 40
0.06
 40
0.06
 40
0.06
309
CELLMARGIN_END
 94
        6
 95
        1
302
GRIDFORMAT
  1
GRIDFORMAT_BEGIN
 90
        0
 91
        1
 62
     0
 92
       -2
340
14
 93
        0
 40
0.045
309
GRIDFORMAT_END
 95
        2
302
GRIDFORMAT
  1
GRIDFORMAT_BEGIN
 90
        0
 91
        1
 62
     0
 92
       -2
340
14
 93
        0
 40
0.045
309
GRIDFORMAT_END
 95
        4
302
GRIDFORMAT
  1
GRIDFORMAT_BEGIN
 90
        0
 91
        1
 62
     0
 92
       -2
340
14
 93
        0
 40
0.045
309
GRIDFORMAT_END
 95
        8
302
GRIDFORMAT
  1
GRIDFORMAT_BEGIN
 90
        0
 91
        1
 62
     0
 92
       -2
340
14
 93
        0
 40
0.045
309
GRIDFORMAT_END
 95
       16
302
GRIDFORMAT
  1
GRIDFORMAT_BEGIN
 90
        0
 91
        1
 62
     0
 92
       -2
340
14
 93
        0
 40
0.045
309
GRIDFORMAT_END
 95
       32
302
GRIDFORMAT
  1
GRIDFORMAT_BEGIN
 90
        0
 91
        1
 62
     0
 92
       -2
340
14
 93
        0
 40
0.045
309
GRIDFORMAT_END
309
TABLEFORMAT_END
  1
CELLSTYLE_BEGIN
 90
        2
 91
        1
300
_HEADER
309
CELLSTYLE_END
300
CELLSTYLE
  1
TABLEFORMAT_BEGIN
 90
        5
170
     1
 91
        0
 92
        0
 62
   257
 93
        1
300
CONTENTFORMAT
  1
CONTENTFORMAT_BEGIN
 90
        0
 91
        0
 92
        4
 93
        0
300

 40
0.0
140
1.0
 94
        2
 62
     0
340
11
144
0.18
309
CONTENTFORMAT_END
171
     1
301
MARGIN
  1
CELLMARGIN_BEGIN
 40
0.06
 40
0.06
 40
0.06
 40
0.06
 40
0.06
 40
0.06
309
CELLMARGIN_END
 94
        6
 95
        1
302
GRIDFORMAT
  1
GRIDFORMAT_BEGIN
 90
        0
 91
        1
 62
     0
 92
       -2
340
14
 93
        0
 40
0.045
309
GRIDFORMAT_END
 95
        2
302
GRIDFORMAT
  1
GRIDFORMAT_BEGIN
 90
        0
 91
        1
 62
     0
 92
       -2
340
14
 93
        0
 40
0.045
309
GRIDFORMAT_END
 95
        4
302
GRIDFORMAT
  1
GRIDFORMAT_BEGIN
 90
        0
 91
        1
 62
     0
 92
       -2
340
14
 93
        0
 40
0.045
309
GRIDFORMAT_END
 95
        8
302
GRIDFORMAT
  1
GRIDFORMAT_BEGIN
 90
        0
 91
        1
 62
     0
 92
       -2
340
14
 93
        0
 40
0.045
309
GRIDFORMAT_END
 95
       16
302
GRIDFORMAT
  1
GRIDFORMAT_BEGIN
 90
        0
 91
        1
 62
     0
 92
       -2
340
14
 93
        0
 40
0.045
309
GRIDFORMAT_END
 95
       32
302
GRIDFORMAT
  1
GRIDFORMAT_BEGIN
 90
        0
 91
        1
 62
     0
 92
       -2
340
14
 93
        0
 40
0.045
309
GRIDFORMAT_END
309
TABLEFORMAT_END
  1
CELLSTYLE_BEGIN
 90
        3
 91
        2
300
_DATA
309
CELLSTYLE_END
  0
ENDSEC
  0
EOF