0
SECTION
  2
HEADER
  9
$ACADVER
  1
AC1027
  9
$ACADMAINTVER
 70
     8
  9
$DWGCODEPAGE
  3
ANSI_1252
  9
$REQUIREDVERSIONS
160
                 0
  9
$COMMENTS
  1
File was created by Cadenas
  9
$CUSTOMPROPERTYTAG
  1
NN
  9
$CUSTOMPROPERTY
  1
Double-Interlock B-1 Units Gray Iron - Inch
  9
$CUSTOMPROPERTYTAG
  1
NT
  9
$CUSTOMPROPERTY
  1
Double-Interlock Bearings -Inserts
  9
$CUSTOMPROPERTYTAG
  1
NB
  9
$CUSTOMPROPERTY
  1
023556
  9
$CUSTOMPROPERTYTAG
  1
NBSYN
  9
$CUSTOMPROPERTY
  1
$PN.
  9
$CUSTOMPROPERTYTAG
  1
LINA
  9
$CUSTOMPROPERTY
  1
023556
  9
$CUSTOMPROPERTYTAG
  1
SS
  9
$CUSTOMPROPERTY
  1
2-7/16
  9
$CUSTOMPROPERTYTAG
  1
PN
  9
$CUSTOMPROPERTY
  1
023556
  9
$CUSTOMPROPERTYTAG
  1
DESCRIPTION
  9
$CUSTOMPROPERTY
  1
B1U-DI-207R
  9
$CUSTOMPROPERTYTAG
  1
A
  9
$CUSTOMPROPERTY
  1
4
  9
$CUSTOMPROPERTYTAG
  1
B
  9
$CUSTOMPROPERTY
  1
2-3/4
  9
$CUSTOMPROPERTYTAG
  1
D
  9
$CUSTOMPROPERTY
  1
5
  9
$CUSTOMPROPERTYTAG
  1
H
  9
$CUSTOMPROPERTY
  1
11/16
  9
$CUSTOMPROPERTYTAG
  1
J
  9
$CUSTOMPROPERTY
  1
3.32
  9
$CUSTOMPROPERTYTAG
  1
L
  9
$CUSTOMPROPERTY
  1
4-1/16
  9
$CUSTOMPROPERTYTAG
  1
COMPANY
  9
$CUSTOMPROPERTY
  1
baldor
  9
$INSBASE
 10
0.0
 20
0.0
 30
0.0
  9
$EXTMIN
 10
1.000000000000000E+20
 20
1.000000000000000E+20
 30
1.000000000000000E+20
  9
$EXTMAX
 10
-1.000000000000000E+20
 20
-1.000000000000000E+20
 30
-1.000000000000000E+20
  9
$LIMMIN
 10
0.0
 20
0.0
  9
$LIMMAX
 10
12.0
 20
9.0
  9
$ORTHOMODE
 70
     0
  9
$REGENMODE
 70
     1
  9
$FILLMODE
 70
     1
  9
$QTEXTMODE
 70
     0
  9
$MIRRTEXT
 70
     1
  9
$LTSCALE
 40
1.0
  9
$ATTMODE
 70
     1
  9
$TEXTSIZE
 40
0.2
  9
$TRACEWID
 40
0.05
  9
$TEXTSTYLE
  7
Standard
  9
$CLAYER
  8
0
  9
$CELTYPE
  6
ByLayer
  9
$CECOLOR
 62
   256
  9
$CELTSCALE
 40
1.0
  9
$DISPSILH
 70
     0
  9
$DIMSCALE
 40
1.0
  9
$DIMASZ
 40
0.18
  9
$DIMEXO
 40
0.0625
  9
$DIMDLI
 40
0.38
  9
$DIMRND
 40
0.0
  9
$DIMDLE
 40
0.0
  9
$DIMEXE
 40
0.18
  9
$DIMTP
 40
0.0
  9
$DIMTM
 40
0.0
  9
$DIMTXT
 40
0.18
  9
$DIMCEN
 40
0.09
  9
$DIMTSZ
 40
0.0
  9
$DIMTOL
 70
     0
  9
$DIMLIM
 70
     0
  9
$DIMTIH
 70
     1
  9
$DIMTOH
 70
     1
  9
$DIMSE1
 70
     0
  9
$DIMSE2
 70
     0
  9
$DIMTAD
 70
     0
  9
$DIMZIN
 70
     0
  9
$DIMBLK
  1

  9
$DIMASO
 70
     1
  9
$DIMSHO
 70
     1
  9
$DIMPOST
  1

  9
$DIMAPOST
  1

  9
$DIMALT
 70
     0
  9
$DIMALTD
 70
     2
  9
$DIMALTF
 40
25.4
  9
$DIMLFAC
 40
1.0
  9
$DIMTOFL
 70
     0
  9
$DIMTVP
 40
0.0
  9
$DIMTIX
 70
     0
  9
$DIMSOXD
 70
     0
  9
$DIMSAH
 70
     0
  9
$DIMBLK1
  1

  9
$DIMBLK2
  1

  9
$DIMSTYLE
  2
Standard
  9
$DIMCLRD
 70
     0
  9
$DIMCLRE
 70
     0
  9
$DIMCLRT
 70
     0
  9
$DIMTFAC
 40
1.0
  9
$DIMGAP
 40
0.09
  9
$DIMJUST
 70
     0
  9
$DIMSD1
 70
     0
  9
$DIMSD2
 70
     0
  9
$DIMTOLJ
 70
     1
  9
$DIMTZIN
 70
     0
  9
$DIMALTZ
 70
     0
  9
$DIMALTTZ
 70
     0
  9
$DIMUPT
 70
     0
  9
$DIMDEC
 70
     4
  9
$DIMTDEC
 70
     4
  9
$DIMALTU
 70
     2
  9
$DIMALTTD
 70
     2
  9
$DIMTXSTY
  7
Standard
  9
$DIMAUNIT
 70
     0
  9
$DIMADEC
 70
     0
  9
$DIMALTRND
 40
0.0
  9
$DIMAZIN
 70
     0
  9
$DIMDSEP
 70
    46
  9
$DIMATFIT
 70
     3
  9
$DIMFRAC
 70
     0
  9
$DIMLDRBLK
  1

  9
$DIMLUNIT
 70
     2
  9
$DIMLWD
 70
    -2
  9
$DIMLWE
 70
    -2
  9
$DIMTMOVE
 70
     0
  9
$DIMFXL
 40
1.0
  9
$DIMFXLON
 70
     0
  9
$DIMJOGANG
 40
0.7853981633974483
  9
$DIMTFILL
 70
     0
  9
$DIMTFILLCLR
 70
     0
  9
$DIMARCSYM
 70
     0
  9
$DIMLTYPE
  6

  9
$DIMLTEX1
  6

  9
$DIMLTEX2
  6

  9
$DIMTXTDIRECTION
 70
     0
  9
$LUNITS
 70
     2
  9
$LUPREC
 70
     4
  9
$SKETCHINC
 40
0.1
  9
$FILLETRAD
 40
0.5
  9
$AUNITS
 70
     0
  9
$AUPREC
 70
     0
  9
$MENU
  1
.
  9
$ELEVATION
 40
0.0
  9
$PELEVATION
 40
0.0
  9
$THICKNESS
 40
0.0
  9
$LIMCHECK
 70
     0
  9
$CHAMFERA
 40
0.0
  9
$CHAMFERB
 40
0.0
  9
$CHAMFERC
 40
0.0
  9
$CHAMFERD
 40
0.0
  9
$SKPOLY
 70
     0
  9
$TDCREATE
 40
2458169.015879167
  9
$TDUCREATE
 40
2458168.9742125
  9
$TDUPDATE
 40
2458169.01587934
  9
$TDUUPDATE
 40
2458168.974212673
  9
$TDINDWG
 40
0.0000000116
  9
$TDUSRTIMER
 40
0.0000000116
  9
$USRTIMER
 70
     1
  9
$ANGBASE
 50
0.0
  9
$ANGDIR
 70
     0
  9
$PDMODE
 70
     0
  9
$PDSIZE
 40
0.0
  9
$PLINEWID
 40
0.0
  9
$SPLFRAME
 70
     0
  9
$SPLINETYPE
 70
     6
  9
$SPLINESEGS
 70
     8
  9
$HANDSEED
  5
1A6
  9
$SURFTAB1
 70
     6
  9
$SURFTAB2
 70
     6
  9
$SURFTYPE
 70
     6
  9
$SURFU
 70
     6
  9
$SURFV
 70
     6
  9
$UCSBASE
  2

  9
$UCSNAME
  2

  9
$UCSORG
 10
0.0
 20
0.0
 30
0.0
  9
$UCSXDIR
 10
1.0
 20
0.0
 30
0.0
  9
$UCSYDIR
 10
0.0
 20
1.0
 30
0.0
  9
$UCSORTHOREF
  2

  9
$UCSORTHOVIEW
 70
     0
  9
$UCSORGTOP
 10
0.0
 20
0.0
 30
0.0
  9
$UCSORGBOTTOM
 10
0.0
 20
0.0
 30
0.0
  9
$UCSORGLEFT
 10
0.0
 20
0.0
 30
0.0
  9
$UCSORGRIGHT
 10
0.0
 20
0.0
 30
0.0
  9
$UCSORGFRONT
 10
0.0
 20
0.0
 30
0.0
  9
$UCSORGBACK
 10
0.0
 20
0.0
 30
0.0
  9
$PUCSBASE
  2

  9
$PUCSNAME
  2

  9
$PUCSORG
 10
0.0
 20
0.0
 30
0.0
  9
$PUCSXDIR
 10
1.0
 20
0.0
 30
0.0
  9
$PUCSYDIR
 10
0.0
 20
1.0
 30
0.0
  9
$PUCSORTHOREF
  2

  9
$PUCSORTHOVIEW
 70
     0
  9
$PUCSORGTOP
 10
0.0
 20
0.0
 30
0.0
  9
$PUCSORGBOTTOM
 10
0.0
 20
0.0
 30
0.0
  9
$PUCSORGLEFT
 10
0.0
 20
0.0
 30
0.0
  9
$PUCSORGRIGHT
 10
0.0
 20
0.0
 30
0.0
  9
$PUCSORGFRONT
 10
0.0
 20
0.0
 30
0.0
  9
$PUCSORGBACK
 10
0.0
 20
0.0
 30
0.0
  9
$USERI1
 70
     0
  9
$USERI2
 70
     0
  9
$USERI3
 70
     0
  9
$USERI4
 70
     0
  9
$USERI5
 70
     0
  9
$USERR1
 40
0.0
  9
$USERR2
 40
0.0
  9
$USERR3
 40
0.0
  9
$USERR4
 40
0.0
  9
$USERR5
 40
0.0
  9
$WORLDVIEW
 70
     1
  9
$SHADEDGE
 70
     3
  9
$SHADEDIF
 70
    70
  9
$TILEMODE
 70
     1
  9
$MAXACTVP
 70
    64
  9
$PINSBASE
 10
0.0
 20
0.0
 30
0.0
  9
$PLIMCHECK
 70
     0
  9
$PEXTMIN
 10
1.000000000000000E+20
 20
1.000000000000000E+20
 30
1.000000000000000E+20
  9
$PEXTMAX
 10
-1.000000000000000E+20
 20
-1.000000000000000E+20
 30
-1.000000000000000E+20
  9
$PLIMMIN
 10
0.0
 20
0.0
  9
$PLIMMAX
 10
12.0
 20
9.0
  9
$UNITMODE
 70
     0
  9
$VISRETAIN
 70
     1
  9
$PLINEGEN
 70
     0
  9
$PSLTSCALE
 70
     1
  9
$TREEDEPTH
 70
  3020
  9
$CMLSTYLE
  2
Standard
  9
$CMLJUST
 70
     0
  9
$CMLSCALE
 40
1.0
  9
$PROXYGRAPHICS
 70
     1
  9
$MEASUREMENT
 70
     0
  9
$CELWEIGHT
370
    -1
  9
$ENDCAPS
280
     0
  9
$JOINSTYLE
280
     0
  9
$LWDISPLAY
290
     0
  9
$INSUNITS
 70
     1
  9
$HYPERLINKBASE
  1

  9
$STYLESHEET
  1

  9
$XEDIT
290
     1
  9
$CEPSNTYPE
380
     0
  9
$PSTYLEMODE
290
     1
  9
$FINGERPRINTGUID
  2
{5425DD39-8EF3-4737-B383-B450F8AE8354}
  9
$VERSIONGUID
  2
{FAEB1C32-E019-11D5-929B-00C0DF256EC4}
  9
$EXTNAMES
290
     1
  9
$PSVPSCALE
 40
0.0
  9
$OLESTARTUP
290
     0
  9
$SORTENTS
280
   127
  9
$INDEXCTL
280
     0
  9
$HIDETEXT
280
     1
  9
$XCLIPFRAME
280
     2
  9
$HALOGAP
280
     0
  9
$OBSCOLOR
 70
   257
  9
$OBSLTYPE
280
     0
  9
$INTERSECTIONDISPLAY
280
     0
  9
$INTERSECTIONCOLOR
 70
   257
  9
$DIMASSOC
280
     2
  9
$PROJECTNAME
  1

  9
$CAMERADISPLAY
290
     0
  9
$LENSLENGTH
 40
50.0
  9
$CAMERAHEIGHT
 40
0.0
  9
$STEPSPERSEC
 40
2.0
  9
$STEPSIZE
 40
6.0
  9
$3DDWFPREC
 40
2.0
  9
$PSOLWIDTH
 40
0.25
  9
$PSOLHEIGHT
 40
4.0
  9
$LOFTANG1
 40
1.570796326794897
  9
$LOFTANG2
 40
1.570796326794897
  9
$LOFTMAG1
 40
0.0
  9
$LOFTMAG2
 40
0.0
  9
$LOFTPARAM
 70
     7
  9
$LOFTNORMALS
280
     1
  9
$LATITUDE
 40
37.795
  9
$LONGITUDE
 40
-122.394
  9
$NORTHDIRECTION
 40
0.0
  9
$TIMEZONE
 70
 -8000
  9
$LIGHTGLYPHDISPLAY
280
     1
  9
$TILEMODELIGHTSYNCH
280
     1
  9
$CMATERIAL
347
44
  9
$SOLIDHIST
280
     0
  9
$SHOWHIST
280
     1
  9
$DWFFRAME
280
     2
  9
$DGNFRAME
280
     2
  9
$REALWORLDSCALE
290
     1
  9
$INTERFERECOLOR
 62
   256
  9
$CSHADOW
280
     0
  9
$SHADOWPLANELOCATION
 40
0.0
  0
ENDSEC
  0
SECTION
  2
CLASSES
  0
CLASS
  1
ACDBDICTIONARYWDFLT
  2
AcDbDictionaryWithDefault
  3
ObjectDBX Classes
 90
        0
 91
        4
280
     0
281
     0
  0
CLASS
  1
VISUALSTYLE
  2
AcDbVisualStyle
  3
ObjectDBX Classes
 90
     4095
 91
        4
280
     0
281
     0
  0
CLASS
  1
MATERIAL
  2
AcDbMaterial
  3
ObjectDBX Classes
 90
     1153
 91
        4
280
     0
281
     0
  0
CLASS
  1
SCALE
  2
AcDbScale
  3
ObjectDBX Classes
 90
     1153
 91
        4
280
     0
281
     0
  0
CLASS
  1
TABLESTYLE
  2
AcDbTableStyle
  3
ObjectDBX Classes
 90
     4095
 91
        4
280
     0
281
     0
  0
CLASS
  1
MLEADERSTYLE
  2
AcDbMLeaderStyle
  3
ACDB_MLEADERSTYLE_CLASS
 90
     4095
 91
        4
280
     0
281
     0
  0
CLASS
  1
SUN
  2
AcDbSun
  3
SCENEOE
 90
     1153
 91
        4
280
     0
281
     0
  0
CLASS
  1
DICTIONARYVAR
  2
AcDbDictionaryVar
  3
ObjectDBX Classes
 90
        0
 91
        4
280
     0
281
     0
  0
CLASS
  1
CELLSTYLEMAP
  2
AcDbCellStyleMap
  3
ObjectDBX Classes
 90
     1152
 91
        4
280
     0
281
     0
  0
ENDSEC
  0
SECTION
  2
TABLES
  0
TABLE
  2
VPORT
  5
8
330
0
100
AcDbSymbolTable
 70
     1
  0
VPORT
  5
29
330
8
100
AcDbSymbolTableRecord
100
AcDbViewportTableRecord
  2
*Active
 70
     0
 10
0.0
 20
0.0
 11
1.0
 21
1.0
 12
0.0
 22
0.4260000000000002
 13
0.0
 23
0.0
 14
0.5
 24
0.5
 15
0.5
 25
0.5
 16
0.0
 26
0.0
 36
1.0
 17
0.0
 27
0.0
 37
0.0
 40
5.969040000000001
 41
0.75187969924812
 42
50.0
 43
0.0
 44
0.0
 50
0.0
 51
0.0
 71
     0
 72
   100
 73
     1
 74
     3
 75
     0
 76
     0
 77
     0
 78
     0
281
     0
 65
     1
110
0.0
120
0.0
130
0.0
111
1.0
121
0.0
131
0.0
112
0.0
122
1.0
132
0.0
 79
     0
146
0.0
348
2F
 60
     3
 61
     5
292
     1
282
     1
141
0.0
142
0.0
 63
   250
361
6D
  0
ENDTAB
  0
TABLE
  2
LTYPE
  5
5
330
0
100
AcDbSymbolTable
 70
     3
  0
LTYPE
  5
14
330
5
100
AcDbSymbolTableRecord
100
AcDbLinetypeTableRecord
  2
ByBlock
 70
     0
  3

 72
    65
 73
     0
 40
0.0
  0
LTYPE
  5
15
330
5
100
AcDbSymbolTableRecord
100
AcDbLinetypeTableRecord
  2
ByLayer
 70
     0
  3

 72
    65
 73
     0
 40
0.0
  0
LTYPE
  5
16
330
5
100
AcDbSymbolTableRecord
100
AcDbLinetypeTableRecord
  2
Continuous
 70
     0
  3
Solid line
 72
    65
 73
     0
 40
0.0
  0
LTYPE
  5
97
330
5
100
AcDbSymbolTableRecord
100
AcDbLinetypeTableRecord
  2
Dashed
 70
     0
  3

 72
    65
 73
     2
 40
2.0
 49
1.0
 74
     0
 49
-1.0
 74
     0
  0
LTYPE
  5
179
330
5
100
AcDbSymbolTableRecord
100
AcDbLinetypeTableRecord
  2
Center
 70
     0
  3

 72
    65
 73
     4
 40
1.5
 49
0.45
 74
     0
 49
-0.5
 74
     0
 49
0.05
 74
     0
 49
-0.5
 74
     0
  0
ENDTAB
  0
TABLE
  2
LAYER
  5
2
330
0
100
AcDbSymbolTable
 70
     7
  0
LAYER
  5
10
330
2
100
AcDbSymbolTableRecord
100
AcDbLayerTableRecord
  2
0
 70
     0
 62
     7
  6
Continuous
370
    -3
390
F
347
46
348
0
  0
LAYER
  5
72
330
2
100
AcDbSymbolTableRecord
100
AcDbLayerTableRecord
  2
AM_6
 70
     0
 62
    -2
  6
Continuous
370
    35
390
F
347
46
348
0
  0
LAYER
  5
98
330
2
100
AcDbSymbolTableRecord
100
AcDbLayerTableRecord
  2
AM_9
 70
     0
 62
     6
  6
Dashed
370
    25
390
F
347
46
348
0
  0
LAYER
  5
A9
330
2
100
AcDbSymbolTableRecord
100
AcDbLayerTableRecord
  2
AM_5
 70
     0
 62
     3
  6
Continuous
370
    25
390
F
347
46
348
0
  0
LAYER
  5
AC
330
2
100
AcDbSymbolTableRecord
100
AcDbLayerTableRecord
  2
AM_4
 70
     0
 62
     7
  6
Continuous
370
    50
390
F
347
46
348
0
  0
LAYER
  5
17A
330
2
100
AcDbSymbolTableRecord
100
AcDbLayerTableRecord
  2
AM_7
 70
     0
 62
     7
  6
Center
370
    25
390
F
347
46
348
0
  0
LAYER
  5
195
330
2
100
AcDbSymbolTableRecord
100
AcDbLayerTableRecord
  2
ConnectionPoints
 70
     0
 62
     7
  6
Continuous
370
    50
390
F
347
46
348
0
  0
ENDTAB
  0
TABLE
  2
STYLE
  5
3
330
0
100
AcDbSymbolTable
 70
     1
  0
STYLE
  5
11
330
3
100
AcDbSymbolTableRecord
100
AcDbTextStyleTableRecord
  2
Standard
 70
     0
 40
0.0
 41
1.0
 50
0.0
 71
     0
 42
0.2
  3
txt
  4

  0
ENDTAB
  0
TABLE
  2
VIEW
  5
6
330
0
100
AcDbSymbolTable
 70
     0
  0
ENDTAB
  0
TABLE
  2
UCS
  5
7
330
0
100
AcDbSymbolTable
 70
     0
  0
ENDTAB
  0
TABLE
  2
APPID
  5
9
330
0
100
AcDbSymbolTable
 70
     1
  0
APPID
  5
12
330
9
100
AcDbSymbolTableRecord
100
AcDbRegAppTableRecord
  2
ACAD
 70
     0
  0
ENDTAB
  0
TABLE
  2
DIMSTYLE
  5
A
330
0
100
AcDbSymbolTable
 70
     1
100
AcDbDimStyleTable
  0
DIMSTYLE
105
27
330
A
100
AcDbSymbolTableRecord
100
AcDbDimStyleTableRecord
  2
Standard
 70
     0
178
     0
340
11
  0
ENDTAB
  0
TABLE
  2
BLOCK_RECORD
  5
1
330
0
100
AcDbSymbolTable
 70
     6
  0
BLOCK_RECORD
  5
1F
330
1
100
AcDbSymbolTableRecord
100
AcDbBlockTableRecord
  2
*Model_Space
340
22
 70
     0
280
     1
281
     0
  0
BLOCK_RECORD
  5
1B
330
1
100
AcDbSymbolTableRecord
100
AcDbBlockTableRecord
  2
*Paper_Space
340
1E
 70
     0
280
     1
281
     0
  0
BLOCK_RECORD
  5
23
330
1
100
AcDbSymbolTableRecord
100
AcDbBlockTableRecord
  2
*Paper_Space0
340
26
 70
     0
280
     1
281
     0
  0
BLOCK_RECORD
  5
6E
330
1
100
AcDbSymbolTableRecord
100
AcDbBlockTableRecord
  2
1_023556_2
340
0
102
{BLKREFS
331
6F
102
}
 70
     0
280
     1
281
     0
  0
BLOCK_RECORD
  5
82
330
1
100
AcDbSymbolTableRecord
100
AcDbBlockTableRecord
  2
2_2_7_16C_1_0_in_023556_2
340
0
102
{BLKREFS
331
83
102
}
 70
     0
280
     1
281
     0
  0
BLOCK_RECORD
  5
B9
330
1
100
AcDbSymbolTableRecord
100
AcDbBlockTableRecord
  2
3_2_7_16C_2_0_in_023556_2
340
0
102
{BLKREFS
331
BA
102
}
 70
     0
280
     1
281
     0
  0
BLOCK_RECORD
  5
ED
330
1
100
AcDbSymbolTableRecord
100
AcDbBlockTableRecord
  2
4_405015E_Inch_0_in_023556_2
340
0
102
{BLKREFS
331
EE
102
}
 70
     0
280
     1
281
     0
  0
BLOCK_RECORD
  5
12B
330
1
100
AcDbSymbolTableRecord
100
AcDbBlockTableRecord
  2
5_023556_Insert_0_in_023556_2
340
0
102
{BLKREFS
331
12C
102
}
 70
     0
280
     1
281
     0
  0
ENDTAB
  0
ENDSEC
  0
SECTION
  2
BLOCKS
  0
BLOCK
  5
20
330
1F
100
AcDbEntity
  8
0
100
AcDbBlockBegin
  2
*Model_Space
 70
     0
 10
0.0
 20
0.0
 30
0.0
  3
*Model_Space
  1

  0
ENDBLK
  5
21
330
1F
100
AcDbEntity
  8
0
100
AcDbBlockEnd
  0
BLOCK
  5
1C
330
1B
100
AcDbEntity
 67
     1
  8
0
100
AcDbBlockBegin
  2
*Paper_Space
 70
     0
 10
0.0
 20
0.0
 30
0.0
  3
*Paper_Space
  1

  0
ENDBLK
  5
1D
330
1B
100
AcDbEntity
 67
     1
  8
0
100
AcDbBlockEnd
  0
BLOCK
  5
24
330
23
100
AcDbEntity
  8
0
100
AcDbBlockBegin
  2
*Paper_Space0
 70
     0
 10
0.0
 20
0.0
 30
0.0
  3
*Paper_Space0
  1

  0
ENDBLK
  5
25
330
23
100
AcDbEntity
  8
0
100
AcDbBlockEnd
  0
BLOCK
  5
70
330
6E
100
AcDbEntity
  8
0
100
AcDbBlockBegin
  2
1_023556_2
 70
     2
 10
0.0
 20
0.0
 30
0.0
  3
1_023556_2
  1

  0
ATTDEF
  5
73
330
6E
100
AcDbEntity
  8
AM_6
100
AcDbText
 10
7.2
 20
3.351999999999999
 30
0.0
 40
0.5
  1
Double-Interlock B-1 Units Gray Iron - Inch
100
AcDbAttributeDefinition
  3

  2
NN
 70
     8
280
     0
  0
ATTDEF
  5
74
330
6E
100
AcDbEntity
  8
AM_6
100
AcDbText
 10
7.2
 20
2.851999999999999
 30
0.0
 40
0.5
  1
Double-Interlock Bearings -Inserts
100
AcDbAttributeDefinition
  3

  2
NT
 70
     8
280
     0
  0
ATTDEF
  5
75
330
6E
100
AcDbEntity
  8
AM_6
100
AcDbText
 10
7.2
 20
2.351999999999999
 30
0.0
 40
0.5
  1
023556
100
AcDbAttributeDefinition
  3

  2
NB
 70
     8
280
     0
  0
ATTDEF
  5
76
330
6E
100
AcDbEntity
  8
AM_6
100
AcDbText
 10
7.2
 20
1.851999999999999
 30
0.0
 40
0.5
  1
$PN.
100
AcDbAttributeDefinition
  3

  2
NBSYN
 70
     8
280
     0
  0
ATTDEF
  5
77
330
6E
100
AcDbEntity
  8
AM_6
100
AcDbText
 10
7.2
 20
1.351999999999999
 30
0.0
 40
0.5
  1
023556
100
AcDbAttributeDefinition
  3

  2
LINA
 70
     8
280
     0
  0
ATTDEF
  5
78
330
6E
100
AcDbEntity
  8
AM_6
100
AcDbText
 10
7.2
 20
0.8519999999999994
 30
0.0
 40
0.5
  1
2-7/16
100
AcDbAttributeDefinition
  3

  2
SS
 70
     8
280
     0
  0
ATTDEF
  5
79
330
6E
100
AcDbEntity
  8
AM_6
100
AcDbText
 10
7.2
 20
0.3519999999999994
 30
0.0
 40
0.5
  1
023556
100
AcDbAttributeDefinition
  3

  2
PN
 70
     8
280
     0
  0
ATTDEF
  5
7A
330
6E
100
AcDbEntity
  8
AM_6
100
AcDbText
 10
7.2
 20
-0.1480000000000006
 30
0.0
 40
0.5
  1
B1U-DI-207R
100
AcDbAttributeDefinition
  3

  2
DESCRIPTION
 70
     8
280
     0
  0
ATTDEF
  5
7B
330
6E
100
AcDbEntity
  8
AM_6
100
AcDbText
 10
7.2
 20
-0.6480000000000006
 30
0.0
 40
0.5
  1
4
100
AcDbAttributeDefinition
  3

  2
A
 70
     8
280
     0
  0
ATTDEF
  5
7C
330
6E
100
AcDbEntity
  8
AM_6
100
AcDbText
 10
7.2
 20
-1.148000000000001
 30
0.0
 40
0.5
  1
2-3/4
100
AcDbAttributeDefinition
  3

  2
B
 70
     8
280
     0
  0
ATTDEF
  5
7D
330
6E
100
AcDbEntity
  8
AM_6
100
AcDbText
 10
7.2
 20
-1.648000000000001
 30
0.0
 40
0.5
  1
5
100
AcDbAttributeDefinition
  3

  2
D
 70
     8
280
     0
  0
ATTDEF
  5
7E
330
6E
100
AcDbEntity
  8
AM_6
100
AcDbText
 10
7.2
 20
-2.148000000000001
 30
0.0
 40
0.5
  1
11/16
100
AcDbAttributeDefinition
  3

  2
H
 70
     8
280
     0
  0
ATTDEF
  5
7F
330
6E
100
AcDbEntity
  8
AM_6
100
AcDbText
 10
7.2
 20
-2.648000000000001
 30
0.0
 40
0.5
  1
3.32
100
AcDbAttributeDefinition
  3

  2
J
 70
     8
280
     0
  0
ATTDEF
  5
80
330
6E
100
AcDbEntity
  8
AM_6
100
AcDbText
 10
7.2
 20
-3.148000000000001
 30
0.0
 40
0.5
  1
4-1/16
100
AcDbAttributeDefinition
  3

  2
L
 70
     8
280
     0
  0
ATTDEF
  5
81
330
6E
100
AcDbEntity
  8
AM_6
100
AcDbText
 10
7.2
 20
-3.648000000000001
 30
0.0
 40
0.5
  1
baldor
100
AcDbAttributeDefinition
  3

  2
COMPANY
 70
     8
280
     0
  0
INSERT
  5
83
330
6E
100
AcDbEntity
  8
0
100
AcDbBlockReference
  2
2_2_7_16C_1_0_in_023556_2
 10
0.0
 20
0.0
 30
0.0
  0
INSERT
  5
BA
330
6E
100
AcDbEntity
  8
0
100
AcDbBlockReference
  2
3_2_7_16C_2_0_in_023556_2
 10
0.0
 20
0.0
 30
0.0
  0
INSERT
  5
EE
330
6E
100
AcDbEntity
  8
0
100
AcDbBlockReference
  2
4_405015E_Inch_0_in_023556_2
 10
0.0
 20
0.0
 30
0.0
  0
INSERT
  5
12C
330
6E
100
AcDbEntity
  8
0
100
AcDbBlockReference
  2
5_023556_Insert_0_in_023556_2
 10
0.0
 20
0.0
 30
0.0
  0
ENDBLK
  5
71
330
6E
100
AcDbEntity
  8
0
100
AcDbBlockEnd
  0
BLOCK
  5
84
330
82
100
AcDbEntity
  8
0
100
AcDbBlockBegin
  2
2_2_7_16C_1_0_in_023556_2
 70
     2
 10
0.0
 20
0.0
 30
0.0
  3
2_2_7_16C_1_0_in_023556_2
  1

  0
ATTDEF
  5
86
330
82
100
AcDbEntity
  8
AM_6
100
AcDbText
 10
7.0
 20
2.03125
 30
0.0
 40
0.5
  1
E-Type Collar -Inch
100
AcDbAttributeDefinition
  3

  2
NN
 70
     8
280
     0
  0
ATTDEF
  5
87
330
82
100
AcDbEntity
  8
AM_6
100
AcDbText
 10
7.0
 20
1.53125
 30
0.0
 40
0.5
  1
E-Type Bearings
100
AcDbAttributeDefinition
  3

  2
NT
 70
     8
280
     0
  0
ATTDEF
  5
88
330
82
100
AcDbEntity
  8
AM_6
100
AcDbText
 10
7.0
 20
1.03125
 30
0.0
 40
0.5
  1
2-7/16C
100
AcDbAttributeDefinition
  3

  2
NB
 70
     8
280
     0
  0
ATTDEF
  5
89
330
82
100
AcDbEntity
  8
AM_6
100
AcDbText
 10
7.0
 20
0.5312500000000004
 30
0.0
 40
0.5
  1
$BORE.C
100
AcDbAttributeDefinition
  3

  2
NBSYN
 70
     8
280
     0
  0
ATTDEF
  5
8A
330
82
100
AcDbEntity
  8
AM_6
100
AcDbText
 10
7.0
 20
0.0312500000000004
 30
0.0
 40
0.5
  1
2-7/16C
100
AcDbAttributeDefinition
  3

  2
LINA
 70
     8
280
     0
  0
ATTDEF
  5
8B
330
82
100
AcDbEntity
  8
AM_6
100
AcDbText
 10
7.0
 20
-0.4687499999999996
 30
0.0
 40
0.5
  1
2-7/16
100
AcDbAttributeDefinition
  3

  2
BORE
 70
     8
280
     0
  0
ATTDEF
  5
8C
330
82
100
AcDbEntity
  8
AM_6
100
AcDbText
 10
7.0
 20
-0.9687499999999996
 30
0.0
 40
0.5
  1
4.06250
100
AcDbAttributeDefinition
  3

  2
L
 70
     8
280
     0
  0
ATTDEF
  5
8D
330
82
100
AcDbEntity
  8
AM_6
100
AcDbText
 10
7.0
 20
-1.46875
 30
0.0
 40
0.5
  1
4.00
100
AcDbAttributeDefinition
  3

  2
A
 70
     8
280
     0
  0
ATTDEF
  5
8E
330
82
100
AcDbEntity
  8
AM_6
100
AcDbText
 10
7.0
 20
-1.96875
 30
0.0
 40
0.5
  1
1.70
100
AcDbAttributeDefinition
  3

  2
B
 70
     8
280
     0
  0
ATTDEF
  5
8F
330
82
100
AcDbEntity
  8
AM_6
100
AcDbText
 10
7.0
 20
-2.46875
 30
0.0
 40
0.5
  1
2.94
100
AcDbAttributeDefinition
  3

  2
C
 70
     8
280
     0
  0
ATTDEF
  5
90
330
82
100
AcDbEntity
  8
AM_6
100
AcDbText
 10
7.0
 20
-2.96875
 30
0.0
 40
0.5
  1
4.12
100
AcDbAttributeDefinition
  3

  2
D
 70
     8
280
     0
  0
ATTDEF
  5
91
330
82
100
AcDbEntity
  8
AM_6
100
AcDbText
 10
7.0
 20
-3.46875
 30
0.0
 40
0.5
  1
0.41
100
AcDbAttributeDefinition
  3

  2
E
 70
     8
280
     0
  0
ATTDEF
  5
92
330
82
100
AcDbEntity
  8
AM_6
100
AcDbText
 10
7.0
 20
-3.96875
 30
0.0
 40
0.5
  1
0.31
100
AcDbAttributeDefinition
  3

  2
F
 70
     8
280
     0
  0
ATTDEF
  5
93
330
82
100
AcDbEntity
  8
AM_6
100
AcDbText
 10
7.0
 20
-4.46875
 30
0.0
 40
0.5
  1
3/8-16
100
AcDbAttributeDefinition
  3

  2
CS
 70
     8
280
     0
  0
ATTDEF
  5
94
330
82
100
AcDbEntity
  8
AM_6
100
AcDbText
 10
7.0
 20
-4.96875
 30
0.0
 40
0.5
  1
0.3750
100
AcDbAttributeDefinition
  3

  2
NDM
 70
     8
280
     0
  0
ATTDEF
  5
95
330
82
100
AcDbEntity
  8
AM_6
100
AcDbText
 10
7.0
 20
-5.46875
 30
0.0
 40
0.5
  1
0.3070
100
AcDbAttributeDefinition
  3

  2
KDM
 70
     8
280
     0
  0
ATTDEF
  5
96
330
82
100
AcDbEntity
  8
AM_6
100
AcDbText
 10
7.0
 20
-5.96875
 30
0.0
 40
0.5
  1
baldor
100
AcDbAttributeDefinition
  3

  2
COMPANY
 70
     8
280
     0
  0
LINE
  5
99
330
82
100
AcDbEntity
  8
AM_9
100
AcDbLine
 10
1.53635
 20
1.47885
 30
0.0
 11
1.527774265052045
 21
1.470274265052045
 31
0.0
  0
LINE
  5
9A
330
82
100
AcDbEntity
  8
AM_9
100
AcDbLine
 10
1.852312660147871
 20
1.470187339852129
 30
0.0
 11
1.84365
 21
1.47885
 31
0.0
  0
LINE
  5
9B
330
82
100
AcDbEntity
  8
AM_9
100
AcDbLine
 10
1.84365
 20
1.9974
 30
0.0
 11
1.87716468475287
 21
2.030914684752871
 31
0.0
  0
LINE
  5
9C
330
82
100
AcDbEntity
  8
AM_9
100
AcDbLine
 10
1.502611720363186
 20
2.031138279636813
 30
0.0
 11
1.53635
 21
1.9974
 31
0.0
  0
LINE
  5
9D
330
82
100
AcDbEntity
  8
AM_9
100
AcDbLine
 10
1.53635
 20
1.9974
 30
0.0
 11
1.84365
 21
1.9974
 31
0.0
  0
LINE
  5
9E
330
82
100
AcDbEntity
  8
AM_9
100
AcDbLine
 10
1.53635
 20
1.47885
 30
0.0
 11
1.84365
 21
1.47885
 31
0.0
  0
LINE
  5
9F
330
82
100
AcDbEntity
  8
AM_9
100
AcDbLine
 10
1.84365
 20
1.47885
 30
0.0
 11
1.84365
 21
1.9974
 31
0.0
  0
LINE
  5
A0
330
82
100
AcDbEntity
  8
AM_9
100
AcDbLine
 10
1.53635
 20
1.9974
 30
0.0
 11
1.53635
 21
1.47885
 31
0.0
  0
ELLIPSE
  5
A1
330
82
100
AcDbEntity
  8
AM_9
100
AcDbEllipse
 10
1.689999999999998
 20
0.6249890163752321
 30
0.0
 11
0.1536500000000018
 21
0.0
 31
0.0
210
0.0
220
0.0
230
1.0
 40
0.9063077870366502
 41
2.235879076071455
 42
7.188898884697909
  0
LINE
  5
A2
330
82
100
AcDbEntity
  8
AM_9
100
AcDbLine
 10
1.84365
 20
0.6249890163752332
 30
0.0
 11
1.84365
 21
0.844137716000873
 31
0.0
  0
LINE
  5
A3
330
82
100
AcDbEntity
  8
AM_9
100
AcDbLine
 10
1.53635
 20
0.844137716000873
 30
0.0
 11
1.53635
 21
0.6249890163752332
 31
0.0
  0
LWPOLYLINE
  5
A4
330
82
100
AcDbEntity
  8
AM_9
100
AcDbPolyline
 90
       39
 70
     0
 43
0.0
 10
1.573639819734366
 20
0.5100422893824197
 10
1.591502292455359
 20
0.4941635447891021
 10
1.612161958540254
 20
0.4806332120418464
 10
1.636923525823133
 20
0.4695291633212381
 10
1.664240172729329
 20
0.4625453939470355
 10
1.69000968719252
 20
0.4604490717065903
 10
1.716565268728922
 20
0.4626793837489948
 10
1.740897011353681
 20
0.4687806193540639
 10
1.764483942158416
 20
0.4788306083035439
 10
1.785991999372009
 20
0.4922777406085643
 10
1.805467316343778
 20
0.5091324824233571
 10
1.822375933542748
 20
0.5291726887586345
 10
1.836033645202895
 20
0.5519024876337304
 10
1.84592226568134
 20
0.5769228345318208
 10
1.851462694819541
 20
0.6035777647645048
 10
1.852204694987162
 20
0.6306434990242977
 10
1.847890339424635
 20
0.6579452036985323
 10
1.838753413306858
 20
0.6834374594141044
 10
1.824464619652971
 20
0.7076433373178744
 10
1.806523936179177
 20
0.7281248571984243
 10
1.784040770599332
 20
0.7459317210207802
 10
1.760222462372669
 20
0.7588299019781065
 10
1.733231656816434
 20
0.7680896846634431
 10
1.707407858850861
 20
0.7725917136927855
 10
1.680221677539698
 20
0.7731773265779553
 10
1.655251116569449
 20
0.7700092455852304
 10
1.630561129721632
 20
0.7631380083318724
 10
1.607971313926027
 20
0.7530707346136766
 10
1.587005878699983
 20
0.739627200513363
 10
1.568346267382886
 20
0.72299489199959
 10
1.552543745800934
 20
0.7033729983806893
 10
1.540081910056273
 20
0.6808818157000548
 10
1.531636785972304
 20
0.6560490625118361
 10
1.527737211153408
 20
0.6296710416026866
 10
1.528722583874341
 20
0.6020647661951047
 10
1.534653510283508
 20
0.5750498435735968
 10
1.545778789329426
 20
0.5483537164655942
 10
1.558096508212432
 20
0.5285167017657623
 10
1.573639819734366
 20
0.5100422893824197
  0
LINE
  5
A5
330
82
100
AcDbEntity
  8
AM_9
100
AcDbLine
 10
2.0
 20
1.47
 30
0.0
 11
1.852069790335837
 21
1.47
 31
0.0
  0
LINE
  5
A6
330
82
100
AcDbEntity
  8
AM_9
100
AcDbLine
 10
1.528127705353409
 20
1.47
 30
0.0
 11
1.38
 21
1.47
 31
0.0
  0
LINE
  5
A7
330
82
100
AcDbEntity
  8
AM_9
100
AcDbLine
 10
1.38
 20
-1.47
 30
0.0
 11
2.0
 21
-1.47
 31
0.0
  0
LWPOLYLINE
  5
A8
330
82
100
AcDbEntity
  8
AM_9
100
AcDbPolyline
 90
       21
 70
     0
 43
0.0
 10
1.527500000000023
 20
1.469999999999997
 10
1.527997315861997
 20
1.469936001642588
 10
1.532679019343003
 20
1.469366285953305
 10
1.542402011676165
 20
1.468228957037321
 10
1.556874026234257
 20
1.46667078683383
 10
1.575461621957355
 20
1.464899635045273
 10
1.597869816854495
 20
1.463111594796918
 10
1.622275405848488
 20
1.461605387236967
 10
1.648921743985311
 20
1.460477948057676
 10
1.675172826139212
 20
1.459912414373765
 10
1.701877379624312
 20
1.459877589195312
 10
1.727120896206091
 20
1.46036099966823
 10
1.75133601502514
 20
1.461282550240359
 10
1.774074159602232
 20
1.462564344678365
 10
1.794591196266356
 20
1.464058302407597
 10
1.813255087034343
 20
1.465697401023953
 10
1.828599152053088
 20
1.467242165832214
 10
1.840878021810585
 20
1.468604394836947
 10
1.848854740441031
 20
1.469551884108942
 10
1.852370073700271
 20
1.469981627734537
 10
1.852499999999732
 20
1.469999999999967
  0
LINE
  5
AA
330
82
100
AcDbEntity
  8
AM_5
100
AcDbLine
 10
1.8775
 20
2.03125
 30
0.0
 11
1.8775
 21
1.47
 31
0.0
  0
LINE
  5
AB
330
82
100
AcDbEntity
  8
AM_5
100
AcDbLine
 10
1.5025
 20
2.03125
 30
0.0
 11
1.5025
 21
1.47
 31
0.0
  0
ELLIPSE
  5
AD
330
82
100
AcDbEntity
  8
AM_4
100
AcDbEllipse
 10
1.69
 20
0.6249890163752323
 30
0.0
 11
0.1536500000000007
 21
0.0
 31
0.0
210
0.0
220
0.0
230
1.0
 40
0.9063077870366509
 41
0.9057135775183287
 42
2.235879076071465
  0
LINE
  5
AE
330
82
100
AcDbEntity
  8
AM_4
100
AcDbLine
 10
2.0
 20
-1.927916666666667
 30
0.0
 11
2.0
 21
1.927916666666667
 31
0.0
  0
ARC
  5
AF
330
82
100
AcDbEntity
  8
AM_4
100
AcDbCircle
 10
1.896666666666667
 20
1.927916666666667
 30
0.0
 40
0.1033333333333328
100
AcDbArc
 50
0.0
 51
90.0
  0
ARC
  5
B0
330
82
100
AcDbEntity
  8
AM_4
100
AcDbCircle
 10
1.896666666666667
 20
-1.927916666666667
 30
0.0
 40
0.1033333333333333
100
AcDbArc
 50
270.0
 51
0.0
  0
LINE
  5
B1
330
82
100
AcDbEntity
  8
AM_4
100
AcDbLine
 10
1.896666666666667
 20
-2.03125
 30
0.0
 11
1.896666666666667
 21
2.03125
 31
0.0
  0
LWPOLYLINE
  5
B2
330
82
100
AcDbEntity
  8
AM_4
100
AcDbPolyline
 90
       39
 70
     0
 43
0.0
 10
1.560252264142809
 20
0.7392673396850792
 10
1.541827149903503
 20
0.7575200228888171
 10
1.526198283976797
 20
0.7785117591012474
 10
1.513337203180141
 20
0.8035858255498104
 10
1.505169120628459
 20
0.8310109988510237
 10
1.502505059238463
 20
0.8572487394973148
 10
1.50486929297898
 20
0.8841260699025816
 10
1.511866795369222
 20
0.9088693727194826
 10
1.523636036420325
 20
0.9327385840215356
 10
1.539425463588468
 20
0.9541694112127276
 10
1.559434434832376
 20
0.9734585230414027
 10
1.582978565855643
 20
0.9897600655154969
 10
1.609915778195619
 20
1.002812820616006
 10
1.639325310202632
 20
1.01199088913944
 10
1.670911222254348
 20
1.016997804021045
 10
1.702998300078744
 20
1.017433801220836
 10
1.73562690986095
 20
1.01311017968238
 10
1.766276361523808
 20
1.004273753907256
 10
1.795590139331721
 20
0.9905866482702798
 10
1.820618678455015
 20
0.9734150873423988
 10
1.842509445242505
 20
0.9519203132114535
 10
1.858673086421113
 20
0.9288258904597707
 10
1.870374684485278
 20
0.902593484105057
 10
1.876298446041334
 20
0.876778560773773
 10
1.877212569883759
 20
0.849433562154303
 10
1.873210707418949
 20
0.8237115210271406
 10
1.864314332177369
 20
0.7980862647491265
 10
1.851243718571203
 20
0.7745730002374499
 10
1.833750826504633
 20
0.7526343005464362
 10
1.812538461047463
 20
0.733397606013286
 10
1.787631956711834
 20
0.7171015999804954
 10
1.759814879758542
 20
0.7045419719249258
 10
1.729384049422908
 20
0.6961412539511908
 10
1.697734896910505
 20
0.6925009516856468
 10
1.664982529195975
 20
0.6938738384454155
 10
1.633402547964574
 20
0.7002657023501516
 10
1.602548637863366
 20
0.7118986767696196
 10
1.58059339081973
 20
0.7241145193065055
 10
1.560252264102548
 20
0.7392673395446644
  0
LINE
  5
B3
330
82
100
AcDbEntity
  8
AM_4
100
AcDbLine
 10
1.38
 20
-2.03125
 30
0.0
 11
1.38
 21
2.03125
 31
0.0
  0
LINE
  5
B4
330
82
100
AcDbEntity
  8
AM_4
100
AcDbLine
 10
1.896666666666667
 20
2.03125
 30
0.0
 11
1.876882029693622
 21
2.03125
 31
0.0
  0
LINE
  5
B5
330
82
100
AcDbEntity
  8
AM_4
100
AcDbLine
 10
1.5027053550214
 20
2.03125
 30
0.0
 11
1.38
 21
2.03125
 31
0.0
  0
LINE
  5
B6
330
82
100
AcDbEntity
  8
AM_4
100
AcDbLine
 10
1.38
 20
-2.03125
 30
0.0
 11
1.896666666666667
 21
-2.03125
 31
0.0
  0
LWPOLYLINE
  5
B7
330
82
100
AcDbEntity
  8
AM_4
100
AcDbPolyline
 90
       21
 70
     0
 43
0.0
 10
1.877499999999992
 20
2.03125
 10
1.876693637668492
 20
2.031180708010907
 10
1.87148251129042
 20
2.030749526976402
 10
1.8616238494029
 20
2.029963874386495
 10
1.847489732026093
 20
2.028914418210492
 10
1.829004317200677
 20
2.027676614664936
 10
1.807066043113323
 20
2.026405214548296
 10
1.781172056482904
 20
2.025186008897015
 10
1.752933056551788
 20
2.024197570951206
 10
1.721910891950673
 20
2.023533119176956
 10
1.690026945247891
 20
2.023298971950866
 10
1.657456111866257
 20
2.023542644512498
 10
1.625802672949687
 20
2.024234022290471
 10
1.595977436697594
 20
2.025306072832807
 10
1.568883334006796
 20
2.026623563708347
 10
1.545890720485193
 20
2.028003333555437
 10
1.527119115011543
 20
2.029304391416135
 10
1.513775085782117
 20
2.030324498446657
 10
1.505440523298934
 20
2.031003426218121
 10
1.502536631114294
 20
2.031245515218369
 10
1.502500000000036
 20
2.031249999999997
  0
ELLIPSE
  5
B8
330
82
100
AcDbEntity
  8
AM_4
100
AcDbEllipse
 10
1.69
 20
0.844137716000873
 30
0.0
 11
0.1536500000000001
 21
0.0
 31
0.0
210
0.0
220
0.0
230
1.0
 40
0.9063077870366498
 41
0.0
 42
6.283185307179586
  0
ENDBLK
  5
85
330
82
100
AcDbEntity
  8
0
100
AcDbBlockEnd
  0
BLOCK
  5
BB
330
B9
100
AcDbEntity
  8
0
100
AcDbBlockBegin
  2
3_2_7_16C_2_0_in_023556_2
 70
     2
 10
0.0
 20
0.0
 30
0.0
  3
3_2_7_16C_2_0_in_023556_2
  1

  0
ATTDEF
  5
BD
330
B9
100
AcDbEntity
  8
AM_6
100
AcDbText
 10
3.62
 20
2.03125
 30
0.0
 40
0.5
  1
E-Type Collar -Inch
100
AcDbAttributeDefinition
  3

  2
NN
 70
     8
280
     0
  0
ATTDEF
  5
BE
330
B9
100
AcDbEntity
  8
AM_6
100
AcDbText
 10
3.62
 20
1.53125
 30
0.0
 40
0.5
  1
E-Type Bearings
100
AcDbAttributeDefinition
  3

  2
NT
 70
     8
280
     0
  0
ATTDEF
  5
BF
330
B9
100
AcDbEntity
  8
AM_6
100
AcDbText
 10
3.62
 20
1.03125
 30
0.0
 40
0.5
  1
2-7/16C
100
AcDbAttributeDefinition
  3

  2
NB
 70
     8
280
     0
  0
ATTDEF
  5
C0
330
B9
100
AcDbEntity
  8
AM_6
100
AcDbText
 10
3.62
 20
0.53125
 30
0.0
 40
0.5
  1
$BORE.C
100
AcDbAttributeDefinition
  3

  2
NBSYN
 70
     8
280
     0
  0
ATTDEF
  5
C1
330
B9
100
AcDbEntity
  8
AM_6
100
AcDbText
 10
3.62
 20
0.03125
 30
0.0
 40
0.5
  1
2-7/16C
100
AcDbAttributeDefinition
  3

  2
LINA
 70
     8
280
     0
  0
ATTDEF
  5
C2
330
B9
100
AcDbEntity
  8
AM_6
100
AcDbText
 10
3.62
 20
-0.46875
 30
0.0
 40
0.5
  1
2-7/16
100
AcDbAttributeDefinition
  3

  2
BORE
 70
     8
280
     0
  0
ATTDEF
  5
C3
330
B9
100
AcDbEntity
  8
AM_6
100
AcDbText
 10
3.62
 20
-0.96875
 30
0.0
 40
0.5
  1
4.06250
100
AcDbAttributeDefinition
  3

  2
L
 70
     8
280
     0
  0
ATTDEF
  5
C4
330
B9
100
AcDbEntity
  8
AM_6
100
AcDbText
 10
3.62
 20
-1.46875
 30
0.0
 40
0.5
  1
4.00
100
AcDbAttributeDefinition
  3

  2
A
 70
     8
280
     0
  0
ATTDEF
  5
C5
330
B9
100
AcDbEntity
  8
AM_6
100
AcDbText
 10
3.62
 20
-1.96875
 30
0.0
 40
0.5
  1
1.70
100
AcDbAttributeDefinition
  3

  2
B
 70
     8
280
     0
  0
ATTDEF
  5
C6
330
B9
100
AcDbEntity
  8
AM_6
100
AcDbText
 10
3.62
 20
-2.46875
 30
0.0
 40
0.5
  1
2.94
100
AcDbAttributeDefinition
  3

  2
C
 70
     8
280
     0
  0
ATTDEF
  5
C7
330
B9
100
AcDbEntity
  8
AM_6
100
AcDbText
 10
3.62
 20
-2.96875
 30
0.0
 40
0.5
  1
4.12
100
AcDbAttributeDefinition
  3

  2
D
 70
     8
280
     0
  0
ATTDEF
  5
C8
330
B9
100
AcDbEntity
  8
AM_6
100
AcDbText
 10
3.62
 20
-3.46875
 30
0.0
 40
0.5
  1
0.41
100
AcDbAttributeDefinition
  3

  2
E
 70
     8
280
     0
  0
ATTDEF
  5
C9
330
B9
100
AcDbEntity
  8
AM_6
100
AcDbText
 10
3.62
 20
-3.96875
 30
0.0
 40
0.5
  1
0.31
100
AcDbAttributeDefinition
  3

  2
F
 70
     8
280
     0
  0
ATTDEF
  5
CA
330
B9
100
AcDbEntity
  8
AM_6
100
AcDbText
 10
3.62
 20
-4.46875
 30
0.0
 40
0.5
  1
3/8-16
100
AcDbAttributeDefinition
  3

  2
CS
 70
     8
280
     0
  0
ATTDEF
  5
CB
330
B9
100
AcDbEntity
  8
AM_6
100
AcDbText
 10
3.62
 20
-4.96875
 30
0.0
 40
0.5
  1
0.3750
100
AcDbAttributeDefinition
  3

  2
NDM
 70
     8
280
     0
  0
ATTDEF
  5
CC
330
B9
100
AcDbEntity
  8
AM_6
100
AcDbText
 10
3.62
 20
-5.46875
 30
0.0
 40
0.5
  1
0.3070
100
AcDbAttributeDefinition
  3

  2
KDM
 70
     8
280
     0
  0
ATTDEF
  5
CD
330
B9
100
AcDbEntity
  8
AM_6
100
AcDbText
 10
3.62
 20
-5.96875
 30
0.0
 40
0.5
  1
baldor
100
AcDbAttributeDefinition
  3

  2
COMPANY
 70
     8
280
     0
  0
LINE
  5
CE
330
B9
100
AcDbEntity
  8
AM_9
100
AcDbLine
 10
-1.53635
 20
1.47885
 30
0.0
 11
-1.53635
 21
1.9974
 31
0.0
  0
LINE
  5
CF
330
B9
100
AcDbEntity
  8
AM_9
100
AcDbLine
 10
-1.84365
 20
1.9974
 30
0.0
 11
-1.84365
 21
1.47885
 31
0.0
  0
LINE
  5
D0
330
B9
100
AcDbEntity
  8
AM_9
100
AcDbLine
 10
-1.84365
 20
1.47885
 30
0.0
 11
-1.53635
 21
1.47885
 31
0.0
  0
LINE
  5
D1
330
B9
100
AcDbEntity
  8
AM_9
100
AcDbLine
 10
-1.84365
 20
1.47885
 30
0.0
 11
-1.852257593413386
 21
1.470242406586614
 31
0.0
  0
LINE
  5
D2
330
B9
100
AcDbEntity
  8
AM_9
100
AcDbLine
 10
-1.527735870667618
 20
1.470235870667618
 30
0.0
 11
-1.53635
 21
1.47885
 31
0.0
  0
LINE
  5
D3
330
B9
100
AcDbEntity
  8
AM_9
100
AcDbLine
 10
-1.84365
 20
1.9974
 30
0.0
 11
-1.53635
 21
1.9974
 31
0.0
  0
LINE
  5
D4
330
B9
100
AcDbEntity
  8
AM_9
100
AcDbLine
 10
-1.53635
 20
1.9974
 30
0.0
 11
-1.5025
 21
2.03125
 31
0.0
  0
LINE
  5
D5
330
B9
100
AcDbEntity
  8
AM_9
100
AcDbLine
 10
-1.8775
 20
2.03125
 30
0.0
 11
-1.84365
 21
1.9974
 31
0.0
  0
LWPOLYLINE
  5
D6
330
B9
100
AcDbEntity
  8
AM_9
100
AcDbPolyline
 90
       38
 70
     0
 43
0.0
 10
-1.569289438370362
 20
0.5146837495901996
 10
-1.554705728926732
 20
0.5333956653873269
 10
-1.543077262917381
 20
0.5537257927356821
 10
-1.533395802571749
 20
0.5793069639454874
 10
-1.528295237646095
 20
0.6057766466606561
 10
-1.527997315861997
 20
0.6332314413594383
 10
-1.532679019343003
 20
0.6600965568428381
 10
-1.542402011676165
 20
0.6858111942120637
 10
-1.556874026234256
 20
0.7094555039507517
 10
-1.575461621957355
 20
0.7299599228603243
 10
-1.597869816854495
 20
0.7471624406600673
 10
-1.622275405848488
 20
0.7598840809393814
 10
-1.648921743985311
 20
0.7686191919518975
 10
-1.675172826139212
 20
0.7728099352040113
 10
-1.701877379624312
 20
0.7730491941003077
 10
-1.727120896206091
 20
0.7695031008768268
 10
-1.751336015025139
 20
0.7624416362604652
 10
-1.774074159602232
 20
0.7519380922144729
 10
-1.794591196266356
 20
0.7384022811345642
 10
-1.813255087034343
 20
0.7212715702002607
 10
-1.828599152053088
 20
0.7016531834582257
 10
-1.840878021810585
 20
0.6786357754527865
 10
-1.848854740441031
 20
0.653953065992132
 10
-1.852370073700271
 20
0.6271002309954915
 10
-1.850976259825302
 20
0.599833441484698
 10
-1.844498321371628
 20
0.5724815177461744
 10
-1.833120512588065
 20
0.5462978730967152
 10
-1.817188425922101
 20
0.5223442253456688
 10
-1.797053118707599
 20
0.5011961950238533
 10
-1.774118876585749
 20
0.4843112398157978
 10
-1.748372362384886
 20
0.4714948147030072
 10
-1.722323361674165
 20
0.4637829448334963
 10
-1.695253692110982
 20
0.4605357747473235
 10
-1.669475178627994
 20
0.4617948268101638
 10
-1.644282242319745
 20
0.4671394148390464
 10
-1.620582022152445
 20
0.476309313538853
 10
-1.598729825610207
 20
0.4889197175227187
 10
-1.569289438370362
 20
0.5146837495901997
  0
LINE
  5
D7
330
B9
100
AcDbEntity
  8
AM_9
100
AcDbLine
 10
-2.0
 20
-1.47
 30
0.0
 11
-1.38
 21
-1.47
 31
0.0
  0
LINE
  5
D8
330
B9
100
AcDbEntity
  8
AM_9
100
AcDbLine
 10
-1.38
 20
1.47
 30
0.0
 11
-1.528038830069028
 21
1.47
 31
0.0
  0
LINE
  5
D9
330
B9
100
AcDbEntity
  8
AM_9
100
AcDbLine
 10
-1.851946352836782
 20
1.47
 30
0.0
 11
-2.0
 21
1.47
 31
0.0
  0
LWPOLYLINE
  5
DA
330
B9
100
AcDbEntity
  8
AM_9
100
AcDbPolyline
 90
       21
 70
     0
 43
0.0
 10
-1.852499999999877
 20
1.469999999999984
 10
-1.852204694987161
 20
1.469963330931792
 10
-1.847890339424635
 20
1.469434979268364
 10
-1.838753413306858
 20
1.468361743863902
 10
-1.824464619652971
 20
1.466808455843292
 10
-1.806523936179177
 20
1.465075748064412
 10
-1.784040770599332
 20
1.463249050051434
 10
-1.760222462372669
 20
1.461735503021439
 10
-1.733231656816433
 20
1.460548397930296
 10
-1.70740785885086
 20
1.459940495715826
 10
-1.680221677539698
 20
1.459859932564025
 10
-1.655251116569449
 20
1.460291675631193
 10
-1.630561129721632
 20
1.461193739523056
 10
-1.607971313926027
 20
1.462431313695708
 10
-1.587005878699983
 20
1.463930347093519
 10
-1.568346267382886
 20
1.465546352084191
 10
-1.552543745800934
 20
1.467120992139931
 10
-1.540081910056273
 20
1.468495087636685
 10
-1.531636785972304
 20
1.469492214862596
 10
-1.527737211153408
 20
1.469970539544335
 10
-1.527500000000197
 20
1.469999999999975
  0
LINE
  5
DB
330
B9
100
AcDbEntity
  8
AM_9
100
AcDbLine
 10
-1.53635
 20
0.6249890163752333
 30
0.0
 11
-1.53635
 21
0.8441377160008731
 31
0.0
  0
LINE
  5
DC
330
B9
100
AcDbEntity
  8
AM_9
100
AcDbLine
 10
-1.84365
 20
0.8441377160008731
 30
0.0
 11
-1.84365
 21
0.6249890163752333
 31
0.0
  0
ELLIPSE
  5
DD
330
B9
100
AcDbEntity
  8
AM_9
100
AcDbEllipse
 10
-1.690000000000001
 20
0.6249890163752329
 30
0.0
 11
0.153650000000001
 21
0.0
 31
0.0
210
0.0
220
0.0
230
1.0
 40
0.9063077870366504
 41
2.235879076071477
 42
7.188898884697894
  0
LINE
  5
DE
330
B9
100
AcDbEntity
  8
AM_5
100
AcDbLine
 10
-1.8775
 20
2.03125
 30
0.0
 11
-1.8775
 21
1.47
 31
0.0
  0
LINE
  5
DF
330
B9
100
AcDbEntity
  8
AM_5
100
AcDbLine
 10
-1.5025
 20
2.03125
 30
0.0
 11
-1.5025
 21
1.47
 31
0.0
  0
ELLIPSE
  5
E0
330
B9
100
AcDbEntity
  8
AM_4
100
AcDbEllipse
 10
-1.69
 20
0.624989016375232
 30
0.0
 11
0.1536500000000012
 21
0.0
 31
0.0
210
0.0
220
0.0
230
1.0
 40
0.9063077870366512
 41
1.570796326794897
 42
2.23587907607148
  0
ELLIPSE
  5
E1
330
B9
100
AcDbEntity
  8
AM_4
100
AcDbEllipse
 10
-1.69
 20
0.6249890163752334
 30
0.0
 11
0.1536499999999996
 21
0.0
 31
0.0
210
0.0
220
0.0
230
1.0
 40
0.9063077870366509
 41
0.9057135775183092
 42
1.570796326794897
  0
LWPOLYLINE
  5
E2
330
B9
100
AcDbEntity
  8
AM_4
100
AcDbPolyline
 90
       38
 70
     0
 43
0.0
 10
-1.547070705293375
 20
0.7517660994475587
 10
-1.566672137683651
 20
0.7340240845006035
 10
-1.588847159619536
 20
0.7190808457793569
 10
-1.616740961797478
 20
0.7058410427565713
 10
-1.646555141894785
 20
0.6969729168029961
 10
-1.678513000457022
 20
0.6926921268128664
 10
-1.710785716259739
 20
0.6934025263490667
 10
-1.742954677460487
 20
0.6992790809403207
 10
-1.77361408782087
 20
0.7101265778736733
 10
-1.801660044583945
 20
0.7256139653596464
 10
-1.826443637532696
 20
0.7453002672348101
 10
-1.846563918051434
 20
0.7679761972836505
 10
-1.862120635656467
 20
0.7934177361282476
 10
-1.872116596303496
 20
0.819649671075944
 10
-1.877028004913196
 20
0.8468968648124913
 10
-1.876693637668492
 20
0.8732938233921331
 10
-1.87148251129042
 20
0.8990953747037947
 10
-1.861623849402899
 20
0.9233504462743256
 10
-1.847489732026093
 20
0.945712451683705
 10
-1.829004317200677
 20
0.9660716685324106
 10
-1.807066043113323
 20
0.9834680517021913
 10
-1.781172056482904
 20
0.9980309116205284
 10
-1.752933056551788
 20
1.008735439579442
 10
-1.721910891950673
 20
1.015515635531445
 10
-1.690026945247891
 20
1.017809724108686
 10
-1.657456111866257
 20
1.0154222800121
 10
-1.625802672949687
 20
1.008354914458461
 10
-1.595977436697594
 20
0.9966704912144219
 10
-1.568883334006796
 20
0.9806671568216612
 10
-1.545890720485193
 20
0.9610956736041052
 10
-1.527119115011543
 20
0.9381767645037178
 10
-1.513775085782116
 20
0.913533584712539
 10
-1.505440523298934
 20
0.8870226721215105
 10
-1.502536631114294
 20
0.8605809500955569
 10
-1.504634957275816
 20
0.8339004735777731
 10
-1.511545326578185
 20
0.8082818371173552
 10
-1.522949818905222
 20
0.7839007875900547
 10
-1.547070705266322
 20
0.7517660994071064
  0
LINE
  5
E3
330
B9
100
AcDbEntity
  8
AM_4
100
AcDbLine
 10
-1.896666666666667
 20
-2.03125
 30
0.0
 11
-1.38
 21
-2.03125
 31
0.0
  0
LINE
  5
E4
330
B9
100
AcDbEntity
  8
AM_4
100
AcDbLine
 10
-1.38
 20
2.03125
 30
0.0
 11
-1.5025
 21
2.03125
 31
0.0
  0
LINE
  5
E5
330
B9
100
AcDbEntity
  8
AM_4
100
AcDbLine
 10
-1.8775
 20
2.03125
 30
0.0
 11
-1.896666666666667
 21
2.03125
 31
0.0
  0
LWPOLYLINE
  5
E6
330
B9
100
AcDbEntity
  8
AM_4
100
AcDbPolyline
 90
       20
 70
     0
 43
0.0
 10
-1.502500000000011
 20
2.031249999999999
 10
-1.50486929297898
 20
2.03105102523948
 10
-1.511866795369222
 20
2.030477942861427
 10
-1.523636036420325
 20
2.029563245768623
 10
-1.539425463588468
 20
2.028433227628702
 10
-1.559434434832376
 20
2.027161591354826
 10
-1.582978565855643
 20
2.025895633551818
 10
-1.609915778195619
 20
2.024753736269771
 10
-1.639325310202632
 20
2.023881682247449
 10
-1.670911222254348
 20
2.023381675578007
 10
-1.702998300078744
 20
2.023337320520983
 10
-1.73562690986095
 20
2.023771398522443
 10
-1.766276361523808
 20
2.024618763205512
 10
-1.795590139331721
 20
2.025826721945777
 10
-1.820618678455015
 20
2.027164729078158
 10
-1.842509445242505
 20
2.028565711567188
 10
-1.858673086421113
 20
2.029737839284003
 10
-1.870374684485277
 20
2.030659144469329
 10
-1.876298446041334
 20
2.031148780959285
 10
-1.877499999999953
 20
2.031249999999996
  0
LINE
  5
E7
330
B9
100
AcDbEntity
  8
AM_4
100
AcDbLine
 10
-1.38
 20
2.03125
 30
0.0
 11
-1.38
 21
-2.03125
 31
0.0
  0
LINE
  5
E8
330
B9
100
AcDbEntity
  8
AM_4
100
AcDbLine
 10
-2.0
 20
1.927916666666667
 30
0.0
 11
-2.0
 21
-1.927916666666667
 31
0.0
  0
ARC
  5
E9
330
B9
100
AcDbEntity
  8
AM_4
100
AcDbCircle
 10
-1.896666666666666
 20
-1.927916666666666
 30
0.0
 40
0.1033333333333342
100
AcDbArc
 50
180.0
 51
270.0
  0
ARC
  5
EA
330
B9
100
AcDbEntity
  8
AM_4
100
AcDbCircle
 10
-1.896666666666666
 20
1.927916666666666
 30
0.0
 40
0.1033333333333342
100
AcDbArc
 50
90.0
 51
180.0
  0
LINE
  5
EB
330
B9
100
AcDbEntity
  8
AM_4
100
AcDbLine
 10
-1.896666666666667
 20
2.03125
 30
0.0
 11
-1.896666666666667
 21
-2.03125
 31
0.0
  0
ELLIPSE
  5
EC
330
B9
100
AcDbEntity
  8
AM_4
100
AcDbEllipse
 10
-1.69
 20
0.8441377160008725
 30
0.0
 11
0.1536500000000005
 21
0.0
 31
0.0
210
0.0
220
0.0
230
1.0
 40
0.9063077870366515
 41
0.0
 42
6.283185307179586
  0
ENDBLK
  5
BC
330
B9
100
AcDbEntity
  8
0
100
AcDbBlockEnd
  0
BLOCK
  5
EF
330
ED
100
AcDbEntity
  8
0
100
AcDbBlockBegin
  2
4_405015E_Inch_0_in_023556_2
 70
     2
 10
0.0
 20
0.0
 30
0.0
  3
4_405015E_Inch_0_in_023556_2
  1

  0
ATTDEF
  5
F1
330
ED
100
AcDbEntity
  8
AM_6
100
AcDbText
 10
5.252590742770462
 20
3.319999999999999
 30
0.0
 40
0.5
  1
405015E -Inch
100
AcDbAttributeDefinition
  3

  2
NN
 70
     8
280
     0
  0
ATTDEF
  5
F2
330
ED
100
AcDbEntity
  8
AM_6
100
AcDbText
 10
5.252590742770462
 20
2.819999999999999
 30
0.0
 40
0.5
  1
Grease Fitting
100
AcDbAttributeDefinition
  3

  2
NT
 70
     8
280
     0
  0
ATTDEF
  5
F3
330
ED
100
AcDbEntity
  8
AM_6
100
AcDbText
 10
5.252590742770462
 20
2.319999999999999
 30
0.0
 40
0.5
  1
405015E-Inch
100
AcDbAttributeDefinition
  3

  2
NB
 70
     8
280
     0
  0
ATTDEF
  5
F4
330
ED
100
AcDbEntity
  8
AM_6
100
AcDbText
 10
5.252590742770462
 20
1.819999999999999
 30
0.0
 40
0.5
  1
$MN.-Inch
100
AcDbAttributeDefinition
  3

  2
NBSYN
 70
     8
280
     0
  0
ATTDEF
  5
F5
330
ED
100
AcDbEntity
  8
AM_6
100
AcDbText
 10
5.252590742770462
 20
1.319999999999999
 30
0.0
 40
0.5
  1
405015E
100
AcDbAttributeDefinition
  3

  2
LINA
 70
     8
280
     0
  0
ATTDEF
  5
F6
330
ED
100
AcDbEntity
  8
AM_6
100
AcDbText
 10
5.252590742770462
 20
0.8199999999999994
 30
0.0
 40
0.5
  1
405015E
100
AcDbAttributeDefinition
  3

  2
MN
 70
     8
280
     0
  0
ATTDEF
  5
F7
330
ED
100
AcDbEntity
  8
AM_6
100
AcDbText
 10
5.252590742770462
 20
0.3199999999999994
 30
0.0
 40
0.5
  1
1/8 x 27PTF
100
AcDbAttributeDefinition
  3

  2
T
 70
     8
280
     0
  0
ATTDEF
  5
F8
330
ED
100
AcDbEntity
  8
AM_6
100
AcDbText
 10
5.252590742770462
 20
-0.1800000000000006
 30
0.0
 40
0.5
  1
baldor
100
AcDbAttributeDefinition
  3

  2
COMPANY
 70
     8
280
     0
  0
LINE
  5
F9
330
ED
100
AcDbEntity
  8
AM_9
100
AcDbLine
 10
-0.161902872472269
 20
2.68
 30
0.0
 11
0.161902872472269
 21
2.68
 31
0.0
  0
LINE
  5
FA
330
ED
100
AcDbEntity
  8
AM_9
100
AcDbLine
 10
0.161902872472269
 20
2.68
 30
0.0
 11
0.1986176267812154
 21
2.716714754308946
 31
0.0
  0
LINE
  5
FB
330
ED
100
AcDbEntity
  8
AM_9
100
AcDbLine
 10
-0.1986176267812154
 20
2.716714754308946
 30
0.0
 11
-0.161902872472269
 21
2.68
 31
0.0
  0
LINE
  5
FC
330
ED
100
AcDbEntity
  8
AM_9
100
AcDbLine
 10
-0.1986176267812154
 20
2.716714754308946
 30
0.0
 11
0.1986176267812154
 21
2.716714754308946
 31
0.0
  0
LINE
  5
FD
330
ED
100
AcDbEntity
  8
AM_9
100
AcDbLine
 10
0.1986176267812154
 20
2.716714754308946
 30
0.0
 11
0.2057518972230696
 21
2.945
 31
0.0
  0
LINE
  5
FE
330
ED
100
AcDbEntity
  8
AM_9
100
AcDbLine
 10
-0.2057518972230696
 20
2.945
 30
0.0
 11
-0.1986176267812154
 21
2.716714754308946
 31
0.0
  0
LINE
  5
FF
330
ED
100
AcDbEntity
  8
AM_5
100
AcDbLine
 10
0.1681491248523479
 20
2.879870087748463
 30
0.0
 11
0.161902872472269
 21
2.68
 31
0.0
  0
LINE
  5
100
330
ED
100
AcDbEntity
  8
AM_5
100
AcDbLine
 10
0.2057518972230696
 20
2.945
 30
0.0
 11
0.1681491248523479
 21
2.879870087748463
 31
0.0
  0
LINE
  5
101
330
ED
100
AcDbEntity
  8
AM_5
100
AcDbLine
 10
-0.2037164857515568
 20
2.879870087748463
 30
0.0
 11
0.2037164857515567
 21
2.879870087748463
 31
0.0
  0
LINE
  5
102
330
ED
100
AcDbEntity
  8
AM_5
100
AcDbLine
 10
-0.1681491248523479
 20
2.879870087748463
 30
0.0
 11
-0.161902872472269
 21
2.68
 31
0.0
  0
LINE
  5
103
330
ED
100
AcDbEntity
  8
AM_5
100
AcDbLine
 10
-0.2057518972230696
 20
2.945
 30
0.0
 11
-0.1681491248523479
 21
2.879870087748463
 31
0.0
  0
LINE
  5
104
330
ED
100
AcDbEntity
  8
AM_4
100
AcDbLine
 10
0.105
 20
3.15
 30
0.0
 11
0.105
 21
3.18
 31
0.0
  0
LINE
  5
105
330
ED
100
AcDbEntity
  8
AM_4
100
AcDbLine
 10
-0.105
 20
3.18
 30
0.0
 11
-0.105
 21
3.15
 31
0.0
  0
LINE
  5
106
330
ED
100
AcDbEntity
  8
AM_4
100
AcDbLine
 10
-0.21875
 20
3.045
 30
0.0
 11
0.21875
 21
3.045
 31
0.0
  0
LINE
  5
107
330
ED
100
AcDbEntity
  8
AM_4
100
AcDbLine
 10
0.2525907427704612
 20
3.035932400303385
 30
0.0
 11
0.21875
 21
3.045
 31
0.0
  0
LINE
  5
108
330
ED
100
AcDbEntity
  8
AM_4
100
AcDbLine
 10
-0.21875
 20
3.045
 30
0.0
 11
-0.2525907427704612
 21
3.035932400303385
 31
0.0
  0
LINE
  5
109
330
ED
100
AcDbEntity
  8
AM_4
100
AcDbLine
 10
0.21875
 20
2.945
 30
0.0
 11
0.2525907427704612
 21
2.954067599696614
 31
0.0
  0
LINE
  5
10A
330
ED
100
AcDbEntity
  8
AM_4
100
AcDbLine
 10
-0.2525907427704612
 20
2.954067599696614
 30
0.0
 11
-0.21875
 21
2.945
 31
0.0
  0
LINE
  5
10B
330
ED
100
AcDbEntity
  8
AM_4
100
AcDbLine
 10
-0.105
 20
3.15
 30
0.0
 11
0.105
 21
3.15
 31
0.0
  0
LINE
  5
10C
330
ED
100
AcDbEntity
  8
AM_4
100
AcDbLine
 10
-0.105
 20
3.15
 30
0.0
 11
-0.1188200907348975
 21
3.117753121618572
 31
0.0
  0
LINE
  5
10D
330
ED
100
AcDbEntity
  8
AM_4
100
AcDbLine
 10
0.1188200907348975
 20
3.117753121618572
 30
0.0
 11
0.105
 21
3.15
 31
0.0
  0
LINE
  5
10E
330
ED
100
AcDbEntity
  8
AM_4
100
AcDbLine
 10
-0.105
 20
3.18
 30
0.0
 11
0.105
 21
3.18
 31
0.0
  0
LINE
  5
10F
330
ED
100
AcDbEntity
  8
AM_4
100
AcDbLine
 10
0.105
 20
3.18
 30
0.0
 11
0.135
 21
3.24
 31
0.0
  0
LINE
  5
110
330
ED
100
AcDbEntity
  8
AM_4
100
AcDbLine
 10
-0.135
 20
3.24
 30
0.0
 11
-0.105
 21
3.18
 31
0.0
  0
LINE
  5
111
330
ED
100
AcDbEntity
  8
AM_4
100
AcDbLine
 10
-0.1026779019331875
 20
3.319999999999999
 30
0.0
 11
0.1026779019331875
 21
3.319999999999999
 31
0.0
  0
LINE
  5
112
330
ED
100
AcDbEntity
  8
AM_4
100
AcDbLine
 10
-0.135
 20
3.24
 30
0.0
 11
0.135
 21
3.24
 31
0.0
  0
LINE
  5
113
330
ED
100
AcDbEntity
  8
AM_4
100
AcDbLine
 10
-0.1026779019331875
 20
3.319999999999999
 30
0.0
 11
-0.135
 21
3.24
 31
0.0
  0
LINE
  5
114
330
ED
100
AcDbEntity
  8
AM_4
100
AcDbLine
 10
0.135
 20
3.24
 30
0.0
 11
0.1026779019331875
 21
3.319999999999999
 31
0.0
  0
LINE
  5
115
330
ED
100
AcDbEntity
  8
AM_4
100
AcDbLine
 10
-0.1188200907348975
 20
3.117753121618572
 30
0.0
 11
0.1188200907348975
 21
3.117753121618572
 31
0.0
  0
LINE
  5
116
330
ED
100
AcDbEntity
  8
AM_4
100
AcDbLine
 10
-0.1188200907348975
 20
3.117753121618572
 30
0.0
 11
-0.1725340532830154
 21
3.063318198540882
 31
0.0
  0
LINE
  5
117
330
ED
100
AcDbEntity
  8
AM_4
100
AcDbLine
 10
0.1725340532830154
 20
3.063318198540882
 30
0.0
 11
0.1188200907348975
 21
3.117753121618572
 31
0.0
  0
LINE
  5
118
330
ED
100
AcDbEntity
  8
AM_4
100
AcDbLine
 10
-0.1725340532830154
 20
3.063318198540882
 30
0.0
 11
0.1725340532830154
 21
3.063318198540882
 31
0.0
  0
LINE
  5
119
330
ED
100
AcDbEntity
  8
AM_4
100
AcDbLine
 10
-0.1725340532830154
 20
3.063318198540882
 30
0.0
 11
-0.21375
 21
3.045
 31
0.0
  0
LINE
  5
11A
330
ED
100
AcDbEntity
  8
AM_4
100
AcDbLine
 10
0.21375
 20
3.045
 30
0.0
 11
0.1725340532830154
 21
3.063318198540882
 31
0.0
  0
LINE
  5
11B
330
ED
100
AcDbEntity
  8
AM_4
100
AcDbLine
 10
0.2525907427704612
 20
3.035932400303385
 30
0.0
 11
0.2525907427704612
 21
2.954067599696614
 31
0.0
  0
LWPOLYLINE
  5
11C
330
ED
100
AcDbEntity
  8
AM_4
100
AcDbPolyline
 90
        3
 70
     0
 43
0.0
 10
0.1894430570778459
 20
3.045
 10
0.2210168999241536
 20
3.042606619214965
 10
0.2525907427704612
 20
3.035932400303385
  0
LWPOLYLINE
  5
11D
330
ED
100
AcDbEntity
  8
AM_4
100
AcDbPolyline
 90
        3
 70
     0
 43
0.0
 10
0.2525907427704612
 20
2.954067599696614
 10
0.2211588644235643
 20
2.94741452494962
 10
0.1894430570778459
 20
2.945
  0
LWPOLYLINE
  5
11E
330
ED
100
AcDbEntity
  8
AM_4
100
AcDbPolyline
 90
        3
 70
     0
 43
0.0
 10
0.1894430570778459
 20
2.945
 10
0.1578692142315383
 20
2.947393380785035
 10
0.1262953713852306
 20
2.954067599696614
  0
LWPOLYLINE
  5
11F
330
ED
100
AcDbEntity
  8
AM_4
100
AcDbPolyline
 90
        3
 70
     0
 43
0.0
 10
-0.1894430570778459
 20
3.045
 10
-0.1578692142315383
 20
3.042606619214965
 10
-0.1262953713852306
 20
3.035932400303385
  0
LWPOLYLINE
  5
120
330
ED
100
AcDbEntity
  8
AM_4
100
AcDbPolyline
 90
        3
 70
     0
 43
0.0
 10
-0.2525907427704612
 20
3.035932400303385
 10
-0.2211588644235643
 20
3.04258547505038
 10
-0.1894430570778459
 20
3.045
  0
LINE
  5
121
330
ED
100
AcDbEntity
  8
AM_4
100
AcDbLine
 10
-0.2525907427704612
 20
3.035932400303385
 30
0.0
 11
-0.2525907427704612
 21
2.954067599696614
 31
0.0
  0
LWPOLYLINE
  5
122
330
ED
100
AcDbEntity
  8
AM_4
100
AcDbPolyline
 90
        3
 70
     0
 43
0.0
 10
-0.1894430570778459
 20
2.945
 10
-0.2210168999241536
 20
2.947393380785035
 10
-0.2525907427704612
 20
2.954067599696614
  0
LWPOLYLINE
  5
123
330
ED
100
AcDbEntity
  8
AM_4
100
AcDbPolyline
 90
        3
 70
     0
 43
0.0
 10
-0.1262953713852306
 20
2.954067599696614
 10
-0.1577272497321276
 20
2.94741452494962
 10
-0.1894430570778459
 20
2.945
  0
LINE
  5
124
330
ED
100
AcDbEntity
  8
AM_4
100
AcDbLine
 10
0.1262953713852306
 20
3.035932400303385
 30
0.0
 11
0.1262953713852306
 21
2.954067599696614
 31
0.0
  0
LWPOLYLINE
  5
125
330
ED
100
AcDbEntity
  8
AM_4
100
AcDbPolyline
 90
        3
 70
     0
 43
0.0
 10
-0.1262953713852306
 20
3.035932400303385
 10
-0.0634316146914367
 20
3.04258547505038
 10
0.0
 20
3.045
  0
LINE
  5
126
330
ED
100
AcDbEntity
  8
AM_4
100
AcDbLine
 10
-0.1262953713852306
 20
3.035932400303385
 30
0.0
 11
-0.1262953713852306
 21
2.954067599696614
 31
0.0
  0
LWPOLYLINE
  5
127
330
ED
100
AcDbEntity
  8
AM_4
100
AcDbPolyline
 90
        3
 70
     0
 43
0.0
 10
0.0
 20
2.945
 10
-0.0631476856926153
 20
2.947393380785035
 10
-0.1262953713852306
 20
2.954067599696614
  0
LWPOLYLINE
  5
128
330
ED
100
AcDbEntity
  8
AM_4
100
AcDbPolyline
 90
        4
 70
     0
 43
0.0
 10
0.1262953713852306
 20
2.954067599696614
 10
0.0967996321117978
 20
2.950482412517844
 10
0.0485424412477544
 20
2.946425828243072
 10
0.0
 20
2.945
  0
LWPOLYLINE
  5
129
330
ED
100
AcDbEntity
  8
AM_4
100
AcDbPolyline
 90
        4
 70
     0
 43
0.0
 10
0.0
 20
3.045
 10
0.0483998160558989
 20
3.043582439282862
 10
0.0967996321117978
 20
3.039517587482156
 10
0.1262953713852306
 20
3.035932400303385
  0
LWPOLYLINE
  5
12A
330
ED
100
AcDbEntity
  8
AM_4
100
AcDbPolyline
 90
        3
 70
     0
 43
0.0
 10
0.1262953713852306
 20
3.035932400303385
 10
0.1577272497321276
 20
3.04258547505038
 10
0.1894430570778459
 20
3.045
  0
ENDBLK
  5
F0
330
ED
100
AcDbEntity
  8
0
100
AcDbBlockEnd
  0
BLOCK
  5
12D
330
12B
100
AcDbEntity
  8
0
100
AcDbBlockBegin
  2
5_023556_Insert_0_in_023556_2
 70
     2
 10
0.0
 20
0.0
 30
0.0
  3
5_023556_Insert_0_in_023556_2
  1

  0
ATTDEF
  5
12F
330
12B
100
AcDbEntity
  8
AM_6
100
AcDbText
 10
7.2
 20
3.351999999999999
 30
0.0
 40
0.5
  1
B-1 Unit -Insert -Inch
100
AcDbAttributeDefinition
  3

  2
NN
 70
     8
280
     0
  0
ATTDEF
  5
130
330
12B
100
AcDbEntity
  8
AM_6
100
AcDbText
 10
7.2
 20
2.851999999999999
 30
0.0
 40
0.5
  1
Double-Interlock Bearings
100
AcDbAttributeDefinition
  3

  2
NT
 70
     8
280
     0
  0
ATTDEF
  5
131
330
12B
100
AcDbEntity
  8
AM_6
100
AcDbText
 10
7.2
 20
2.351999999999999
 30
0.0
 40
0.5
  1
023556-Insert
100
AcDbAttributeDefinition
  3

  2
NB
 70
     8
280
     0
  0
ATTDEF
  5
132
330
12B
100
AcDbEntity
  8
AM_6
100
AcDbText
 10
7.2
 20
1.851999999999999
 30
0.0
 40
0.5
  1
$PN.-Insert
100
AcDbAttributeDefinition
  3

  2
NBSYN
 70
     8
280
     0
  0
ATTDEF
  5
133
330
12B
100
AcDbEntity
  8
AM_6
100
AcDbText
 10
7.2
 20
1.351999999999999
 30
0.0
 40
0.5
  1
023556-Insert
100
AcDbAttributeDefinition
  3

  2
LINA
 70
     8
280
     0
  0
ATTDEF
  5
134
330
12B
100
AcDbEntity
  8
AM_6
100
AcDbText
 10
7.2
 20
0.8519999999999994
 30
0.0
 40
0.5
  1
2-7/16
100
AcDbAttributeDefinition
  3

  2
SS
 70
     8
280
     0
  0
ATTDEF
  5
135
330
12B
100
AcDbEntity
  8
AM_6
100
AcDbText
 10
7.2
 20
0.3519999999999994
 30
0.0
 40
0.5
  1
023556
100
AcDbAttributeDefinition
  3

  2
PN
 70
     8
280
     0
  0
ATTDEF
  5
136
330
12B
100
AcDbEntity
  8
AM_6
100
AcDbText
 10
7.2
 20
-0.1480000000000006
 30
0.0
 40
0.5
  1
B1U-DI-207R
100
AcDbAttributeDefinition
  3

  2
DESCRIPTION
 70
     8
280
     0
  0
ATTDEF
  5
137
330
12B
100
AcDbEntity
  8
AM_6
100
AcDbText
 10
7.2
 20
-0.6480000000000006
 30
0.0
 40
0.5
  1
4
100
AcDbAttributeDefinition
  3

  2
A
 70
     8
280
     0
  0
ATTDEF
  5
138
330
12B
100
AcDbEntity
  8
AM_6
100
AcDbText
 10
7.2
 20
-1.148000000000001
 30
0.0
 40
0.5
  1
2-3/4
100
AcDbAttributeDefinition
  3

  2
B
 70
     8
280
     0
  0
ATTDEF
  5
139
330
12B
100
AcDbEntity
  8
AM_6
100
AcDbText
 10
7.2
 20
-1.648000000000001
 30
0.0
 40
0.5
  1
5
100
AcDbAttributeDefinition
  3

  2
D
 70
     8
280
     0
  0
ATTDEF
  5
13A
330
12B
100
AcDbEntity
  8
AM_6
100
AcDbText
 10
7.2
 20
-2.148000000000001
 30
0.0
 40
0.5
  1
11/16
100
AcDbAttributeDefinition
  3

  2
H
 70
     8
280
     0
  0
ATTDEF
  5
13B
330
12B
100
AcDbEntity
  8
AM_6
100
AcDbText
 10
7.2
 20
-2.648000000000001
 30
0.0
 40
0.5
  1
3.32
100
AcDbAttributeDefinition
  3

  2
J
 70
     8
280
     0
  0
ATTDEF
  5
13C
330
12B
100
AcDbEntity
  8
AM_6
100
AcDbText
 10
7.2
 20
-3.148000000000001
 30
0.0
 40
0.5
  1
4-1/16
100
AcDbAttributeDefinition
  3

  2
L
 70
     8
280
     0
  0
ATTDEF
  5
13D
330
12B
100
AcDbEntity
  8
AM_6
100
AcDbText
 10
7.2
 20
-3.648000000000001
 30
0.0
 40
0.5
  1
baldor
100
AcDbAttributeDefinition
  3

  2
COMPANY
 70
     8
280
     0
  0
LINE
  5
13E
330
12B
100
AcDbEntity
  8
AM_9
100
AcDbLine
 10
1.485
 20
1.47
 30
0.0
 11
1.485
 21
1.21875
 31
0.0
  0
LINE
  5
13F
330
12B
100
AcDbEntity
  8
AM_9
100
AcDbLine
 10
1.895
 20
1.21875
 30
0.0
 11
1.895
 21
1.47
 31
0.0
  0
LINE
  5
140
330
12B
100
AcDbEntity
  8
AM_9
100
AcDbLine
 10
-1.895
 20
1.47
 30
0.0
 11
-1.895
 21
1.21875
 31
0.0
  0
LINE
  5
141
330
12B
100
AcDbEntity
  8
AM_9
100
AcDbLine
 10
-1.485
 20
1.21875
 30
0.0
 11
-1.485
 21
1.47
 31
0.0
  0
LINE
  5
142
330
12B
100
AcDbEntity
  8
AM_9
100
AcDbLine
 10
-2.0
 20
-1.21875
 30
0.0
 11
2.0
 21
-1.21875
 31
0.0
  0
LINE
  5
143
330
12B
100
AcDbEntity
  8
AM_9
100
AcDbLine
 10
2.0
 20
1.21875
 30
0.0
 11
1.895
 21
1.21875
 31
0.0
  0
LINE
  5
144
330
12B
100
AcDbEntity
  8
AM_9
100
AcDbLine
 10
1.485
 20
1.21875
 30
0.0
 11
-1.485
 21
1.21875
 31
0.0
  0
LINE
  5
145
330
12B
100
AcDbEntity
  8
AM_9
100
AcDbLine
 10
-1.895
 20
1.21875
 30
0.0
 11
-2.0
 21
1.21875
 31
0.0
  0
LWPOLYLINE
  5
146
330
12B
100
AcDbEntity
  8
AM_9
100
AcDbPolyline
 90
       20
 70
     0
 43
0.0
 10
1.485000000000815
 20
1.218749999999863
 10
1.485216889631547
 20
1.218713536805175
 10
1.489758343991234
 20
1.217958654183767
 10
1.499608710951903
 20
1.216377986254847
 10
1.515041641597983
 20
1.214058066846363
 10
1.534976109636546
 20
1.211345932871127
 10
1.559858899035861
 20
1.208413533795512
 10
1.587957396627637
 20
1.205711099477404
 10
1.619861273385989
 20
1.203430930079095
 10
1.652730994680655
 20
1.201963202954855
 10
1.687674534708002
 20
1.201387518783521
 10
1.721262803463629
 20
1.201791964268527
 10
1.754918329744788
 20
1.203137960516936
 10
1.785796613389117
 20
1.205198553615471
 10
1.814832788979085
 20
1.20785338005252
 10
1.839948001190336
 20
1.210706804127645
 10
1.861493444268608
 20
1.213563580504586
 10
1.877772120354669
 20
1.215970777478837
 10
1.889084019820259
 20
1.217768865363125
 10
1.895
 20
1.21875
  0
LWPOLYLINE
  5
147
330
12B
100
AcDbEntity
  8
AM_9
100
AcDbPolyline
 90
       20
 70
     0
 43
0.0
 10
-1.894999999999185
 20
1.218749999999863
 10
-1.894783110368453
 20
1.218713536805175
 10
-1.890241656008766
 20
1.217958654183767
 10
-1.880391289048098
 20
1.216377986254847
 10
-1.864958358402017
 20
1.214058066846363
 10
-1.845023890363454
 20
1.211345932871127
 10
-1.820141100964139
 20
1.208413533795512
 10
-1.792042603372363
 20
1.205711099477404
 10
-1.760138726614011
 20
1.203430930079095
 10
-1.727269005319345
 20
1.201963202954855
 10
-1.692325465291999
 20
1.201387518783521
 10
-1.658737196536371
 20
1.201791964268527
 10
-1.625081670255212
 20
1.203137960516936
 10
-1.594203386610883
 20
1.205198553615471
 10
-1.565167211020915
 20
1.20785338005252
 10
-1.540051998809664
 20
1.210706804127645
 10
-1.518506555731392
 20
1.213563580504586
 10
-1.502227879645331
 20
1.215970777478837
 10
-1.490915980179741
 20
1.217768865363125
 10
-1.485
 20
1.21875
  0
LWPOLYLINE
  5
148
330
12B
100
AcDbEntity
  8
AM_9
100
AcDbPolyline
 90
       11
 70
     0
 43
0.0
 10
1.69
 20
0.3219342573590257
 10
1.723655108112308
 20
0.3246543089031536
 10
1.757310216224616
 20
0.3330311277344002
 10
1.788128410699644
 20
0.3462933298528635
 10
1.81702369499505
 20
0.364729200316716
 10
1.84183814637078
 20
0.3869385269095607
 10
1.863017889918104
 20
0.4133137018684513
 10
1.878882669148913
 20
0.441752750881357
 10
1.889736059650445
 20
0.4728636628959968
 10
1.894613548270432
 20
0.5036357866931424
 10
1.894999999336731
 20
0.5150510608823315
  0
LINE
  5
149
330
12B
100
AcDbEntity
  8
AM_9
100
AcDbLine
 10
1.485
 20
0.6212090516748285
 30
0.0
 11
1.485
 21
0.5150533769055922
 31
0.0
  0
LINE
  5
14A
330
12B
100
AcDbEntity
  8
AM_9
100
AcDbLine
 10
1.895
 20
0.5150172755041463
 30
0.0
 11
1.895
 21
0.6212443873315787
 31
0.0
  0
LWPOLYLINE
  5
14B
330
12B
100
AcDbEntity
  8
AM_9
100
AcDbPolyline
 90
        4
 70
     0
 43
0.0
 10
1.493654935890638
 20
0.5678788064648815
 10
1.488418165148342
 20
0.5486117247005032
 10
1.48501337854018
 20
0.5171876396463833
 10
1.48500000039221
 20
0.5150774992998355
  0
LWPOLYLINE
  5
14C
330
12B
100
AcDbEntity
  8
AM_9
100
AcDbPolyline
 90
        5
 70
     0
 43
0.0
 10
1.537937293196858
 20
0.6363813544195621
 10
1.531616246365221
 20
0.6300784902633647
 10
1.512206868586186
 20
0.605747612623577
 10
1.497374158643992
 20
0.5777849392430129
 10
1.493654935890638
 20
0.5678788064648815
  0
LWPOLYLINE
  5
14D
330
12B
100
AcDbEntity
  8
AM_9
100
AcDbPolyline
 90
        6
 70
     0
 43
0.0
 10
1.67977874472231
 20
0.693307741107617
 10
1.646077385161604
 20
0.689545059789669
 10
1.614000801033933
 20
0.6812960179109104
 10
1.583174762694284
 20
0.6683043108864227
 10
1.555875393099917
 20
0.6513903386600227
 10
1.537937293196858
 20
0.6363813544195621
  0
LWPOLYLINE
  5
14E
330
12B
100
AcDbEntity
  8
AM_9
100
AcDbPolyline
 90
        7
 70
     0
 43
0.0
 10
1.842323268846592
 20
0.6361335052087562
 10
1.836392699900155
 20
0.641544140511094
 10
1.810607703834948
 20
0.6605155945898238
 10
1.780585542498855
 20
0.6758387225739646
 10
1.748798641808077
 20
0.6863218418159156
 10
1.71433141420948
 20
0.692311267320155
 10
1.699937203217817
 20
0.6933194068058723
  0
LWPOLYLINE
  5
14F
330
12B
100
AcDbEntity
  8
AM_9
100
AcDbPolyline
 90
        4
 70
     0
 43
0.0
 10
1.886280862466126
 20
0.5680678921878194
 10
1.875308046651647
 20
0.5931871591003277
 10
1.858449348482725
 20
0.6185800559600478
 10
1.842323268846592
 20
0.6361335052087562
  0
LWPOLYLINE
  5
150
330
12B
100
AcDbEntity
  8
AM_9
100
AcDbPolyline
 90
        4
 70
     0
 43
0.0
 10
1.894999999336731
 20
0.5150510608823315
 10
1.893777955043293
 20
0.535235823177986
 10
1.88739191140022
 20
0.5646811455411204
 10
1.886280862466126
 20
0.5680678921878194
  0
LWPOLYLINE
  5
151
330
12B
100
AcDbEntity
  8
AM_9
100
AcDbPolyline
 90
       10
 70
     0
 43
0.0
 10
1.48500000039221
 20
0.5150774992998355
 10
1.487396512618448
 20
0.4865706624440579
 10
1.495550448477221
 20
0.4554989271131977
 10
1.508764505959578
 20
0.4266428415518249
 10
1.527403684883885
 20
0.3992040782146465
 10
1.550224761370835
 20
0.3752425891925115
 10
1.577692885878801
 20
0.3545095613281252
 10
1.607750677892398
 20
0.3387324469434517
 10
1.64111760872077
 20
0.3277136406684418
 10
1.69
 20
0.3219342573590257
  0
LWPOLYLINE
  5
152
330
12B
100
AcDbEntity
  8
AM_9
100
AcDbPolyline
 90
        8
 70
     0
 43
0.0
 10
1.814601148648793
 20
0.7649628205622914
 10
1.82555969891944
 20
0.7571898815993625
 10
1.849351424487539
 20
0.7357359157311505
 10
1.868762329118804
 20
0.7107041953710064
 10
1.883118536628131
 20
0.6829013471162917
 10
1.891906051146466
 20
0.6531121954173467
 10
1.894997909501705
 20
0.6220877785074755
 10
1.894999999910733
 20
0.6212543276946491
  0
LWPOLYLINE
  5
153
330
12B
100
AcDbEntity
  8
AM_9
100
AcDbPolyline
 90
       10
 70
     0
 43
0.0
 10
1.564205879617681
 20
0.7641721284745505
 10
1.57059611052346
 20
0.7682468701889982
 10
1.600282365402957
 20
0.7834008414422268
 10
1.632584775341657
 20
0.7939960158291797
 10
1.66653653916773
 20
0.7998302260511793
 10
1.700883725771878
 20
0.8007098519685408
 10
1.734921926545163
 20
0.7967485233376097
 10
1.767532713685614
 20
0.7880250306204448
 10
1.797979976640759
 20
0.77479847071202
 10
1.814601148648793
 20
0.7649628205622914
  0
LWPOLYLINE
  5
154
330
12B
100
AcDbEntity
  8
AM_9
100
AcDbPolyline
 90
        7
 70
     0
 43
0.0
 10
1.485000000764301
 20
0.6212328011891838
 10
1.486269790940304
 20
0.6418213887152442
 10
1.492916387987284
 20
0.6718560866748595
 10
1.505005406575552
 20
0.700179510722251
 10
1.522326662054247
 20
0.7261081083661713
 10
1.544293346991632
 20
0.7489449561134579
 10
1.564205879617681
 20
0.7641721284745505
  0
LWPOLYLINE
  5
155
330
12B
100
AcDbEntity
  8
AM_9
100
AcDbPolyline
 90
       10
 70
     0
 43
0.0
 10
1.894999999910733
 20
0.6212543276946491
 10
1.892265850087044
 20
0.5909597109987305
 10
1.883923388871479
 20
0.5603679356711231
 10
1.870147914698168
 20
0.5312396340616075
 10
1.851401901534925
 20
0.5044000780484865
 10
1.827935396191295
 20
0.4805142153216054
 10
1.800593176643088
 20
0.460513516444742
 10
1.769942272724456
 20
0.4450437609826081
 10
1.736999292283115
 20
0.4346544396545984
 10
1.69
 20
0.4293850906592017
  0
LWPOLYLINE
  5
156
330
12B
100
AcDbEntity
  8
AM_9
100
AcDbPolyline
 90
       11
 70
     0
 43
0.0
 10
-1.69
 20
0.3219342573590257
 10
-1.656344891887692
 20
0.3246543089031536
 10
-1.622689783775384
 20
0.3330311277344002
 10
-1.591871589300355
 20
0.3462933298528635
 10
-1.56297630500495
 20
0.364729200316716
 10
-1.53816185362922
 20
0.3869385269095607
 10
-1.516982110081896
 20
0.4133137018684513
 10
-1.501117330851087
 20
0.441752750881357
 10
-1.490263940349555
 20
0.4728636628959968
 10
-1.485386451729568
 20
0.5036357866931424
 10
-1.485000000663269
 20
0.5150510608823315
  0
LINE
  5
157
330
12B
100
AcDbEntity
  8
AM_9
100
AcDbLine
 10
-1.895
 20
0.6212090516748285
 30
0.0
 11
-1.895
 21
0.5150533769055922
 31
0.0
  0
LINE
  5
158
330
12B
100
AcDbEntity
  8
AM_9
100
AcDbLine
 10
-1.485
 20
0.5150172755041463
 30
0.0
 11
-1.485
 21
0.6212443873315787
 31
0.0
  0
LWPOLYLINE
  5
159
330
12B
100
AcDbEntity
  8
AM_9
100
AcDbPolyline
 90
        4
 70
     0
 43
0.0
 10
-1.886345064109362
 20
0.5678788064648818
 10
-1.891581834851658
 20
0.5486117247005032
 10
-1.89498662145982
 20
0.5171876396463833
 10
-1.89499999960779
 20
0.5150774992998355
  0
LWPOLYLINE
  5
15A
330
12B
100
AcDbEntity
  8
AM_9
100
AcDbPolyline
 90
        5
 70
     0
 43
0.0
 10
-1.842695913486015
 20
0.6357773407433255
 10
-1.848383753634779
 20
0.6300784902633647
 10
-1.867793131413814
 20
0.605747612623577
 10
-1.882625841356008
 20
0.5777849392430129
 10
-1.886345064109362
 20
0.5678788064648818
  0
LWPOLYLINE
  5
15B
330
12B
100
AcDbEntity
  8
AM_9
100
AcDbPolyline
 90
        6
 70
     0
 43
0.0
 10
-1.700857213787792
 20
0.6932804276123647
 10
-1.733922614838396
 20
0.689545059789669
 10
-1.765999198966067
 20
0.6812960179109104
 10
-1.796825237305717
 20
0.6683043108864227
 10
-1.824124606900083
 20
0.6513903386600227
 10
-1.842695913486015
 20
0.6357773407433255
  0
LWPOLYLINE
  5
15C
330
12B
100
AcDbEntity
  8
AM_9
100
AcDbPolyline
 90
        7
 70
     0
 43
0.0
 10
-1.53800114552581
 20
0.6364419429076218
 10
-1.543607300099845
 20
0.641544140511094
 10
-1.569392296165052
 20
0.6605155945898238
 10
-1.599414457501145
 20
0.6758387225739646
 10
-1.631201358191923
 20
0.6863218418159156
 10
-1.66566858579052
 20
0.692311267320155
 10
-1.67841388637805
 20
0.6932470889253736
  0
LWPOLYLINE
  5
15D
330
12B
100
AcDbEntity
  8
AM_9
100
AcDbPolyline
 90
        4
 70
     0
 43
0.0
 10
-1.493719137533874
 20
0.5680678921878194
 10
-1.504691953348352
 20
0.5931871591003277
 10
-1.521550651517275
 20
0.6185800559600478
 10
-1.53800114552581
 20
0.6364419429076218
  0
LWPOLYLINE
  5
15E
330
12B
100
AcDbEntity
  8
AM_9
100
AcDbPolyline
 90
        4
 70
     0
 43
0.0
 10
-1.485000000663269
 20
0.5150510608823315
 10
-1.486222044956707
 20
0.535235823177986
 10
-1.49260808859978
 20
0.5646811455411204
 10
-1.493719137533874
 20
0.5680678921878194
  0
LWPOLYLINE
  5
15F
330
12B
100
AcDbEntity
  8
AM_9
100
AcDbPolyline
 90
       10
 70
     0
 43
0.0
 10
-1.89499999960779
 20
0.5150774992998355
 10
-1.892603487381552
 20
0.4865706624440579
 10
-1.884449551522779
 20
0.4554989271131977
 10
-1.871235494040422
 20
0.4266428415518249
 10
-1.852596315116115
 20
0.3992040782146465
 10
-1.829775238629165
 20
0.3752425891925115
 10
-1.802307114121199
 20
0.3545095613281252
 10
-1.772249322107603
 20
0.3387324469434517
 10
-1.73888239127923
 20
0.3277136406684418
 10
-1.69
 20
0.3219342573590257
  0
LWPOLYLINE
  5
160
330
12B
100
AcDbEntity
  8
AM_9
100
AcDbPolyline
 90
        8
 70
     0
 43
0.0
 10
-1.564941588200165
 20
0.76466119870331
 10
-1.55444030108056
 20
0.7571898815993625
 10
-1.530648575512461
 20
0.7357359157311505
 10
-1.511237670881196
 20
0.7107041953710064
 10
-1.496881463371869
 20
0.6829013471162917
 10
-1.488093948853534
 20
0.6531121954173467
 10
-1.485002090498295
 20
0.6220877785074755
 10
-1.485000000089267
 20
0.6212543276946491
  0
LWPOLYLINE
  5
161
330
12B
100
AcDbEntity
  8
AM_9
100
AcDbPolyline
 90
       10
 70
     0
 43
0.0
 10
-1.814539958681698
 20
0.765003047190416
 10
-1.809403889476539
 20
0.7682468701889982
 10
-1.779717634597043
 20
0.7834008414422268
 10
-1.747415224658342
 20
0.7939960158291797
 10
-1.713463460832269
 20
0.7998302260511793
 10
-1.679116274228122
 20
0.8007098519685408
 10
-1.645078073454837
 20
0.7967485233376097
 10
-1.612467286314386
 20
0.7880250306204448
 10
-1.582020023359241
 20
0.77479847071202
 10
-1.564941588200165
 20
0.76466119870331
  0
LWPOLYLINE
  5
162
330
12B
100
AcDbEntity
  8
AM_9
100
AcDbPolyline
 90
        7
 70
     0
 43
0.0
 10
-1.894999999235699
 20
0.6212328011891838
 10
-1.893730209059696
 20
0.6418213887152442
 10
-1.887083612012716
 20
0.6718560866748595
 10
-1.874994593424448
 20
0.700179510722251
 10
-1.857673337945753
 20
0.7261081083661713
 10
-1.835706653008369
 20
0.7489449561134579
 10
-1.814539958681698
 20
0.765003047190416
  0
LWPOLYLINE
  5
163
330
12B
100
AcDbEntity
  8
AM_9
100
AcDbPolyline
 90
       10
 70
     0
 43
0.0
 10
-1.485000000089267
 20
0.6212543276946491
 10
-1.487734149912956
 20
0.5909597109987305
 10
-1.496076611128521
 20
0.5603679356711231
 10
-1.509852085301832
 20
0.5312396340616075
 10
-1.528598098465075
 20
0.5044000780484865
 10
-1.552064603808705
 20
0.4805142153216054
 10
-1.579406823356912
 20
0.460513516444742
 10
-1.610057727275543
 20
0.4450437609826081
 10
-1.643000707716885
 20
0.4346544396545984
 10
-1.69
 20
0.4293850906592017
  0
LWPOLYLINE
  5
164
330
12B
100
AcDbEntity
  8
AM_9
100
AcDbPolyline
 90
       20
 70
     0
 43
0.0
 10
-1.485
 20
1.47
 10
-1.487796047775298
 20
1.469612683088741
 10
-1.496426362380723
 20
1.468450119405204
 10
-1.510153055605833
 20
1.466703761298756
 10
-1.529359885337262
 20
1.464472685453319
 10
-1.552603542563762
 20
1.46210560032989
 10
-1.580453946444401
 20
1.459751806934866
 10
-1.610728824685952
 20
1.457792481540384
 10
-1.644209873205741
 20
1.456355635039682
 10
-1.677830531556015
 20
1.455686468976822
 10
-1.712788601221231
 20
1.455813971751068
 10
-1.745883406039996
 20
1.456707916869621
 10
-1.77832437026628
 20
1.45831279031041
 10
-1.807519300719135
 20
1.460371797194644
 10
-1.83419649056795
 20
1.462760276973679
 10
-1.856334869900404
 20
1.465108285740267
 10
-1.874323482106208
 20
1.467259399716273
 10
-1.886650050266535
 20
1.468858823124207
 10
-1.89365194042906
 20
1.469812611471449
 10
-1.894999999999666
 20
1.469999999999953
  0
LWPOLYLINE
  5
165
330
12B
100
AcDbEntity
  8
AM_9
100
AcDbPolyline
 90
       11
 70
     0
 43
0.0
 10
-1.69
 20
0.4293850906592017
 10
-1.724225322904128
 20
0.432184189629531
 10
-1.757481371322097
 20
0.440400388635345
 10
-1.788797566945057
 20
0.4538227968313308
 10
-1.817349516563767
 20
0.4719333732350004
 10
-1.842450744071456
 20
0.4943572124568418
 10
-1.863273994117106
 20
0.5202356198555212
 10
-1.879226374366815
 20
0.5489347586889568
 10
-1.889819507838594
 20
0.5794431194347718
 10
-1.894646122837449
 20
0.6106473025315612
 10
-1.894999999235699
 20
0.6212328011891838
  0
LINE
  5
166
330
12B
100
AcDbEntity
  8
AM_9
100
AcDbLine
 10
-1.375
 20
-1.47
 30
0.0
 11
-1.349
 21
-1.47
 31
0.0
  0
LINE
  5
167
330
12B
100
AcDbEntity
  8
AM_9
100
AcDbLine
 10
-2.0
 20
-1.47
 30
0.0
 11
-1.38
 21
-1.47
 31
0.0
  0
LINE
  5
168
330
12B
100
AcDbEntity
  8
AM_9
100
AcDbLine
 10
-1.38
 20
1.47
 30
0.0
 11
-1.485
 21
1.47
 31
0.0
  0
LINE
  5
169
330
12B
100
AcDbEntity
  8
AM_9
100
AcDbLine
 10
-1.349
 20
1.47
 30
0.0
 11
-1.375
 21
1.47
 31
0.0
  0
LINE
  5
16A
330
12B
100
AcDbEntity
  8
AM_9
100
AcDbLine
 10
-1.895
 20
1.47
 30
0.0
 11
-2.0
 21
1.47
 31
0.0
  0
LINE
  5
16B
330
12B
100
AcDbEntity
  8
AM_9
100
AcDbLine
 10
-1.894999999999666
 20
1.469999999999953
 30
0.0
 11
-1.889114303135351
 21
1.469190765596176
 31
0.0
  0
LWPOLYLINE
  5
16C
330
12B
100
AcDbEntity
  8
AM_9
100
AcDbPolyline
 90
       20
 70
     0
 43
0.0
 10
1.895
 20
1.47
 10
1.892203952224703
 20
1.469612683088741
 10
1.883573637619277
 20
1.468450119405204
 10
1.869846944394167
 20
1.466703761298756
 10
1.850640114662738
 20
1.464472685453319
 10
1.827396457436238
 20
1.46210560032989
 10
1.799546053555599
 20
1.459751806934866
 10
1.769271175314048
 20
1.457792481540384
 10
1.735790126794259
 20
1.456355635039682
 10
1.702169468443985
 20
1.455686468976822
 10
1.667211398778769
 20
1.455813971751068
 10
1.634116593960004
 20
1.456707916869621
 10
1.60167562973372
 20
1.45831279031041
 10
1.572480699280865
 20
1.460371797194644
 10
1.54580350943205
 20
1.462760276973679
 10
1.523665130099596
 20
1.465108285740267
 10
1.505676517893792
 20
1.467259399716273
 10
1.493349949733465
 20
1.468858823124207
 10
1.48634805957094
 20
1.469812611471449
 10
1.485000000000334
 20
1.469999999999953
  0
LWPOLYLINE
  5
16D
330
12B
100
AcDbEntity
  8
AM_9
100
AcDbPolyline
 90
       11
 70
     0
 43
0.0
 10
1.69
 20
0.4293850906592017
 10
1.655774677095872
 20
0.432184189629531
 10
1.622518628677903
 20
0.440400388635345
 10
1.591202433054943
 20
0.4538227968313308
 10
1.562650483436233
 20
0.4719333732350004
 10
1.537549255928544
 20
0.4943572124568418
 10
1.516726005882894
 20
0.5202356198555212
 10
1.500773625633185
 20
0.5489347586889568
 10
1.490180492161406
 20
0.5794431194347718
 10
1.485353877162551
 20
0.6106473025315612
 10
1.485000000764301
 20
0.6212328011891838
  0
LINE
  5
16E
330
12B
100
AcDbEntity
  8
AM_9
100
AcDbLine
 10
1.38
 20
-1.47
 30
0.0
 11
2.0
 21
-1.47
 31
0.0
  0
LINE
  5
16F
330
12B
100
AcDbEntity
  8
AM_9
100
AcDbLine
 10
1.349
 20
-1.47
 30
0.0
 11
1.375
 21
-1.47
 31
0.0
  0
LINE
  5
170
330
12B
100
AcDbEntity
  8
AM_9
100
AcDbLine
 10
2.0
 20
1.47
 30
0.0
 11
1.895
 21
1.47
 31
0.0
  0
LINE
  5
171
330
12B
100
AcDbEntity
  8
AM_9
100
AcDbLine
 10
1.375
 20
1.47
 30
0.0
 11
1.349
 21
1.47
 31
0.0
  0
LINE
  5
172
330
12B
100
AcDbEntity
  8
AM_9
100
AcDbLine
 10
1.485
 20
1.47
 30
0.0
 11
1.38
 21
1.47
 31
0.0
  0
LINE
  5
173
330
12B
100
AcDbEntity
  8
AM_9
100
AcDbLine
 10
1.349
 20
-2.083333333333333
 30
0.0
 11
1.349
 21
2.083333333333333
 31
0.0
  0
LINE
  5
174
330
12B
100
AcDbEntity
  8
AM_9
100
AcDbLine
 10
1.349
 20
-2.083333333333333
 30
0.0
 11
1.375
 21
-2.087917834831754
 31
0.0
  0
LINE
  5
175
330
12B
100
AcDbEntity
  8
AM_9
100
AcDbLine
 10
1.375
 20
2.087917834831753
 30
0.0
 11
1.349
 21
2.083333333333333
 31
0.0
  0
LINE
  5
176
330
12B
100
AcDbEntity
  8
AM_9
100
AcDbLine
 10
-1.349
 20
2.083333333333333
 30
0.0
 11
-1.375
 21
2.087917834831754
 31
0.0
  0
LINE
  5
177
330
12B
100
AcDbEntity
  8
AM_9
100
AcDbLine
 10
-1.375
 20
-2.087917834831754
 30
0.0
 11
-1.349
 21
-2.083333333333333
 31
0.0
  0
LINE
  5
178
330
12B
100
AcDbEntity
  8
AM_9
100
AcDbLine
 10
-1.349
 20
2.083333333333333
 30
0.0
 11
-1.349
 21
-2.083333333333333
 31
0.0
  0
LINE
  5
17B
330
12B
100
AcDbEntity
  8
AM_7
100
AcDbLine
 10
-2.2
 20
0.0
 30
0.0
 11
2.2
 21
0.0
 31
0.0
  0
LINE
  5
17C
330
12B
100
AcDbEntity
  8
AM_7
100
AcDbLine
 10
-1.69
 20
-0.1015625
 30
0.0
 11
-1.69
 21
2.1328125
 31
0.0
  0
LINE
  5
17D
330
12B
100
AcDbEntity
  8
AM_7
100
AcDbLine
 10
1.69
 20
-0.1015625
 30
0.0
 11
1.69
 21
2.1328125
 31
0.0
  0
LINE
  5
17E
330
12B
100
AcDbEntity
  8
AM_7
100
AcDbLine
 10
0.0
 20
3.351999999999999
 30
0.0
 11
0.0
 21
1.783
 31
0.0
  0
LINE
  5
17F
330
12B
100
AcDbEntity
  8
AM_4
100
AcDbLine
 10
0.3061804218652856
 20
2.945
 30
0.0
 11
-0.3061804215339997
 21
2.945
 31
0.0
  0
ARC
  5
180
330
12B
100
AcDbEntity
  8
AM_4
100
AcDbCircle
 10
-0.3061804218652837
 20
2.903999999999997
 30
0.0
 40
0.0410000000000026
100
AcDbArc
 50
90.0
 51
174.9999999999965
  0
ARC
  5
181
330
12B
100
AcDbEntity
  8
AM_4
100
AcDbCircle
 10
0.3061804218652837
 20
2.903999999999997
 30
0.0
 40
0.0410000000000024
100
AcDbArc
 50
5.000000000003496
 51
90.0
  0
LINE
  5
182
330
12B
100
AcDbEntity
  8
AM_4
100
AcDbLine
 10
0.3470244044870474
 20
2.907573385452654
 30
0.0
 11
-0.3470244044870474
 21
2.907573385452654
 31
0.0
  0
LINE
  5
183
330
12B
100
AcDbEntity
  8
AM_4
100
AcDbLine
 10
-0.3470244044870474
 20
2.907573385452654
 30
0.0
 11
-0.3826824552690363
 21
2.5
 31
0.0
  0
LINE
  5
184
330
12B
100
AcDbEntity
  8
AM_4
100
AcDbLine
 10
0.3826824552690363
 20
2.5
 30
0.0
 11
0.3470244044870474
 21
2.907573385452654
 31
0.0
  0
LINE
  5
185
330
12B
100
AcDbEntity
  8
AM_4
100
AcDbLine
 10
-1.38
 20
-1.47
 30
0.0
 11
-1.375
 21
-1.47
 31
0.0
  0
LINE
  5
186
330
12B
100
AcDbEntity
  8
AM_4
100
AcDbLine
 10
-1.375
 20
1.47
 30
0.0
 11
-1.38
 21
1.47
 31
0.0
  0
LINE
  5
187
330
12B
100
AcDbEntity
  8
AM_4
100
AcDbLine
 10
1.375
 20
-1.47
 30
0.0
 11
1.38
 21
-1.47
 31
0.0
  0
LINE
  5
188
330
12B
100
AcDbEntity
  8
AM_4
100
AcDbLine
 10
1.38
 20
1.47
 30
0.0
 11
1.375
 21
1.47
 31
0.0
  0
LINE
  5
189
330
12B
100
AcDbEntity
  8
AM_4
100
AcDbLine
 10
1.375
 20
2.4836
 30
0.0
 11
1.3586
 21
2.5
 31
0.0
  0
LINE
  5
18A
330
12B
100
AcDbEntity
  8
AM_4
100
AcDbLine
 10
1.3586
 20
-2.5
 30
0.0
 11
1.375
 21
-2.4836
 31
0.0
  0
LINE
  5
18B
330
12B
100
AcDbEntity
  8
AM_4
100
AcDbLine
 10
1.375
 20
2.4836
 30
0.0
 11
1.375
 21
-2.4836
 31
0.0
  0
LINE
  5
18C
330
12B
100
AcDbEntity
  8
AM_4
100
AcDbLine
 10
-1.3586
 20
-2.5
 30
0.0
 11
1.3586
 21
-2.5
 31
0.0
  0
LINE
  5
18D
330
12B
100
AcDbEntity
  8
AM_4
100
AcDbLine
 10
1.3586
 20
2.5
 30
0.0
 11
0.3826824552690364
 21
2.5
 31
0.0
  0
LINE
  5
18E
330
12B
100
AcDbEntity
  8
AM_4
100
AcDbLine
 10
-0.3813135500943139
 20
2.5
 30
0.0
 11
-1.3586
 21
2.5
 31
0.0
  0
LWPOLYLINE
  5
18F
330
12B
100
AcDbEntity
  8
AM_4
100
AcDbPolyline
 90
       21
 70
     0
 43
0.0
 10
0.3826824552681518
 20
2.499999999999863
 10
0.3826091502905906
 20
2.49998862773796
 10
0.3757535510829806
 20
2.49893447544424
 10
0.3586850928203758
 20
2.496390867696892
 10
0.3309178349687507
 20
2.492500379373164
 10
0.2945633294800815
 20
2.487872280986963
 10
0.2486639866937324
 20
2.482787360536215
 10
0.1968052420634315
 20
2.478066601727576
 10
0.1375834007010012
 20
2.474012534532072
 10
0.0766322431108279
 20
2.471335869187606
 10
0.0115882994226929
 20
2.470158579303108
 10
-0.0509587830112322
 20
2.470663874264804
 10
-0.1138417839542109
 20
2.47278918759274
 10
-0.1716672131360792
 20
2.47617120372762
 10
-0.2262670260225602
 20
2.480614839958902
 10
-0.2738321749134158
 20
2.485470514264534
 10
-0.3149571677766319
 20
2.49040335130969
 10
-0.3466419453931363
 20
2.494665784398333
 10
-0.3692220532779977
 20
2.497947475878703
 10
-0.3807896594927423
 20
2.499707039979955
 10
-0.3826824552687751
 20
2.49999999999996
  0
LINE
  5
190
330
12B
100
AcDbEntity
  8
AM_4
100
AcDbLine
 10
1.3586
 20
2.5
 30
0.0
 11
1.3586
 21
-2.5
 31
0.0
  0
LINE
  5
191
330
12B
100
AcDbEntity
  8
AM_4
100
AcDbLine
 10
-1.375
 20
-2.4836
 30
0.0
 11
-1.3586
 21
-2.5
 31
0.0
  0
LINE
  5
192
330
12B
100
AcDbEntity
  8
AM_4
100
AcDbLine
 10
-1.3586
 20
2.5
 30
0.0
 11
-1.375
 21
2.4836
 31
0.0
  0
LINE
  5
193
330
12B
100
AcDbEntity
  8
AM_4
100
AcDbLine
 10
-1.375
 20
2.4836
 30
0.0
 11
-1.375
 21
-2.4836
 31
0.0
  0
LINE
  5
194
330
12B
100
AcDbEntity
  8
AM_4
100
AcDbLine
 10
-1.3586
 20
2.5
 30
0.0
 11
-1.3586
 21
-2.5
 31
0.0
  0
ENDBLK
  5
12E
330
12B
100
AcDbEntity
  8
0
100
AcDbBlockEnd
  0
ENDSEC
  0
SECTION
  2
ENTITIES
  0
INSERT
  5
6F
330
1F
100
AcDbEntity
  8
0
100
AcDbBlockReference
  2
1_023556_2
 10
0.0
 20
0.0
 30
0.0
  0
POINT
  5
196
330
1F
100
AcDbEntity
  8
ConnectionPoints
100
AcDbPoint
 10
-2.0
 20
0.0
 30
0.0000000000000001
  0
POINT
  5
197
330
1F
100
AcDbEntity
  8
ConnectionPoints
100
AcDbPoint
 10
0.0
 20
2.945
 30
0.0
  0
POINT
  5
198
330
1F
100
AcDbEntity
  8
ConnectionPoints
100
AcDbPoint
 10
0.0
 20
0.0
 30
0.0
  0
POINT
  5
199
330
1F
100
AcDbEntity
  8
ConnectionPoints
100
AcDbPoint
 10
-2.0
 20
0.0
 30
0.0000000000000001
  0
POINT
  5
19A
330
1F
100
AcDbEntity
  8
ConnectionPoints
100
AcDbPoint
 10
2.0
 20
0.0
 30
-0.0000000000000001
  0
POINT
  5
19B
330
1F
100
AcDbEntity
  8
ConnectionPoints
100
AcDbPoint
 10
0.0
 20
2.945
 30
0.0
  0
POINT
  5
19C
330
1F
100
AcDbEntity
  8
ConnectionPoints
100
AcDbPoint
 10
0.0
 20
2.945
 30
0.0
  0
ENDSEC
  0
SECTION
  2
OBJECTS
  0
DICTIONARY
  5
C
330
0
100
AcDbDictionary
281
     1
  3
ACAD_DETAILVIEWSTYLE
350
1A4
  3
ACAD_GROUP
350
D
  3
ACAD_LAYOUT
350
1A
  3
ACAD_MATERIAL
350
43
  3
ACAD_MLEADERSTYLE
350
6B
  3
ACAD_MLINESTYLE
350
17
  3
ACAD_PLOTSETTINGS
350
19
  3
ACAD_PLOTSTYLENAME
350
E
  3
ACAD_SCALELIST
350
47
  3
ACAD_SECTIONVIEWSTYLE
350
1A5
  3
ACAD_TABLESTYLE
350
69
  3
ACAD_VISUALSTYLE
350
2A
  3
ACDB_RECOMPOSE_DATA
350
1A1
  3
AcDbVariableDictionary
350
19D
  0
SUN
  5
6D
330
29
100
AcDbSun
 90
        1
290
     0
 63
     7
421
 16777215
 40
1.0
291
     1
 91
  2455826
 92
 54000000
292
     0
 70
     2
 71
   256
280
     1
  0
DICTIONARY
  5
1A4
102
{ACAD_REACTORS
330
C
102
}
330
C
100
AcDbDictionary
281
     1
  0
DICTIONARY
  5
D
102
{ACAD_REACTORS
330
C
102
}
330
C
100
AcDbDictionary
281
     1
  0
DICTIONARY
  5
1A
102
{ACAD_REACTORS
330
C
102
}
330
C
100
AcDbDictionary
281
     1
  3
Layout1
350
1E
  3
Layout2
350
26
  3
Model
350
22
  0
DICTIONARY
  5
43
102
{ACAD_REACTORS
330
C
102
}
330
C
100
AcDbDictionary
281
     1
  3
ByBlock
350
45
  3
ByLayer
350
44
  3
Global
350
46
  0
DICTIONARY
  5
6B
102
{ACAD_REACTORS
330
C
102
}
330
C
100
AcDbDictionary
281
     1
  3
Standard
350
6C
  0
DICTIONARY
  5
17
102
{ACAD_REACTORS
330
C
102
}
330
C
100
AcDbDictionary
281
     1
  3
Standard
350
18
  0
DICTIONARY
  5
19
102
{ACAD_REACTORS
330
C
102
}
330
C
100
AcDbDictionary
281
     1
  0
ACDBDICTIONARYWDFLT
  5
E
102
{ACAD_REACTORS
330
C
102
}
330
C
100
AcDbDictionary
281
     1
  3
Normal
350
F
100
AcDbDictionaryWithDefault
340
F
  0
DICTIONARY
  5
47
102
{ACAD_REACTORS
330
C
102
}
330
C
100
AcDbDictionary
281
     1
  3
A0
350
48
  3
A1
350
49
  3
A2
350
4A
  3
A3
350
4B
  3
A4
350
4C
  3
A5
350
4D
  3
A6
350
4E
  3
A7
350
4F
  3
A8
350
50
  3
A9
350
51
  3
B0
350
52
  3
B1
350
53
  3
B2
350
54
  3
B3
350
55
  3
B4
350
56
  3
B5
350
57
  3
B6
350
58
  3
B7
350
59
  3
B8
350
5A
  3
B9
350
5B
  3
C0
350
5C
  3
C1
350
5D
  3
C2
350
5E
  3
C3
350
5F
  3
C4
350
60
  3
C5
350
61
  3
C6
350
62
  3
C7
350
63
  3
C8
350
64
  3
C9
350
65
  3
D0
350
66
  3
D1
350
67
  3
D2
350
68
  0
DICTIONARY
  5
1A5
102
{ACAD_REACTORS
330
C
102
}
330
C
100
AcDbDictionary
281
     1
  0
DICTIONARY
  5
69
102
{ACAD_REACTORS
330
C
102
}
330
C
100
AcDbDictionary
281
     1
  3
Standard
350
6A
  0
DICTIONARY
  5
2A
102
{ACAD_REACTORS
330
C
102
}
330
C
100
AcDbDictionary
281
     1
  3
2dWireframe
350
2F
  3
Basic
350
32
  3
Brighten
350
36
  3
ColorChange
350
3A
  3
Conceptual
350
34
  3
Dim
350
35
  3
EdgeColorOff
350
3D
  3
Facepattern
350
39
  3
Flat
350
2B
  3
FlatWithEdges
350
2C
  3
Gouraud
350
2D
  3
GouraudWithEdges
350
2E
  3
Hidden
350
31
  3
JitterOff
350
3B
  3
Linepattern
350
38
  3
OverhangOff
350
3C
  3
Realistic
350
33
  3
Shaded
350
42
  3
Shaded with edges
350
41
  3
Shades of Gray
350
3E
  3
Sketchy
350
3F
  3
Thicken
350
37
  3
Wireframe
350
30
  3
X-Ray
350
40
  0
XRECORD
  5
1A1
102
{ACAD_REACTORS
330
C
102
}
330
C
100
AcDbXrecord
280
     1
 90
        1
330
6A
  0
DICTIONARY
  5
19D
102
{ACAD_REACTORS
330
C
102
}
330
C
100
AcDbDictionary
281
     1
  3
CANNOSCALE
350
19E
  3
CMLEADERSTYLE
350
1A3
  3
CTABLESTYLE
350
1A2
  0
LAYOUT
  5
1E
102
{ACAD_REACTORS
330
1A
102
}
330
1A
100
AcDbPlotSettings
  1

  2
none_device
  4

  6

 40
0.0
 41
0.0
 42
0.0
 43
0.0
 44
0.0
 45
0.0
 46
0.0
 47
0.0
 48
0.0
 49
0.0
140
0.0
141
0.0
142
1.0
143
1.0
 70
   688
 72
     0
 73
     0
 74
     5
  7

 75
    16
 76
     0
 77
     2
 78
   300
147
1.0
148
0.0
149
0.0
100
AcDbLayout
  1
Layout1
 70
     1
 71
     1
 10
0.0
 20
0.0
 11
12.0
 21
9.0
 12
0.0
 22
0.0
 32
0.0
 14
1.000000000000000E+20
 24
1.000000000000000E+20
 34
1.000000000000000E+20
 15
-1.000000000000000E+20
 25
-1.000000000000000E+20
 35
-1.000000000000000E+20
146
0.0
 13
0.0
 23
0.0
 33
0.0
 16
1.0
 26
0.0
 36
0.0
 17
0.0
 27
1.0
 37
0.0
 76
     0
330
1B
  0
LAYOUT
  5
26
102
{ACAD_REACTORS
330
1A
102
}
330
1A
100
AcDbPlotSettings
  1

  2
none_device
  4

  6

 40
0.0
 41
0.0
 42
0.0
 43
0.0
 44
0.0
 45
0.0
 46
0.0
 47
0.0
 48
0.0
 49
0.0
140
0.0
141
0.0
142
1.0
143
1.0
 70
   688
 72
     0
 73
     0
 74
     5
  7

 75
    16
 76
     0
 77
     2
 78
   300
147
1.0
148
0.0
149
0.0
100
AcDbLayout
  1
Layout2
 70
     1
 71
     2
 10
0.0
 20
0.0
 11
0.0
 21
0.0
 12
0.0
 22
0.0
 32
0.0
 14
0.0
 24
0.0
 34
0.0
 15
0.0
 25
0.0
 35
0.0
146
0.0
 13
0.0
 23
0.0
 33
0.0
 16
1.0
 26
0.0
 36
0.0
 17
0.0
 27
1.0
 37
0.0
 76
     0
330
23
  0
LAYOUT
  5
22
102
{ACAD_REACTORS
330
1A
102
}
330
1A
100
AcDbPlotSettings
  1

  2
none_device
  4
Letter_(8.50_x_11.00_Inches)
  6

 40
6.35
 41
6.35
 42
6.35000508
 43
6.35000508
 44
215.9
 45
279.4
 46
0.0
 47
0.0
 48
0.0
 49
0.0
140
0.0
141
0.0
142
1.0
143
1.0
 70
  1712
 72
     0
 73
     0
 74
     0
  7

 75
     0
 76
     0
 77
     2
 78
   300
147
1.0
148
0.0
149
0.0
100
AcDbLayout
  1
Model
 70
     1
 71
     0
 10
0.0
 20
0.0
 11
12.0
 21
9.0
 12
0.0
 22
0.0
 32
0.0
 14
1.000000000000000E+20
 24
1.000000000000000E+20
 34
1.000000000000000E+20
 15
-1.000000000000000E+20
 25
-1.000000000000000E+20
 35
-1.000000000000000E+20
146
0.0
 13
0.0
 23
0.0
 33
0.0
 16
1.0
 26
0.0
 36
0.0
 17
0.0
 27
1.0
 37
0.0
 76
     0
330
1F
331
29
  0
MATERIAL
  5
45
102
{ACAD_REACTORS
330
43
102
}
330
43
100
AcDbMaterial
  1
ByBlock
 72
     1
 94
      127
  0
MATERIAL
  5
44
102
{ACAD_REACTORS
330
43
102
}
330
43
100
AcDbMaterial
  1
ByLayer
 72
     1
 94
      127
  0
MATERIAL
  5
46
102
{ACAD_REACTORS
330
43
102
}
330
43
100
AcDbMaterial
  1
Global
 72
     1
 94
      127
  0
MLEADERSTYLE
  5
6C
102
{ACAD_REACTORS
330
6B
102
}
330
6B
100
AcDbMLeaderStyle
179
     2
170
     2
171
     1
172
     0
 90
        2
 40
0.0
 41
0.0
173
     1
 91
-1056964608
340
14
 92
       -2
290
     1
 42
0.09
291
     1
 43
0.36
  3
Standard
341
0
 44
0.18
300

342
11
174
     1
178
     6
175
     1
176
     0
 93
-1056964608
 45
0.18
292
     0
297
     0
 46
0.18
343
0
 94
-1056964608
 47
1.0
 49
1.0
140
1.0
293
     1
141
0.0
294
     1
177
     0
142
1.0
295
     0
296
     0
143
0.125
271
     0
272
     9
273
     9
298
     0
  0
MLINESTYLE
  5
18
102
{ACAD_REACTORS
330
17
102
}
330
17
100
AcDbMlineStyle
  2
Standard
 70
     0
  3

 62
   256
 51
90.0
 52
90.0
 71
     2
 49
0.5
 62
   256
  6
BYLAYER
 49
-0.5
 62
   256
  6
BYLAYER
  0
ACDBPLACEHOLDER
  5
F
102
{ACAD_REACTORS
330
E
102
}
330
E
  0
SCALE
  5
48
102
{ACAD_REACTORS
330
47
102
}
330
47
100
AcDbScale
 70
     0
300
1:1
140
1.0
141
1.0
290
     1
  0
SCALE
  5
49
102
{ACAD_REACTORS
330
47
102
}
330
47
100
AcDbScale
 70
     0
300
1:2
140
1.0
141
2.0
290
     0
  0
SCALE
  5
4A
102
{ACAD_REACTORS
330
47
102
}
330
47
100
AcDbScale
 70
     0
300
1:4
140
1.0
141
4.0
290
     0
  0
SCALE
  5
4B
102
{ACAD_REACTORS
330
47
102
}
330
47
100
AcDbScale
 70
     0
300
1:5
140
1.0
141
5.0
290
     0
  0
SCALE
  5
4C
102
{ACAD_REACTORS
330
47
102
}
330
47
100
AcDbScale
 70
     0
300
1:8
140
1.0
141
8.0
290
     0
  0
SCALE
  5
4D
102
{ACAD_REACTORS
330
47
102
}
330
47
100
AcDbScale
 70
     0
300
1:10
140
1.0
141
10.0
290
     0
  0
SCALE
  5
4E
102
{ACAD_REACTORS
330
47
102
}
330
47
100
AcDbScale
 70
     0
300
1:16
140
1.0
141
16.0
290
     0
  0
SCALE
  5
4F
102
{ACAD_REACTORS
330
47
102
}
330
47
100
AcDbScale
 70
     0
300
1:20
140
1.0
141
20.0
290
     0
  0
SCALE
  5
50
102
{ACAD_REACTORS
330
47
102
}
330
47
100
AcDbScale
 70
     0
300
1:30
140
1.0
141
30.0
290
     0
  0
SCALE
  5
51
102
{ACAD_REACTORS
330
47
102
}
330
47
100
AcDbScale
 70
     0
300
1:40
140
1.0
141
40.0
290
     0
  0
SCALE
  5
52
102
{ACAD_REACTORS
330
47
102
}
330
47
100
AcDbScale
 70
     0
300
1:50
140
1.0
141
50.0
290
     0
  0
SCALE
  5
53
102
{ACAD_REACTORS
330
47
102
}
330
47
100
AcDbScale
 70
     0
300
1:100
140
1.0
141
100.0
290
     0
  0
SCALE
  5
54
102
{ACAD_REACTORS
330
47
102
}
330
47
100
AcDbScale
 70
     0
300
2:1
140
2.0
141
1.0
290
     0
  0
SCALE
  5
55
102
{ACAD_REACTORS
330
47
102
}
330
47
100
AcDbScale
 70
     0
300
4:1
140
4.0
141
1.0
290
     0
  0
SCALE
  5
56
102
{ACAD_REACTORS
330
47
102
}
330
47
100
AcDbScale
 70
     0
300
8:1
140
8.0
141
1.0
290
     0
  0
SCALE
  5
57
102
{ACAD_REACTORS
330
47
102
}
330
47
100
AcDbScale
 70
     0
300
10:1
140
10.0
141
1.0
290
     0
  0
SCALE
  5
58
102
{ACAD_REACTORS
330
47
102
}
330
47
100
AcDbScale
 70
     0
300
100:1
140
100.0
141
1.0
290
     0
  0
SCALE
  5
59
102
{ACAD_REACTORS
330
47
102
}
330
47
100
AcDbScale
 70
     0
300
1/128" = 1'-0"
140
0.0078125
141
12.0
290
     0
  0
SCALE
  5
5A
102
{ACAD_REACTORS
330
47
102
}
330
47
100
AcDbScale
 70
     0
300
1/64" = 1'-0"
140
0.015625
141
12.0
290
     0
  0
SCALE
  5
5B
102
{ACAD_REACTORS
330
47
102
}
330
47
100
AcDbScale
 70
     0
300
1/32" = 1'-0"
140
0.03125
141
12.0
290
     0
  0
SCALE
  5
5C
102
{ACAD_REACTORS
330
47
102
}
330
47
100
AcDbScale
 70
     0
300
1/16" = 1'-0"
140
0.0625
141
12.0
290
     0
  0
SCALE
  5
5D
102
{ACAD_REACTORS
330
47
102
}
330
47
100
AcDbScale
 70
     0
300
3/32" = 1'-0"
140
0.09375
141
12.0
290
     0
  0
SCALE
  5
5E
102
{ACAD_REACTORS
330
47
102
}
330
47
100
AcDbScale
 70
     0
300
1/8" = 1'-0"
140
0.125
141
12.0
290
     0
  0
SCALE
  5
5F
102
{ACAD_REACTORS
330
47
102
}
330
47
100
AcDbScale
 70
     0
300
3/16" = 1'-0"
140
0.1875
141
12.0
290
     0
  0
SCALE
  5
60
102
{ACAD_REACTORS
330
47
102
}
330
47
100
AcDbScale
 70
     0
300
1/4" = 1'-0"
140
0.25
141
12.0
290
     0
  0
SCALE
  5
61
102
{ACAD_REACTORS
330
47
102
}
330
47
100
AcDbScale
 70
     0
300
3/8" = 1'-0"
140
0.375
141
12.0
290
     0
  0
SCALE
  5
62
102
{ACAD_REACTORS
330
47
102
}
330
47
100
AcDbScale
 70
     0
300
1/2" = 1'-0"
140
0.5
141
12.0
290
     0
  0
SCALE
  5
63
102
{ACAD_REACTORS
330
47
102
}
330
47
100
AcDbScale
 70
     0
300
3/4" = 1'-0"
140
0.75
141
12.0
290
     0
  0
SCALE
  5
64
102
{ACAD_REACTORS
330
47
102
}
330
47
100
AcDbScale
 70
     0
300
1" = 1'-0"
140
1.0
141
12.0
290
     0
  0
SCALE
  5
65
102
{ACAD_REACTORS
330
47
102
}
330
47
100
AcDbScale
 70
     0
300
1-1/2" = 1'-0"
140
1.5
141
12.0
290
     0
  0
SCALE
  5
66
102
{ACAD_REACTORS
330
47
102
}
330
47
100
AcDbScale
 70
     0
300
3" = 1'-0"
140
3.0
141
12.0
290
     0
  0
SCALE
  5
67
102
{ACAD_REACTORS
330
47
102
}
330
47
100
AcDbScale
 70
     0
300
6" = 1'-0"
140
6.0
141
12.0
290
     0
  0
SCALE
  5
68
102
{ACAD_REACTORS
330
47
102
}
330
47
100
AcDbScale
 70
     0
300
1'-0" = 1'-0"
140
12.0
141
12.0
290
     0
  0
TABLESTYLE
  5
6A
102
{ACAD_REACTORS
330
69
102
}
102
{ACAD_XDICTIONARY
360
19F
102
}
330
69
100
AcDbTableStyle
  3
Standard
 70
     0
 71
     0
 40
0.06
 41
0.06
280
     0
281
     0
  7
Standard
140
0.18
170
     2
 62
     0
 63
   257
283
     0
 90
        4
 91
        0
  1

274
    -2
284
     1
 64
     0
275
    -2
285
     1
 65
     0
276
    -2
286
     1
 66
     0
277
    -2
287
     1
 67
     0
278
    -2
288
     1
 68
     0
279
    -2
289
     1
 69
     0
  7
Standard
140
0.25
170
     5
 62
     0
 63
   257
283
     0
 90
        4
 91
        0
  1

274
    -2
284
     1
 64
     0
275
    -2
285
     1
 65
     0
276
    -2
286
     1
 66
     0
277
    -2
287
     1
 67
     0
278
    -2
288
     1
 68
     0
279
    -2
289
     1
 69
     0
  7
Standard
140
0.18
170
     5
 62
     0
 63
   257
283
     0
 90
        4
 91
        0
  1

274
    -2
284
     1
 64
     0
275
    -2
285
     1
 65
     0
276
    -2
286
     1
 66
     0
277
    -2
287
     1
 67
     0
278
    -2
288
     1
 68
     0
279
    -2
289
     1
 69
     0
  0
VISUALSTYLE
  5
2F
102
{ACAD_REACTORS
330
2A
102
}
330
2A
100
AcDbVisualStyle
  2
2dWireframe
 70
     4
177
     3
291
     0
 70
    58
 90
        0
176
     1
 90
        2
176
     1
 90
        0
176
     1
 90
        0
176
     1
 40
0.6
176
     1
 40
30.0
176
     1
 62
     7
420
 16777215
176
     1
 90
        1
176
     1
 90
        4
176
     1
 62
     7
176
     1
 62
   257
176
     1
 90
        1
176
     1
 90
        1
176
     1
 40
1.0
176
     1
 90
        0
176
     1
 62
   257
176
     1
 40
1.0
176
     1
 90
        1
176
     1
 90
        6
176
     1
 90
        2
176
     1
 62
     7
176
     1
 90
        5
176
     1
 90
        0
176
     1
 90
        0
176
     1
290
     0
176
     1
 90
        1
176
     1
 40
0.0
176
     1
 90
        0
176
     1
290
     1
176
     1
290
     1
176
     1
290
     0
176
     1
290
     0
176
     1
290
     0
176
     1
290
     0
176
     1
290
     0
176
     1
290
     0
176
     1
290
     0
176
     1
 90
       50
176
     1
 40
0.0
176
     1
 40
1.0
176
     1
 90
        0
176
     1
 62
    18
420
        0
176
     1
 90
       50
176
     1
 90
        3
176
     1
 62
     5
420
      255
176
     1
290
     0
176
     1
 90
       50
176
     1
 90
       50
176
     1
 90
       50
176
     1
290
     0
176
     1
 90
       50
176
     1
 62
   256
176
     0
 40
1.0
176
     0
 90
        2
176
     1
  1
strokes_ogs.tif
176
     1
290
     0
176
     1
 40
1.0
176
     1
 40
1.0
176
     1
  0
VISUALSTYLE
  5
32
102
{ACAD_REACTORS
330
2A
102
}
330
2A
100
AcDbVisualStyle
  2
Basic
 70
     7
177
     3
291
     1
 70
    58
 90
        1
176
     1
 90
        0
176
     1
 90
        1
176
     1
 90
        0
176
     1
 40
0.6
176
     1
 40
30.0
176
     1
 62
     7
420
 16777215
176
     1
 90
        0
176
     1
 90
        4
176
     1
 62
     7
176
     1
 62
   257
176
     1
 90
        1
176
     1
 90
        1
176
     1
 40
1.0
176
     1
 90
        8
176
     1
 62
     7
176
     1
 40
1.0
176
     1
 90
        1
176
     1
 90
        6
176
     1
 90
        2
176
     1
 62
     7
176
     1
 90
        5
176
     1
 90
        0
176
     1
 90
        0
176
     1
290
     0
176
     1
 90
        1
176
     1
 40
0.0
176
     1
 90
        0
176
     1
290
     0
176
     1
290
     1
176
     1
290
     1
176
     1
290
     0
176
     1
290
     0
176
     1
290
     0
176
     1
290
     0
176
     1
290
     0
176
     1
290
     0
176
     1
 90
       50
176
     1
 40
0.0
176
     1
 40
1.0
176
     1
 90
        0
176
     1
 62
    18
420
        0
176
     1
 90
       50
176
     1
 90
        3
176
     1
 62
     5
420
      255
176
     1
290
     0
176
     1
 90
       50
176
     1
 90
       50
176
     1
 90
       50
176
     1
290
     0
176
     1
 90
       50
176
     1
 62
   256
176
     0
 40
1.0
176
     0
 90
        2
176
     1
  1
strokes_ogs.tif
176
     1
290
     0
176
     1
 40
1.0
176
     1
 40
1.0
176
     1
  0
VISUALSTYLE
  5
36
102
{ACAD_REACTORS
330
2A
102
}
330
2A
100
AcDbVisualStyle
  2
Brighten
 70
    12
177
     3
291
     1
 70
    58
 90
        2
176
     1
 90
        2
176
     1
 90
        0
176
     1
 90
        0
176
     1
 40
0.6
176
     1
 40
30.0
176
     1
 62
     7
420
 16777215
176
     1
 90
        1
176
     1
 90
        4
176
     1
 62
     7
176
     1
 62
   257
176
     1
 90
        1
176
     1
 90
        1
176
     1
 40
1.0
176
     1
 90
        8
176
     1
 62
     7
176
     1
 40
1.0
176
     1
 90
        1
176
     1
 90
        6
176
     1
 90
        2
176
     1
 62
     7
176
     1
 90
        5
176
     1
 90
        0
176
     1
 90
        0
176
     1
290
     0
176
     1
 90
        1
176
     1
 40
50.0
176
     1
 90
        0
176
     1
290
     0
176
     1
290
     1
176
     1
290
     1
176
     1
290
     0
176
     1
290
     0
176
     1
290
     0
176
     1
290
     0
176
     1
290
     0
176
     1
290
     0
176
     1
 90
       50
176
     1
 40
0.0
176
     1
 40
1.0
176
     1
 90
        0
176
     1
 62
    18
420
        0
176
     1
 90
       50
176
     1
 90
        3
176
     1
 62
     5
420
      255
176
     1
290
     0
176
     1
 90
       50
176
     1
 90
       50
176
     1
 90
       50
176
     1
290
     0
176
     1
 90
       50
176
     1
 62
   256
176
     0
 40
1.0
176
     0
 90
        2
176
     1
  1
strokes_ogs.tif
176
     1
290
     0
176
     1
 40
1.0
176
     1
 40
1.0
176
     1
  0
VISUALSTYLE
  5
3A
102
{ACAD_REACTORS
330
2A
102
}
330
2A
100
AcDbVisualStyle
  2
ColorChange
 70
    16
177
     3
291
     1
 70
    58
 90
        2
176
     1
 90
        2
176
     1
 90
        3
176
     1
 90
        0
176
     1
 40
0.6
176
     1
 40
30.0
176
     1
 62
     8
420
  8421504
176
     1
 90
        1
176
     1
 90
        4
176
     1
 62
     7
176
     1
 62
   257
176
     1
 90
        1
176
     1
 90
        1
176
     1
 40
1.0
176
     1
 90
        8
176
     1
 62
     8
420
  8421504
176
     1
 40
1.0
176
     1
 90
        1
176
     1
 90
        6
176
     1
 90
        2
176
     1
 62
     7
176
     1
 90
        5
176
     1
 90
        0
176
     1
 90
        0
176
     1
290
     0
176
     1
 90
        1
176
     1
 40
0.0
176
     1
 90
        0
176
     1
290
     0
176
     1
290
     1
176
     1
290
     1
176
     1
290
     0
176
     1
290
     0
176
     1
290
     0
176
     1
290
     0
176
     1
290
     0
176
     1
290
     0
176
     1
 90
       50
176
     1
 40
0.0
176
     1
 40
1.0
176
     1
 90
        0
176
     1
 62
    18
420
        0
176
     1
 90
       50
176
     1
 90
        3
176
     1
 62
     5
420
      255
176
     1
290
     0
176
     1
 90
       50
176
     1
 90
       50
176
     1
 90
       50
176
     1
290
     0
176
     1
 90
       50
176
     1
 62
   256
176
     0
 40
1.0
176
     0
 90
        2
176
     1
  1
strokes_ogs.tif
176
     1
290
     0
176
     1
 40
1.0
176
     1
 40
1.0
176
     1
  0
VISUALSTYLE
  5
34
102
{ACAD_REACTORS
330
2A
102
}
330
2A
100
AcDbVisualStyle
  2
Conceptual
 70
     9
177
     3
291
     0
 70
    58
 90
        3
176
     1
 90
        2
176
     1
 90
        0
176
     1
 90
        0
176
     1
 40
0.6
176
     1
 40
30.0
176
     1
 62
     7
420
 16777215
176
     1
 90
        2
176
     1
 90
        2
176
     1
 62
     7
176
     1
 62
   257
176
     1
 90
        1
176
     1
 90
        1
176
     1
 40
179.0
176
     1
 90
        8
176
     1
 62
     7
176
     1
 40
1.0
176
     1
 90
        1
176
     1
 90
        6
176
     1
 90
        2
176
     1
 62
     7
176
     1
 90
        3
176
     1
 90
        0
176
     1
 90
        0
176
     1
290
     0
176
     1
 90
        1
176
     1
 40
0.0
176
     1
 90
        0
176
     1
290
     0
176
     1
290
     1
176
     1
290
     1
176
     1
290
     0
176
     1
290
     0
176
     1
290
     0
176
     1
290
     0
176
     1
290
     0
176
     1
290
     0
176
     1
 90
       50
176
     1
 40
0.0
176
     1
 40
1.0
176
     1
 90
        0
176
     1
 62
    18
420
        0
176
     1
 90
       50
176
     1
 90
        3
176
     1
 62
     5
420
      255
176
     1
290
     0
176
     1
 90
       50
176
     1
 90
       50
176
     1
 90
       50
176
     1
290
     0
176
     1
 90
       50
176
     1
 62
   256
176
     0
 40
1.0
176
     0
 90
        2
176
     1
  1
strokes_ogs.tif
176
     1
290
     0
176
     1
 40
1.0
176
     1
 40
1.0
176
     1
  0
VISUALSTYLE
  5
35
102
{ACAD_REACTORS
330
2A
102
}
330
2A
100
AcDbVisualStyle
  2
Dim
 70
    11
177
     3
291
     1
 70
    58
 90
        2
176
     1
 90
        2
176
     1
 90
        0
176
     1
 90
        0
176
     1
 40
0.6
176
     1
 40
30.0
176
     1
 62
     7
420
 16777215
176
     1
 90
        1
176
     1
 90
        4
176
     1
 62
     7
176
     1
 62
   257
176
     1
 90
        1
176
     1
 90
        1
176
     1
 40
1.0
176
     1
 90
        8
176
     1
 62
     7
176
     1
 40
1.0
176
     1
 90
        1
176
     1
 90
        6
176
     1
 90
        2
176
     1
 62
     7
176
     1
 90
        5
176
     1
 90
        0
176
     1
 90
        0
176
     1
290
     0
176
     1
 90
        1
176
     1
 40
-50.0
176
     1
 90
        0
176
     1
290
     0
176
     1
290
     1
176
     1
290
     1
176
     1
290
     0
176
     1
290
     0
176
     1
290
     0
176
     1
290
     0
176
     1
290
     0
176
     1
290
     0
176
     1
 90
       50
176
     1
 40
0.0
176
     1
 40
1.0
176
     1
 90
        0
176
     1
 62
    18
420
        0
176
     1
 90
       50
176
     1
 90
        3
176
     1
 62
     5
420
      255
176
     1
290
     0
176
     1
 90
       50
176
     1
 90
       50
176
     1
 90
       50
176
     1
290
     0
176
     1
 90
       50
176
     1
 62
   256
176
     0
 40
1.0
176
     0
 90
        2
176
     1
  1
strokes_ogs.tif
176
     1
290
     0
176
     1
 40
1.0
176
     1
 40
1.0
176
     1
  0
VISUALSTYLE
  5
3D
102
{ACAD_REACTORS
330
2A
102
}
330
2A
100
AcDbVisualStyle
  2
EdgeColorOff
 70
    22
177
     3
291
     1
 70
    58
 90
        2
176
     0
 90
        2
176
     0
 90
        0
176
     0
 90
        0
176
     0
 40
0.6
176
     0
 40
30.0
176
     0
 62
     7
420
 16777215
176
     0
 90
        1
176
     0
 90
        4
176
     0
 62
     7
176
     0
 62
   257
176
     0
 90
        1
176
     0
 90
        1
176
     0
 40
1.0
176
     0
 90
        8
176
     2
 62
     7
176
     0
 40
1.0
176
     0
 90
        1
176
     0
 90
        6
176
     0
 90
        2
176
     0
 62
     7
176
     0
 90
        5
176
     0
 90
        0
176
     0
 90
        0
176
     0
290
     0
176
     0
 90
        1
176
     0
 40
0.0
176
     0
 90
        0
176
     0
290
     0
176
     0
290
     1
176
     0
290
     1
176
     0
290
     0
176
     0
290
     0
176
     0
290
     0
176
     0
290
     0
176
     0
290
     0
176
     0
290
     0
176
     0
 90
       50
176
     0
 40
0.0
176
     0
 40
1.0
176
     0
 90
        0
176
     0
 62
    18
420
        0
176
     0
 90
       50
176
     0
 90
        3
176
     0
 62
     5
420
      255
176
     0
290
     0
176
     0
 90
       50
176
     0
 90
       50
176
     0
 90
       50
176
     0
290
     0
176
     0
 90
       50
176
     0
 62
   256
176
     0
 40
1.0
176
     0
 90
        2
176
     0
  1
strokes_ogs.tif
176
     0
290
     0
176
     0
 40
1.0
176
     0
 40
1.0
176
     0
  0
VISUALSTYLE
  5
39
102
{ACAD_REACTORS
330
2A
102
}
330
2A
100
AcDbVisualStyle
  2
Facepattern
 70
    15
177
     3
291
     1
 70
    58
 90
        2
176
     1
 90
        2
176
     1
 90
        0
176
     1
 90
        0
176
     1
 40
0.6
176
     1
 40
30.0
176
     1
 62
     7
420
 16777215
176
     1
 90
        1
176
     1
 90
        4
176
     1
 62
     7
176
     1
 62
   257
176
     1
 90
        1
176
     1
 90
        1
176
     1
 40
1.0
176
     1
 90
        8
176
     1
 62
     7
176
     1
 40
1.0
176
     1
 90
        1
176
     1
 90
        6
176
     1
 90
        2
176
     1
 62
     7
176
     1
 90
        5
176
     1
 90
        0
176
     1
 90
        0
176
     1
290
     0
176
     1
 90
        1
176
     1
 40
0.0
176
     1
 90
        0
176
     1
290
     0
176
     1
290
     1
176
     1
290
     1
176
     1
290
     0
176
     1
290
     0
176
     1
290
     0
176
     1
290
     0
176
     1
290
     0
176
     1
290
     0
176
     1
 90
       50
176
     1
 40
0.0
176
     1
 40
1.0
176
     1
 90
        0
176
     1
 62
    18
420
        0
176
     1
 90
       50
176
     1
 90
        3
176
     1
 62
     5
420
      255
176
     1
290
     0
176
     1
 90
       50
176
     1
 90
       50
176
     1
 90
       50
176
     1
290
     0
176
     1
 90
       50
176
     1
 62
   256
176
     0
 40
1.0
176
     0
 90
        2
176
     1
  1
strokes_ogs.tif
176
     1
290
     0
176
     1
 40
1.0
176
     1
 40
1.0
176
     1
  0
VISUALSTYLE
  5
2B
102
{ACAD_REACTORS
330
2A
102
}
330
2A
100
AcDbVisualStyle
  2
Flat
 70
     0
177
     3
291
     1
 70
    58
 90
        2
176
     1
 90
        1
176
     1
 90
        1
176
     1
 90
        2
176
     1
 40
0.6
176
     1
 40
30.0
176
     1
 62
     7
420
 16777215
176
     1
 90
        0
176
     1
 90
        0
176
     1
 62
     7
176
     1
 62
   257
176
     1
 90
        1
176
     1
 90
        1
176
     1
 40
1.0
176
     1
 90
        8
176
     1
 62
     7
176
     1
 40
1.0
176
     1
 90
        1
176
     1
 90
        6
176
     1
 90
        2
176
     1
 62
     7
176
     1
 90
        5
176
     1
 90
        0
176
     1
 90
        0
176
     1
290
     0
176
     1
 90
       13
176
     1
 40
0.0
176
     1
 90
        0
176
     1
290
     0
176
     1
290
     1
176
     1
290
     1
176
     1
290
     0
176
     1
290
     0
176
     1
290
     0
176
     1
290
     0
176
     1
290
     0
176
     1
290
     0
176
     1
 90
       50
176
     1
 40
0.0
176
     1
 40
1.0
176
     1
 90
        0
176
     1
 62
    18
420
        0
176
     1
 90
       50
176
     1
 90
        3
176
     1
 62
     5
420
      255
176
     1
290
     0
176
     1
 90
       50
176
     1
 90
       50
176
     1
 90
       50
176
     1
290
     0
176
     1
 90
       50
176
     1
 62
   256
176
     0
 40
1.0
176
     0
 90
        2
176
     1
  1
strokes_ogs.tif
176
     1
290
     0
176
     1
 40
1.0
176
     1
 40
1.0
176
     1
  0
VISUALSTYLE
  5
2C
102
{ACAD_REACTORS
330
2A
102
}
330
2A
100
AcDbVisualStyle
  2
FlatWithEdges
 70
     1
177
     3
291
     1
 70
    58
 90
        2
176
     1
 90
        1
176
     1
 90
        1
176
     1
 90
        2
176
     1
 40
0.6
176
     1
 40
30.0
176
     1
 62
     7
420
 16777215
176
     1
 90
        1
176
     1
 90
        0
176
     1
 62
     7
176
     1
 62
   257
176
     1
 90
        1
176
     1
 90
        1
176
     1
 40
1.0
176
     1
 90
        0
176
     1
 62
   257
176
     1
 40
1.0
176
     1
 90
        1
176
     1
 90
        6
176
     1
 90
        2
176
     1
 62
     7
176
     1
 90
        5
176
     1
 90
        0
176
     1
 90
        0
176
     1
290
     0
176
     1
 90
       13
176
     1
 40
0.0
176
     1
 90
        0
176
     1
290
     0
176
     1
290
     1
176
     1
290
     1
176
     1
290
     0
176
     1
290
     0
176
     1
290
     0
176
     1
290
     0
176
     1
290
     0
176
     1
290
     0
176
     1
 90
       50
176
     1
 40
0.0
176
     1
 40
1.0
176
     1
 90
        0
176
     1
 62
    18
420
        0
176
     1
 90
       50
176
     1
 90
        3
176
     1
 62
     5
420
      255
176
     1
290
     0
176
     1
 90
       50
176
     1
 90
       50
176
     1
 90
       50
176
     1
290
     0
176
     1
 90
       50
176
     1
 62
   256
176
     0
 40
1.0
176
     0
 90
        2
176
     1
  1
strokes_ogs.tif
176
     1
290
     0
176
     1
 40
1.0
176
     1
 40
1.0
176
     1
  0
VISUALSTYLE
  5
2D
102
{ACAD_REACTORS
330
2A
102
}
330
2A
100
AcDbVisualStyle
  2
Gouraud
 70
     2
177
     3
291
     1
 70
    58
 90
        2
176
     1
 90
        2
176
     1
 90
        1
176
     1
 90
        2
176
     1
 40
0.6
176
     1
 40
30.0
176
     1
 62
     7
420
 16777215
176
     1
 90
        0
176
     1
 90
        0
176
     1
 62
     7
176
     1
 62
   257
176
     1
 90
        1
176
     1
 90
        1
176
     1
 40
1.0
176
     1
 90
        0
176
     1
 62
     7
176
     1
 40
1.0
176
     1
 90
        1
176
     1
 90
        6
176
     1
 90
        2
176
     1
 62
     7
176
     1
 90
        5
176
     1
 90
        0
176
     1
 90
        0
176
     1
290
     0
176
     1
 90
       13
176
     1
 40
0.0
176
     1
 90
        0
176
     1
290
     0
176
     1
290
     1
176
     1
290
     1
176
     1
290
     0
176
     1
290
     0
176
     1
290
     0
176
     1
290
     0
176
     1
290
     0
176
     1
290
     0
176
     1
 90
       50
176
     1
 40
0.0
176
     1
 40
1.0
176
     1
 90
        0
176
     1
 62
    18
420
        0
176
     1
 90
       50
176
     1
 90
        3
176
     1
 62
     5
420
      255
176
     1
290
     0
176
     1
 90
       50
176
     1
 90
       50
176
     1
 90
       50
176
     1
290
     0
176
     1
 90
       50
176
     1
 62
   256
176
     0
 40
1.0
176
     0
 90
        2
176
     1
  1
strokes_ogs.tif
176
     1
290
     0
176
     1
 40
1.0
176
     1
 40
1.0
176
     1
  0
VISUALSTYLE
  5
2E
102
{ACAD_REACTORS
330
2A
102
}
330
2A
100
AcDbVisualStyle
  2
GouraudWithEdges
 70
     3
177
     3
291
     1
 70
    58
 90
        2
176
     1
 90
        2
176
     1
 90
        1
176
     1
 90
        2
176
     1
 40
0.6
176
     1
 40
30.0
176
     1
 62
     7
420
 16777215
176
     1
 90
        1
176
     1
 90
        0
176
     1
 62
     7
176
     1
 62
   257
176
     1
 90
        1
176
     1
 90
        1
176
     1
 40
1.0
176
     1
 90
        0
176
     1
 62
   257
176
     1
 40
1.0
176
     1
 90
        1
176
     1
 90
        6
176
     1
 90
        2
176
     1
 62
     7
176
     1
 90
        5
176
     1
 90
        0
176
     1
 90
        0
176
     1
290
     0
176
     1
 90
       13
176
     1
 40
0.0
176
     1
 90
        0
176
     1
290
     0
176
     1
290
     1
176
     1
290
     1
176
     1
290
     0
176
     1
290
     0
176
     1
290
     0
176
     1
290
     0
176
     1
290
     0
176
     1
290
     0
176
     1
 90
       50
176
     1
 40
0.0
176
     1
 40
1.0
176
     1
 90
        0
176
     1
 62
    18
420
        0
176
     1
 90
       50
176
     1
 90
        3
176
     1
 62
     5
420
      255
176
     1
290
     0
176
     1
 90
       50
176
     1
 90
       50
176
     1
 90
       50
176
     1
290
     0
176
     1
 90
       50
176
     1
 62
   256
176
     0
 40
1.0
176
     0
 90
        2
176
     1
  1
strokes_ogs.tif
176
     1
290
     0
176
     1
 40
1.0
176
     1
 40
1.0
176
     1
  0
VISUALSTYLE
  5
31
102
{ACAD_REACTORS
330
2A
102
}
330
2A
100
AcDbVisualStyle
  2
Hidden
 70
     6
177
     3
291
     0
 70
    58
 90
        1
176
     1
 90
        2
176
     1
 90
        2
176
     1
 90
        0
176
     1
 40
0.6
176
     1
 40
30.0
176
     1
 62
     7
420
 16777215
176
     1
 90
        2
176
     1
 90
        2
176
     1
 62
     7
176
     1
 62
   257
176
     1
 90
        2
176
     1
 90
        1
176
     1
 40
40.0
176
     1
 90
        0
176
     1
 62
   257
176
     1
 40
1.0
176
     1
 90
        1
176
     1
 90
        6
176
     1
 90
        2
176
     1
 62
     7
176
     1
 90
        3
176
     1
 90
        0
176
     1
 90
        0
176
     1
290
     0
176
     1
 90
        1
176
     1
 40
0.0
176
     1
 90
        0
176
     1
290
     0
176
     1
290
     1
176
     1
290
     1
176
     1
290
     0
176
     1
290
     0
176
     1
290
     0
176
     1
290
     0
176
     1
290
     0
176
     1
290
     0
176
     1
 90
       50
176
     1
 40
0.0
176
     1
 40
1.0
176
     1
 90
        0
176
     1
 62
    18
420
        0
176
     1
 90
       50
176
     1
 90
        3
176
     1
 62
     5
420
      255
176
     1
290
     0
176
     1
 90
       50
176
     1
 90
       50
176
     1
 90
       50
176
     1
290
     0
176
     1
 90
       50
176
     1
 62
   256
176
     0
 40
1.0
176
     0
 90
        2
176
     1
  1
strokes_ogs.tif
176
     1
290
     0
176
     1
 40
1.0
176
     1
 40
1.0
176
     1
  0
VISUALSTYLE
  5
3B
102
{ACAD_REACTORS
330
2A
102
}
330
2A
100
AcDbVisualStyle
  2
JitterOff
 70
    20
177
     3
291
     1
 70
    58
 90
        2
176
     0
 90
        2
176
     0
 90
        0
176
     0
 90
        0
176
     0
 40
0.6
176
     0
 40
30.0
176
     0
 62
     7
420
 16777215
176
     0
 90
        1
176
     0
 90
        4
176
     0
 62
     7
176
     0
 62
   257
176
     0
 90
        1
176
     0
 90
        1
176
     0
 40
1.0
176
     0
 90
       10
176
     2
 62
     7
176
     0
 40
1.0
176
     0
 90
        1
176
     0
 90
        6
176
     0
 90
        2
176
     0
 62
     7
176
     0
 90
        5
176
     0
 90
        0
176
     0
 90
        0
176
     0
290
     0
176
     0
 90
        1
176
     0
 40
0.0
176
     0
 90
        0
176
     0
290
     0
176
     0
290
     1
176
     0
290
     1
176
     0
290
     0
176
     0
290
     0
176
     0
290
     0
176
     0
290
     0
176
     0
290
     0
176
     0
290
     0
176
     0
 90
       50
176
     0
 40
0.0
176
     0
 40
1.0
176
     0
 90
        0
176
     0
 62
    18
420
        0
176
     0
 90
       50
176
     0
 90
        3
176
     0
 62
     5
420
      255
176
     0
290
     0
176
     0
 90
       50
176
     0
 90
       50
176
     0
 90
       50
176
     0
290
     0
176
     0
 90
       50
176
     0
 62
   256
176
     0
 40
1.0
176
     0
 90
        2
176
     0
  1
strokes_ogs.tif
176
     0
290
     0
176
     0
 40
1.0
176
     0
 40
1.0
176
     0
  0
VISUALSTYLE
  5
38
102
{ACAD_REACTORS
330
2A
102
}
330
2A
100
AcDbVisualStyle
  2
Linepattern
 70
    14
177
     3
291
     1
 70
    58
 90
        2
176
     1
 90
        2
176
     1
 90
        0
176
     1
 90
        0
176
     1
 40
0.6
176
     1
 40
30.0
176
     1
 62
     7
420
 16777215
176
     1
 90
        1
176
     1
 90
        4
176
     1
 62
     7
176
     1
 62
   257
176
     1
 90
        7
176
     1
 90
        7
176
     1
 40
1.0
176
     1
 90
        8
176
     1
 62
     7
176
     1
 40
1.0
176
     1
 90
        1
176
     1
 90
        6
176
     1
 90
        2
176
     1
 62
     7
176
     1
 90
        5
176
     1
 90
        0
176
     1
 90
        0
176
     1
290
     0
176
     1
 90
        1
176
     1
 40
0.0
176
     1
 90
        0
176
     1
290
     0
176
     1
290
     1
176
     1
290
     1
176
     1
290
     0
176
     1
290
     0
176
     1
290
     0
176
     1
290
     0
176
     1
290
     0
176
     1
290
     0
176
     1
 90
       50
176
     1
 40
0.0
176
     1
 40
1.0
176
     1
 90
        0
176
     1
 62
    18
420
        0
176
     1
 90
       50
176
     1
 90
        3
176
     1
 62
     5
420
      255
176
     1
290
     0
176
     1
 90
       50
176
     1
 90
       50
176
     1
 90
       50
176
     1
290
     0
176
     1
 90
       50
176
     1
 62
   256
176
     0
 40
1.0
176
     0
 90
        2
176
     1
  1
strokes_ogs.tif
176
     1
290
     0
176
     1
 40
1.0
176
     1
 40
1.0
176
     1
  0
VISUALSTYLE
  5
3C
102
{ACAD_REACTORS
330
2A
102
}
330
2A
100
AcDbVisualStyle
  2
OverhangOff
 70
    21
177
     3
291
     1
 70
    58
 90
        2
176
     0
 90
        2
176
     0
 90
        0
176
     0
 90
        0
176
     0
 40
0.6
176
     0
 40
30.0
176
     0
 62
     7
420
 16777215
176
     0
 90
        1
176
     0
 90
        4
176
     0
 62
     7
176
     0
 62
   257
176
     0
 90
        1
176
     0
 90
        1
176
     0
 40
1.0
176
     0
 90
        9
176
     2
 62
     7
176
     0
 40
1.0
176
     0
 90
        1
176
     0
 90
        6
176
     0
 90
        2
176
     0
 62
     7
176
     0
 90
        5
176
     0
 90
        0
176
     0
 90
        0
176
     0
290
     0
176
     0
 90
        1
176
     0
 40
0.0
176
     0
 90
        0
176
     0
290
     0
176
     0
290
     1
176
     0
290
     1
176
     0
290
     0
176
     0
290
     0
176
     0
290
     0
176
     0
290
     0
176
     0
290
     0
176
     0
290
     0
176
     0
 90
       50
176
     0
 40
0.0
176
     0
 40
1.0
176
     0
 90
        0
176
     0
 62
    18
420
        0
176
     0
 90
       50
176
     0
 90
        3
176
     0
 62
     5
420
      255
176
     0
290
     0
176
     0
 90
       50
176
     0
 90
       50
176
     0
 90
       50
176
     0
290
     0
176
     0
 90
       50
176
     0
 62
   256
176
     0
 40
1.0
176
     0
 90
        2
176
     0
  1
strokes_ogs.tif
176
     0
290
     0
176
     0
 40
1.0
176
     0
 40
1.0
176
     0
  0
VISUALSTYLE
  5
33
102
{ACAD_REACTORS
330
2A
102
}
330
2A
100
AcDbVisualStyle
  2
Realistic
 70
     8
177
     3
291
     0
 70
    58
 90
        2
176
     1
 90
        3
176
     1
 90
        0
176
     1
 90
        2
176
     1
 40
0.6
176
     1
 40
30.0
176
     1
 62
     7
420
 16777215
176
     1
 90
        0
176
     1
 90
        0
176
     1
 62
     7
176
     1
 62
   257
176
     1
 90
        1
176
     1
 90
        1
176
     1
 40
1.0
176
     1
 90
        8
176
     1
 62
   257
176
     1
 40
1.0
176
     1
 90
        1
176
     1
 90
        6
176
     1
 90
        2
176
     1
 62
     7
176
     1
 90
        3
176
     1
 90
        0
176
     1
 90
        0
176
     1
290
     0
176
     1
 90
       13
176
     1
 40
0.0
176
     1
 90
        0
176
     1
290
     0
176
     1
290
     1
176
     1
290
     1
176
     1
290
     0
176
     1
290
     0
176
     1
290
     0
176
     1
290
     0
176
     1
290
     0
176
     1
290
     0
176
     1
 90
       50
176
     1
 40
0.0
176
     1
 40
1.0
176
     1
 90
        0
176
     1
 62
    18
420
        0
176
     1
 90
       50
176
     1
 90
        3
176
     1
 62
     5
420
      255
176
     1
290
     0
176
     1
 90
       50
176
     1
 90
       50
176
     1
 90
       50
176
     1
290
     0
176
     1
 90
       50
176
     1
 62
   256
176
     0
 40
1.0
176
     0
 90
        2
176
     1
  1
strokes_ogs.tif
176
     1
290
     0
176
     1
 40
1.0
176
     1
 40
1.0
176
     1
  0
VISUALSTYLE
  5
42
102
{ACAD_REACTORS
330
2A
102
}
330
2A
100
AcDbVisualStyle
  2
Shaded
 70
    27
177
     3
291
     0
 70
    58
 90
        2
176
     1
 90
        2
176
     1
 90
        1
176
     1
 90
        2
176
     1
 40
0.6
176
     1
 40
30.0
176
     1
 62
     7
420
 16777215
176
     1
 90
        0
176
     1
 90
        4
176
     1
 62
     7
176
     1
 62
   257
176
     1
 90
        1
176
     1
 90
        1
176
     1
 40
1.0
176
     1
 90
        8
176
     1
 62
   257
176
     1
 40
1.0
176
     1
 90
        1
176
     1
 90
        6
176
     1
 90
        2
176
     1
 62
     8
420
  7895160
176
     1
 90
        3
176
     1
 90
        0
176
     1
 90
        0
176
     1
290
     0
176
     1
 90
        5
176
     1
 40
0.0
176
     1
 90
        0
176
     1
290
     0
176
     1
290
     1
176
     1
290
     1
176
     1
290
     0
176
     1
290
     0
176
     1
290
     0
176
     1
290
     0
176
     1
290
     0
176
     1
290
     0
176
     1
 90
       50
176
     1
 40
0.0
176
     1
 40
1.0
176
     1
 90
        0
176
     1
 62
    18
420
        0
176
     1
 90
       50
176
     1
 90
        3
176
     1
 62
     5
420
      255
176
     1
290
     0
176
     1
 90
       50
176
     1
 90
       50
176
     1
 90
       50
176
     1
290
     0
176
     1
 90
       50
176
     1
 62
   256
176
     0
 40
1.0
176
     0
 90
        2
176
     1
  1
strokes_ogs.tif
176
     1
290
     0
176
     1
 40
1.0
176
     1
 40
1.0
176
     1
  0
VISUALSTYLE
  5
41
102
{ACAD_REACTORS
330
2A
102
}
330
2A
100
AcDbVisualStyle
  2
Shaded with edges
 70
    26
177
     3
291
     0
 70
    58
 90
        2
176
     1
 90
        2
176
     1
 90
        1
176
     1
 90
        2
176
     1
 40
0.6
176
     1
 40
30.0
176
     1
 62
     7
420
 16777215
176
     1
 90
        1
176
     1
 90
       10
176
     1
 62
     7
176
     1
 62
   257
176
     1
 90
        2
176
     1
 90
        1
176
     1
 40
1.0
176
     1
 90
        8
176
     1
 62
   257
176
     1
 40
1.0
176
     1
 90
        1
176
     1
 90
        6
176
     1
 90
        2
176
     1
 62
     7
176
     1
 90
        3
176
     1
 90
        0
176
     1
 90
        0
176
     1
290
     0
176
     1
 90
        5
176
     1
 40
0.0
176
     1
 90
        0
176
     1
290
     0
176
     1
290
     1
176
     1
290
     1
176
     1
290
     0
176
     1
290
     0
176
     1
290
     0
176
     1
290
     0
176
     1
290
     0
176
     1
290
     0
176
     1
 90
       50
176
     1
 40
0.0
176
     1
 40
1.0
176
     1
 90
        0
176
     1
 62
    18
420
        0
176
     1
 90
       50
176
     1
 90
        3
176
     1
 62
     5
420
      255
176
     1
290
     0
176
     1
 90
       50
176
     1
 90
       50
176
     1
 90
       50
176
     1
290
     0
176
     1
 90
       50
176
     1
 62
   256
176
     0
 40
1.0
176
     0
 90
        2
176
     1
  1
strokes_ogs.tif
176
     1
290
     0
176
     1
 40
1.0
176
     1
 40
1.0
176
     1
  0
VISUALSTYLE
  5
3E
102
{ACAD_REACTORS
330
2A
102
}
330
2A
100
AcDbVisualStyle
  2
Shades of Gray
 70
    23
177
     3
291
     0
 70
    58
 90
        2
176
     1
 90
        2
176
     1
 90
        3
176
     1
 90
        0
176
     1
 40
0.6
176
     1
 40
30.0
176
     1
 62
     7
420
 16777215
176
     1
 90
        2
176
     1
 90
        2
176
     1
 62
     7
176
     1
 62
     7
176
     1
 90
        1
176
     1
 90
        1
176
     1
 40
40.0
176
     1
 90
        8
176
     1
 62
     7
176
     1
 40
1.0
176
     1
 90
        1
176
     1
 90
        6
176
     1
 90
        2
176
     1
 62
     7
176
     1
 90
        3
176
     1
 90
        0
176
     1
 90
        0
176
     1
290
     0
176
     1
 90
        1
176
     1
 40
0.0
176
     1
 90
        0
176
     1
290
     0
176
     1
290
     1
176
     1
290
     1
176
     1
290
     0
176
     1
290
     0
176
     1
290
     0
176
     1
290
     0
176
     1
290
     0
176
     1
290
     0
176
     1
 90
       50
176
     1
 40
0.0
176
     1
 40
1.0
176
     1
 90
        0
176
     1
 62
    18
420
        0
176
     1
 90
       50
176
     1
 90
        3
176
     1
 62
     5
420
      255
176
     1
290
     0
176
     1
 90
       50
176
     1
 90
       50
176
     1
 90
       50
176
     1
290
     0
176
     1
 90
       50
176
     1
 62
   256
176
     0
 40
1.0
176
     0
 90
        2
176
     1
  1
strokes_ogs.tif
176
     1
290
     0
176
     1
 40
1.0
176
     1
 40
1.0
176
     1
  0
VISUALSTYLE
  5
3F
102
{ACAD_REACTORS
330
2A
102
}
330
2A
100
AcDbVisualStyle
  2
Sketchy
 70
    24
177
     3
291
     0
 70
    58
 90
        1
176
     1
 90
        2
176
     1
 90
        2
176
     1
 90
        0
176
     1
 40
0.6
176
     1
 40
30.0
176
     1
 62
     7
420
 16777215
176
     1
 90
        2
176
     1
 90
        2
176
     1
 62
     7
176
     1
 62
     7
176
     1
 90
        1
176
     1
 90
        1
176
     1
 40
40.0
176
     1
 90
       11
176
     1
 62
     7
176
     1
 40
1.0
176
     1
 90
        1
176
     1
 90
        6
176
     1
 90
        2
176
     1
 62
     7
176
     1
 90
        6
176
     1
 90
        0
176
     1
 90
        0
176
     1
290
     0
176
     1
 90
        1
176
     1
 40
0.0
176
     1
 90
        0
176
     1
290
     0
176
     1
290
     1
176
     1
290
     1
176
     1
290
     0
176
     1
290
     0
176
     1
290
     0
176
     1
290
     0
176
     1
290
     0
176
     1
290
     0
176
     1
 90
       50
176
     1
 40
0.0
176
     1
 40
1.0
176
     1
 90
        0
176
     1
 62
    18
420
        0
176
     1
 90
       50
176
     1
 90
        3
176
     1
 62
     5
420
      255
176
     1
290
     0
176
     1
 90
       50
176
     1
 90
       50
176
     1
 90
       50
176
     1
290
     0
176
     1
 90
       50
176
     1
 62
   256
176
     0
 40
1.0
176
     0
 90
        2
176
     1
  1
strokes_ogs.tif
176
     1
290
     0
176
     1
 40
1.0
176
     1
 40
1.0
176
     1
  0
VISUALSTYLE
  5
37
102
{ACAD_REACTORS
330
2A
102
}
330
2A
100
AcDbVisualStyle
  2
Thicken
 70
    13
177
     3
291
     1
 70
    58
 90
        2
176
     1
 90
        2
176
     1
 90
        0
176
     1
 90
        0
176
     1
 40
0.6
176
     1
 40
30.0
176
     1
 62
     7
420
 16777215
176
     1
 90
        1
176
     1
 90
        4
176
     1
 62
     7
176
     1
 62
   257
176
     1
 90
        1
176
     1
 90
        1
176
     1
 40
1.0
176
     1
 90
       12
176
     1
 62
     7
176
     1
 40
1.0
176
     1
 90
        1
176
     1
 90
        6
176
     1
 90
        2
176
     1
 62
     7
176
     1
 90
        5
176
     1
 90
        0
176
     1
 90
        0
176
     1
290
     0
176
     1
 90
        1
176
     1
 40
0.0
176
     1
 90
        0
176
     1
290
     0
176
     1
290
     1
176
     1
290
     1
176
     1
290
     0
176
     1
290
     0
176
     1
290
     0
176
     1
290
     0
176
     1
290
     0
176
     1
290
     0
176
     1
 90
       50
176
     1
 40
0.0
176
     1
 40
1.0
176
     1
 90
        0
176
     1
 62
    18
420
        0
176
     1
 90
       50
176
     1
 90
        3
176
     1
 62
     5
420
      255
176
     1
290
     0
176
     1
 90
       50
176
     1
 90
       50
176
     1
 90
       50
176
     1
290
     0
176
     1
 90
       50
176
     1
 62
   256
176
     0
 40
1.0
176
     0
 90
        2
176
     1
  1
strokes_ogs.tif
176
     1
290
     0
176
     1
 40
1.0
176
     1
 40
1.0
176
     1
  0
VISUALSTYLE
  5
30
102
{ACAD_REACTORS
330
2A
102
}
330
2A
100
AcDbVisualStyle
  2
Wireframe
 70
     5
177
     3
291
     0
 70
    58
 90
        0
176
     1
 90
        2
176
     1
 90
        0
176
     1
 90
        0
176
     1
 40
0.6
176
     1
 40
30.0
176
     1
 62
     7
420
 16777215
176
     1
 90
        1
176
     1
 90
        4
176
     1
 62
     7
176
     1
 62
   257
176
     1
 90
        1
176
     1
 90
        1
176
     1
 40
1.0
176
     1
 90
        0
176
     1
 62
   257
176
     1
 40
1.0
176
     1
 90
        1
176
     1
 90
        6
176
     1
 90
        2
176
     1
 62
     7
176
     1
 90
        3
176
     1
 90
        0
176
     1
 90
        0
176
     1
290
     0
176
     1
 90
        1
176
     1
 40
0.0
176
     1
 90
        0
176
     1
290
     0
176
     1
290
     1
176
     1
290
     1
176
     1
290
     0
176
     1
290
     0
176
     1
290
     0
176
     1
290
     0
176
     1
290
     0
176
     1
290
     0
176
     1
 90
       50
176
     1
 40
0.0
176
     1
 40
1.0
176
     1
 90
        0
176
     1
 62
    18
420
        0
176
     1
 90
       50
176
     1
 90
        3
176
     1
 62
     5
420
      255
176
     1
290
     0
176
     1
 90
       50
176
     1
 90
       50
176
     1
 90
       50
176
     1
290
     0
176
     1
 90
       50
176
     1
 62
   256
176
     0
 40
1.0
176
     0
 90
        2
176
     1
  1
strokes_ogs.tif
176
     1
290
     0
176
     1
 40
1.0
176
     1
 40
1.0
176
     1
  0
VISUALSTYLE
  5
40
102
{ACAD_REACTORS
330
2A
102
}
330
2A
100
AcDbVisualStyle
  2
X-Ray
 70
    25
177
     3
291
     0
 70
    58
 90
        2
176
     1
 90
        2
176
     1
 90
        1
176
     1
 90
        1
176
     1
 40
0.5
176
     1
 40
30.0
176
     1
 62
     7
420
 16777215
176
     1
 90
        1
176
     1
 90
        0
176
     1
 62
     7
176
     1
 62
   257
176
     1
 90
        1
176
     1
 90
        1
176
     1
 40
1.0
176
     1
 90
        8
176
     1
 62
     7
176
     1
 40
1.0
176
     1
 90
        1
176
     1
 90
        6
176
     1
 90
        2
176
     1
 62
     7
176
     1
 90
        3
176
     1
 90
        0
176
     1
 90
        0
176
     1
290
     0
176
     1
 90
       13
176
     1
 40
0.0
176
     1
 90
        0
176
     1
290
     0
176
     1
290
     1
176
     1
290
     1
176
     1
290
     0
176
     1
290
     0
176
     1
290
     0
176
     1
290
     0
176
     1
290
     0
176
     1
290
     0
176
     1
 90
       50
176
     1
 40
0.0
176
     1
 40
1.0
176
     1
 90
        0
176
     1
 62
    18
420
        0
176
     1
 90
       50
176
     1
 90
        3
176
     1
 62
     5
420
      255
176
     1
290
     0
176
     1
 90
       50
176
     1
 90
       50
176
     1
 90
       50
176
     1
290
     0
176
     1
 90
       50
176
     1
 62
   256
176
     0
 40
1.0
176
     0
 90
        2
176
     1
  1
strokes_ogs.tif
176
     1
290
     0
176
     1
 40
1.0
176
     1
 40
1.0
176
     1
  0
DICTIONARYVAR
  5
19E
102
{ACAD_REACTORS
330
19D
102
}
330
19D
100
DictionaryVariables
280
     0
  1
1:1
  0
DICTIONARYVAR
  5
1A3
102
{ACAD_REACTORS
330
19D
102
}
330
19D
100
DictionaryVariables
280
     0
  1
Standard
  0
DICTIONARYVAR
  5
1A2
102
{ACAD_REACTORS
330
19D
102
}
330
19D
100
DictionaryVariables
280
     0
  1
Standard
  0
DICTIONARY
  5
19F
330
6A
100
AcDbDictionary
280
     1
281
     1
  3
ACAD_ROUNDTRIP_2008_TABLESTYLE_CELLSTYLEMAP
360
1A0
  0
CELLSTYLEMAP
  5
1A0
102
{ACAD_REACTORS
330
19F
102
}
330
19F
100
AcDbCellStyleMap
 90
        3
300
CELLSTYLE
  1
TABLEFORMAT_BEGIN
 90
        5
170
     1
 91
        0
 92
    32768
 62
   257
 93
        1
300
CONTENTFORMAT
  1
CONTENTFORMAT_BEGIN
 90
        0
 91
        0
 92
        4
 93
        0
300

 40
0.0
140
1.0
 94
        5
 62
     0
340
11
144
0.25
309
CONTENTFORMAT_END
171
     1
301
MARGIN
  1
CELLMARGIN_BEGIN
 40
0.06
 40
0.06
 40
0.06
 40
0.06
 40
0.06
 40
0.06
309
CELLMARGIN_END
 94
        6
 95
        1
302
GRIDFORMAT
  1
GRIDFORMAT_BEGIN
 90
        0
 91
        1
 62
     0
 92
       -2
340
14
 93
        0
 40
0.045
309
GRIDFORMAT_END
 95
        2
302
GRIDFORMAT
  1
GRIDFORMAT_BEGIN
 90
        0
 91
        1
 62
     0
 92
       -2
340
14
 93
        0
 40
0.045
309
GRIDFORMAT_END
 95
        4
302
GRIDFORMAT
  1
GRIDFORMAT_BEGIN
 90
        0
 91
        1
 62
     0
 92
       -2
340
14
 93
        0
 40
0.045
309
GRIDFORMAT_END
 95
        8
302
GRIDFORMAT
  1
GRIDFORMAT_BEGIN
 90
        0
 91
        1
 62
     0
 92
       -2
340
14
 93
        0
 40
0.045
309
GRIDFORMAT_END
 95
       16
302
GRIDFORMAT
  1
GRIDFORMAT_BEGIN
 90
        0
 91
        1
 62
     0
 92
       -2
340
14
 93
        0
 40
0.045
309
GRIDFORMAT_END
 95
       32
302
GRIDFORMAT
  1
GRIDFORMAT_BEGIN
 90
        0
 91
        1
 62
     0
 92
       -2
340
14
 93
        0
 40
0.045
309
GRIDFORMAT_END
309
TABLEFORMAT_END
  1
CELLSTYLE_BEGIN
 90
        1
 91
        1
300
_TITLE
309
CELLSTYLE_END
300
CELLSTYLE
  1
TABLEFORMAT_BEGIN
 90
        5
170
     1
 91
        0
 92
        0
 62
   257
 93
        1
300
CONTENTFORMAT
  1
CONTENTFORMAT_BEGIN
 90
        0
 91
        0
 92
        4
 93
        0
300

 40
0.0
140
1.0
 94
        5
 62
     0
340
11
144
0.18
309
CONTENTFORMAT_END
171
     1
301
MARGIN
  1
CELLMARGIN_BEGIN
 40
0.06
 40
0.06
 40
0.06
 40
0.06
 40
0.06
 40
0.06
309
CELLMARGIN_END
 94
        6
 95
        1
302
GRIDFORMAT
  1
GRIDFORMAT_BEGIN
 90
        0
 91
        1
 62
     0
 92
       -2
340
14
 93
        0
 40
0.045
309
GRIDFORMAT_END
 95
        2
302
GRIDFORMAT
  1
GRIDFORMAT_BEGIN
 90
        0
 91
        1
 62
     0
 92
       -2
340
14
 93
        0
 40
0.045
309
GRIDFORMAT_END
 95
        4
302
GRIDFORMAT
  1
GRIDFORMAT_BEGIN
 90
        0
 91
        1
 62
     0
 92
       -2
340
14
 93
        0
 40
0.045
309
GRIDFORMAT_END
 95
        8
302
GRIDFORMAT
  1
GRIDFORMAT_BEGIN
 90
        0
 91
        1
 62
     0
 92
       -2
340
14
 93
        0
 40
0.045
309
GRIDFORMAT_END
 95
       16
302
GRIDFORMAT
  1
GRIDFORMAT_BEGIN
 90
        0
 91
        1
 62
     0
 92
       -2
340
14
 93
        0
 40
0.045
309
GRIDFORMAT_END
 95
       32
302
GRIDFORMAT
  1
GRIDFORMAT_BEGIN
 90
        0
 91
        1
 62
     0
 92
       -2
340
14
 93
        0
 40
0.045
309
GRIDFORMAT_END
309
TABLEFORMAT_END
  1
CELLSTYLE_BEGIN
 90
        2
 91
        1
300
_HEADER
309
CELLSTYLE_END
300
CELLSTYLE
  1
TABLEFORMAT_BEGIN
 90
        5
170
     1
 91
        0
 92
        0
 62
   257
 93
        1
300
CONTENTFORMAT
  1
CONTENTFORMAT_BEGIN
 90
        0
 91
        0
 92
        4
 93
        0
300

 40
0.0
140
1.0
 94
        2
 62
     0
340
11
144
0.18
309
CONTENTFORMAT_END
171
     1
301
MARGIN
  1
CELLMARGIN_BEGIN
 40
0.06
 40
0.06
 40
0.06
 40
0.06
 40
0.06
 40
0.06
309
CELLMARGIN_END
 94
        6
 95
        1
302
GRIDFORMAT
  1
GRIDFORMAT_BEGIN
 90
        0
 91
        1
 62
     0
 92
       -2
340
14
 93
        0
 40
0.045
309
GRIDFORMAT_END
 95
        2
302
GRIDFORMAT
  1
GRIDFORMAT_BEGIN
 90
        0
 91
        1
 62
     0
 92
       -2
340
14
 93
        0
 40
0.045
309
GRIDFORMAT_END
 95
        4
302
GRIDFORMAT
  1
GRIDFORMAT_BEGIN
 90
        0
 91
        1
 62
     0
 92
       -2
340
14
 93
        0
 40
0.045
309
GRIDFORMAT_END
 95
        8
302
GRIDFORMAT
  1
GRIDFORMAT_BEGIN
 90
        0
 91
        1
 62
     0
 92
       -2
340
14
 93
        0
 40
0.045
309
GRIDFORMAT_END
 95
       16
302
GRIDFORMAT
  1
GRIDFORMAT_BEGIN
 90
        0
 91
        1
 62
     0
 92
       -2
340
14
 93
        0
 40
0.045
309
GRIDFORMAT_END
 95
       32
302
GRIDFORMAT
  1
GRIDFORMAT_BEGIN
 90
        0
 91
        1
 62
     0
 92
       -2
340
14
 93
        0
 40
0.045
309
GRIDFORMAT_END
309
TABLEFORMAT_END
  1
CELLSTYLE_BEGIN
 90
        3
 91
        2
300
_DATA
309
CELLSTYLE_END
  0
ENDSEC
  0
EOF