0
SECTION
  2
HEADER
  9
$ACADVER
  1
AC1027
  9
$ACADMAINTVER
 70
     8
  9
$DWGCODEPAGE
  3
ANSI_1252
  9
$REQUIREDVERSIONS
160
                 0
  9
$COMMENTS
  1
File was created by Cadenas
  9
$CUSTOMPROPERTYTAG
  1
NN
  9
$CUSTOMPROPERTY
  1
Double-Interlock B-1 Units Gray Iron - Inch
  9
$CUSTOMPROPERTYTAG
  1
NT
  9
$CUSTOMPROPERTY
  1
Double-Interlock Bearings -Inserts
  9
$CUSTOMPROPERTYTAG
  1
NB
  9
$CUSTOMPROPERTY
  1
023546
  9
$CUSTOMPROPERTYTAG
  1
NBSYN
  9
$CUSTOMPROPERTY
  1
$PN.
  9
$CUSTOMPROPERTYTAG
  1
LINA
  9
$CUSTOMPROPERTY
  1
023546
  9
$CUSTOMPROPERTYTAG
  1
SS
  9
$CUSTOMPROPERTY
  1
1-7/16
  9
$CUSTOMPROPERTYTAG
  1
PN
  9
$CUSTOMPROPERTY
  1
023546
  9
$CUSTOMPROPERTYTAG
  1
DESCRIPTION
  9
$CUSTOMPROPERTY
  1
B1U-DI-107R
  9
$CUSTOMPROPERTYTAG
  1
A
  9
$CUSTOMPROPERTY
  1
3
  9
$CUSTOMPROPERTYTAG
  1
B
  9
$CUSTOMPROPERTY
  1
2-1/16
  9
$CUSTOMPROPERTYTAG
  1
D
  9
$CUSTOMPROPERTY
  1
3-7/16
  9
$CUSTOMPROPERTYTAG
  1
H
  9
$CUSTOMPROPERTY
  1
11/16
  9
$CUSTOMPROPERTYTAG
  1
J
  9
$CUSTOMPROPERTY
  1
2.54
  9
$CUSTOMPROPERTYTAG
  1
L
  9
$CUSTOMPROPERTY
  1
2-3/4
  9
$CUSTOMPROPERTYTAG
  1
COMPANY
  9
$CUSTOMPROPERTY
  1
baldor
  9
$INSBASE
 10
0.0
 20
0.0
 30
0.0
  9
$EXTMIN
 10
1.000000000000000E+20
 20
1.000000000000000E+20
 30
1.000000000000000E+20
  9
$EXTMAX
 10
-1.000000000000000E+20
 20
-1.000000000000000E+20
 30
-1.000000000000000E+20
  9
$LIMMIN
 10
0.0
 20
0.0
  9
$LIMMAX
 10
12.0
 20
9.0
  9
$ORTHOMODE
 70
     0
  9
$REGENMODE
 70
     1
  9
$FILLMODE
 70
     1
  9
$QTEXTMODE
 70
     0
  9
$MIRRTEXT
 70
     1
  9
$LTSCALE
 40
1.0
  9
$ATTMODE
 70
     1
  9
$TEXTSIZE
 40
0.2
  9
$TRACEWID
 40
0.05
  9
$TEXTSTYLE
  7
Standard
  9
$CLAYER
  8
0
  9
$CELTYPE
  6
ByLayer
  9
$CECOLOR
 62
   256
  9
$CELTSCALE
 40
1.0
  9
$DISPSILH
 70
     0
  9
$DIMSCALE
 40
1.0
  9
$DIMASZ
 40
0.18
  9
$DIMEXO
 40
0.0625
  9
$DIMDLI
 40
0.38
  9
$DIMRND
 40
0.0
  9
$DIMDLE
 40
0.0
  9
$DIMEXE
 40
0.18
  9
$DIMTP
 40
0.0
  9
$DIMTM
 40
0.0
  9
$DIMTXT
 40
0.18
  9
$DIMCEN
 40
0.09
  9
$DIMTSZ
 40
0.0
  9
$DIMTOL
 70
     0
  9
$DIMLIM
 70
     0
  9
$DIMTIH
 70
     1
  9
$DIMTOH
 70
     1
  9
$DIMSE1
 70
     0
  9
$DIMSE2
 70
     0
  9
$DIMTAD
 70
     0
  9
$DIMZIN
 70
     0
  9
$DIMBLK
  1

  9
$DIMASO
 70
     1
  9
$DIMSHO
 70
     1
  9
$DIMPOST
  1

  9
$DIMAPOST
  1

  9
$DIMALT
 70
     0
  9
$DIMALTD
 70
     2
  9
$DIMALTF
 40
25.4
  9
$DIMLFAC
 40
1.0
  9
$DIMTOFL
 70
     0
  9
$DIMTVP
 40
0.0
  9
$DIMTIX
 70
     0
  9
$DIMSOXD
 70
     0
  9
$DIMSAH
 70
     0
  9
$DIMBLK1
  1

  9
$DIMBLK2
  1

  9
$DIMSTYLE
  2
Standard
  9
$DIMCLRD
 70
     0
  9
$DIMCLRE
 70
     0
  9
$DIMCLRT
 70
     0
  9
$DIMTFAC
 40
1.0
  9
$DIMGAP
 40
0.09
  9
$DIMJUST
 70
     0
  9
$DIMSD1
 70
     0
  9
$DIMSD2
 70
     0
  9
$DIMTOLJ
 70
     1
  9
$DIMTZIN
 70
     0
  9
$DIMALTZ
 70
     0
  9
$DIMALTTZ
 70
     0
  9
$DIMUPT
 70
     0
  9
$DIMDEC
 70
     4
  9
$DIMTDEC
 70
     4
  9
$DIMALTU
 70
     2
  9
$DIMALTTD
 70
     2
  9
$DIMTXSTY
  7
Standard
  9
$DIMAUNIT
 70
     0
  9
$DIMADEC
 70
     0
  9
$DIMALTRND
 40
0.0
  9
$DIMAZIN
 70
     0
  9
$DIMDSEP
 70
    46
  9
$DIMATFIT
 70
     3
  9
$DIMFRAC
 70
     0
  9
$DIMLDRBLK
  1

  9
$DIMLUNIT
 70
     2
  9
$DIMLWD
 70
    -2
  9
$DIMLWE
 70
    -2
  9
$DIMTMOVE
 70
     0
  9
$DIMFXL
 40
1.0
  9
$DIMFXLON
 70
     0
  9
$DIMJOGANG
 40
0.7853981633974483
  9
$DIMTFILL
 70
     0
  9
$DIMTFILLCLR
 70
     0
  9
$DIMARCSYM
 70
     0
  9
$DIMLTYPE
  6

  9
$DIMLTEX1
  6

  9
$DIMLTEX2
  6

  9
$DIMTXTDIRECTION
 70
     0
  9
$LUNITS
 70
     2
  9
$LUPREC
 70
     4
  9
$SKETCHINC
 40
0.1
  9
$FILLETRAD
 40
0.5
  9
$AUNITS
 70
     0
  9
$AUPREC
 70
     0
  9
$MENU
  1
.
  9
$ELEVATION
 40
0.0
  9
$PELEVATION
 40
0.0
  9
$THICKNESS
 40
0.0
  9
$LIMCHECK
 70
     0
  9
$CHAMFERA
 40
0.0
  9
$CHAMFERB
 40
0.0
  9
$CHAMFERC
 40
0.0
  9
$CHAMFERD
 40
0.0
  9
$SKPOLY
 70
     0
  9
$TDCREATE
 40
2458168.979348808
  9
$TDUCREATE
 40
2458168.937682141
  9
$TDUPDATE
 40
2458168.979348981
  9
$TDUUPDATE
 40
2458168.937682315
  9
$TDINDWG
 40
0.0000000116
  9
$TDUSRTIMER
 40
0.0000000116
  9
$USRTIMER
 70
     1
  9
$ANGBASE
 50
0.0
  9
$ANGDIR
 70
     0
  9
$PDMODE
 70
     0
  9
$PDSIZE
 40
0.0
  9
$PLINEWID
 40
0.0
  9
$SPLFRAME
 70
     0
  9
$SPLINETYPE
 70
     6
  9
$SPLINESEGS
 70
     8
  9
$HANDSEED
  5
16F
  9
$SURFTAB1
 70
     6
  9
$SURFTAB2
 70
     6
  9
$SURFTYPE
 70
     6
  9
$SURFU
 70
     6
  9
$SURFV
 70
     6
  9
$UCSBASE
  2

  9
$UCSNAME
  2

  9
$UCSORG
 10
0.0
 20
0.0
 30
0.0
  9
$UCSXDIR
 10
1.0
 20
0.0
 30
0.0
  9
$UCSYDIR
 10
0.0
 20
1.0
 30
0.0
  9
$UCSORTHOREF
  2

  9
$UCSORTHOVIEW
 70
     0
  9
$UCSORGTOP
 10
0.0
 20
0.0
 30
0.0
  9
$UCSORGBOTTOM
 10
0.0
 20
0.0
 30
0.0
  9
$UCSORGLEFT
 10
0.0
 20
0.0
 30
0.0
  9
$UCSORGRIGHT
 10
0.0
 20
0.0
 30
0.0
  9
$UCSORGFRONT
 10
0.0
 20
0.0
 30
0.0
  9
$UCSORGBACK
 10
0.0
 20
0.0
 30
0.0
  9
$PUCSBASE
  2

  9
$PUCSNAME
  2

  9
$PUCSORG
 10
0.0
 20
0.0
 30
0.0
  9
$PUCSXDIR
 10
1.0
 20
0.0
 30
0.0
  9
$PUCSYDIR
 10
0.0
 20
1.0
 30
0.0
  9
$PUCSORTHOREF
  2

  9
$PUCSORTHOVIEW
 70
     0
  9
$PUCSORGTOP
 10
0.0
 20
0.0
 30
0.0
  9
$PUCSORGBOTTOM
 10
0.0
 20
0.0
 30
0.0
  9
$PUCSORGLEFT
 10
0.0
 20
0.0
 30
0.0
  9
$PUCSORGRIGHT
 10
0.0
 20
0.0
 30
0.0
  9
$PUCSORGFRONT
 10
0.0
 20
0.0
 30
0.0
  9
$PUCSORGBACK
 10
0.0
 20
0.0
 30
0.0
  9
$USERI1
 70
     0
  9
$USERI2
 70
     0
  9
$USERI3
 70
     0
  9
$USERI4
 70
     0
  9
$USERI5
 70
     0
  9
$USERR1
 40
0.0
  9
$USERR2
 40
0.0
  9
$USERR3
 40
0.0
  9
$USERR4
 40
0.0
  9
$USERR5
 40
0.0
  9
$WORLDVIEW
 70
     1
  9
$SHADEDGE
 70
     3
  9
$SHADEDIF
 70
    70
  9
$TILEMODE
 70
     1
  9
$MAXACTVP
 70
    64
  9
$PINSBASE
 10
0.0
 20
0.0
 30
0.0
  9
$PLIMCHECK
 70
     0
  9
$PEXTMIN
 10
1.000000000000000E+20
 20
1.000000000000000E+20
 30
1.000000000000000E+20
  9
$PEXTMAX
 10
-1.000000000000000E+20
 20
-1.000000000000000E+20
 30
-1.000000000000000E+20
  9
$PLIMMIN
 10
0.0
 20
0.0
  9
$PLIMMAX
 10
12.0
 20
9.0
  9
$UNITMODE
 70
     0
  9
$VISRETAIN
 70
     1
  9
$PLINEGEN
 70
     0
  9
$PSLTSCALE
 70
     1
  9
$TREEDEPTH
 70
  3020
  9
$CMLSTYLE
  2
Standard
  9
$CMLJUST
 70
     0
  9
$CMLSCALE
 40
1.0
  9
$PROXYGRAPHICS
 70
     1
  9
$MEASUREMENT
 70
     0
  9
$CELWEIGHT
370
    -1
  9
$ENDCAPS
280
     0
  9
$JOINSTYLE
280
     0
  9
$LWDISPLAY
290
     0
  9
$INSUNITS
 70
     1
  9
$HYPERLINKBASE
  1

  9
$STYLESHEET
  1

  9
$XEDIT
290
     1
  9
$CEPSNTYPE
380
     0
  9
$PSTYLEMODE
290
     1
  9
$FINGERPRINTGUID
  2
{7C86CEC0-4A01-4B5F-A473-4BF3A35EA53E}
  9
$VERSIONGUID
  2
{FAEB1C32-E019-11D5-929B-00C0DF256EC4}
  9
$EXTNAMES
290
     1
  9
$PSVPSCALE
 40
0.0
  9
$OLESTARTUP
290
     0
  9
$SORTENTS
280
   127
  9
$INDEXCTL
280
     0
  9
$HIDETEXT
280
     1
  9
$XCLIPFRAME
280
     2
  9
$HALOGAP
280
     0
  9
$OBSCOLOR
 70
   257
  9
$OBSLTYPE
280
     0
  9
$INTERSECTIONDISPLAY
280
     0
  9
$INTERSECTIONCOLOR
 70
   257
  9
$DIMASSOC
280
     2
  9
$PROJECTNAME
  1

  9
$CAMERADISPLAY
290
     0
  9
$LENSLENGTH
 40
50.0
  9
$CAMERAHEIGHT
 40
0.0
  9
$STEPSPERSEC
 40
2.0
  9
$STEPSIZE
 40
6.0
  9
$3DDWFPREC
 40
2.0
  9
$PSOLWIDTH
 40
0.25
  9
$PSOLHEIGHT
 40
4.0
  9
$LOFTANG1
 40
1.570796326794897
  9
$LOFTANG2
 40
1.570796326794897
  9
$LOFTMAG1
 40
0.0
  9
$LOFTMAG2
 40
0.0
  9
$LOFTPARAM
 70
     7
  9
$LOFTNORMALS
280
     1
  9
$LATITUDE
 40
37.795
  9
$LONGITUDE
 40
-122.394
  9
$NORTHDIRECTION
 40
0.0
  9
$TIMEZONE
 70
 -8000
  9
$LIGHTGLYPHDISPLAY
280
     1
  9
$TILEMODELIGHTSYNCH
280
     1
  9
$CMATERIAL
347
44
  9
$SOLIDHIST
280
     0
  9
$SHOWHIST
280
     1
  9
$DWFFRAME
280
     2
  9
$DGNFRAME
280
     2
  9
$REALWORLDSCALE
290
     1
  9
$INTERFERECOLOR
 62
   256
  9
$CSHADOW
280
     0
  9
$SHADOWPLANELOCATION
 40
0.0
  0
ENDSEC
  0
SECTION
  2
CLASSES
  0
CLASS
  1
ACDBDICTIONARYWDFLT
  2
AcDbDictionaryWithDefault
  3
ObjectDBX Classes
 90
        0
 91
        4
280
     0
281
     0
  0
CLASS
  1
VISUALSTYLE
  2
AcDbVisualStyle
  3
ObjectDBX Classes
 90
     4095
 91
        4
280
     0
281
     0
  0
CLASS
  1
MATERIAL
  2
AcDbMaterial
  3
ObjectDBX Classes
 90
     1153
 91
        4
280
     0
281
     0
  0
CLASS
  1
SCALE
  2
AcDbScale
  3
ObjectDBX Classes
 90
     1153
 91
        4
280
     0
281
     0
  0
CLASS
  1
TABLESTYLE
  2
AcDbTableStyle
  3
ObjectDBX Classes
 90
     4095
 91
        4
280
     0
281
     0
  0
CLASS
  1
MLEADERSTYLE
  2
AcDbMLeaderStyle
  3
ACDB_MLEADERSTYLE_CLASS
 90
     4095
 91
        4
280
     0
281
     0
  0
CLASS
  1
SUN
  2
AcDbSun
  3
SCENEOE
 90
     1153
 91
        4
280
     0
281
     0
  0
CLASS
  1
DICTIONARYVAR
  2
AcDbDictionaryVar
  3
ObjectDBX Classes
 90
        0
 91
        4
280
     0
281
     0
  0
CLASS
  1
CELLSTYLEMAP
  2
AcDbCellStyleMap
  3
ObjectDBX Classes
 90
     1152
 91
        4
280
     0
281
     0
  0
ENDSEC
  0
SECTION
  2
TABLES
  0
TABLE
  2
VPORT
  5
8
330
0
100
AcDbSymbolTable
 70
     1
  0
VPORT
  5
29
330
8
100
AcDbSymbolTableRecord
100
AcDbViewportTableRecord
  2
*Active
 70
     0
 10
0.0
 20
0.0
 11
1.0
 21
1.0
 12
0.0
 22
0.0
 13
0.0
 23
0.0
 14
0.5
 24
0.5
 15
0.5
 25
0.5
 16
0.0
 26
0.0
 36
1.0
 17
0.0
 27
0.0
 37
0.0
 40
3.365999999999999
 41
1.041666666666667
 42
50.0
 43
0.0
 44
0.0
 50
0.0
 51
0.0
 71
     0
 72
   100
 73
     1
 74
     3
 75
     0
 76
     0
 77
     0
 78
     0
281
     0
 65
     1
110
0.0
120
0.0
130
0.0
111
1.0
121
0.0
131
0.0
112
0.0
122
1.0
132
0.0
 79
     0
146
0.0
348
2F
 60
     3
 61
     5
292
     1
282
     1
141
0.0
142
0.0
 63
   250
361
6D
  0
ENDTAB
  0
TABLE
  2
LTYPE
  5
5
330
0
100
AcDbSymbolTable
 70
     3
  0
LTYPE
  5
14
330
5
100
AcDbSymbolTableRecord
100
AcDbLinetypeTableRecord
  2
ByBlock
 70
     0
  3

 72
    65
 73
     0
 40
0.0
  0
LTYPE
  5
15
330
5
100
AcDbSymbolTableRecord
100
AcDbLinetypeTableRecord
  2
ByLayer
 70
     0
  3

 72
    65
 73
     0
 40
0.0
  0
LTYPE
  5
16
330
5
100
AcDbSymbolTableRecord
100
AcDbLinetypeTableRecord
  2
Continuous
 70
     0
  3
Solid line
 72
    65
 73
     0
 40
0.0
  0
LTYPE
  5
97
330
5
100
AcDbSymbolTableRecord
100
AcDbLinetypeTableRecord
  2
Dashed
 70
     0
  3

 72
    65
 73
     2
 40
2.0
 49
1.0
 74
     0
 49
-1.0
 74
     0
  0
LTYPE
  5
AE
330
5
100
AcDbSymbolTableRecord
100
AcDbLinetypeTableRecord
  2
Center
 70
     0
  3

 72
    65
 73
     4
 40
1.5
 49
0.45
 74
     0
 49
-0.5
 74
     0
 49
0.05
 74
     0
 49
-0.5
 74
     0
  0
ENDTAB
  0
TABLE
  2
LAYER
  5
2
330
0
100
AcDbSymbolTable
 70
     7
  0
LAYER
  5
10
330
2
100
AcDbSymbolTableRecord
100
AcDbLayerTableRecord
  2
0
 70
     0
 62
     7
  6
Continuous
370
    -3
390
F
347
46
348
0
  0
LAYER
  5
72
330
2
100
AcDbSymbolTableRecord
100
AcDbLayerTableRecord
  2
AM_6
 70
     0
 62
    -2
  6
Continuous
370
    35
390
F
347
46
348
0
  0
LAYER
  5
98
330
2
100
AcDbSymbolTableRecord
100
AcDbLayerTableRecord
  2
AM_9
 70
     0
 62
     6
  6
Dashed
370
    25
390
F
347
46
348
0
  0
LAYER
  5
AF
330
2
100
AcDbSymbolTableRecord
100
AcDbLayerTableRecord
  2
AM_7
 70
     0
 62
     7
  6
Center
370
    25
390
F
347
46
348
0
  0
LAYER
  5
B1
330
2
100
AcDbSymbolTableRecord
100
AcDbLayerTableRecord
  2
AM_4
 70
     0
 62
     7
  6
Continuous
370
    50
390
F
347
46
348
0
  0
LAYER
  5
BE
330
2
100
AcDbSymbolTableRecord
100
AcDbLayerTableRecord
  2
AM_5
 70
     0
 62
     3
  6
Continuous
370
    25
390
F
347
46
348
0
  0
LAYER
  5
15E
330
2
100
AcDbSymbolTableRecord
100
AcDbLayerTableRecord
  2
ConnectionPoints
 70
     0
 62
     7
  6
Continuous
370
    50
390
F
347
46
348
0
  0
ENDTAB
  0
TABLE
  2
STYLE
  5
3
330
0
100
AcDbSymbolTable
 70
     1
  0
STYLE
  5
11
330
3
100
AcDbSymbolTableRecord
100
AcDbTextStyleTableRecord
  2
Standard
 70
     0
 40
0.0
 41
1.0
 50
0.0
 71
     0
 42
0.2
  3
txt
  4

  0
ENDTAB
  0
TABLE
  2
VIEW
  5
6
330
0
100
AcDbSymbolTable
 70
     0
  0
ENDTAB
  0
TABLE
  2
UCS
  5
7
330
0
100
AcDbSymbolTable
 70
     0
  0
ENDTAB
  0
TABLE
  2
APPID
  5
9
330
0
100
AcDbSymbolTable
 70
     1
  0
APPID
  5
12
330
9
100
AcDbSymbolTableRecord
100
AcDbRegAppTableRecord
  2
ACAD
 70
     0
  0
ENDTAB
  0
TABLE
  2
DIMSTYLE
  5
A
330
0
100
AcDbSymbolTable
 70
     1
100
AcDbDimStyleTable
  0
DIMSTYLE
105
27
330
A
100
AcDbSymbolTableRecord
100
AcDbDimStyleTableRecord
  2
Standard
 70
     0
178
     0
340
11
  0
ENDTAB
  0
TABLE
  2
BLOCK_RECORD
  5
1
330
0
100
AcDbSymbolTable
 70
     6
  0
BLOCK_RECORD
  5
1F
330
1
100
AcDbSymbolTableRecord
100
AcDbBlockTableRecord
  2
*Model_Space
340
22
 70
     0
280
     1
281
     0
  0
BLOCK_RECORD
  5
1B
330
1
100
AcDbSymbolTableRecord
100
AcDbBlockTableRecord
  2
*Paper_Space
340
1E
 70
     0
280
     1
281
     0
  0
BLOCK_RECORD
  5
23
330
1
100
AcDbSymbolTableRecord
100
AcDbBlockTableRecord
  2
*Paper_Space0
340
26
 70
     0
280
     1
281
     0
  0
BLOCK_RECORD
  5
6E
330
1
100
AcDbSymbolTableRecord
100
AcDbBlockTableRecord
  2
1_023546_4
340
0
102
{BLKREFS
331
6F
102
}
 70
     0
280
     1
281
     0
  0
BLOCK_RECORD
  5
82
330
1
100
AcDbSymbolTableRecord
100
AcDbBlockTableRecord
  2
2_1_7_16C_1_0_in_023546_4
340
0
102
{BLKREFS
331
83
102
}
 70
     0
280
     1
281
     0
  0
BLOCK_RECORD
  5
C1
330
1
100
AcDbSymbolTableRecord
100
AcDbBlockTableRecord
  2
3_1_7_16C_2_0_in_023546_4
340
0
102
{BLKREFS
331
C2
102
}
 70
     0
280
     1
281
     0
  0
BLOCK_RECORD
  5
F9
330
1
100
AcDbSymbolTableRecord
100
AcDbBlockTableRecord
  2
4_405015E_Inch_0_in_023546_4
340
0
102
{BLKREFS
331
FA
102
}
 70
     0
280
     1
281
     0
  0
BLOCK_RECORD
  5
116
330
1
100
AcDbSymbolTableRecord
100
AcDbBlockTableRecord
  2
5_023546_Insert_0_in_023546_4
340
0
102
{BLKREFS
331
117
102
}
 70
     0
280
     1
281
     0
  0
ENDTAB
  0
ENDSEC
  0
SECTION
  2
BLOCKS
  0
BLOCK
  5
20
330
1F
100
AcDbEntity
  8
0
100
AcDbBlockBegin
  2
*Model_Space
 70
     0
 10
0.0
 20
0.0
 30
0.0
  3
*Model_Space
  1

  0
ENDBLK
  5
21
330
1F
100
AcDbEntity
  8
0
100
AcDbBlockEnd
  0
BLOCK
  5
1C
330
1B
100
AcDbEntity
 67
     1
  8
0
100
AcDbBlockBegin
  2
*Paper_Space
 70
     0
 10
0.0
 20
0.0
 30
0.0
  3
*Paper_Space
  1

  0
ENDBLK
  5
1D
330
1B
100
AcDbEntity
 67
     1
  8
0
100
AcDbBlockEnd
  0
BLOCK
  5
24
330
23
100
AcDbEntity
  8
0
100
AcDbBlockBegin
  2
*Paper_Space0
 70
     0
 10
0.0
 20
0.0
 30
0.0
  3
*Paper_Space0
  1

  0
ENDBLK
  5
25
330
23
100
AcDbEntity
  8
0
100
AcDbBlockEnd
  0
BLOCK
  5
70
330
6E
100
AcDbEntity
  8
0
100
AcDbBlockBegin
  2
1_023546_4
 70
     2
 10
0.0
 20
0.0
 30
0.0
  3
1_023546_4
  1

  0
ATTDEF
  5
73
330
6E
100
AcDbEntity
  8
AM_6
100
AcDbText
 10
6.71875
 20
1.65
 30
0.0
 40
0.5
  1
Double-Interlock B-1 Units Gray Iron - Inch
100
AcDbAttributeDefinition
  3

  2
NN
 70
     8
280
     0
  0
ATTDEF
  5
74
330
6E
100
AcDbEntity
  8
AM_6
100
AcDbText
 10
6.71875
 20
1.15
 30
0.0
 40
0.5
  1
Double-Interlock Bearings -Inserts
100
AcDbAttributeDefinition
  3

  2
NT
 70
     8
280
     0
  0
ATTDEF
  5
75
330
6E
100
AcDbEntity
  8
AM_6
100
AcDbText
 10
6.71875
 20
0.6499999999999997
 30
0.0
 40
0.5
  1
023546
100
AcDbAttributeDefinition
  3

  2
NB
 70
     8
280
     0
  0
ATTDEF
  5
76
330
6E
100
AcDbEntity
  8
AM_6
100
AcDbText
 10
6.71875
 20
0.1499999999999997
 30
0.0
 40
0.5
  1
$PN.
100
AcDbAttributeDefinition
  3

  2
NBSYN
 70
     8
280
     0
  0
ATTDEF
  5
77
330
6E
100
AcDbEntity
  8
AM_6
100
AcDbText
 10
6.71875
 20
-0.3500000000000003
 30
0.0
 40
0.5
  1
023546
100
AcDbAttributeDefinition
  3

  2
LINA
 70
     8
280
     0
  0
ATTDEF
  5
78
330
6E
100
AcDbEntity
  8
AM_6
100
AcDbText
 10
6.71875
 20
-0.8500000000000003
 30
0.0
 40
0.5
  1
1-7/16
100
AcDbAttributeDefinition
  3

  2
SS
 70
     8
280
     0
  0
ATTDEF
  5
79
330
6E
100
AcDbEntity
  8
AM_6
100
AcDbText
 10
6.71875
 20
-1.35
 30
0.0
 40
0.5
  1
023546
100
AcDbAttributeDefinition
  3

  2
PN
 70
     8
280
     0
  0
ATTDEF
  5
7A
330
6E
100
AcDbEntity
  8
AM_6
100
AcDbText
 10
6.71875
 20
-1.85
 30
0.0
 40
0.5
  1
B1U-DI-107R
100
AcDbAttributeDefinition
  3

  2
DESCRIPTION
 70
     8
280
     0
  0
ATTDEF
  5
7B
330
6E
100
AcDbEntity
  8
AM_6
100
AcDbText
 10
6.71875
 20
-2.350000000000001
 30
0.0
 40
0.5
  1
3
100
AcDbAttributeDefinition
  3

  2
A
 70
     8
280
     0
  0
ATTDEF
  5
7C
330
6E
100
AcDbEntity
  8
AM_6
100
AcDbText
 10
6.71875
 20
-2.850000000000001
 30
0.0
 40
0.5
  1
2-1/16
100
AcDbAttributeDefinition
  3

  2
B
 70
     8
280
     0
  0
ATTDEF
  5
7D
330
6E
100
AcDbEntity
  8
AM_6
100
AcDbText
 10
6.71875
 20
-3.350000000000001
 30
0.0
 40
0.5
  1
3-7/16
100
AcDbAttributeDefinition
  3

  2
D
 70
     8
280
     0
  0
ATTDEF
  5
7E
330
6E
100
AcDbEntity
  8
AM_6
100
AcDbText
 10
6.71875
 20
-3.850000000000001
 30
0.0
 40
0.5
  1
11/16
100
AcDbAttributeDefinition
  3

  2
H
 70
     8
280
     0
  0
ATTDEF
  5
7F
330
6E
100
AcDbEntity
  8
AM_6
100
AcDbText
 10
6.71875
 20
-4.350000000000001
 30
0.0
 40
0.5
  1
2.54
100
AcDbAttributeDefinition
  3

  2
J
 70
     8
280
     0
  0
ATTDEF
  5
80
330
6E
100
AcDbEntity
  8
AM_6
100
AcDbText
 10
6.71875
 20
-4.850000000000001
 30
0.0
 40
0.5
  1
2-3/4
100
AcDbAttributeDefinition
  3

  2
L
 70
     8
280
     0
  0
ATTDEF
  5
81
330
6E
100
AcDbEntity
  8
AM_6
100
AcDbText
 10
6.71875
 20
-5.350000000000001
 30
0.0
 40
0.5
  1
baldor
100
AcDbAttributeDefinition
  3

  2
COMPANY
 70
     8
280
     0
  0
INSERT
  5
83
330
6E
100
AcDbEntity
  8
0
100
AcDbBlockReference
  2
2_1_7_16C_1_0_in_023546_4
 10
0.0
 20
0.0
 30
0.0
  0
INSERT
  5
C2
330
6E
100
AcDbEntity
  8
0
100
AcDbBlockReference
  2
3_1_7_16C_2_0_in_023546_4
 10
0.0
 20
0.0
 30
0.0
  0
INSERT
  5
FA
330
6E
100
AcDbEntity
  8
0
100
AcDbBlockReference
  2
4_405015E_Inch_0_in_023546_4
 10
0.0
 20
0.0
 30
0.0
  0
INSERT
  5
117
330
6E
100
AcDbEntity
  8
0
100
AcDbBlockReference
  2
5_023546_Insert_0_in_023546_4
 10
0.0
 20
0.0
 30
0.0
  0
ENDBLK
  5
71
330
6E
100
AcDbEntity
  8
0
100
AcDbBlockEnd
  0
BLOCK
  5
84
330
82
100
AcDbEntity
  8
0
100
AcDbBlockBegin
  2
2_1_7_16C_1_0_in_023546_4
 70
     2
 10
0.0
 20
0.0
 30
0.0
  3
2_1_7_16C_1_0_in_023546_4
  1

  0
ATTDEF
  5
86
330
82
100
AcDbEntity
  8
AM_6
100
AcDbText
 10
6.375
 20
1.5
 30
0.0
 40
0.5
  1
E-Type Collar -Inch
100
AcDbAttributeDefinition
  3

  2
NN
 70
     8
280
     0
  0
ATTDEF
  5
87
330
82
100
AcDbEntity
  8
AM_6
100
AcDbText
 10
6.375
 20
0.9999999999999998
 30
0.0
 40
0.5
  1
E-Type Bearings
100
AcDbAttributeDefinition
  3

  2
NT
 70
     8
280
     0
  0
ATTDEF
  5
88
330
82
100
AcDbEntity
  8
AM_6
100
AcDbText
 10
6.375
 20
0.4999999999999998
 30
0.0
 40
0.5
  1
1-7/16C
100
AcDbAttributeDefinition
  3

  2
NB
 70
     8
280
     0
  0
ATTDEF
  5
89
330
82
100
AcDbEntity
  8
AM_6
100
AcDbText
 10
6.375
 20
-0.0000000000000002
 30
0.0
 40
0.5
  1
$BORE.C
100
AcDbAttributeDefinition
  3

  2
NBSYN
 70
     8
280
     0
  0
ATTDEF
  5
8A
330
82
100
AcDbEntity
  8
AM_6
100
AcDbText
 10
6.375
 20
-0.5000000000000002
 30
0.0
 40
0.5
  1
1-7/16C
100
AcDbAttributeDefinition
  3

  2
LINA
 70
     8
280
     0
  0
ATTDEF
  5
8B
330
82
100
AcDbEntity
  8
AM_6
100
AcDbText
 10
6.375
 20
-1.0
 30
0.0
 40
0.5
  1
1-7/16
100
AcDbAttributeDefinition
  3

  2
BORE
 70
     8
280
     0
  0
ATTDEF
  5
8C
330
82
100
AcDbEntity
  8
AM_6
100
AcDbText
 10
6.375
 20
-1.5
 30
0.0
 40
0.5
  1
2.75000
100
AcDbAttributeDefinition
  3

  2
L
 70
     8
280
     0
  0
ATTDEF
  5
8D
330
82
100
AcDbEntity
  8
AM_6
100
AcDbText
 10
6.375
 20
-2.0
 30
0.0
 40
0.5
  1
3.00
100
AcDbAttributeDefinition
  3

  2
A
 70
     8
280
     0
  0
ATTDEF
  5
8E
330
82
100
AcDbEntity
  8
AM_6
100
AcDbText
 10
6.375
 20
-2.5
 30
0.0
 40
0.5
  1
1.25
100
AcDbAttributeDefinition
  3

  2
B
 70
     8
280
     0
  0
ATTDEF
  5
8F
330
82
100
AcDbEntity
  8
AM_6
100
AcDbText
 10
6.375
 20
-3.0
 30
0.0
 40
0.5
  1
1.75
100
AcDbAttributeDefinition
  3

  2
C
 70
     8
280
     0
  0
ATTDEF
  5
90
330
82
100
AcDbEntity
  8
AM_6
100
AcDbText
 10
6.375
 20
-3.5
 30
0.0
 40
0.5
  1
2.81
100
AcDbAttributeDefinition
  3

  2
D
 70
     8
280
     0
  0
ATTDEF
  5
91
330
82
100
AcDbEntity
  8
AM_6
100
AcDbText
 10
6.375
 20
-4.0
 30
0.0
 40
0.5
  1
0.35
100
AcDbAttributeDefinition
  3

  2
E
 70
     8
280
     0
  0
ATTDEF
  5
92
330
82
100
AcDbEntity
  8
AM_6
100
AcDbText
 10
6.375
 20
-4.5
 30
0.0
 40
0.5
  1
0.28
100
AcDbAttributeDefinition
  3

  2
F
 70
     8
280
     0
  0
ATTDEF
  5
93
330
82
100
AcDbEntity
  8
AM_6
100
AcDbText
 10
6.375
 20
-5.0
 30
0.0
 40
0.5
  1
5/16-18
100
AcDbAttributeDefinition
  3

  2
CS
 70
     8
280
     0
  0
ATTDEF
  5
94
330
82
100
AcDbEntity
  8
AM_6
100
AcDbText
 10
6.375
 20
-5.5
 30
0.0
 40
0.5
  1
0.3125
100
AcDbAttributeDefinition
  3

  2
NDM
 70
     8
280
     0
  0
ATTDEF
  5
95
330
82
100
AcDbEntity
  8
AM_6
100
AcDbText
 10
6.375
 20
-6.0
 30
0.0
 40
0.5
  1
0.2520
100
AcDbAttributeDefinition
  3

  2
KDM
 70
     8
280
     0
  0
ATTDEF
  5
96
330
82
100
AcDbEntity
  8
AM_6
100
AcDbText
 10
6.375
 20
-6.5
 30
0.0
 40
0.5
  1
baldor
100
AcDbAttributeDefinition
  3

  2
COMPANY
 70
     8
280
     0
  0
LINE
  5
99
330
82
100
AcDbEntity
  8
AM_9
100
AcDbLine
 10
0.8262427010766311
 20
1.331639373797339
 30
0.0
 11
0.818151032193075
 21
1.341732003851702
 31
0.0
  0
LINE
  5
9A
330
82
100
AcDbEntity
  8
AM_9
100
AcDbLine
 10
0.8180625419641083
 20
1.098157623472742
 30
0.0
 11
0.8262427010766311
 21
1.108360626202661
 31
0.0
  0
LWPOLYLINE
  5
9B
330
82
100
AcDbEntity
  8
AM_9
100
AcDbPolyline
 90
       26
 70
     0
 43
0.0
 10
0.8180262878736867
 20
1.341887594994706
 10
0.811850423426995
 20
1.348251134502975
 10
0.802288819227496
 20
1.353819628058776
 10
0.7916383962505127
 20
1.355383606156809
 10
0.780010399275255
 20
1.352636230202916
 10
0.7682663429688001
 20
1.34568101656021
 10
0.7563008113191525
 20
1.334248970900008
 10
0.7454783247126577
 20
1.319482484702337
 10
0.7355091352119099
 20
1.300615093504594
 10
0.7280170670782203
 20
1.280587174492274
 10
0.7224033720665203
 20
1.257574299387511
 10
0.719652069420016
 20
1.23623856407008
 10
0.7191244073759505
 20
1.213634206282981
 10
0.7206907820107927
 20
1.193538202169756
 10
0.7242082127918679
 20
1.173625633874727
 10
0.7293319344163401
 20
1.155323700304483
 10
0.7360174095110927
 20
1.138253679073796
 10
0.74427111478963
 20
1.122485701466208
 10
0.7536454160535053
 20
1.108941602637135
 10
0.7642524068654598
 20
1.097645431565555
 10
0.7753773144824628
 20
1.089617548557427
 10
0.7867347926953852
 20
1.085250973049289
 10
0.7978852665164865
 20
1.085009812554479
 10
0.8081322991807754
 20
1.089038595395006
 10
0.8175671977023921
 20
1.097548016760655
 10
0.8180275222611193
 20
1.098113944272529
  0
LWPOLYLINE
  5
9C
330
82
100
AcDbEntity
  8
AM_9
100
AcDbPolyline
 90
        3
 70
     0
 43
0.0
 10
0.8222489938466498
 20
1.104120548441892
 10
0.8246088756740839
 20
1.108213516089834
 10
0.8307568352396001
 20
1.122199687246963
  0
LINE
  5
9D
330
82
100
AcDbEntity
  8
AM_9
100
AcDbLine
 10
0.8180275222611193
 20
1.098113944272529
 30
0.0
 11
0.8222489938466498
 21
1.104120548441892
 31
0.0
  0
LINE
  5
9E
330
82
100
AcDbEntity
  8
AM_9
100
AcDbLine
 10
0.8013724504275899
 20
1.0938
 30
0.0
 11
1.218938658174943
 21
1.0938
 31
0.0
  0
LINE
  5
9F
330
82
100
AcDbEntity
  8
AM_9
100
AcDbLine
 10
1.218938658174943
 20
1.3462
 30
0.0
 11
0.8013724504275899
 21
1.3462
 31
0.0
  0
LINE
  5
A0
330
82
100
AcDbEntity
  8
AM_9
100
AcDbLine
 10
1.194068407525901
 20
1.108360626202662
 30
0.0
 11
1.213915663558993
 21
1.083605409989686
 31
0.0
  0
LINE
  5
A1
330
82
100
AcDbEntity
  8
AM_9
100
AcDbLine
 10
1.213873141877655
 20
1.35634155328758
 30
0.0
 11
1.194068407525901
 21
1.331639373797339
 31
0.0
  0
ELLIPSE
  5
A2
330
82
100
AcDbEntity
  8
AM_9
100
AcDbEllipse
 10
1.218938658174914
 20
1.219999999999979
 30
0.0
 11
-2.318256390785525E-17
 21
-0.1261999999999774
 31
0.0
210
0.0
220
0.0
230
1.0
 40
0.4226182617406236
 41
3.424740437631938
 42
5.981071897214411
  0
LWPOLYLINE
  5
A3
330
82
100
AcDbEntity
  8
AM_9
100
AcDbPolyline
 90
        3
 70
     0
 43
0.0
 10
0.8227255761697209
 20
1.33509946938352
 10
0.8201358376010522
 20
1.339078944654755
 10
0.8180262878736867
 20
1.341887594994706
  0
LWPOLYLINE
  5
A4
330
82
100
AcDbEntity
  8
AM_9
100
AcDbPolyline
 90
       13
 70
     0
 43
0.0
 10
0.8307568352396001
 20
1.122199687246963
 10
0.835241778043033
 20
1.136903453457435
 10
0.8389023592937994
 20
1.154010762066324
 10
0.841814006180984
 20
1.174741122769115
 10
0.8436071996724775
 20
1.197824940871669
 10
0.8441470075126188
 20
1.218872494582667
 10
0.8436807739328197
 20
1.240627562570657
 10
0.8423308617227099
 20
1.260135469779944
 10
0.8400335642524828
 20
1.279072789775271
 10
0.8367847222878931
 20
1.296645391169684
 10
0.8325057358964372
 20
1.31265165690055
 10
0.8269220156514917
 20
1.327156354930328
 10
0.8227255761697209
 20
1.33509946938352
  0
LWPOLYLINE
  5
A5
330
82
100
AcDbEntity
  8
AM_9
100
AcDbPolyline
 90
        6
 70
     0
 43
0.0
 10
-0.1480273520479691
 20
1.220645429030779
 10
-0.1470660666615052
 20
1.204782158177671
 10
-0.1427626576510194
 20
1.18437027990892
 10
-0.1352938764626909
 20
1.165307411503916
 10
-0.1249529440019549
 20
1.147656115607665
 10
-0.1024742084991939
 20
1.122512944615278
  0
LWPOLYLINE
  5
A6
330
82
100
AcDbEntity
  8
AM_9
100
AcDbPolyline
 90
       19
 70
     0
 43
0.0
 10
0.1474752787723482
 20
1.231643168005006
 10
0.1444719404953724
 20
1.249307696735587
 10
0.1380063076331747
 20
1.268764666059565
 10
0.1283761595348159
 20
1.28714812826148
 10
0.1160376293937858
 20
1.303819681444548
 10
0.1000770734202889
 20
1.319539183502123
 10
0.0818862140489527
 20
1.332636951173203
 10
0.060021633153532
 20
1.343671908509527
 10
0.0366664618473469
 20
1.351156367690985
 10
0.0109687631462888
 20
1.35502773251204
 10
-0.0150267634898258
 20
1.354710188987229
 10
-0.0411135406515143
 20
1.350024083668005
 10
-0.0660272861751812
 20
1.341078315598574
 10
-0.0888653865477215
 20
1.328085227015781
 10
-0.1090549001685105
 20
1.311318304145893
 10
-0.1251570934849494
 20
1.292014725291368
 10
-0.1374413540205091
 20
1.270072510545152
 10
-0.1446969483493143
 20
1.248338942753326
 10
-0.1477485049851014
 20
1.228290865687845
  0
LWPOLYLINE
  5
A7
330
82
100
AcDbEntity
  8
AM_9
100
AcDbPolyline
 90
       14
 70
     0
 43
0.0
 10
-0.1024742084991939
 20
1.122512944615278
 10
-0.0858404097917884
 20
1.10987067025447
 10
-0.0675948963043023
 20
1.099652100472578
 10
-0.0440141930776652
 20
1.090777076816615
 10
-0.0192933556495299
 20
1.08574986080613
 10
0.006953235023218
 20
1.084747776894819
 10
0.0330071954445765
 20
1.08802554884785
 10
0.0583824512469587
 20
1.095672747625656
 10
0.0820680947697582
 20
1.107474314973258
 10
0.1029638667220687
 20
1.122967780635393
 10
0.1207466632651658
 20
1.141928028831849
 10
0.1339035255762046
 20
1.1625560753687
 10
0.1430313101584511
 20
1.185275560392112
 10
0.1471556935496915
 20
1.205385755066913
  0
LINE
  5
A8
330
82
100
AcDbEntity
  8
AM_9
100
AcDbLine
 10
-0.8750000000000001
 20
1.5
 30
0.0
 11
-0.8750000000000001
 21
0.94
 31
0.0
  0
LINE
  5
A9
330
82
100
AcDbEntity
  8
AM_9
100
AcDbLine
 10
0.8750000000000001
 20
0.94
 30
0.0
 11
0.8750000000000001
 21
1.5
 31
0.0
  0
LINE
  5
AA
330
82
100
AcDbEntity
  8
AM_9
100
AcDbLine
 10
-1.375
 20
1.03125
 30
0.0
 11
-1.375
 21
0.94
 31
0.0
  0
LINE
  5
AB
330
82
100
AcDbEntity
  8
AM_9
100
AcDbLine
 10
1.375
 20
0.94
 30
0.0
 11
1.375
 21
1.03125
 31
0.0
  0
LINE
  5
AC
330
82
100
AcDbEntity
  8
AM_9
100
AcDbLine
 10
1.375
 20
0.94
 30
0.0
 11
-1.375
 21
0.94
 31
0.0
  0
ELLIPSE
  5
AD
330
82
100
AcDbEntity
  8
AM_9
100
AcDbEllipse
 10
0.80137245042759
 20
1.22
 30
0.0
 11
-2.318256390785941E-17
 21
-0.1262000000000001
 31
0.0
210
0.0
220
0.0
230
1.0
 40
0.4226182617406999
 41
0.0
 42
6.283185307179586
  0
LINE
  5
B0
330
82
100
AcDbEntity
  8
AM_7
100
AcDbLine
 10
-0.1325099999999997
 20
1.22
 30
0.0
 11
0.1325100000000003
 21
1.22
 31
0.0
  0
ELLIPSE
  5
B2
330
82
100
AcDbEntity
  8
AM_4
100
AcDbEllipse
 10
1.218938658174943
 20
1.22
 30
0.0
 11
-2.318256390785941E-17
 21
-0.1262000000000001
 31
0.0
210
0.0
220
0.0
230
1.0
 40
0.4226182617406973
 41
5.981071897213998
 42
9.70792574481204
  0
LWPOLYLINE
  5
B3
330
82
100
AcDbEntity
  8
AM_4
100
AcDbPolyline
 90
       14
 70
     0
 43
0.0
 10
1.214039851241504
 20
1.083450512704889
 10
1.206917369604497
 20
1.093527552812434
 10
1.198158712042868
 20
1.109772359402606
 10
1.190449045881962
 20
1.129080069890754
 10
1.184092210902861
 20
1.151189956010213
 10
1.179442433815866
 20
1.175586064860428
 10
1.176787571437557
 20
1.20183085489531
 10
1.176382755928524
 20
1.228693878067912
 10
1.17834785042845
 20
1.256070477788024
 10
1.182544066269499
 20
1.281899686892216
 10
1.189046137516241
 20
1.306671708626957
 10
1.197078360827634
 20
1.327857641863691
 10
1.206904795095958
 20
1.346452413466206
 10
1.214038018161459
 20
1.35654720052299
  0
LWPOLYLINE
  5
B4
330
82
100
AcDbEntity
  8
AM_4
100
AcDbPolyline
 90
       19
 70
     0
 43
0.0
 10
1.214038018161459
 20
1.35654720052299
 10
1.217079563677427
 20
1.360140110260821
 10
1.228238781657044
 20
1.370105318328365
 10
1.238672554005735
 20
1.37515370501682
 10
1.249272694722669
 20
1.376055976317155
 10
1.258738086506147
 20
1.372909448482093
 10
1.267769939132165
 20
1.365770038325582
 10
1.275720245786319
 20
1.35521954138692
 10
1.282851669952731
 20
1.341076817463883
 10
1.288935689140266
 20
1.323768325770395
 10
1.293941116449853
 20
1.303425553454251
 10
1.297761007082299
 20
1.28044959848318
 10
1.300308583126418
 20
1.255273445151328
 10
1.301480018090227
 20
1.228853226457305
 10
1.301216298385847
 20
1.201450691527511
 10
1.299491471389938
 20
1.174881513992516
 10
1.296184335526027
 20
1.148850473075974
 10
1.292501944359008
 20
1.129923635702543
 10
1.287754919336487
 20
1.112369548448652
  0
CIRCLE
  5
B5
330
82
100
AcDbEntity
  8
AM_4
100
AcDbCircle
 10
0.0000000000000003
 20
1.22
 30
0.0
 40
0.1262
  0
LWPOLYLINE
  5
B6
330
82
100
AcDbEntity
  8
AM_4
100
AcDbPolyline
 90
       10
 70
     0
 43
0.0
 10
1.287754919336487
 20
1.112369548448652
 10
1.282005386309233
 20
1.096952072533292
 10
1.275130336098147
 20
1.083831467733721
 10
1.266550970467593
 20
1.072995335326383
 10
1.256692802902619
 20
1.066065099648466
 10
1.246904074394518
 20
1.06376068715988
 10
1.236410225173825
 20
1.065597017410984
 10
1.226385140503426
 20
1.071216166181804
 10
1.216324266184228
 20
1.080715018465871
 10
1.214039851241504
 20
1.083450512704889
  0
LWPOLYLINE
  5
B7
330
82
100
AcDbEntity
  8
AM_4
100
AcDbPolyline
 90
       38
 70
     0
 43
0.0
 10
-0.0957058359488066
 20
1.100737901136074
 10
-0.1114447245827674
 20
1.117052505794309
 10
-0.1246413019178079
 20
1.135491892973774
 10
-0.1363224899099063
 20
1.158722070384837
 10
-0.144134269018591
 20
1.183537976368723
 10
-0.1479347704357622
 20
1.210286872408725
 10
-0.1473224882742514
 20
1.237300946102108
 10
-0.1421271297986968
 20
1.264289218204959
 10
-0.1324906318983364
 20
1.290013086288851
 10
-0.1186785685500968
 20
1.313524275971437
 10
-0.1010217761645213
 20
1.334285601758116
 10
-0.0806569256221927
 20
1.351027611144431
 10
-0.0576598629898869
 20
1.363919759244189
 10
-0.0340322187772384
 20
1.372047697163316
 10
-0.0093451234604574
 20
1.37593847519573
 10
0.0144846698623943
 20
1.375484183905685
 10
0.0378992177439725
 20
1.371045463425596
 10
0.0599930893511371
 20
1.36283964844079
 10
0.0804688204343731
 20
1.351179009021861
 10
0.0993297291886496
 20
1.335905414122079
 10
0.1155312059711046
 20
1.317830469953244
 10
0.1292929344254481
 20
1.296332813732761
 10
0.1394614271656762
 20
1.272905290297762
 10
0.1459896161723804
 20
1.246986690689378
 10
0.1482357597667425
 20
1.22034413607417
 10
0.145990802402216
 20
1.193028976858676
 10
0.1392476920491951
 20
1.166473971776393
 10
0.1280796576853465
 20
1.141438636526269
 10
0.1128034920357066
 20
1.118696022862792
 10
0.0942370345320246
 20
1.099469110817793
 10
0.0725866016950259
 20
1.083802433908226
 10
0.0496349860110108
 20
1.072809153749846
 10
0.0251048662438327
 20
1.066012224683069
 10
0.0010766446991281
 20
1.063771399685511
 10
-0.0229832897489944
 20
1.065643797398974
 10
-0.0458016178162104
 20
1.071427047275454
 10
-0.0673665712210848
 20
1.080850750539779
 10
-0.095705835971154
 20
1.100737901081573
  0
LINE
  5
B8
330
82
100
AcDbEntity
  8
AM_4
100
AcDbLine
 10
-1.375
 20
1.406666666666667
 30
0.0
 11
-1.375
 21
1.03125
 31
0.0
  0
LINE
  5
B9
330
82
100
AcDbEntity
  8
AM_4
100
AcDbLine
 10
1.375
 20
1.03125
 30
0.0
 11
1.375
 21
1.406666666666667
 31
0.0
  0
LINE
  5
BA
330
82
100
AcDbEntity
  8
AM_4
100
AcDbLine
 10
1.281666666666667
 20
1.5
 30
0.0
 11
-1.281666666666667
 21
1.5
 31
0.0
  0
ARC
  5
BB
330
82
100
AcDbEntity
  8
AM_4
100
AcDbCircle
 10
-1.281666666666667
 20
1.406666666666667
 30
0.0
 40
0.0933333333333326
100
AcDbArc
 50
90.0
 51
180.0
  0
ARC
  5
BC
330
82
100
AcDbEntity
  8
AM_4
100
AcDbCircle
 10
1.281666666666667
 20
1.406666666666667
 30
0.0
 40
0.0933333333333326
100
AcDbArc
 50
0.0
 51
90.0
  0
LINE
  5
BD
330
82
100
AcDbEntity
  8
AM_4
100
AcDbLine
 10
1.375
 20
1.406666666666667
 30
0.0
 11
-1.375
 21
1.406666666666667
 31
0.0
  0
ARC
  5
BF
330
82
100
AcDbEntity
  8
AM_5
100
AcDbCircle
 10
0.0000000000000001
 20
1.22
 30
0.0
 40
0.1562500000000001
100
AcDbArc
 50
63.85157066748182
 51
3.851570667481837
  0
ARC
  5
C0
330
82
100
AcDbEntity
  8
AM_5
100
AcDbCircle
 10
0.0000000000006684
 20
1.220000000000079
 30
0.0
 40
0.1562499999993281
100
AcDbArc
 50
3.851570667469527
 51
15.00000000003612
  0
ENDBLK
  5
85
330
82
100
AcDbEntity
  8
0
100
AcDbBlockEnd
  0
BLOCK
  5
C3
330
C1
100
AcDbEntity
  8
0
100
AcDbBlockBegin
  2
3_1_7_16C_2_0_in_023546_4
 70
     2
 10
0.0
 20
0.0
 30
0.0
  3
3_1_7_16C_2_0_in_023546_4
  1

  0
ATTDEF
  5
C5
330
C1
100
AcDbEntity
  8
AM_6
100
AcDbText
 10
6.375
 20
-0.94
 30
0.0
 40
0.5
  1
E-Type Collar -Inch
100
AcDbAttributeDefinition
  3

  2
NN
 70
     8
280
     0
  0
ATTDEF
  5
C6
330
C1
100
AcDbEntity
  8
AM_6
100
AcDbText
 10
6.375
 20
-1.44
 30
0.0
 40
0.5
  1
E-Type Bearings
100
AcDbAttributeDefinition
  3

  2
NT
 70
     8
280
     0
  0
ATTDEF
  5
C7
330
C1
100
AcDbEntity
  8
AM_6
100
AcDbText
 10
6.375
 20
-1.94
 30
0.0
 40
0.5
  1
1-7/16C
100
AcDbAttributeDefinition
  3

  2
NB
 70
     8
280
     0
  0
ATTDEF
  5
C8
330
C1
100
AcDbEntity
  8
AM_6
100
AcDbText
 10
6.375
 20
-2.44
 30
0.0
 40
0.5
  1
$BORE.C
100
AcDbAttributeDefinition
  3

  2
NBSYN
 70
     8
280
     0
  0
ATTDEF
  5
C9
330
C1
100
AcDbEntity
  8
AM_6
100
AcDbText
 10
6.375
 20
-2.94
 30
0.0
 40
0.5
  1
1-7/16C
100
AcDbAttributeDefinition
  3

  2
LINA
 70
     8
280
     0
  0
ATTDEF
  5
CA
330
C1
100
AcDbEntity
  8
AM_6
100
AcDbText
 10
6.375
 20
-3.44
 30
0.0
 40
0.5
  1
1-7/16
100
AcDbAttributeDefinition
  3

  2
BORE
 70
     8
280
     0
  0
ATTDEF
  5
CB
330
C1
100
AcDbEntity
  8
AM_6
100
AcDbText
 10
6.375
 20
-3.94
 30
0.0
 40
0.5
  1
2.75000
100
AcDbAttributeDefinition
  3

  2
L
 70
     8
280
     0
  0
ATTDEF
  5
CC
330
C1
100
AcDbEntity
  8
AM_6
100
AcDbText
 10
6.375
 20
-4.44
 30
0.0
 40
0.5
  1
3.00
100
AcDbAttributeDefinition
  3

  2
A
 70
     8
280
     0
  0
ATTDEF
  5
CD
330
C1
100
AcDbEntity
  8
AM_6
100
AcDbText
 10
6.375
 20
-4.94
 30
0.0
 40
0.5
  1
1.25
100
AcDbAttributeDefinition
  3

  2
B
 70
     8
280
     0
  0
ATTDEF
  5
CE
330
C1
100
AcDbEntity
  8
AM_6
100
AcDbText
 10
6.375
 20
-5.44
 30
0.0
 40
0.5
  1
1.75
100
AcDbAttributeDefinition
  3

  2
C
 70
     8
280
     0
  0
ATTDEF
  5
CF
330
C1
100
AcDbEntity
  8
AM_6
100
AcDbText
 10
6.375
 20
-5.94
 30
0.0
 40
0.5
  1
2.81
100
AcDbAttributeDefinition
  3

  2
D
 70
     8
280
     0
  0
ATTDEF
  5
D0
330
C1
100
AcDbEntity
  8
AM_6
100
AcDbText
 10
6.375
 20
-6.44
 30
0.0
 40
0.5
  1
0.35
100
AcDbAttributeDefinition
  3

  2
E
 70
     8
280
     0
  0
ATTDEF
  5
D1
330
C1
100
AcDbEntity
  8
AM_6
100
AcDbText
 10
6.375
 20
-6.94
 30
0.0
 40
0.5
  1
0.28
100
AcDbAttributeDefinition
  3

  2
F
 70
     8
280
     0
  0
ATTDEF
  5
D2
330
C1
100
AcDbEntity
  8
AM_6
100
AcDbText
 10
6.375
 20
-7.44
 30
0.0
 40
0.5
  1
5/16-18
100
AcDbAttributeDefinition
  3

  2
CS
 70
     8
280
     0
  0
ATTDEF
  5
D3
330
C1
100
AcDbEntity
  8
AM_6
100
AcDbText
 10
6.375
 20
-7.94
 30
0.0
 40
0.5
  1
0.3125
100
AcDbAttributeDefinition
  3

  2
NDM
 70
     8
280
     0
  0
ATTDEF
  5
D4
330
C1
100
AcDbEntity
  8
AM_6
100
AcDbText
 10
6.375
 20
-8.44
 30
0.0
 40
0.5
  1
0.2520
100
AcDbAttributeDefinition
  3

  2
KDM
 70
     8
280
     0
  0
ATTDEF
  5
D5
330
C1
100
AcDbEntity
  8
AM_6
100
AcDbText
 10
6.375
 20
-8.94
 30
0.0
 40
0.5
  1
baldor
100
AcDbAttributeDefinition
  3

  2
COMPANY
 70
     8
280
     0
  0
LINE
  5
D6
330
C1
100
AcDbEntity
  8
AM_9
100
AcDbLine
 10
0.8262427010766311
 20
-1.108360626202662
 30
0.0
 11
0.8181105324609824
 21
-1.098217481375734
 31
0.0
  0
LINE
  5
D7
330
C1
100
AcDbEntity
  8
AM_9
100
AcDbLine
 10
0.818078752806784
 20
-1.341822156960645
 30
0.0
 11
0.8262427010766311
 21
-1.331639373797339
 31
0.0
  0
LWPOLYLINE
  5
D8
330
C1
100
AcDbEntity
  8
AM_9
100
AcDbPolyline
 90
       25
 70
     0
 43
0.0
 10
0.8180289347109185
 20
-1.098115705725798
 10
0.8106127711184886
 20
-1.090777076816615
 10
0.8009802385422515
 20
-1.08574986080613
 10
0.7900508587122972
 20
-1.084747776894818
 10
0.7785054408667726
 20
-1.08802554884785
 10
0.7665742484496759
 20
-1.095672747625656
 10
0.754840053625167
 20
-1.107474314973258
 10
0.7439928623530939
 20
-1.122967780635393
 10
0.734402562780997
 20
-1.141928028831849
 10
0.7270889393050316
 20
-1.1625560753687
 10
0.7219049582733035
 20
-1.185275560392111
 10
0.7194445733183036
 20
-1.206948264240496
 10
0.7192218497230486
 20
-1.229044684241965
 10
0.7210798249705334
 20
-1.249307696735587
 10
0.7247696089551134
 20
-1.268764666059565
 10
0.7301836578621275
 20
-1.28714812826148
 10
0.7369755089340667
 20
-1.303819681444548
 10
0.7455195014811118
 20
-1.319539183502123
 10
0.7549324315173985
 20
-1.332636951173203
 10
0.7657819460075673
 20
-1.343671908509527
 10
0.7768268245839023
 20
-1.351156367690985
 10
0.7883167592468164
 20
-1.35502773251204
 10
0.7992529482248455
 20
-1.354710188987229
 10
0.8095140530066159
 20
-1.350024083668005
 10
0.8180301715385783
 20
-1.341882751711271
  0
LWPOLYLINE
  5
D9
330
C1
100
AcDbEntity
  8
AM_9
100
AcDbPolyline
 90
       12
 70
     0
 43
0.0
 10
0.8215099883113293
 20
-1.33704525196707
 10
0.8264717598668039
 20
-1.328085227015781
 10
0.8329245466100839
 20
-1.311318304145893
 10
0.8377581937130799
 20
-1.292014725291368
 10
0.8412604297264853
 20
-1.270072510545152
 10
0.8432543921419957
 20
-1.248338942753326
 10
0.8441137925784419
 20
-1.225634877090701
 10
0.8438922730464016
 20
-1.204782158177671
 10
0.842727012491183
 20
-1.18437027990892
 10
0.8406603117291519
 20
-1.165307411503916
 10
0.8376991176277447
 20
-1.147656115607665
 10
0.830869663410456
 20
-1.122512944615278
  0
LWPOLYLINE
  5
DA
330
C1
100
AcDbEntity
  8
AM_9
100
AcDbPolyline
 90
        3
 70
     0
 43
0.0
 10
0.8180301715385783
 20
-1.341882751711271
 10
0.8186626320502934
 20
-1.341078315598573
 10
0.8215099883113293
 20
-1.33704525196707
  0
LINE
  5
DB
330
C1
100
AcDbEntity
  8
AM_9
100
AcDbLine
 10
0.8013724504275898
 20
-1.3462
 30
0.0
 11
1.218938658174942
 21
-1.3462
 31
0.0
  0
LINE
  5
DC
330
C1
100
AcDbEntity
  8
AM_9
100
AcDbLine
 10
1.218938658174942
 20
-1.0938
 30
0.0
 11
0.8013724504275898
 21
-1.0938
 31
0.0
  0
ELLIPSE
  5
DD
330
C1
100
AcDbEntity
  8
AM_9
100
AcDbEllipse
 10
1.218938658174942
 20
-1.220000000000001
 30
0.0
 11
-2.318256390785917E-17
 21
-0.1261999999999988
 31
0.0
210
0.0
220
0.0
230
1.0
 40
0.4226182617407035
 41
3.446410467991546
 42
5.972952783028779
  0
LINE
  5
DE
330
C1
100
AcDbEntity
  8
AM_9
100
AcDbLine
 10
1.194068407525901
 20
-1.331639373797338
 30
0.0
 11
1.213867168686386
 21
-1.356334103006237
 31
0.0
  0
LINE
  5
DF
330
C1
100
AcDbEntity
  8
AM_9
100
AcDbLine
 10
1.214021029470074
 20
-1.083473988502205
 30
0.0
 11
1.194068407525901
 21
-1.108360626202662
 31
0.0
  0
LWPOLYLINE
  5
E0
330
C1
100
AcDbEntity
  8
AM_9
100
AcDbPolyline
 90
       15
 70
     0
 43
0.0
 10
0.1476875462555016
 20
-1.21085353369515
 10
0.1451468626683588
 20
-1.193538202169756
 10
0.1389948446420002
 20
-1.173625633874727
 10
0.1299030339592268
 20
-1.155323700304483
 10
0.1177962090805792
 20
-1.138253679073796
 10
0.102443243825029
 20
-1.122485701466208
 10
0.0844140604184887
 20
-1.108941602637135
 10
0.0631716326958634
 20
-1.097645431565555
 10
0.0398021748052358
 20
-1.089617548557427
 10
0.0146088936870347
 20
-1.085250973049289
 10
-0.01168103899995
 20
-1.085009812554479
 10
-0.0374828494315297
 20
-1.089038595395006
 10
-0.0629471210470849
 20
-1.097548016760655
 10
-0.0832619691395553
 20
-1.108213516089834
 10
-0.1021170791697826
 20
-1.122199687246963
  0
LWPOLYLINE
  5
E1
330
C1
100
AcDbEntity
  8
AM_9
100
AcDbPolyline
 90
       20
 70
     0
 43
0.0
 10
-0.1480156059975734
 20
-1.221815773875179
 10
-0.1462841676800035
 20
-1.240627562570657
 10
-0.1413143146044368
 20
-1.260135469779944
 10
-0.1330724390717891
 20
-1.279072789775271
 10
-0.1218376424144811
 20
-1.296645391169684
 10
-0.1077016759688964
 20
-1.312651656900549
 10
-0.0902224042927944
 20
-1.327156354930328
 10
-0.0702143725059277
 20
-1.339078944654755
 10
-0.0473020992282671
 20
-1.348251134502975
 10
-0.0225571532949725
 20
-1.353819628058776
 10
0.0032545490179432
 20
-1.355383606156809
 10
0.0297004292428732
 20
-1.352636230202916
 10
0.0548765686749809
 20
-1.34568101656021
 10
0.0791839922290704
 20
-1.334248970900008
 10
0.100157960058191
 20
-1.319482484702337
 10
0.1187266959649642
 20
-1.300615093504594
 10
0.132251283820791
 20
-1.280587174492273
 10
0.1421604408095473
 20
-1.257574299387511
 10
0.1469500429762845
 20
-1.236238564070079
 10
0.1480104388106335
 20
-1.217863624000856
  0
LWPOLYLINE
  5
E2
330
C1
100
AcDbEntity
  8
AM_9
100
AcDbPolyline
 90
        6
 70
     0
 43
0.0
 10
-0.1021170791697826
 20
-1.122199687246963
 10
-0.1166589240593718
 20
-1.136903453457435
 10
-0.1291073007347236
 20
-1.154010762066324
 10
-0.1394369687108318
 20
-1.174741122769115
 10
-0.146010743660912
 20
-1.197824940871669
 10
-0.147880967797096
 20
-1.213975185009111
  0
LWPOLYLINE
  5
E3
330
C1
100
AcDbEntity
  8
AM_9
100
AcDbPolyline
 90
        3
 70
     0
 43
0.0
 10
0.8233065763699775
 20
-1.10588240796414
 10
0.8192163339017754
 20
-1.099652100472578
 10
0.8180289347109185
 20
-1.098115705725798
  0
LWPOLYLINE
  5
E4
330
C1
100
AcDbEntity
  8
AM_9
100
AcDbPolyline
 90
        3
 70
     0
 43
0.0
 10
0.830869663410456
 20
-1.122512944615278
 10
0.8254703295231708
 20
-1.10987067025447
 10
0.8233065763699775
 20
-1.10588240796414
  0
LINE
  5
E5
330
C1
100
AcDbEntity
  8
AM_9
100
AcDbLine
 10
0.875
 20
-1.5
 30
0.0
 11
0.875
 21
-0.94
 31
0.0
  0
LINE
  5
E6
330
C1
100
AcDbEntity
  8
AM_9
100
AcDbLine
 10
-0.875
 20
-0.94
 30
0.0
 11
-0.875
 21
-1.5
 31
0.0
  0
LINE
  5
E7
330
C1
100
AcDbEntity
  8
AM_9
100
AcDbLine
 10
-1.375
 20
-0.94
 30
0.0
 11
1.375
 21
-0.94
 31
0.0
  0
LINE
  5
E8
330
C1
100
AcDbEntity
  8
AM_9
100
AcDbLine
 10
1.375
 20
-1.03125
 30
0.0
 11
1.375
 21
-0.94
 31
0.0
  0
LINE
  5
E9
330
C1
100
AcDbEntity
  8
AM_9
100
AcDbLine
 10
-1.375
 20
-0.94
 30
0.0
 11
-1.375
 21
-1.03125
 31
0.0
  0
ELLIPSE
  5
EA
330
C1
100
AcDbEntity
  8
AM_9
100
AcDbEllipse
 10
0.8013724504275898
 20
-1.22
 30
0.0
 11
-2.318256390785945E-17
 21
-0.1262000000000003
 31
0.0
210
0.0
220
0.0
230
1.0
 40
0.4226182617406992
 41
0.0
 42
6.283185307179586
  0
LINE
  5
EB
330
C1
100
AcDbEntity
  8
AM_7
100
AcDbLine
 10
-0.13251
 20
-1.22
 30
0.0
 11
0.13251
 21
-1.22
 31
0.0
  0
ELLIPSE
  5
EC
330
C1
100
AcDbEntity
  8
AM_4
100
AcDbEllipse
 10
1.218938658174942
 20
-1.22
 30
0.0
 11
-2.318256390785941E-17
 21
-0.1262000000000001
 31
0.0
210
0.0
220
0.0
230
1.0
 40
0.4226182617406991
 41
5.972952783028778
 42
9.729595775171136
  0
LWPOLYLINE
  5
ED
330
C1
100
AcDbEntity
  8
AM_4
100
AcDbPolyline
 90
       15
 70
     0
 43
0.0
 10
1.214033586775162
 20
-1.356541671740223
 10
1.210029764783888
 20
-1.351179009021861
 10
1.200938165167037
 20
-1.335905414122079
 10
1.192940943292898
 20
-1.317830469953243
 10
1.186010704177784
 20
-1.296332813732761
 10
1.180807791095463
 20
-1.272905290297762
 10
1.177432842411241
 20
-1.246986690689378
 10
1.176263061761035
 20
-1.22034413607417
 10
1.177432377460441
 20
-1.193028976858676
 10
1.180917853319551
 20
-1.166473971776393
 10
1.18662692888863
 20
-1.141438636526269
 10
1.194299700811372
 20
-1.118696022862792
 10
1.20341557316323
 20
-1.099469110817792
 10
1.213759147614512
 20
-1.083802433908226
 10
1.214041723646178
 20
-1.08344817702935
  0
LWPOLYLINE
  5
EE
330
C1
100
AcDbEntity
  8
AM_4
100
AcDbPolyline
 90
        8
 70
     0
 43
0.0
 10
1.214041723646178
 20
-1.08344817702935
 10
1.22438170930951
 20
-1.072809153749846
 10
1.235355704242213
 20
-1.066012224683069
 10
1.245714992394341
 20
-1.063771399685511
 10
1.255712265551461
 20
-1.065643797398974
 10
1.264836227800091
 20
-1.071427047275454
 10
1.273146995137843
 20
-1.080850750539779
 10
1.283597876779843
 20
-1.100737901089645
  0
LWPOLYLINE
  5
EF
330
C1
100
AcDbEntity
  8
AM_4
100
AcDbPolyline
 90
       19
 70
     0
 43
0.0
 10
1.283597876779843
 20
-1.100737901089645
 10
1.289171715341495
 20
-1.117052505794309
 10
1.293718371530449
 20
-1.135491892973774
 10
1.297646739368466
 20
-1.158722070384837
 10
1.300221428796442
 20
-1.183537976368723
 10
1.301461309154678
 20
-1.210286872408725
 10
1.301260851273382
 20
-1.237300946102108
 10
1.299564987283623
 20
-1.264289218204959
 10
1.296367543638361
 20
-1.29001308628885
 10
1.291678565332717
 20
-1.313524275971437
 10
1.285498946171731
 20
-1.334285601758116
 10
1.278112708448687
 20
-1.351027611144431
 10
1.269445139737848
 20
-1.363919759244189
 10
1.260171221086139
 20
-1.372047697163316
 10
1.250093845196834
 20
-1.37593847519573
 10
1.239979946647014
 20
-1.375484183905685
 10
1.229682842680003
 20
-1.371045463425595
 10
1.219630607110772
 20
-1.36283964844079
 10
1.214033586775162
 20
-1.356541671740223
  0
LINE
  5
F0
330
C1
100
AcDbEntity
  8
AM_4
100
AcDbLine
 10
1.375
 20
-1.406666666666667
 30
0.0
 11
1.375
 21
-1.03125
 31
0.0
  0
LINE
  5
F1
330
C1
100
AcDbEntity
  8
AM_4
100
AcDbLine
 10
-1.375
 20
-1.03125
 30
0.0
 11
-1.375
 21
-1.406666666666667
 31
0.0
  0
LINE
  5
F2
330
C1
100
AcDbEntity
  8
AM_4
100
AcDbLine
 10
-1.281666666666667
 20
-1.5
 30
0.0
 11
1.281666666653197
 21
-1.5
 31
0.0
  0
LINE
  5
F3
330
C1
100
AcDbEntity
  8
AM_4
100
AcDbLine
 10
-1.375
 20
-1.406666666666667
 30
0.0
 11
1.375
 21
-1.406666666666667
 31
0.0
  0
ARC
  5
F4
330
C1
100
AcDbEntity
  8
AM_4
100
AcDbCircle
 10
1.281666666666667
 20
-1.406666666666667
 30
0.0
 40
0.0933333333333326
100
AcDbArc
 50
270.0
 51
0.0
  0
ARC
  5
F5
330
C1
100
AcDbEntity
  8
AM_4
100
AcDbCircle
 10
-1.281666666666667
 20
-1.406666666666667
 30
0.0
 40
0.0933333333333326
100
AcDbArc
 50
180.0
 51
270.0
  0
LWPOLYLINE
  5
F6
330
C1
100
AcDbEntity
  8
AM_4
100
AcDbPolyline
 90
       39
 70
     0
 43
0.0
 10
-0.1073994224033065
 20
-1.112369548543375
 10
-0.0912926319097329
 20
-1.096952072533292
 10
-0.072635553001224
 20
-1.083831467733721
 10
-0.0501823476550533
 20
-1.072995335326383
 10
-0.0253944148446705
 20
-1.066065099648466
 10
-0.0017317177343172
 20
-1.06376068715988
 10
0.02269934545335
 20
-1.065597017410984
 10
0.0452270132439541
 20
-1.071216166181803
 10
0.0671139810328559
 20
-1.080715018465871
 10
0.0869813747861767
 20
-1.093527552812433
 10
0.1050016153056419
 20
-1.109772359402606
 10
0.1205080614412635
 20
-1.129080069890754
 10
0.1330575000173211
 20
-1.151189956010213
 10
0.1421079587128021
 20
-1.175586064860428
 10
0.147228172828691
 20
-1.20183085489531
 10
0.1480059415468433
 20
-1.228693878067912
 10
0.1442230993248671
 20
-1.256070477788024
 10
0.1360827220725501
 20
-1.281899686892216
 10
0.1232955618169688
 20
-1.306671708626957
 10
0.1071940644521443
 20
-1.327857641863691
 10
0.0870075676248348
 20
-1.346452413466206
 10
0.065494465416388
 20
-1.36014011026082
 10
0.0411177520790354
 20
-1.370105318328365
 10
0.0175089823979518
 20
-1.37515370501682
 10
-0.0073764441950649
 20
-1.376055976317155
 10
-0.0304543861042733
 20
-1.372909448482093
 10
-0.0533201125220491
 20
-1.365770038325582
 10
-0.07421220660321
 20
-1.355219541386919
 10
-0.093633441848531
 20
-1.341076817463883
 10
-0.1107683331472002
 20
-1.323768325770394
 10
-0.1252966175759521
 20
-1.303425553454251
 10
-0.1366691316001859
 20
-1.28044959848318
 10
-0.1444007968321896
 20
-1.255273445151328
 10
-0.1479974196204975
 20
-1.228853226457305
 10
-0.1471854011625897
 20
-1.201450691527511
 10
-0.1419076640333955
 20
-1.174881513992516
 10
-0.1319438461497906
 20
-1.148850473075974
 10
-0.1210773313891726
 20
-1.129923635702543
 10
-0.1073994225086102
 20
-1.112369548476993
  0
CIRCLE
  5
F7
330
C1
100
AcDbEntity
  8
AM_4
100
AcDbCircle
 10
0.0
 20
-1.22
 30
0.0
 40
0.1262
  0
CIRCLE
  5
F8
330
C1
100
AcDbEntity
  8
AM_5
100
AcDbCircle
 10
0.0
 20
-1.22
 30
0.0
 40
0.15625
  0
ENDBLK
  5
C4
330
C1
100
AcDbEntity
  8
0
100
AcDbBlockEnd
  0
BLOCK
  5
FB
330
F9
100
AcDbEntity
  8
0
100
AcDbBlockBegin
  2
4_405015E_Inch_0_in_023546_4
 70
     2
 10
0.0
 20
0.0
 30
0.0
  3
4_405015E_Inch_0_in_023546_4
  1

  0
ATTDEF
  5
FD
330
F9
100
AcDbEntity
  8
AM_6
100
AcDbText
 10
5.21875
 20
0.2525907427704613
 30
0.0
 40
0.5
  1
405015E -Inch
100
AcDbAttributeDefinition
  3

  2
NN
 70
     8
280
     0
  0
ATTDEF
  5
FE
330
F9
100
AcDbEntity
  8
AM_6
100
AcDbText
 10
5.21875
 20
-0.2474092572295387
 30
0.0
 40
0.5
  1
Grease Fitting
100
AcDbAttributeDefinition
  3

  2
NT
 70
     8
280
     0
  0
ATTDEF
  5
FF
330
F9
100
AcDbEntity
  8
AM_6
100
AcDbText
 10
5.21875
 20
-0.7474092572295387
 30
0.0
 40
0.5
  1
405015E-Inch
100
AcDbAttributeDefinition
  3

  2
NB
 70
     8
280
     0
  0
ATTDEF
  5
100
330
F9
100
AcDbEntity
  8
AM_6
100
AcDbText
 10
5.21875
 20
-1.247409257229539
 30
0.0
 40
0.5
  1
$MN.-Inch
100
AcDbAttributeDefinition
  3

  2
NBSYN
 70
     8
280
     0
  0
ATTDEF
  5
101
330
F9
100
AcDbEntity
  8
AM_6
100
AcDbText
 10
5.21875
 20
-1.747409257229539
 30
0.0
 40
0.5
  1
405015E
100
AcDbAttributeDefinition
  3

  2
LINA
 70
     8
280
     0
  0
ATTDEF
  5
102
330
F9
100
AcDbEntity
  8
AM_6
100
AcDbText
 10
5.21875
 20
-2.247409257229539
 30
0.0
 40
0.5
  1
405015E
100
AcDbAttributeDefinition
  3

  2
MN
 70
     8
280
     0
  0
ATTDEF
  5
103
330
F9
100
AcDbEntity
  8
AM_6
100
AcDbText
 10
5.21875
 20
-2.747409257229539
 30
0.0
 40
0.5
  1
1/8 x 27PTF
100
AcDbAttributeDefinition
  3

  2
T
 70
     8
280
     0
  0
ATTDEF
  5
104
330
F9
100
AcDbEntity
  8
AM_6
100
AcDbText
 10
5.21875
 20
-3.247409257229539
 30
0.0
 40
0.5
  1
baldor
100
AcDbAttributeDefinition
  3

  2
COMPANY
 70
     8
280
     0
  0
CIRCLE
  5
105
330
F9
100
AcDbEntity
  8
AM_9
100
AcDbCircle
 10
0.0
 20
0.0000000000000001
 30
0.0
 40
0.161902872472269
  0
CIRCLE
  5
106
330
F9
100
AcDbEntity
  8
AM_9
100
AcDbCircle
 10
0.0
 20
0.0000000000000001
 30
0.0
 40
0.1986176267812154
  0
CIRCLE
  5
107
330
F9
100
AcDbEntity
  8
AM_9
100
AcDbCircle
 10
0.0
 20
0.0000000000000001
 30
0.0
 40
0.2057518972230696
  0
CIRCLE
  5
108
330
F9
100
AcDbEntity
  8
AM_9
100
AcDbCircle
 10
0.0
 20
0.0000000000000001
 30
0.0
 40
0.1188200907348975
  0
CIRCLE
  5
109
330
F9
100
AcDbEntity
  8
AM_9
100
AcDbCircle
 10
0.0
 20
0.0000000000000001
 30
0.0
 40
0.105
  0
LINE
  5
10A
330
F9
100
AcDbEntity
  8
AM_4
100
AcDbLine
 10
0.21875
 20
0.1262953713852308
 30
0.0
 11
0.0
 21
0.2525907427704613
 31
0.0
  0
LINE
  5
10B
330
F9
100
AcDbEntity
  8
AM_4
100
AcDbLine
 10
0.21875
 20
-0.1262953713852305
 30
0.0
 11
0.21875
 21
0.1262953713852308
 31
0.0
  0
LINE
  5
10C
330
F9
100
AcDbEntity
  8
AM_4
100
AcDbLine
 10
0.0
 20
0.2525907427704613
 30
0.0
 11
-0.21875
 21
0.1262953713852308
 31
0.0
  0
LINE
  5
10D
330
F9
100
AcDbEntity
  8
AM_4
100
AcDbLine
 10
-0.21875
 20
-0.1262953713852305
 30
0.0
 11
0.0
 21
-0.2525907427704611
 31
0.0
  0
LINE
  5
10E
330
F9
100
AcDbEntity
  8
AM_4
100
AcDbLine
 10
-0.21875
 20
0.1262953713852308
 30
0.0
 11
-0.21875
 21
-0.1262953713852305
 31
0.0
  0
LINE
  5
10F
330
F9
100
AcDbEntity
  8
AM_4
100
AcDbLine
 10
0.0
 20
-0.2525907427704611
 30
0.0
 11
0.21875
 21
-0.1262953713852305
 31
0.0
  0
CIRCLE
  5
110
330
F9
100
AcDbEntity
  8
AM_4
100
AcDbCircle
 10
0.0
 20
0.0000000000000001
 30
0.0
 40
0.21375
  0
CIRCLE
  5
111
330
F9
100
AcDbEntity
  8
AM_4
100
AcDbCircle
 10
0.0
 20
0.0000000000000001
 30
0.0
 40
0.1725340532830154
  0
CIRCLE
  5
112
330
F9
100
AcDbEntity
  8
AM_4
100
AcDbCircle
 10
0.0
 20
0.0000000000000002
 30
0.0
 40
0.1026779019331875
  0
CIRCLE
  5
113
330
F9
100
AcDbEntity
  8
AM_4
100
AcDbCircle
 10
0.0
 20
0.0000000000000002
 30
0.0
 40
0.135
  0
ARC
  5
114
330
F9
100
AcDbEntity
  8
AM_5
100
AcDbCircle
 10
0.0
 20
0.0000000000000001
 30
0.0
 40
0.202500005
100
AcDbArc
 50
75.00000000000001
 51
15.0
  0
CIRCLE
  5
115
330
F9
100
AcDbEntity
  8
AM_4
100
AcDbCircle
 10
0.0
 20
0.0000000000000002
 30
0.0
 40
0.21875
  0
ENDBLK
  5
FC
330
F9
100
AcDbEntity
  8
0
100
AcDbBlockEnd
  0
BLOCK
  5
118
330
116
100
AcDbEntity
  8
0
100
AcDbBlockBegin
  2
5_023546_Insert_0_in_023546_4
 70
     2
 10
0.0
 20
0.0
 30
0.0
  3
5_023546_Insert_0_in_023546_4
  1

  0
ATTDEF
  5
11A
330
116
100
AcDbEntity
  8
AM_6
100
AcDbText
 10
6.71875
 20
1.65
 30
0.0
 40
0.5
  1
B-1 Unit -Insert -Inch
100
AcDbAttributeDefinition
  3

  2
NN
 70
     8
280
     0
  0
ATTDEF
  5
11B
330
116
100
AcDbEntity
  8
AM_6
100
AcDbText
 10
6.71875
 20
1.15
 30
0.0
 40
0.5
  1
Double-Interlock Bearings
100
AcDbAttributeDefinition
  3

  2
NT
 70
     8
280
     0
  0
ATTDEF
  5
11C
330
116
100
AcDbEntity
  8
AM_6
100
AcDbText
 10
6.71875
 20
0.6499999999999997
 30
0.0
 40
0.5
  1
023546-Insert
100
AcDbAttributeDefinition
  3

  2
NB
 70
     8
280
     0
  0
ATTDEF
  5
11D
330
116
100
AcDbEntity
  8
AM_6
100
AcDbText
 10
6.71875
 20
0.1499999999999997
 30
0.0
 40
0.5
  1
$PN.-Insert
100
AcDbAttributeDefinition
  3

  2
NBSYN
 70
     8
280
     0
  0
ATTDEF
  5
11E
330
116
100
AcDbEntity
  8
AM_6
100
AcDbText
 10
6.71875
 20
-0.3500000000000003
 30
0.0
 40
0.5
  1
023546-Insert
100
AcDbAttributeDefinition
  3

  2
LINA
 70
     8
280
     0
  0
ATTDEF
  5
11F
330
116
100
AcDbEntity
  8
AM_6
100
AcDbText
 10
6.71875
 20
-0.8500000000000003
 30
0.0
 40
0.5
  1
1-7/16
100
AcDbAttributeDefinition
  3

  2
SS
 70
     8
280
     0
  0
ATTDEF
  5
120
330
116
100
AcDbEntity
  8
AM_6
100
AcDbText
 10
6.71875
 20
-1.35
 30
0.0
 40
0.5
  1
023546
100
AcDbAttributeDefinition
  3

  2
PN
 70
     8
280
     0
  0
ATTDEF
  5
121
330
116
100
AcDbEntity
  8
AM_6
100
AcDbText
 10
6.71875
 20
-1.85
 30
0.0
 40
0.5
  1
B1U-DI-107R
100
AcDbAttributeDefinition
  3

  2
DESCRIPTION
 70
     8
280
     0
  0
ATTDEF
  5
122
330
116
100
AcDbEntity
  8
AM_6
100
AcDbText
 10
6.71875
 20
-2.350000000000001
 30
0.0
 40
0.5
  1
3
100
AcDbAttributeDefinition
  3

  2
A
 70
     8
280
     0
  0
ATTDEF
  5
123
330
116
100
AcDbEntity
  8
AM_6
100
AcDbText
 10
6.71875
 20
-2.850000000000001
 30
0.0
 40
0.5
  1
2-1/16
100
AcDbAttributeDefinition
  3

  2
B
 70
     8
280
     0
  0
ATTDEF
  5
124
330
116
100
AcDbEntity
  8
AM_6
100
AcDbText
 10
6.71875
 20
-3.350000000000001
 30
0.0
 40
0.5
  1
3-7/16
100
AcDbAttributeDefinition
  3

  2
D
 70
     8
280
     0
  0
ATTDEF
  5
125
330
116
100
AcDbEntity
  8
AM_6
100
AcDbText
 10
6.71875
 20
-3.850000000000001
 30
0.0
 40
0.5
  1
11/16
100
AcDbAttributeDefinition
  3

  2
H
 70
     8
280
     0
  0
ATTDEF
  5
126
330
116
100
AcDbEntity
  8
AM_6
100
AcDbText
 10
6.71875
 20
-4.350000000000001
 30
0.0
 40
0.5
  1
2.54
100
AcDbAttributeDefinition
  3

  2
J
 70
     8
280
     0
  0
ATTDEF
  5
127
330
116
100
AcDbEntity
  8
AM_6
100
AcDbText
 10
6.71875
 20
-4.850000000000001
 30
0.0
 40
0.5
  1
2-3/4
100
AcDbAttributeDefinition
  3

  2
L
 70
     8
280
     0
  0
ATTDEF
  5
128
330
116
100
AcDbEntity
  8
AM_6
100
AcDbText
 10
6.71875
 20
-5.350000000000001
 30
0.0
 40
0.5
  1
baldor
100
AcDbAttributeDefinition
  3

  2
COMPANY
 70
     8
280
     0
  0
LINE
  5
129
330
116
100
AcDbEntity
  8
AM_9
100
AcDbLine
 10
0.7929715120784998
 20
1.395
 30
0.0
 11
0.651274566498046
 21
1.395
 31
0.0
  0
LINE
  5
12A
330
116
100
AcDbEntity
  8
AM_9
100
AcDbLine
 10
0.6513219804143554
 20
1.045
 30
0.0
 11
0.7929116814026922
 21
1.045
 31
0.0
  0
LWPOLYLINE
  5
12B
330
116
100
AcDbEntity
  8
AM_9
100
AcDbPolyline
 90
       21
 70
     0
 43
0.0
 10
0.6514130564199793
 20
1.394999999699445
 10
0.6436848092824873
 20
1.394092040677685
 10
0.6308214451715982
 20
1.388952539248475
 10
0.6172389785174438
 20
1.379091592532188
 10
0.6040812050858452
 20
1.365198881607596
 10
0.5913054831030752
 20
1.346973875441623
 10
0.5798959782888105
 20
1.325288442788794
 10
0.5701486684405934
 20
1.299920412254462
 10
0.5631136885524157
 20
1.272850654330109
 10
0.5588622882550385
 20
1.243343208889718
 10
0.5578988099197536
 20
1.214732505305203
 10
0.5600812904109053
 20
1.18542805093416
 10
0.5650559553481181
 20
1.158343223549555
 10
0.5728089288994626
 20
1.13223219671306
 10
0.5827070731887501
 20
1.108755885387007
 10
0.5946436835243468
 20
1.087742598064866
 10
0.607717273654791
 20
1.07051087524291
 10
0.6217888665369858
 20
1.057110828617241
 10
0.6353498990003723
 20
1.048754998851331
 10
0.6487642502457547
 20
1.045109863267252
 10
0.6514010365584234
 20
1.045000000944804
  0
LWPOLYLINE
  5
12C
330
116
100
AcDbEntity
  8
AM_9
100
AcDbPolyline
 90
        3
 70
     0
 43
0.0
 10
0.7051958129103079
 20
1.188376059999072
 10
0.7054352649756859
 20
1.195858107804946
 10
0.705763654578546
 20
1.22
  0
LWPOLYLINE
  5
12D
330
116
100
AcDbEntity
  8
AM_9
100
AcDbPolyline
 90
       10
 70
     0
 43
0.0
 10
0.6514010365584234
 20
1.045000000944804
 10
0.6604931395425147
 20
1.046418071122001
 10
0.6712655719641247
 20
1.052549815798764
 10
0.6802435953449814
 20
1.062914012373305
 10
0.6879192484920078
 20
1.077790341746503
 10
0.6940257555324334
 20
1.096436277584853
 10
0.6988139140144444
 20
1.119085457617357
 10
0.7022059913356896
 20
1.144354681343338
 10
0.7044613745611065
 20
1.17266128856061
 10
0.7051958129103079
 20
1.188376059999072
  0
LWPOLYLINE
  5
12E
330
116
100
AcDbEntity
  8
AM_9
100
AcDbPolyline
 90
       21
 70
     0
 43
0.0
 10
0.7930247244954997
 20
1.045000000468358
 10
0.7849815524877766
 20
1.045990749889832
 10
0.7720043627319282
 20
1.051448197370599
 10
0.7588537259845934
 20
1.061463107079015
 10
0.7459385409416207
 20
1.07590521189103
 10
0.7338680874904208
 20
1.094264686595812
 10
0.7230111612029959
 20
1.116505877767442
 10
0.7140912853022713
 20
1.141691107419067
 10
0.707595394580585
 20
1.169227998515566
 10
0.7038620582245579
 20
1.198253410674937
 10
0.7031488412056721
 20
1.227422380484276
 10
0.7053537123622442
 20
1.256378700017828
 10
0.7103410004874524
 20
1.284020118922756
 10
0.7178016059690501
 20
1.309893046964028
 10
0.7275265854056006
 20
1.333568171038646
 10
0.7389276607615783
 20
1.354101558916377
 10
0.7516995431098569
 20
1.371125834199364
 10
0.7651035290438946
 20
1.383865682863087
 10
0.7785068683686471
 20
1.391843042082492
 10
0.7914944731133704
 20
1.394963126460134
 10
0.7930122681686315
 20
1.394999999205964
  0
LWPOLYLINE
  5
12F
330
116
100
AcDbEntity
  8
AM_9
100
AcDbPolyline
 90
        4
 70
     0
 43
0.0
 10
0.8485095340788241
 20
1.278475554270863
 10
0.8496114301734714
 20
1.263851758459557
 10
0.8506205581362317
 20
1.242108762612438
 10
0.8509552656574007
 20
1.22
  0
LWPOLYLINE
  5
130
330
116
100
AcDbEntity
  8
AM_9
100
AcDbPolyline
 90
        9
 70
     0
 43
0.0
 10
0.7930122681686315
 20
1.394999999205964
 10
0.8034142530491274
 20
1.393128818100192
 10
0.8142105153691914
 20
1.386564743506913
 10
0.8236272715288723
 20
1.375437361354973
 10
0.8316140011210178
 20
1.360119097320101
 10
0.8382203074714913
 20
1.340639330863476
 10
0.8433685912596369
 20
1.317792774003862
 10
0.8471523448240236
 20
1.291869790384473
 10
0.8485095340788241
 20
1.278475554270863
  0
LINE
  5
131
330
116
100
AcDbEntity
  8
AM_9
100
AcDbLine
 10
0.7929715120784997
 20
-1.045
 30
0.0
 11
0.6512745664980462
 21
-1.045
 31
0.0
  0
LINE
  5
132
330
116
100
AcDbEntity
  8
AM_9
100
AcDbLine
 10
0.6513219804143554
 20
-1.395
 30
0.0
 11
0.7929116814026919
 21
-1.395
 31
0.0
  0
LWPOLYLINE
  5
133
330
116
100
AcDbEntity
  8
AM_9
100
AcDbPolyline
 90
       21
 70
     0
 43
0.0
 10
0.6514130564199793
 20
-1.045000000300555
 10
0.6436848092824873
 20
-1.045907959322315
 10
0.6308214451715982
 20
-1.051047460751525
 10
0.6172389785174437
 20
-1.060908407467812
 10
0.6040812050858451
 20
-1.074801118392404
 10
0.5913054831030751
 20
-1.093026124558377
 10
0.5798959782888103
 20
-1.114711557211206
 10
0.5701486684405933
 20
-1.140079587745538
 10
0.5631136885524157
 20
-1.167149345669891
 10
0.5588622882550384
 20
-1.196656791110283
 10
0.5578988099197536
 20
-1.225267494694797
 10
0.5600812904109053
 20
-1.25457194906584
 10
0.5650559553481181
 20
-1.281656776450445
 10
0.5728089288994624
 20
-1.30776780328694
 10
0.5827070731887501
 20
-1.331244114612993
 10
0.594643683524347
 20
-1.352257401935134
 10
0.607717273654791
 20
-1.36948912475709
 10
0.6217888665369858
 20
-1.382889171382759
 10
0.6353498990003723
 20
-1.391245001148669
 10
0.6487642502457549
 20
-1.394890136732748
 10
0.6514010365584234
 20
-1.394999999055196
  0
LWPOLYLINE
  5
134
330
116
100
AcDbEntity
  8
AM_9
100
AcDbPolyline
 90
        3
 70
     0
 43
0.0
 10
0.7051958129103079
 20
-1.251623940000929
 10
0.7054352649756859
 20
-1.244141892195054
 10
0.705763654578546
 20
-1.22
  0
LWPOLYLINE
  5
135
330
116
100
AcDbEntity
  8
AM_9
100
AcDbPolyline
 90
       10
 70
     0
 43
0.0
 10
0.6514010365584234
 20
-1.394999999055196
 10
0.6604931395425148
 20
-1.393581928877999
 10
0.6712655719641247
 20
-1.387450184201236
 10
0.6802435953449816
 20
-1.377085987626695
 10
0.6879192484920078
 20
-1.362209658253497
 10
0.6940257555324335
 20
-1.343563722415147
 10
0.6988139140144444
 20
-1.320914542382643
 10
0.7022059913356896
 20
-1.295645318656662
 10
0.7044613745611065
 20
-1.26733871143939
 10
0.7051958129103079
 20
-1.251623940000929
  0
LWPOLYLINE
  5
136
330
116
100
AcDbEntity
  8
AM_9
100
AcDbPolyline
 90
       21
 70
     0
 43
0.0
 10
0.7930247244954992
 20
-1.394999999531642
 10
0.7849815524877763
 20
-1.394009250110168
 10
0.7720043627319281
 20
-1.388551802629401
 10
0.7588537259845933
 20
-1.378536892920985
 10
0.7459385409416205
 20
-1.36409478810897
 10
0.7338680874904203
 20
-1.345735313404188
 10
0.7230111612029956
 20
-1.323494122232558
 10
0.714091285302271
 20
-1.298308892580933
 10
0.7075953945805847
 20
-1.270772001484434
 10
0.7038620582245577
 20
-1.241746589325063
 10
0.7031488412056719
 20
-1.212577619515724
 10
0.705353712362244
 20
-1.183621299982172
 10
0.710341000487452
 20
-1.155979881077245
 10
0.7178016059690497
 20
-1.130106953035973
 10
0.7275265854056004
 20
-1.106431828961354
 10
0.7389276607615781
 20
-1.085898441083623
 10
0.7516995431098566
 20
-1.068874165800636
 10
0.765103529043894
 20
-1.056134317136913
 10
0.7785068683686466
 20
-1.048156957917508
 10
0.7914944731133701
 20
-1.045036873539867
 10
0.7930122681686311
 20
-1.045000000794035
  0
LWPOLYLINE
  5
137
330
116
100
AcDbEntity
  8
AM_9
100
AcDbPolyline
 90
        4
 70
     0
 43
0.0
 10
0.8484721036478691
 20
-1.161101708215281
 10
0.8496114301734711
 20
-1.176148241540443
 10
0.8506205581362315
 20
-1.197891237387562
 10
0.8509552656574003
 20
-1.22
  0
LWPOLYLINE
  5
138
330
116
100
AcDbEntity
  8
AM_9
100
AcDbPolyline
 90
        9
 70
     0
 43
0.0
 10
0.7930122681686311
 20
-1.045000000794035
 10
0.8034142530491271
 20
-1.046871181899809
 10
0.814210515369191
 20
-1.053435256493086
 10
0.823627271528872
 20
-1.064562638645026
 10
0.8316140011210177
 20
-1.079880902679899
 10
0.8382203074714912
 20
-1.099360669136524
 10
0.8433685912596366
 20
-1.122207225996138
 10
0.8471523448240231
 20
-1.148130209615527
 10
0.8484721036478691
 20
-1.161101708215281
  0
LWPOLYLINE
  5
139
330
116
100
AcDbEntity
  8
AM_9
100
AcDbPolyline
 90
       10
 70
     0
 43
0.0
 10
0.705149069194198
 20
-1.187124792917972
 10
0.7038429774416123
 20
-1.163054972600301
 10
0.7013777738697207
 20
-1.13699435535074
 10
0.6976415245101617
 20
-1.112547198638757
 10
0.6925929226909738
 20
-1.091287850456148
 10
0.6858662572782454
 20
-1.073081865520752
 10
0.677636028605075
 20
-1.059273703939895
 10
0.6674876611752733
 20
-1.049749546418514
 10
0.6563705342071914
 20
-1.04540874653757
 10
0.6514130564199793
 20
-1.045000000300555
  0
LWPOLYLINE
  5
13A
330
116
100
AcDbEntity
  8
AM_9
100
AcDbPolyline
 90
        3
 70
     0
 43
0.0
 10
0.705763654578546
 20
-1.22
 10
0.7053049589332825
 20
-1.19152748630015
 10
0.705149069194198
 20
-1.187124792917972
  0
LWPOLYLINE
  5
13B
330
116
100
AcDbEntity
  8
AM_9
100
AcDbPolyline
 90
       10
 70
     0
 43
0.0
 10
0.7051490691941982
 20
1.252875207082025
 10
0.7038429774416123
 20
1.276945027399699
 10
0.7013777738697207
 20
1.30300564464926
 10
0.6976415245101615
 20
1.327452801361243
 10
0.6925929226909738
 20
1.348712149543852
 10
0.6858662572782455
 20
1.366918134479248
 10
0.677636028605075
 20
1.380726296060105
 10
0.6674876611752734
 20
1.390250453581485
 10
0.6563705342071914
 20
1.39459125346243
 10
0.6514130564199793
 20
1.394999999699445
  0
LWPOLYLINE
  5
13C
330
116
100
AcDbEntity
  8
AM_9
100
AcDbPolyline
 90
        3
 70
     0
 43
0.0
 10
0.705763654578546
 20
1.22
 10
0.7053049589332825
 20
1.24847251369985
 10
0.7051490691941982
 20
1.252875207082025
  0
LINE
  5
13D
330
116
100
AcDbEntity
  8
AM_9
100
AcDbLine
 10
0.7187500000000001
 20
-1.5
 30
0.0
 11
0.7187500000000001
 21
1.5
 31
0.0
  0
LINE
  5
13E
330
116
100
AcDbEntity
  8
AM_9
100
AcDbLine
 10
-0.7187500000000001
 20
1.5
 30
0.0
 11
-0.7187500000000001
 21
-1.5
 31
0.0
  0
LWPOLYLINE
  5
13F
330
116
100
AcDbEntity
  8
AM_9
100
AcDbPolyline
 90
       39
 70
     0
 43
0.0
 10
0.0
 20
1.395
 10
0.0286397913516595
 20
1.392640558245545
 10
0.057279582703319
 20
1.385360362255692
 10
0.0835016185247797
 20
1.37379362699326
 10
0.108091489739805
 20
1.357627140658482
 10
0.1292950859927527
 20
1.337931254288788
 10
0.1474143720564305
 20
1.314308021457394
 10
0.1610548465796285
 20
1.28845682137824
 10
0.1704146848486488
 20
1.25979742690094
 10
0.1746425690980692
 20
1.231179134976648
 10
0.1740065466203268
 20
1.201379534558233
 10
0.1686761156921262
 20
1.173380604947979
 10
0.1585443134386577
 20
1.145914234320858
 10
0.1443498516720185
 20
1.121065070261984
 10
0.1257593811421018
 20
1.098305390198433
 10
0.1038643548644523
 20
1.079155419740087
 10
0.0783208551478541
 20
1.063504493198977
 10
0.0512177928571621
 20
1.052662802417272
 10
0.0217729588426901
 20
1.046359744692555
 10
-0.0069743259476077
 20
1.045139030148016
 10
-0.0363602880496307
 20
1.04881901550421
 10
-0.0636541336331898
 20
1.056987266535991
 10
-0.0899161036616872
 20
1.069866411811678
 10
-0.1132902588298315
 20
1.086619651918771
 10
-0.134117647297504
 20
1.107583556881645
 10
-0.1509327843578494
 20
1.131431977520174
 10
-0.1638693554204164
 20
1.15858473842686
 10
-0.1717814888918669
 20
1.186591616709374
 10
-0.1749636985568637
 20
1.216435706619411
 10
-0.1732043233882721
 20
1.245005246641672
 10
-0.1665642566385417
 20
1.273678193062453
 10
-0.1556426099931635
 20
1.300002362180851
 10
-0.140140672853964
 20
1.324812173968667
 10
-0.1209696315157701
 20
1.346456902741364
 10
-0.0978093097835885
 20
1.36511491625487
 10
-0.0722928320267531
 20
1.379369841681391
 10
-0.0438693745577888
 20
1.38941215415639
 10
-0.0223020279002801
 20
1.393573095701884
 10
0.0
 20
1.395
  0
LWPOLYLINE
  5
140
330
116
100
AcDbEntity
  8
AM_9
100
AcDbPolyline
 90
       10
 70
     0
 43
0.0
 10
0.8487587005085091
 20
1.164438400032739
 10
0.8486148279813386
 20
1.162734029021331
 10
0.8456192523119057
 20
1.136170774334226
 10
0.8413178797673184
 20
1.111934746540848
 10
0.8355320844920219
 20
1.090455667079723
 10
0.8282602267600403
 20
1.072593898484804
 10
0.8193753238744715
 20
1.058797206756747
 10
0.8090239747715555
 20
1.049589124468068
 10
0.7975024913051676
 20
1.04535008796134
 10
0.7930247244954997
 20
1.045000000468358
  0
LWPOLYLINE
  5
141
330
116
100
AcDbEntity
  8
AM_9
100
AcDbPolyline
 90
        3
 70
     0
 43
0.0
 10
0.8509552656574007
 20
1.22
 10
0.850373743764272
 20
1.190953579819934
 10
0.8487587005085091
 20
1.164438400032739
  0
LINE
  5
142
330
116
100
AcDbEntity
  8
AM_9
100
AcDbLine
 10
0.875
 20
0.912
 30
0.0
 11
0.875
 21
1.5
 31
0.0
  0
LINE
  5
143
330
116
100
AcDbEntity
  8
AM_9
100
AcDbLine
 10
-0.875
 20
1.5
 30
0.0
 11
-0.875
 21
0.912
 31
0.0
  0
LWPOLYLINE
  5
144
330
116
100
AcDbEntity
  8
AM_9
100
AcDbPolyline
 90
       39
 70
     0
 43
0.0
 10
0.0
 20
-1.045
 10
0.0286397913516595
 20
-1.047359441754455
 10
0.0572795827033191
 20
-1.054639637744308
 10
0.0835016185247797
 20
-1.066206373006739
 10
0.108091489739805
 20
-1.082372859341518
 10
0.1292950859927529
 20
-1.102068745711213
 10
0.1474143720564305
 20
-1.125691978542606
 10
0.1610548465796286
 20
-1.15154317862176
 10
0.1704146848486489
 20
-1.18020257309906
 10
0.1746425690980692
 20
-1.208820865023352
 10
0.1740065466203268
 20
-1.238620465441767
 10
0.1686761156921263
 20
-1.266619395052021
 10
0.1585443134386576
 20
-1.294085765679142
 10
0.1443498516720183
 20
-1.318934929738017
 10
0.1257593811421018
 20
-1.341694609801567
 10
0.1038643548644522
 20
-1.360844580259913
 10
0.078320855147854
 20
-1.376495506801022
 10
0.0512177928571619
 20
-1.387337197582728
 10
0.02177295884269
 20
-1.393640255307445
 10
-0.0069743259476078
 20
-1.394860969851984
 10
-0.0363602880496308
 20
-1.39118098449579
 10
-0.0636541336331899
 20
-1.383012733464009
 10
-0.0899161036616873
 20
-1.370133588188322
 10
-0.1132902588298317
 20
-1.353380348081229
 10
-0.1341176472975041
 20
-1.332416443118355
 10
-0.1509327843578495
 20
-1.308568022479826
 10
-0.1638693554204165
 20
-1.28141526157314
 10
-0.1717814888918669
 20
-1.253408383290626
 10
-0.1749636985568637
 20
-1.223564293380589
 10
-0.1732043233882721
 20
-1.194994753358328
 10
-0.1665642566385416
 20
-1.166321806937547
 10
-0.1556426099931633
 20
-1.139997637819149
 10
-0.140140672853964
 20
-1.115187826031332
 10
-0.1209696315157699
 20
-1.093543097258636
 10
-0.0978093097835883
 20
-1.07488508374513
 10
-0.072292832026753
 20
-1.060630158318609
 10
-0.0438693745577889
 20
-1.05058784584361
 10
-0.0223020279002801
 20
-1.046426904298116
 10
0.0
 20
-1.045
  0
LWPOLYLINE
  5
145
330
116
100
AcDbEntity
  8
AM_9
100
AcDbPolyline
 90
       10
 70
     0
 43
0.0
 10
0.8487195398357023
 20
-1.276031679940523
 10
0.8486148279813384
 20
-1.277265970978669
 10
0.8456192523119054
 20
-1.303829225665774
 10
0.8413178797673181
 20
-1.328065253459151
 10
0.8355320844920215
 20
-1.349544332920276
 10
0.8282602267600401
 20
-1.367406101515195
 10
0.8193753238744711
 20
-1.381202793243253
 10
0.8090239747715551
 20
-1.390410875531932
 10
0.7975024913051671
 20
-1.39464991203866
 10
0.7930247244954992
 20
-1.394999999531642
  0
LWPOLYLINE
  5
146
330
116
100
AcDbEntity
  8
AM_9
100
AcDbPolyline
 90
        3
 70
     0
 43
0.0
 10
0.8509552656574003
 20
-1.22
 10
0.8503737437642717
 20
-1.249046420180066
 10
0.8487195398357023
 20
-1.276031679940523
  0
LINE
  5
147
330
116
100
AcDbEntity
  8
AM_9
100
AcDbLine
 10
0.8749999999999997
 20
-1.5
 30
0.0
 11
0.8749999999999997
 21
-0.9119999999999998
 31
0.0
  0
LINE
  5
148
330
116
100
AcDbEntity
  8
AM_9
100
AcDbLine
 10
-0.8749999999999997
 20
-0.9119999999999998
 30
0.0
 11
-0.8749999999999997
 21
-1.5
 31
0.0
  0
LINE
  5
149
330
116
100
AcDbEntity
  8
AM_9
100
AcDbLine
 10
-1.41025641025641
 20
-0.9119999999999998
 30
0.0
 11
1.41025641025641
 21
-0.9119999999999998
 31
0.0
  0
LINE
  5
14A
330
116
100
AcDbEntity
  8
AM_9
100
AcDbLine
 10
-1.41025641025641
 20
-0.9119999999999998
 30
0.0
 11
-1.431283402705895
 21
-1.03125
 31
0.0
  0
LINE
  5
14B
330
116
100
AcDbEntity
  8
AM_9
100
AcDbLine
 10
1.431283402705895
 20
-1.03125
 30
0.0
 11
1.41025641025641
 21
-0.9119999999999998
 31
0.0
  0
LINE
  5
14C
330
116
100
AcDbEntity
  8
AM_9
100
AcDbLine
 10
1.410256410256411
 20
0.9119999999999998
 30
0.0
 11
1.431283402705895
 21
1.03125
 31
0.0
  0
LINE
  5
14D
330
116
100
AcDbEntity
  8
AM_9
100
AcDbLine
 10
-1.431283402705895
 20
1.03125
 30
0.0
 11
-1.410256410256411
 21
0.9119999999999998
 31
0.0
  0
LINE
  5
14E
330
116
100
AcDbEntity
  8
AM_9
100
AcDbLine
 10
1.410256410256411
 20
0.9119999999999998
 30
0.0
 11
-1.410256410256411
 21
0.9119999999999998
 31
0.0
  0
LINE
  5
14F
330
116
100
AcDbEntity
  8
AM_7
100
AcDbLine
 10
-0.3638724845097312
 20
0.0000000000000001
 30
0.0
 11
0.3638724845097312
 21
0.0000000000000001
 31
0.0
  0
LINE
  5
150
330
116
100
AcDbEntity
  8
AM_7
100
AcDbLine
 10
0.0
 20
-1.65
 30
0.0
 11
0.0
 21
1.65
 31
0.0
  0
LINE
  5
151
330
116
100
AcDbEntity
  8
AM_4
100
AcDbLine
 10
-1.70475
 20
-1.03125
 30
0.0
 11
1.70475
 21
-1.03125
 31
0.0
  0
LINE
  5
152
330
116
100
AcDbEntity
  8
AM_4
100
AcDbLine
 10
1.70475
 20
-1.03125
 30
0.0
 11
1.71875
 21
-1.01725
 31
0.0
  0
LINE
  5
153
330
116
100
AcDbEntity
  8
AM_4
100
AcDbLine
 10
-1.71875
 20
-1.01725
 30
0.0
 11
-1.70475
 21
-1.03125
 31
0.0
  0
LINE
  5
154
330
116
100
AcDbEntity
  8
AM_4
100
AcDbLine
 10
-1.71875
 20
-1.01725
 30
0.0
 11
1.71875
 21
-1.01725
 31
0.0
  0
LINE
  5
155
330
116
100
AcDbEntity
  8
AM_4
100
AcDbLine
 10
1.71875
 20
-1.01725
 30
0.0
 11
1.71875
 21
1.01725
 31
0.0
  0
LINE
  5
156
330
116
100
AcDbEntity
  8
AM_4
100
AcDbLine
 10
-1.71875
 20
1.01725
 30
0.0
 11
-1.71875
 21
-1.01725
 31
0.0
  0
LINE
  5
157
330
116
100
AcDbEntity
  8
AM_4
100
AcDbLine
 10
-1.71875
 20
1.01725
 30
0.0
 11
1.71875
 21
1.01725
 31
0.0
  0
LINE
  5
158
330
116
100
AcDbEntity
  8
AM_4
100
AcDbLine
 10
-1.70475
 20
1.03125
 30
0.0
 11
1.70475
 21
1.03125
 31
0.0
  0
LINE
  5
159
330
116
100
AcDbEntity
  8
AM_4
100
AcDbLine
 10
-1.70475
 20
1.03125
 30
0.0
 11
-1.71875
 21
1.01725
 31
0.0
  0
LINE
  5
15A
330
116
100
AcDbEntity
  8
AM_4
100
AcDbLine
 10
1.71875
 20
1.01725
 30
0.0
 11
1.70475
 21
1.03125
 31
0.0
  0
LWPOLYLINE
  5
15B
330
116
100
AcDbEntity
  8
AM_4
100
AcDbPolyline
 90
       75
 70
     0
 43
0.0
 10
-0.2800377884122391
 20
0.2639143191778235
 10
-0.256825244659924
 20
0.286118959271953
 10
-0.2318400674457526
 20
0.3063229870520165
 10
-0.2044527273154083
 20
0.3248773912954922
 10
-0.1755585256919301
 20
0.3410447430033841
 10
-0.1462187810366641
 20
0.3543522642260432
 10
-0.1158472826734386
 20
0.3651998045220497
 10
-0.0837113177075736
 20
0.373706523199955
 10
-0.0509413918511861
 20
0.3794537241398903
 10
-0.0191191681867656
 20
0.3823209903672442
 10
0.0128373514680134
 20
0.3825806947983043
 10
0.0456440128891698
 20
0.3801115340583689
 10
0.0781114334384082
 20
0.3748961857457819
 10
0.1088206229058939
 20
0.3673105452652691
 10
0.1387869595235388
 20
0.3572729026327827
 10
0.1686167188628616
 20
0.3444590816381978
 10
0.1972450286002609
 20
0.3292196085171396
 10
0.22404976286863
 20
0.3119513386940601
 10
0.2493267748778126
 20
0.2925507988966657
 10
0.2735478928931896
 20
0.2705003073926238
 10
0.2958087938099486
 20
0.2464743008745444
 10
0.3156229381002797
 20
0.2210752271902094
 10
0.3332463963841878
 20
0.194085449569594
 10
0.3489618144512636
 20
0.1648050023308707
 10
0.362084709181511
 20
0.1342356586406444
 10
0.3720814721393524
 20
0.1040468312148313
 10
0.3795282550171804
 20
0.0730984980866628
 10
0.3844581459166214
 20
0.0406296358066106
 10
0.3865648973400101
 20
0.0078409356193902
 10
0.3859397013477011
 20
-0.0230846648658968
 10
0.3827998320151454
 20
-0.0538488617264586
 10
0.3769596825835282
 20
-0.085119744098281
 10
0.3685340039217244
 20
-0.1157671808843237
 10
0.3579676455474748
 20
-0.1446462996771186
 10
0.3451226097696196
 20
-0.1725516580234954
 10
0.3296413303365319
 20
-0.2000237309529191
 10
0.3119670112303643
 20
-0.2261075655604212
 10
0.2922209602162551
 20
-0.2506308856531684
 10
0.2705410480007914
 20
-0.2734515203619501
 10
0.2463884385196205
 20
-0.2949780775054732
 10
0.2205088485339275
 20
-0.3144174645656587
 10
0.193228487687073
 20
-0.3315439203770332
 10
0.1645953909066297
 20
-0.3463632594528208
 10
0.1339066889504795
 20
-0.3590914826233116
 10
0.1022113782300364
 20
-0.3691696403950654
 10
0.0708725769476836
 20
-0.3763014118058237
 10
0.0390313927533834
 20
-0.3808356793797515
 10
0.0059467267395522
 20
-0.3827437752271829
 10
-0.0271828702499608
 20
-0.3818442941372753
 10
-0.0586893862259603
 20
-0.3783523970034682
 10
-0.0897912743339717
 20
-0.3723229092920424
 10
-0.1211426593082718
 20
-0.3635087577101213
 10
-0.1516191440861215
 20
-0.3521226458936194
 10
-0.1803188129126752
 20
-0.3385987176750781
 10
-0.2077935768370614
 20
-0.3227956731687334
 10
-0.2345724389915389
 20
-0.304274198203463
 10
-0.2596856095137644
 20
-0.2835798493542083
 10
-0.2826827263363292
 20
-0.261132747582394
 10
-0.3037301756492025
 20
-0.2368437216914666
 10
-0.3231955608220431
 20
-0.2100787726577207
 10
-0.3402912888495896
 20
-0.1817117596352906
 10
-0.3544370732991962
 20
-0.152927920652151
 10
-0.3661263952524386
 20
-0.1230252611383828
 10
-0.3754939539341602
 20
-0.0912452441611772
 10
-0.3820649896432628
 20
-0.0587401999219369
 10
-0.385630453329807
 20
-0.0276877880015095
 10
-0.3866293001689967
 20
0.0035623299287795
 10
-0.3849549925127135
 20
0.0357263843550914
 10
-0.3805633909813338
 20
0.0676200044415389
 10
-0.3738674773924746
 20
0.0975733670318752
 10
-0.3647872953499275
 20
0.1268632664375521
 10
-0.3530323709931451
 20
0.1560798616749632
 10
-0.3389240430653657
 20
0.1841988494157589
 10
-0.3123043029392418
 20
0.2256507680034396
 10
-0.2800377884122392
 20
0.2639143191778235
  0
CIRCLE
  5
15C
330
116
100
AcDbEntity
  8
AM_4
100
AcDbCircle
 10
0.0
 20
0.0000000000000001
 30
0.0
 40
0.3465452233426011
  0
CIRCLE
  5
15D
330
116
100
AcDbEntity
  8
AM_4
100
AcDbCircle
 10
0.0
 20
0.0000000000000001
 30
0.0
 40
0.3116784089093902
  0
ENDBLK
  5
119
330
116
100
AcDbEntity
  8
0
100
AcDbBlockEnd
  0
ENDSEC
  0
SECTION
  2
ENTITIES
  0
INSERT
  5
6F
330
1F
100
AcDbEntity
  8
0
100
AcDbBlockReference
  2
1_023546_4
 10
0.0
 20
0.0
 30
0.0
  0
POINT
  5
15F
330
1F
100
AcDbEntity
  8
ConnectionPoints
100
AcDbPoint
 10
0.0
 20
-1.5
 30
0.0000000000000001
  0
POINT
  5
160
330
1F
100
AcDbEntity
  8
ConnectionPoints
100
AcDbPoint
 10
0.0
 20
0.0000000000000001
 30
2.165
  0
POINT
  5
161
330
1F
100
AcDbEntity
  8
ConnectionPoints
100
AcDbPoint
 10
0.0
 20
0.0
 30
0.0
  0
POINT
  5
162
330
1F
100
AcDbEntity
  8
ConnectionPoints
100
AcDbPoint
 10
0.0
 20
-1.5
 30
0.0000000000000001
  0
POINT
  5
163
330
1F
100
AcDbEntity
  8
ConnectionPoints
100
AcDbPoint
 10
0.0
 20
1.5
 30
-0.0000000000000001
  0
POINT
  5
164
330
1F
100
AcDbEntity
  8
ConnectionPoints
100
AcDbPoint
 10
0.0
 20
0.0000000000000001
 30
2.165
  0
POINT
  5
165
330
1F
100
AcDbEntity
  8
ConnectionPoints
100
AcDbPoint
 10
0.0
 20
0.0000000000000001
 30
2.165
  0
ENDSEC
  0
SECTION
  2
OBJECTS
  0
DICTIONARY
  5
C
330
0
100
AcDbDictionary
281
     1
  3
ACAD_DETAILVIEWSTYLE
350
16D
  3
ACAD_GROUP
350
D
  3
ACAD_LAYOUT
350
1A
  3
ACAD_MATERIAL
350
43
  3
ACAD_MLEADERSTYLE
350
6B
  3
ACAD_MLINESTYLE
350
17
  3
ACAD_PLOTSETTINGS
350
19
  3
ACAD_PLOTSTYLENAME
350
E
  3
ACAD_SCALELIST
350
47
  3
ACAD_SECTIONVIEWSTYLE
350
16E
  3
ACAD_TABLESTYLE
350
69
  3
ACAD_VISUALSTYLE
350
2A
  3
ACDB_RECOMPOSE_DATA
350
16A
  3
AcDbVariableDictionary
350
166
  0
SUN
  5
6D
330
29
100
AcDbSun
 90
        1
290
     0
 63
     7
421
 16777215
 40
1.0
291
     1
 91
  2455826
 92
 54000000
292
     0
 70
     2
 71
   256
280
     1
  0
DICTIONARY
  5
16D
102
{ACAD_REACTORS
330
C
102
}
330
C
100
AcDbDictionary
281
     1
  0
DICTIONARY
  5
D
102
{ACAD_REACTORS
330
C
102
}
330
C
100
AcDbDictionary
281
     1
  0
DICTIONARY
  5
1A
102
{ACAD_REACTORS
330
C
102
}
330
C
100
AcDbDictionary
281
     1
  3
Layout1
350
1E
  3
Layout2
350
26
  3
Model
350
22
  0
DICTIONARY
  5
43
102
{ACAD_REACTORS
330
C
102
}
330
C
100
AcDbDictionary
281
     1
  3
ByBlock
350
45
  3
ByLayer
350
44
  3
Global
350
46
  0
DICTIONARY
  5
6B
102
{ACAD_REACTORS
330
C
102
}
330
C
100
AcDbDictionary
281
     1
  3
Standard
350
6C
  0
DICTIONARY
  5
17
102
{ACAD_REACTORS
330
C
102
}
330
C
100
AcDbDictionary
281
     1
  3
Standard
350
18
  0
DICTIONARY
  5
19
102
{ACAD_REACTORS
330
C
102
}
330
C
100
AcDbDictionary
281
     1
  0
ACDBDICTIONARYWDFLT
  5
E
102
{ACAD_REACTORS
330
C
102
}
330
C
100
AcDbDictionary
281
     1
  3
Normal
350
F
100
AcDbDictionaryWithDefault
340
F
  0
DICTIONARY
  5
47
102
{ACAD_REACTORS
330
C
102
}
330
C
100
AcDbDictionary
281
     1
  3
A0
350
48
  3
A1
350
49
  3
A2
350
4A
  3
A3
350
4B
  3
A4
350
4C
  3
A5
350
4D
  3
A6
350
4E
  3
A7
350
4F
  3
A8
350
50
  3
A9
350
51
  3
B0
350
52
  3
B1
350
53
  3
B2
350
54
  3
B3
350
55
  3
B4
350
56
  3
B5
350
57
  3
B6
350
58
  3
B7
350
59
  3
B8
350
5A
  3
B9
350
5B
  3
C0
350
5C
  3
C1
350
5D
  3
C2
350
5E
  3
C3
350
5F
  3
C4
350
60
  3
C5
350
61
  3
C6
350
62
  3
C7
350
63
  3
C8
350
64
  3
C9
350
65
  3
D0
350
66
  3
D1
350
67
  3
D2
350
68
  0
DICTIONARY
  5
16E
102
{ACAD_REACTORS
330
C
102
}
330
C
100
AcDbDictionary
281
     1
  0
DICTIONARY
  5
69
102
{ACAD_REACTORS
330
C
102
}
330
C
100
AcDbDictionary
281
     1
  3
Standard
350
6A
  0
DICTIONARY
  5
2A
102
{ACAD_REACTORS
330
C
102
}
330
C
100
AcDbDictionary
281
     1
  3
2dWireframe
350
2F
  3
Basic
350
32
  3
Brighten
350
36
  3
ColorChange
350
3A
  3
Conceptual
350
34
  3
Dim
350
35
  3
EdgeColorOff
350
3D
  3
Facepattern
350
39
  3
Flat
350
2B
  3
FlatWithEdges
350
2C
  3
Gouraud
350
2D
  3
GouraudWithEdges
350
2E
  3
Hidden
350
31
  3
JitterOff
350
3B
  3
Linepattern
350
38
  3
OverhangOff
350
3C
  3
Realistic
350
33
  3
Shaded
350
42
  3
Shaded with edges
350
41
  3
Shades of Gray
350
3E
  3
Sketchy
350
3F
  3
Thicken
350
37
  3
Wireframe
350
30
  3
X-Ray
350
40
  0
XRECORD
  5
16A
102
{ACAD_REACTORS
330
C
102
}
330
C
100
AcDbXrecord
280
     1
 90
        1
330
6A
  0
DICTIONARY
  5
166
102
{ACAD_REACTORS
330
C
102
}
330
C
100
AcDbDictionary
281
     1
  3
CANNOSCALE
350
167
  3
CMLEADERSTYLE
350
16C
  3
CTABLESTYLE
350
16B
  0
LAYOUT
  5
1E
102
{ACAD_REACTORS
330
1A
102
}
330
1A
100
AcDbPlotSettings
  1

  2
none_device
  4

  6

 40
0.0
 41
0.0
 42
0.0
 43
0.0
 44
0.0
 45
0.0
 46
0.0
 47
0.0
 48
0.0
 49
0.0
140
0.0
141
0.0
142
1.0
143
1.0
 70
   688
 72
     0
 73
     0
 74
     5
  7

 75
    16
 76
     0
 77
     2
 78
   300
147
1.0
148
0.0
149
0.0
100
AcDbLayout
  1
Layout1
 70
     1
 71
     1
 10
0.0
 20
0.0
 11
12.0
 21
9.0
 12
0.0
 22
0.0
 32
0.0
 14
1.000000000000000E+20
 24
1.000000000000000E+20
 34
1.000000000000000E+20
 15
-1.000000000000000E+20
 25
-1.000000000000000E+20
 35
-1.000000000000000E+20
146
0.0
 13
0.0
 23
0.0
 33
0.0
 16
1.0
 26
0.0
 36
0.0
 17
0.0
 27
1.0
 37
0.0
 76
     0
330
1B
  0
LAYOUT
  5
26
102
{ACAD_REACTORS
330
1A
102
}
330
1A
100
AcDbPlotSettings
  1

  2
none_device
  4

  6

 40
0.0
 41
0.0
 42
0.0
 43
0.0
 44
0.0
 45
0.0
 46
0.0
 47
0.0
 48
0.0
 49
0.0
140
0.0
141
0.0
142
1.0
143
1.0
 70
   688
 72
     0
 73
     0
 74
     5
  7

 75
    16
 76
     0
 77
     2
 78
   300
147
1.0
148
0.0
149
0.0
100
AcDbLayout
  1
Layout2
 70
     1
 71
     2
 10
0.0
 20
0.0
 11
0.0
 21
0.0
 12
0.0
 22
0.0
 32
0.0
 14
0.0
 24
0.0
 34
0.0
 15
0.0
 25
0.0
 35
0.0
146
0.0
 13
0.0
 23
0.0
 33
0.0
 16
1.0
 26
0.0
 36
0.0
 17
0.0
 27
1.0
 37
0.0
 76
     0
330
23
  0
LAYOUT
  5
22
102
{ACAD_REACTORS
330
1A
102
}
330
1A
100
AcDbPlotSettings
  1

  2
none_device
  4
Letter_(8.50_x_11.00_Inches)
  6

 40
6.35
 41
6.35
 42
6.35000508
 43
6.35000508
 44
215.9
 45
279.4
 46
0.0
 47
0.0
 48
0.0
 49
0.0
140
0.0
141
0.0
142
1.0
143
1.0
 70
  1712
 72
     0
 73
     0
 74
     0
  7

 75
     0
 76
     0
 77
     2
 78
   300
147
1.0
148
0.0
149
0.0
100
AcDbLayout
  1
Model
 70
     1
 71
     0
 10
0.0
 20
0.0
 11
12.0
 21
9.0
 12
0.0
 22
0.0
 32
0.0
 14
1.000000000000000E+20
 24
1.000000000000000E+20
 34
1.000000000000000E+20
 15
-1.000000000000000E+20
 25
-1.000000000000000E+20
 35
-1.000000000000000E+20
146
0.0
 13
0.0
 23
0.0
 33
0.0
 16
1.0
 26
0.0
 36
0.0
 17
0.0
 27
1.0
 37
0.0
 76
     0
330
1F
331
29
  0
MATERIAL
  5
45
102
{ACAD_REACTORS
330
43
102
}
330
43
100
AcDbMaterial
  1
ByBlock
 72
     1
 94
      127
  0
MATERIAL
  5
44
102
{ACAD_REACTORS
330
43
102
}
330
43
100
AcDbMaterial
  1
ByLayer
 72
     1
 94
      127
  0
MATERIAL
  5
46
102
{ACAD_REACTORS
330
43
102
}
330
43
100
AcDbMaterial
  1
Global
 72
     1
 94
      127
  0
MLEADERSTYLE
  5
6C
102
{ACAD_REACTORS
330
6B
102
}
330
6B
100
AcDbMLeaderStyle
179
     2
170
     2
171
     1
172
     0
 90
        2
 40
0.0
 41
0.0
173
     1
 91
-1056964608
340
14
 92
       -2
290
     1
 42
0.09
291
     1
 43
0.36
  3
Standard
341
0
 44
0.18
300

342
11
174
     1
178
     6
175
     1
176
     0
 93
-1056964608
 45
0.18
292
     0
297
     0
 46
0.18
343
0
 94
-1056964608
 47
1.0
 49
1.0
140
1.0
293
     1
141
0.0
294
     1
177
     0
142
1.0
295
     0
296
     0
143
0.125
271
     0
272
     9
273
     9
298
     0
  0
MLINESTYLE
  5
18
102
{ACAD_REACTORS
330
17
102
}
330
17
100
AcDbMlineStyle
  2
Standard
 70
     0
  3

 62
   256
 51
90.0
 52
90.0
 71
     2
 49
0.5
 62
   256
  6
BYLAYER
 49
-0.5
 62
   256
  6
BYLAYER
  0
ACDBPLACEHOLDER
  5
F
102
{ACAD_REACTORS
330
E
102
}
330
E
  0
SCALE
  5
48
102
{ACAD_REACTORS
330
47
102
}
330
47
100
AcDbScale
 70
     0
300
1:1
140
1.0
141
1.0
290
     1
  0
SCALE
  5
49
102
{ACAD_REACTORS
330
47
102
}
330
47
100
AcDbScale
 70
     0
300
1:2
140
1.0
141
2.0
290
     0
  0
SCALE
  5
4A
102
{ACAD_REACTORS
330
47
102
}
330
47
100
AcDbScale
 70
     0
300
1:4
140
1.0
141
4.0
290
     0
  0
SCALE
  5
4B
102
{ACAD_REACTORS
330
47
102
}
330
47
100
AcDbScale
 70
     0
300
1:5
140
1.0
141
5.0
290
     0
  0
SCALE
  5
4C
102
{ACAD_REACTORS
330
47
102
}
330
47
100
AcDbScale
 70
     0
300
1:8
140
1.0
141
8.0
290
     0
  0
SCALE
  5
4D
102
{ACAD_REACTORS
330
47
102
}
330
47
100
AcDbScale
 70
     0
300
1:10
140
1.0
141
10.0
290
     0
  0
SCALE
  5
4E
102
{ACAD_REACTORS
330
47
102
}
330
47
100
AcDbScale
 70
     0
300
1:16
140
1.0
141
16.0
290
     0
  0
SCALE
  5
4F
102
{ACAD_REACTORS
330
47
102
}
330
47
100
AcDbScale
 70
     0
300
1:20
140
1.0
141
20.0
290
     0
  0
SCALE
  5
50
102
{ACAD_REACTORS
330
47
102
}
330
47
100
AcDbScale
 70
     0
300
1:30
140
1.0
141
30.0
290
     0
  0
SCALE
  5
51
102
{ACAD_REACTORS
330
47
102
}
330
47
100
AcDbScale
 70
     0
300
1:40
140
1.0
141
40.0
290
     0
  0
SCALE
  5
52
102
{ACAD_REACTORS
330
47
102
}
330
47
100
AcDbScale
 70
     0
300
1:50
140
1.0
141
50.0
290
     0
  0
SCALE
  5
53
102
{ACAD_REACTORS
330
47
102
}
330
47
100
AcDbScale
 70
     0
300
1:100
140
1.0
141
100.0
290
     0
  0
SCALE
  5
54
102
{ACAD_REACTORS
330
47
102
}
330
47
100
AcDbScale
 70
     0
300
2:1
140
2.0
141
1.0
290
     0
  0
SCALE
  5
55
102
{ACAD_REACTORS
330
47
102
}
330
47
100
AcDbScale
 70
     0
300
4:1
140
4.0
141
1.0
290
     0
  0
SCALE
  5
56
102
{ACAD_REACTORS
330
47
102
}
330
47
100
AcDbScale
 70
     0
300
8:1
140
8.0
141
1.0
290
     0
  0
SCALE
  5
57
102
{ACAD_REACTORS
330
47
102
}
330
47
100
AcDbScale
 70
     0
300
10:1
140
10.0
141
1.0
290
     0
  0
SCALE
  5
58
102
{ACAD_REACTORS
330
47
102
}
330
47
100
AcDbScale
 70
     0
300
100:1
140
100.0
141
1.0
290
     0
  0
SCALE
  5
59
102
{ACAD_REACTORS
330
47
102
}
330
47
100
AcDbScale
 70
     0
300
1/128" = 1'-0"
140
0.0078125
141
12.0
290
     0
  0
SCALE
  5
5A
102
{ACAD_REACTORS
330
47
102
}
330
47
100
AcDbScale
 70
     0
300
1/64" = 1'-0"
140
0.015625
141
12.0
290
     0
  0
SCALE
  5
5B
102
{ACAD_REACTORS
330
47
102
}
330
47
100
AcDbScale
 70
     0
300
1/32" = 1'-0"
140
0.03125
141
12.0
290
     0
  0
SCALE
  5
5C
102
{ACAD_REACTORS
330
47
102
}
330
47
100
AcDbScale
 70
     0
300
1/16" = 1'-0"
140
0.0625
141
12.0
290
     0
  0
SCALE
  5
5D
102
{ACAD_REACTORS
330
47
102
}
330
47
100
AcDbScale
 70
     0
300
3/32" = 1'-0"
140
0.09375
141
12.0
290
     0
  0
SCALE
  5
5E
102
{ACAD_REACTORS
330
47
102
}
330
47
100
AcDbScale
 70
     0
300
1/8" = 1'-0"
140
0.125
141
12.0
290
     0
  0
SCALE
  5
5F
102
{ACAD_REACTORS
330
47
102
}
330
47
100
AcDbScale
 70
     0
300
3/16" = 1'-0"
140
0.1875
141
12.0
290
     0
  0
SCALE
  5
60
102
{ACAD_REACTORS
330
47
102
}
330
47
100
AcDbScale
 70
     0
300
1/4" = 1'-0"
140
0.25
141
12.0
290
     0
  0
SCALE
  5
61
102
{ACAD_REACTORS
330
47
102
}
330
47
100
AcDbScale
 70
     0
300
3/8" = 1'-0"
140
0.375
141
12.0
290
     0
  0
SCALE
  5
62
102
{ACAD_REACTORS
330
47
102
}
330
47
100
AcDbScale
 70
     0
300
1/2" = 1'-0"
140
0.5
141
12.0
290
     0
  0
SCALE
  5
63
102
{ACAD_REACTORS
330
47
102
}
330
47
100
AcDbScale
 70
     0
300
3/4" = 1'-0"
140
0.75
141
12.0
290
     0
  0
SCALE
  5
64
102
{ACAD_REACTORS
330
47
102
}
330
47
100
AcDbScale
 70
     0
300
1" = 1'-0"
140
1.0
141
12.0
290
     0
  0
SCALE
  5
65
102
{ACAD_REACTORS
330
47
102
}
330
47
100
AcDbScale
 70
     0
300
1-1/2" = 1'-0"
140
1.5
141
12.0
290
     0
  0
SCALE
  5
66
102
{ACAD_REACTORS
330
47
102
}
330
47
100
AcDbScale
 70
     0
300
3" = 1'-0"
140
3.0
141
12.0
290
     0
  0
SCALE
  5
67
102
{ACAD_REACTORS
330
47
102
}
330
47
100
AcDbScale
 70
     0
300
6" = 1'-0"
140
6.0
141
12.0
290
     0
  0
SCALE
  5
68
102
{ACAD_REACTORS
330
47
102
}
330
47
100
AcDbScale
 70
     0
300
1'-0" = 1'-0"
140
12.0
141
12.0
290
     0
  0
TABLESTYLE
  5
6A
102
{ACAD_REACTORS
330
69
102
}
102
{ACAD_XDICTIONARY
360
168
102
}
330
69
100
AcDbTableStyle
  3
Standard
 70
     0
 71
     0
 40
0.06
 41
0.06
280
     0
281
     0
  7
Standard
140
0.18
170
     2
 62
     0
 63
   257
283
     0
 90
        4
 91
        0
  1

274
    -2
284
     1
 64
     0
275
    -2
285
     1
 65
     0
276
    -2
286
     1
 66
     0
277
    -2
287
     1
 67
     0
278
    -2
288
     1
 68
     0
279
    -2
289
     1
 69
     0
  7
Standard
140
0.25
170
     5
 62
     0
 63
   257
283
     0
 90
        4
 91
        0
  1

274
    -2
284
     1
 64
     0
275
    -2
285
     1
 65
     0
276
    -2
286
     1
 66
     0
277
    -2
287
     1
 67
     0
278
    -2
288
     1
 68
     0
279
    -2
289
     1
 69
     0
  7
Standard
140
0.18
170
     5
 62
     0
 63
   257
283
     0
 90
        4
 91
        0
  1

274
    -2
284
     1
 64
     0
275
    -2
285
     1
 65
     0
276
    -2
286
     1
 66
     0
277
    -2
287
     1
 67
     0
278
    -2
288
     1
 68
     0
279
    -2
289
     1
 69
     0
  0
VISUALSTYLE
  5
2F
102
{ACAD_REACTORS
330
2A
102
}
330
2A
100
AcDbVisualStyle
  2
2dWireframe
 70
     4
177
     3
291
     0
 70
    58
 90
        0
176
     1
 90
        2
176
     1
 90
        0
176
     1
 90
        0
176
     1
 40
0.6
176
     1
 40
30.0
176
     1
 62
     7
420
 16777215
176
     1
 90
        1
176
     1
 90
        4
176
     1
 62
     7
176
     1
 62
   257
176
     1
 90
        1
176
     1
 90
        1
176
     1
 40
1.0
176
     1
 90
        0
176
     1
 62
   257
176
     1
 40
1.0
176
     1
 90
        1
176
     1
 90
        6
176
     1
 90
        2
176
     1
 62
     7
176
     1
 90
        5
176
     1
 90
        0
176
     1
 90
        0
176
     1
290
     0
176
     1
 90
        1
176
     1
 40
0.0
176
     1
 90
        0
176
     1
290
     1
176
     1
290
     1
176
     1
290
     0
176
     1
290
     0
176
     1
290
     0
176
     1
290
     0
176
     1
290
     0
176
     1
290
     0
176
     1
290
     0
176
     1
 90
       50
176
     1
 40
0.0
176
     1
 40
1.0
176
     1
 90
        0
176
     1
 62
    18
420
        0
176
     1
 90
       50
176
     1
 90
        3
176
     1
 62
     5
420
      255
176
     1
290
     0
176
     1
 90
       50
176
     1
 90
       50
176
     1
 90
       50
176
     1
290
     0
176
     1
 90
       50
176
     1
 62
   256
176
     0
 40
1.0
176
     0
 90
        2
176
     1
  1
strokes_ogs.tif
176
     1
290
     0
176
     1
 40
1.0
176
     1
 40
1.0
176
     1
  0
VISUALSTYLE
  5
32
102
{ACAD_REACTORS
330
2A
102
}
330
2A
100
AcDbVisualStyle
  2
Basic
 70
     7
177
     3
291
     1
 70
    58
 90
        1
176
     1
 90
        0
176
     1
 90
        1
176
     1
 90
        0
176
     1
 40
0.6
176
     1
 40
30.0
176
     1
 62
     7
420
 16777215
176
     1
 90
        0
176
     1
 90
        4
176
     1
 62
     7
176
     1
 62
   257
176
     1
 90
        1
176
     1
 90
        1
176
     1
 40
1.0
176
     1
 90
        8
176
     1
 62
     7
176
     1
 40
1.0
176
     1
 90
        1
176
     1
 90
        6
176
     1
 90
        2
176
     1
 62
     7
176
     1
 90
        5
176
     1
 90
        0
176
     1
 90
        0
176
     1
290
     0
176
     1
 90
        1
176
     1
 40
0.0
176
     1
 90
        0
176
     1
290
     0
176
     1
290
     1
176
     1
290
     1
176
     1
290
     0
176
     1
290
     0
176
     1
290
     0
176
     1
290
     0
176
     1
290
     0
176
     1
290
     0
176
     1
 90
       50
176
     1
 40
0.0
176
     1
 40
1.0
176
     1
 90
        0
176
     1
 62
    18
420
        0
176
     1
 90
       50
176
     1
 90
        3
176
     1
 62
     5
420
      255
176
     1
290
     0
176
     1
 90
       50
176
     1
 90
       50
176
     1
 90
       50
176
     1
290
     0
176
     1
 90
       50
176
     1
 62
   256
176
     0
 40
1.0
176
     0
 90
        2
176
     1
  1
strokes_ogs.tif
176
     1
290
     0
176
     1
 40
1.0
176
     1
 40
1.0
176
     1
  0
VISUALSTYLE
  5
36
102
{ACAD_REACTORS
330
2A
102
}
330
2A
100
AcDbVisualStyle
  2
Brighten
 70
    12
177
     3
291
     1
 70
    58
 90
        2
176
     1
 90
        2
176
     1
 90
        0
176
     1
 90
        0
176
     1
 40
0.6
176
     1
 40
30.0
176
     1
 62
     7
420
 16777215
176
     1
 90
        1
176
     1
 90
        4
176
     1
 62
     7
176
     1
 62
   257
176
     1
 90
        1
176
     1
 90
        1
176
     1
 40
1.0
176
     1
 90
        8
176
     1
 62
     7
176
     1
 40
1.0
176
     1
 90
        1
176
     1
 90
        6
176
     1
 90
        2
176
     1
 62
     7
176
     1
 90
        5
176
     1
 90
        0
176
     1
 90
        0
176
     1
290
     0
176
     1
 90
        1
176
     1
 40
50.0
176
     1
 90
        0
176
     1
290
     0
176
     1
290
     1
176
     1
290
     1
176
     1
290
     0
176
     1
290
     0
176
     1
290
     0
176
     1
290
     0
176
     1
290
     0
176
     1
290
     0
176
     1
 90
       50
176
     1
 40
0.0
176
     1
 40
1.0
176
     1
 90
        0
176
     1
 62
    18
420
        0
176
     1
 90
       50
176
     1
 90
        3
176
     1
 62
     5
420
      255
176
     1
290
     0
176
     1
 90
       50
176
     1
 90
       50
176
     1
 90
       50
176
     1
290
     0
176
     1
 90
       50
176
     1
 62
   256
176
     0
 40
1.0
176
     0
 90
        2
176
     1
  1
strokes_ogs.tif
176
     1
290
     0
176
     1
 40
1.0
176
     1
 40
1.0
176
     1
  0
VISUALSTYLE
  5
3A
102
{ACAD_REACTORS
330
2A
102
}
330
2A
100
AcDbVisualStyle
  2
ColorChange
 70
    16
177
     3
291
     1
 70
    58
 90
        2
176
     1
 90
        2
176
     1
 90
        3
176
     1
 90
        0
176
     1
 40
0.6
176
     1
 40
30.0
176
     1
 62
     8
420
  8421504
176
     1
 90
        1
176
     1
 90
        4
176
     1
 62
     7
176
     1
 62
   257
176
     1
 90
        1
176
     1
 90
        1
176
     1
 40
1.0
176
     1
 90
        8
176
     1
 62
     8
420
  8421504
176
     1
 40
1.0
176
     1
 90
        1
176
     1
 90
        6
176
     1
 90
        2
176
     1
 62
     7
176
     1
 90
        5
176
     1
 90
        0
176
     1
 90
        0
176
     1
290
     0
176
     1
 90
        1
176
     1
 40
0.0
176
     1
 90
        0
176
     1
290
     0
176
     1
290
     1
176
     1
290
     1
176
     1
290
     0
176
     1
290
     0
176
     1
290
     0
176
     1
290
     0
176
     1
290
     0
176
     1
290
     0
176
     1
 90
       50
176
     1
 40
0.0
176
     1
 40
1.0
176
     1
 90
        0
176
     1
 62
    18
420
        0
176
     1
 90
       50
176
     1
 90
        3
176
     1
 62
     5
420
      255
176
     1
290
     0
176
     1
 90
       50
176
     1
 90
       50
176
     1
 90
       50
176
     1
290
     0
176
     1
 90
       50
176
     1
 62
   256
176
     0
 40
1.0
176
     0
 90
        2
176
     1
  1
strokes_ogs.tif
176
     1
290
     0
176
     1
 40
1.0
176
     1
 40
1.0
176
     1
  0
VISUALSTYLE
  5
34
102
{ACAD_REACTORS
330
2A
102
}
330
2A
100
AcDbVisualStyle
  2
Conceptual
 70
     9
177
     3
291
     0
 70
    58
 90
        3
176
     1
 90
        2
176
     1
 90
        0
176
     1
 90
        0
176
     1
 40
0.6
176
     1
 40
30.0
176
     1
 62
     7
420
 16777215
176
     1
 90
        2
176
     1
 90
        2
176
     1
 62
     7
176
     1
 62
   257
176
     1
 90
        1
176
     1
 90
        1
176
     1
 40
179.0
176
     1
 90
        8
176
     1
 62
     7
176
     1
 40
1.0
176
     1
 90
        1
176
     1
 90
        6
176
     1
 90
        2
176
     1
 62
     7
176
     1
 90
        3
176
     1
 90
        0
176
     1
 90
        0
176
     1
290
     0
176
     1
 90
        1
176
     1
 40
0.0
176
     1
 90
        0
176
     1
290
     0
176
     1
290
     1
176
     1
290
     1
176
     1
290
     0
176
     1
290
     0
176
     1
290
     0
176
     1
290
     0
176
     1
290
     0
176
     1
290
     0
176
     1
 90
       50
176
     1
 40
0.0
176
     1
 40
1.0
176
     1
 90
        0
176
     1
 62
    18
420
        0
176
     1
 90
       50
176
     1
 90
        3
176
     1
 62
     5
420
      255
176
     1
290
     0
176
     1
 90
       50
176
     1
 90
       50
176
     1
 90
       50
176
     1
290
     0
176
     1
 90
       50
176
     1
 62
   256
176
     0
 40
1.0
176
     0
 90
        2
176
     1
  1
strokes_ogs.tif
176
     1
290
     0
176
     1
 40
1.0
176
     1
 40
1.0
176
     1
  0
VISUALSTYLE
  5
35
102
{ACAD_REACTORS
330
2A
102
}
330
2A
100
AcDbVisualStyle
  2
Dim
 70
    11
177
     3
291
     1
 70
    58
 90
        2
176
     1
 90
        2
176
     1
 90
        0
176
     1
 90
        0
176
     1
 40
0.6
176
     1
 40
30.0
176
     1
 62
     7
420
 16777215
176
     1
 90
        1
176
     1
 90
        4
176
     1
 62
     7
176
     1
 62
   257
176
     1
 90
        1
176
     1
 90
        1
176
     1
 40
1.0
176
     1
 90
        8
176
     1
 62
     7
176
     1
 40
1.0
176
     1
 90
        1
176
     1
 90
        6
176
     1
 90
        2
176
     1
 62
     7
176
     1
 90
        5
176
     1
 90
        0
176
     1
 90
        0
176
     1
290
     0
176
     1
 90
        1
176
     1
 40
-50.0
176
     1
 90
        0
176
     1
290
     0
176
     1
290
     1
176
     1
290
     1
176
     1
290
     0
176
     1
290
     0
176
     1
290
     0
176
     1
290
     0
176
     1
290
     0
176
     1
290
     0
176
     1
 90
       50
176
     1
 40
0.0
176
     1
 40
1.0
176
     1
 90
        0
176
     1
 62
    18
420
        0
176
     1
 90
       50
176
     1
 90
        3
176
     1
 62
     5
420
      255
176
     1
290
     0
176
     1
 90
       50
176
     1
 90
       50
176
     1
 90
       50
176
     1
290
     0
176
     1
 90
       50
176
     1
 62
   256
176
     0
 40
1.0
176
     0
 90
        2
176
     1
  1
strokes_ogs.tif
176
     1
290
     0
176
     1
 40
1.0
176
     1
 40
1.0
176
     1
  0
VISUALSTYLE
  5
3D
102
{ACAD_REACTORS
330
2A
102
}
330
2A
100
AcDbVisualStyle
  2
EdgeColorOff
 70
    22
177
     3
291
     1
 70
    58
 90
        2
176
     0
 90
        2
176
     0
 90
        0
176
     0
 90
        0
176
     0
 40
0.6
176
     0
 40
30.0
176
     0
 62
     7
420
 16777215
176
     0
 90
        1
176
     0
 90
        4
176
     0
 62
     7
176
     0
 62
   257
176
     0
 90
        1
176
     0
 90
        1
176
     0
 40
1.0
176
     0
 90
        8
176
     2
 62
     7
176
     0
 40
1.0
176
     0
 90
        1
176
     0
 90
        6
176
     0
 90
        2
176
     0
 62
     7
176
     0
 90
        5
176
     0
 90
        0
176
     0
 90
        0
176
     0
290
     0
176
     0
 90
        1
176
     0
 40
0.0
176
     0
 90
        0
176
     0
290
     0
176
     0
290
     1
176
     0
290
     1
176
     0
290
     0
176
     0
290
     0
176
     0
290
     0
176
     0
290
     0
176
     0
290
     0
176
     0
290
     0
176
     0
 90
       50
176
     0
 40
0.0
176
     0
 40
1.0
176
     0
 90
        0
176
     0
 62
    18
420
        0
176
     0
 90
       50
176
     0
 90
        3
176
     0
 62
     5
420
      255
176
     0
290
     0
176
     0
 90
       50
176
     0
 90
       50
176
     0
 90
       50
176
     0
290
     0
176
     0
 90
       50
176
     0
 62
   256
176
     0
 40
1.0
176
     0
 90
        2
176
     0
  1
strokes_ogs.tif
176
     0
290
     0
176
     0
 40
1.0
176
     0
 40
1.0
176
     0
  0
VISUALSTYLE
  5
39
102
{ACAD_REACTORS
330
2A
102
}
330
2A
100
AcDbVisualStyle
  2
Facepattern
 70
    15
177
     3
291
     1
 70
    58
 90
        2
176
     1
 90
        2
176
     1
 90
        0
176
     1
 90
        0
176
     1
 40
0.6
176
     1
 40
30.0
176
     1
 62
     7
420
 16777215
176
     1
 90
        1
176
     1
 90
        4
176
     1
 62
     7
176
     1
 62
   257
176
     1
 90
        1
176
     1
 90
        1
176
     1
 40
1.0
176
     1
 90
        8
176
     1
 62
     7
176
     1
 40
1.0
176
     1
 90
        1
176
     1
 90
        6
176
     1
 90
        2
176
     1
 62
     7
176
     1
 90
        5
176
     1
 90
        0
176
     1
 90
        0
176
     1
290
     0
176
     1
 90
        1
176
     1
 40
0.0
176
     1
 90
        0
176
     1
290
     0
176
     1
290
     1
176
     1
290
     1
176
     1
290
     0
176
     1
290
     0
176
     1
290
     0
176
     1
290
     0
176
     1
290
     0
176
     1
290
     0
176
     1
 90
       50
176
     1
 40
0.0
176
     1
 40
1.0
176
     1
 90
        0
176
     1
 62
    18
420
        0
176
     1
 90
       50
176
     1
 90
        3
176
     1
 62
     5
420
      255
176
     1
290
     0
176
     1
 90
       50
176
     1
 90
       50
176
     1
 90
       50
176
     1
290
     0
176
     1
 90
       50
176
     1
 62
   256
176
     0
 40
1.0
176
     0
 90
        2
176
     1
  1
strokes_ogs.tif
176
     1
290
     0
176
     1
 40
1.0
176
     1
 40
1.0
176
     1
  0
VISUALSTYLE
  5
2B
102
{ACAD_REACTORS
330
2A
102
}
330
2A
100
AcDbVisualStyle
  2
Flat
 70
     0
177
     3
291
     1
 70
    58
 90
        2
176
     1
 90
        1
176
     1
 90
        1
176
     1
 90
        2
176
     1
 40
0.6
176
     1
 40
30.0
176
     1
 62
     7
420
 16777215
176
     1
 90
        0
176
     1
 90
        0
176
     1
 62
     7
176
     1
 62
   257
176
     1
 90
        1
176
     1
 90
        1
176
     1
 40
1.0
176
     1
 90
        8
176
     1
 62
     7
176
     1
 40
1.0
176
     1
 90
        1
176
     1
 90
        6
176
     1
 90
        2
176
     1
 62
     7
176
     1
 90
        5
176
     1
 90
        0
176
     1
 90
        0
176
     1
290
     0
176
     1
 90
       13
176
     1
 40
0.0
176
     1
 90
        0
176
     1
290
     0
176
     1
290
     1
176
     1
290
     1
176
     1
290
     0
176
     1
290
     0
176
     1
290
     0
176
     1
290
     0
176
     1
290
     0
176
     1
290
     0
176
     1
 90
       50
176
     1
 40
0.0
176
     1
 40
1.0
176
     1
 90
        0
176
     1
 62
    18
420
        0
176
     1
 90
       50
176
     1
 90
        3
176
     1
 62
     5
420
      255
176
     1
290
     0
176
     1
 90
       50
176
     1
 90
       50
176
     1
 90
       50
176
     1
290
     0
176
     1
 90
       50
176
     1
 62
   256
176
     0
 40
1.0
176
     0
 90
        2
176
     1
  1
strokes_ogs.tif
176
     1
290
     0
176
     1
 40
1.0
176
     1
 40
1.0
176
     1
  0
VISUALSTYLE
  5
2C
102
{ACAD_REACTORS
330
2A
102
}
330
2A
100
AcDbVisualStyle
  2
FlatWithEdges
 70
     1
177
     3
291
     1
 70
    58
 90
        2
176
     1
 90
        1
176
     1
 90
        1
176
     1
 90
        2
176
     1
 40
0.6
176
     1
 40
30.0
176
     1
 62
     7
420
 16777215
176
     1
 90
        1
176
     1
 90
        0
176
     1
 62
     7
176
     1
 62
   257
176
     1
 90
        1
176
     1
 90
        1
176
     1
 40
1.0
176
     1
 90
        0
176
     1
 62
   257
176
     1
 40
1.0
176
     1
 90
        1
176
     1
 90
        6
176
     1
 90
        2
176
     1
 62
     7
176
     1
 90
        5
176
     1
 90
        0
176
     1
 90
        0
176
     1
290
     0
176
     1
 90
       13
176
     1
 40
0.0
176
     1
 90
        0
176
     1
290
     0
176
     1
290
     1
176
     1
290
     1
176
     1
290
     0
176
     1
290
     0
176
     1
290
     0
176
     1
290
     0
176
     1
290
     0
176
     1
290
     0
176
     1
 90
       50
176
     1
 40
0.0
176
     1
 40
1.0
176
     1
 90
        0
176
     1
 62
    18
420
        0
176
     1
 90
       50
176
     1
 90
        3
176
     1
 62
     5
420
      255
176
     1
290
     0
176
     1
 90
       50
176
     1
 90
       50
176
     1
 90
       50
176
     1
290
     0
176
     1
 90
       50
176
     1
 62
   256
176
     0
 40
1.0
176
     0
 90
        2
176
     1
  1
strokes_ogs.tif
176
     1
290
     0
176
     1
 40
1.0
176
     1
 40
1.0
176
     1
  0
VISUALSTYLE
  5
2D
102
{ACAD_REACTORS
330
2A
102
}
330
2A
100
AcDbVisualStyle
  2
Gouraud
 70
     2
177
     3
291
     1
 70
    58
 90
        2
176
     1
 90
        2
176
     1
 90
        1
176
     1
 90
        2
176
     1
 40
0.6
176
     1
 40
30.0
176
     1
 62
     7
420
 16777215
176
     1
 90
        0
176
     1
 90
        0
176
     1
 62
     7
176
     1
 62
   257
176
     1
 90
        1
176
     1
 90
        1
176
     1
 40
1.0
176
     1
 90
        0
176
     1
 62
     7
176
     1
 40
1.0
176
     1
 90
        1
176
     1
 90
        6
176
     1
 90
        2
176
     1
 62
     7
176
     1
 90
        5
176
     1
 90
        0
176
     1
 90
        0
176
     1
290
     0
176
     1
 90
       13
176
     1
 40
0.0
176
     1
 90
        0
176
     1
290
     0
176
     1
290
     1
176
     1
290
     1
176
     1
290
     0
176
     1
290
     0
176
     1
290
     0
176
     1
290
     0
176
     1
290
     0
176
     1
290
     0
176
     1
 90
       50
176
     1
 40
0.0
176
     1
 40
1.0
176
     1
 90
        0
176
     1
 62
    18
420
        0
176
     1
 90
       50
176
     1
 90
        3
176
     1
 62
     5
420
      255
176
     1
290
     0
176
     1
 90
       50
176
     1
 90
       50
176
     1
 90
       50
176
     1
290
     0
176
     1
 90
       50
176
     1
 62
   256
176
     0
 40
1.0
176
     0
 90
        2
176
     1
  1
strokes_ogs.tif
176
     1
290
     0
176
     1
 40
1.0
176
     1
 40
1.0
176
     1
  0
VISUALSTYLE
  5
2E
102
{ACAD_REACTORS
330
2A
102
}
330
2A
100
AcDbVisualStyle
  2
GouraudWithEdges
 70
     3
177
     3
291
     1
 70
    58
 90
        2
176
     1
 90
        2
176
     1
 90
        1
176
     1
 90
        2
176
     1
 40
0.6
176
     1
 40
30.0
176
     1
 62
     7
420
 16777215
176
     1
 90
        1
176
     1
 90
        0
176
     1
 62
     7
176
     1
 62
   257
176
     1
 90
        1
176
     1
 90
        1
176
     1
 40
1.0
176
     1
 90
        0
176
     1
 62
   257
176
     1
 40
1.0
176
     1
 90
        1
176
     1
 90
        6
176
     1
 90
        2
176
     1
 62
     7
176
     1
 90
        5
176
     1
 90
        0
176
     1
 90
        0
176
     1
290
     0
176
     1
 90
       13
176
     1
 40
0.0
176
     1
 90
        0
176
     1
290
     0
176
     1
290
     1
176
     1
290
     1
176
     1
290
     0
176
     1
290
     0
176
     1
290
     0
176
     1
290
     0
176
     1
290
     0
176
     1
290
     0
176
     1
 90
       50
176
     1
 40
0.0
176
     1
 40
1.0
176
     1
 90
        0
176
     1
 62
    18
420
        0
176
     1
 90
       50
176
     1
 90
        3
176
     1
 62
     5
420
      255
176
     1
290
     0
176
     1
 90
       50
176
     1
 90
       50
176
     1
 90
       50
176
     1
290
     0
176
     1
 90
       50
176
     1
 62
   256
176
     0
 40
1.0
176
     0
 90
        2
176
     1
  1
strokes_ogs.tif
176
     1
290
     0
176
     1
 40
1.0
176
     1
 40
1.0
176
     1
  0
VISUALSTYLE
  5
31
102
{ACAD_REACTORS
330
2A
102
}
330
2A
100
AcDbVisualStyle
  2
Hidden
 70
     6
177
     3
291
     0
 70
    58
 90
        1
176
     1
 90
        2
176
     1
 90
        2
176
     1
 90
        0
176
     1
 40
0.6
176
     1
 40
30.0
176
     1
 62
     7
420
 16777215
176
     1
 90
        2
176
     1
 90
        2
176
     1
 62
     7
176
     1
 62
   257
176
     1
 90
        2
176
     1
 90
        1
176
     1
 40
40.0
176
     1
 90
        0
176
     1
 62
   257
176
     1
 40
1.0
176
     1
 90
        1
176
     1
 90
        6
176
     1
 90
        2
176
     1
 62
     7
176
     1
 90
        3
176
     1
 90
        0
176
     1
 90
        0
176
     1
290
     0
176
     1
 90
        1
176
     1
 40
0.0
176
     1
 90
        0
176
     1
290
     0
176
     1
290
     1
176
     1
290
     1
176
     1
290
     0
176
     1
290
     0
176
     1
290
     0
176
     1
290
     0
176
     1
290
     0
176
     1
290
     0
176
     1
 90
       50
176
     1
 40
0.0
176
     1
 40
1.0
176
     1
 90
        0
176
     1
 62
    18
420
        0
176
     1
 90
       50
176
     1
 90
        3
176
     1
 62
     5
420
      255
176
     1
290
     0
176
     1
 90
       50
176
     1
 90
       50
176
     1
 90
       50
176
     1
290
     0
176
     1
 90
       50
176
     1
 62
   256
176
     0
 40
1.0
176
     0
 90
        2
176
     1
  1
strokes_ogs.tif
176
     1
290
     0
176
     1
 40
1.0
176
     1
 40
1.0
176
     1
  0
VISUALSTYLE
  5
3B
102
{ACAD_REACTORS
330
2A
102
}
330
2A
100
AcDbVisualStyle
  2
JitterOff
 70
    20
177
     3
291
     1
 70
    58
 90
        2
176
     0
 90
        2
176
     0
 90
        0
176
     0
 90
        0
176
     0
 40
0.6
176
     0
 40
30.0
176
     0
 62
     7
420
 16777215
176
     0
 90
        1
176
     0
 90
        4
176
     0
 62
     7
176
     0
 62
   257
176
     0
 90
        1
176
     0
 90
        1
176
     0
 40
1.0
176
     0
 90
       10
176
     2
 62
     7
176
     0
 40
1.0
176
     0
 90
        1
176
     0
 90
        6
176
     0
 90
        2
176
     0
 62
     7
176
     0
 90
        5
176
     0
 90
        0
176
     0
 90
        0
176
     0
290
     0
176
     0
 90
        1
176
     0
 40
0.0
176
     0
 90
        0
176
     0
290
     0
176
     0
290
     1
176
     0
290
     1
176
     0
290
     0
176
     0
290
     0
176
     0
290
     0
176
     0
290
     0
176
     0
290
     0
176
     0
290
     0
176
     0
 90
       50
176
     0
 40
0.0
176
     0
 40
1.0
176
     0
 90
        0
176
     0
 62
    18
420
        0
176
     0
 90
       50
176
     0
 90
        3
176
     0
 62
     5
420
      255
176
     0
290
     0
176
     0
 90
       50
176
     0
 90
       50
176
     0
 90
       50
176
     0
290
     0
176
     0
 90
       50
176
     0
 62
   256
176
     0
 40
1.0
176
     0
 90
        2
176
     0
  1
strokes_ogs.tif
176
     0
290
     0
176
     0
 40
1.0
176
     0
 40
1.0
176
     0
  0
VISUALSTYLE
  5
38
102
{ACAD_REACTORS
330
2A
102
}
330
2A
100
AcDbVisualStyle
  2
Linepattern
 70
    14
177
     3
291
     1
 70
    58
 90
        2
176
     1
 90
        2
176
     1
 90
        0
176
     1
 90
        0
176
     1
 40
0.6
176
     1
 40
30.0
176
     1
 62
     7
420
 16777215
176
     1
 90
        1
176
     1
 90
        4
176
     1
 62
     7
176
     1
 62
   257
176
     1
 90
        7
176
     1
 90
        7
176
     1
 40
1.0
176
     1
 90
        8
176
     1
 62
     7
176
     1
 40
1.0
176
     1
 90
        1
176
     1
 90
        6
176
     1
 90
        2
176
     1
 62
     7
176
     1
 90
        5
176
     1
 90
        0
176
     1
 90
        0
176
     1
290
     0
176
     1
 90
        1
176
     1
 40
0.0
176
     1
 90
        0
176
     1
290
     0
176
     1
290
     1
176
     1
290
     1
176
     1
290
     0
176
     1
290
     0
176
     1
290
     0
176
     1
290
     0
176
     1
290
     0
176
     1
290
     0
176
     1
 90
       50
176
     1
 40
0.0
176
     1
 40
1.0
176
     1
 90
        0
176
     1
 62
    18
420
        0
176
     1
 90
       50
176
     1
 90
        3
176
     1
 62
     5
420
      255
176
     1
290
     0
176
     1
 90
       50
176
     1
 90
       50
176
     1
 90
       50
176
     1
290
     0
176
     1
 90
       50
176
     1
 62
   256
176
     0
 40
1.0
176
     0
 90
        2
176
     1
  1
strokes_ogs.tif
176
     1
290
     0
176
     1
 40
1.0
176
     1
 40
1.0
176
     1
  0
VISUALSTYLE
  5
3C
102
{ACAD_REACTORS
330
2A
102
}
330
2A
100
AcDbVisualStyle
  2
OverhangOff
 70
    21
177
     3
291
     1
 70
    58
 90
        2
176
     0
 90
        2
176
     0
 90
        0
176
     0
 90
        0
176
     0
 40
0.6
176
     0
 40
30.0
176
     0
 62
     7
420
 16777215
176
     0
 90
        1
176
     0
 90
        4
176
     0
 62
     7
176
     0
 62
   257
176
     0
 90
        1
176
     0
 90
        1
176
     0
 40
1.0
176
     0
 90
        9
176
     2
 62
     7
176
     0
 40
1.0
176
     0
 90
        1
176
     0
 90
        6
176
     0
 90
        2
176
     0
 62
     7
176
     0
 90
        5
176
     0
 90
        0
176
     0
 90
        0
176
     0
290
     0
176
     0
 90
        1
176
     0
 40
0.0
176
     0
 90
        0
176
     0
290
     0
176
     0
290
     1
176
     0
290
     1
176
     0
290
     0
176
     0
290
     0
176
     0
290
     0
176
     0
290
     0
176
     0
290
     0
176
     0
290
     0
176
     0
 90
       50
176
     0
 40
0.0
176
     0
 40
1.0
176
     0
 90
        0
176
     0
 62
    18
420
        0
176
     0
 90
       50
176
     0
 90
        3
176
     0
 62
     5
420
      255
176
     0
290
     0
176
     0
 90
       50
176
     0
 90
       50
176
     0
 90
       50
176
     0
290
     0
176
     0
 90
       50
176
     0
 62
   256
176
     0
 40
1.0
176
     0
 90
        2
176
     0
  1
strokes_ogs.tif
176
     0
290
     0
176
     0
 40
1.0
176
     0
 40
1.0
176
     0
  0
VISUALSTYLE
  5
33
102
{ACAD_REACTORS
330
2A
102
}
330
2A
100
AcDbVisualStyle
  2
Realistic
 70
     8
177
     3
291
     0
 70
    58
 90
        2
176
     1
 90
        3
176
     1
 90
        0
176
     1
 90
        2
176
     1
 40
0.6
176
     1
 40
30.0
176
     1
 62
     7
420
 16777215
176
     1
 90
        0
176
     1
 90
        0
176
     1
 62
     7
176
     1
 62
   257
176
     1
 90
        1
176
     1
 90
        1
176
     1
 40
1.0
176
     1
 90
        8
176
     1
 62
   257
176
     1
 40
1.0
176
     1
 90
        1
176
     1
 90
        6
176
     1
 90
        2
176
     1
 62
     7
176
     1
 90
        3
176
     1
 90
        0
176
     1
 90
        0
176
     1
290
     0
176
     1
 90
       13
176
     1
 40
0.0
176
     1
 90
        0
176
     1
290
     0
176
     1
290
     1
176
     1
290
     1
176
     1
290
     0
176
     1
290
     0
176
     1
290
     0
176
     1
290
     0
176
     1
290
     0
176
     1
290
     0
176
     1
 90
       50
176
     1
 40
0.0
176
     1
 40
1.0
176
     1
 90
        0
176
     1
 62
    18
420
        0
176
     1
 90
       50
176
     1
 90
        3
176
     1
 62
     5
420
      255
176
     1
290
     0
176
     1
 90
       50
176
     1
 90
       50
176
     1
 90
       50
176
     1
290
     0
176
     1
 90
       50
176
     1
 62
   256
176
     0
 40
1.0
176
     0
 90
        2
176
     1
  1
strokes_ogs.tif
176
     1
290
     0
176
     1
 40
1.0
176
     1
 40
1.0
176
     1
  0
VISUALSTYLE
  5
42
102
{ACAD_REACTORS
330
2A
102
}
330
2A
100
AcDbVisualStyle
  2
Shaded
 70
    27
177
     3
291
     0
 70
    58
 90
        2
176
     1
 90
        2
176
     1
 90
        1
176
     1
 90
        2
176
     1
 40
0.6
176
     1
 40
30.0
176
     1
 62
     7
420
 16777215
176
     1
 90
        0
176
     1
 90
        4
176
     1
 62
     7
176
     1
 62
   257
176
     1
 90
        1
176
     1
 90
        1
176
     1
 40
1.0
176
     1
 90
        8
176
     1
 62
   257
176
     1
 40
1.0
176
     1
 90
        1
176
     1
 90
        6
176
     1
 90
        2
176
     1
 62
     8
420
  7895160
176
     1
 90
        3
176
     1
 90
        0
176
     1
 90
        0
176
     1
290
     0
176
     1
 90
        5
176
     1
 40
0.0
176
     1
 90
        0
176
     1
290
     0
176
     1
290
     1
176
     1
290
     1
176
     1
290
     0
176
     1
290
     0
176
     1
290
     0
176
     1
290
     0
176
     1
290
     0
176
     1
290
     0
176
     1
 90
       50
176
     1
 40
0.0
176
     1
 40
1.0
176
     1
 90
        0
176
     1
 62
    18
420
        0
176
     1
 90
       50
176
     1
 90
        3
176
     1
 62
     5
420
      255
176
     1
290
     0
176
     1
 90
       50
176
     1
 90
       50
176
     1
 90
       50
176
     1
290
     0
176
     1
 90
       50
176
     1
 62
   256
176
     0
 40
1.0
176
     0
 90
        2
176
     1
  1
strokes_ogs.tif
176
     1
290
     0
176
     1
 40
1.0
176
     1
 40
1.0
176
     1
  0
VISUALSTYLE
  5
41
102
{ACAD_REACTORS
330
2A
102
}
330
2A
100
AcDbVisualStyle
  2
Shaded with edges
 70
    26
177
     3
291
     0
 70
    58
 90
        2
176
     1
 90
        2
176
     1
 90
        1
176
     1
 90
        2
176
     1
 40
0.6
176
     1
 40
30.0
176
     1
 62
     7
420
 16777215
176
     1
 90
        1
176
     1
 90
       10
176
     1
 62
     7
176
     1
 62
   257
176
     1
 90
        2
176
     1
 90
        1
176
     1
 40
1.0
176
     1
 90
        8
176
     1
 62
   257
176
     1
 40
1.0
176
     1
 90
        1
176
     1
 90
        6
176
     1
 90
        2
176
     1
 62
     7
176
     1
 90
        3
176
     1
 90
        0
176
     1
 90
        0
176
     1
290
     0
176
     1
 90
        5
176
     1
 40
0.0
176
     1
 90
        0
176
     1
290
     0
176
     1
290
     1
176
     1
290
     1
176
     1
290
     0
176
     1
290
     0
176
     1
290
     0
176
     1
290
     0
176
     1
290
     0
176
     1
290
     0
176
     1
 90
       50
176
     1
 40
0.0
176
     1
 40
1.0
176
     1
 90
        0
176
     1
 62
    18
420
        0
176
     1
 90
       50
176
     1
 90
        3
176
     1
 62
     5
420
      255
176
     1
290
     0
176
     1
 90
       50
176
     1
 90
       50
176
     1
 90
       50
176
     1
290
     0
176
     1
 90
       50
176
     1
 62
   256
176
     0
 40
1.0
176
     0
 90
        2
176
     1
  1
strokes_ogs.tif
176
     1
290
     0
176
     1
 40
1.0
176
     1
 40
1.0
176
     1
  0
VISUALSTYLE
  5
3E
102
{ACAD_REACTORS
330
2A
102
}
330
2A
100
AcDbVisualStyle
  2
Shades of Gray
 70
    23
177
     3
291
     0
 70
    58
 90
        2
176
     1
 90
        2
176
     1
 90
        3
176
     1
 90
        0
176
     1
 40
0.6
176
     1
 40
30.0
176
     1
 62
     7
420
 16777215
176
     1
 90
        2
176
     1
 90
        2
176
     1
 62
     7
176
     1
 62
     7
176
     1
 90
        1
176
     1
 90
        1
176
     1
 40
40.0
176
     1
 90
        8
176
     1
 62
     7
176
     1
 40
1.0
176
     1
 90
        1
176
     1
 90
        6
176
     1
 90
        2
176
     1
 62
     7
176
     1
 90
        3
176
     1
 90
        0
176
     1
 90
        0
176
     1
290
     0
176
     1
 90
        1
176
     1
 40
0.0
176
     1
 90
        0
176
     1
290
     0
176
     1
290
     1
176
     1
290
     1
176
     1
290
     0
176
     1
290
     0
176
     1
290
     0
176
     1
290
     0
176
     1
290
     0
176
     1
290
     0
176
     1
 90
       50
176
     1
 40
0.0
176
     1
 40
1.0
176
     1
 90
        0
176
     1
 62
    18
420
        0
176
     1
 90
       50
176
     1
 90
        3
176
     1
 62
     5
420
      255
176
     1
290
     0
176
     1
 90
       50
176
     1
 90
       50
176
     1
 90
       50
176
     1
290
     0
176
     1
 90
       50
176
     1
 62
   256
176
     0
 40
1.0
176
     0
 90
        2
176
     1
  1
strokes_ogs.tif
176
     1
290
     0
176
     1
 40
1.0
176
     1
 40
1.0
176
     1
  0
VISUALSTYLE
  5
3F
102
{ACAD_REACTORS
330
2A
102
}
330
2A
100
AcDbVisualStyle
  2
Sketchy
 70
    24
177
     3
291
     0
 70
    58
 90
        1
176
     1
 90
        2
176
     1
 90
        2
176
     1
 90
        0
176
     1
 40
0.6
176
     1
 40
30.0
176
     1
 62
     7
420
 16777215
176
     1
 90
        2
176
     1
 90
        2
176
     1
 62
     7
176
     1
 62
     7
176
     1
 90
        1
176
     1
 90
        1
176
     1
 40
40.0
176
     1
 90
       11
176
     1
 62
     7
176
     1
 40
1.0
176
     1
 90
        1
176
     1
 90
        6
176
     1
 90
        2
176
     1
 62
     7
176
     1
 90
        6
176
     1
 90
        0
176
     1
 90
        0
176
     1
290
     0
176
     1
 90
        1
176
     1
 40
0.0
176
     1
 90
        0
176
     1
290
     0
176
     1
290
     1
176
     1
290
     1
176
     1
290
     0
176
     1
290
     0
176
     1
290
     0
176
     1
290
     0
176
     1
290
     0
176
     1
290
     0
176
     1
 90
       50
176
     1
 40
0.0
176
     1
 40
1.0
176
     1
 90
        0
176
     1
 62
    18
420
        0
176
     1
 90
       50
176
     1
 90
        3
176
     1
 62
     5
420
      255
176
     1
290
     0
176
     1
 90
       50
176
     1
 90
       50
176
     1
 90
       50
176
     1
290
     0
176
     1
 90
       50
176
     1
 62
   256
176
     0
 40
1.0
176
     0
 90
        2
176
     1
  1
strokes_ogs.tif
176
     1
290
     0
176
     1
 40
1.0
176
     1
 40
1.0
176
     1
  0
VISUALSTYLE
  5
37
102
{ACAD_REACTORS
330
2A
102
}
330
2A
100
AcDbVisualStyle
  2
Thicken
 70
    13
177
     3
291
     1
 70
    58
 90
        2
176
     1
 90
        2
176
     1
 90
        0
176
     1
 90
        0
176
     1
 40
0.6
176
     1
 40
30.0
176
     1
 62
     7
420
 16777215
176
     1
 90
        1
176
     1
 90
        4
176
     1
 62
     7
176
     1
 62
   257
176
     1
 90
        1
176
     1
 90
        1
176
     1
 40
1.0
176
     1
 90
       12
176
     1
 62
     7
176
     1
 40
1.0
176
     1
 90
        1
176
     1
 90
        6
176
     1
 90
        2
176
     1
 62
     7
176
     1
 90
        5
176
     1
 90
        0
176
     1
 90
        0
176
     1
290
     0
176
     1
 90
        1
176
     1
 40
0.0
176
     1
 90
        0
176
     1
290
     0
176
     1
290
     1
176
     1
290
     1
176
     1
290
     0
176
     1
290
     0
176
     1
290
     0
176
     1
290
     0
176
     1
290
     0
176
     1
290
     0
176
     1
 90
       50
176
     1
 40
0.0
176
     1
 40
1.0
176
     1
 90
        0
176
     1
 62
    18
420
        0
176
     1
 90
       50
176
     1
 90
        3
176
     1
 62
     5
420
      255
176
     1
290
     0
176
     1
 90
       50
176
     1
 90
       50
176
     1
 90
       50
176
     1
290
     0
176
     1
 90
       50
176
     1
 62
   256
176
     0
 40
1.0
176
     0
 90
        2
176
     1
  1
strokes_ogs.tif
176
     1
290
     0
176
     1
 40
1.0
176
     1
 40
1.0
176
     1
  0
VISUALSTYLE
  5
30
102
{ACAD_REACTORS
330
2A
102
}
330
2A
100
AcDbVisualStyle
  2
Wireframe
 70
     5
177
     3
291
     0
 70
    58
 90
        0
176
     1
 90
        2
176
     1
 90
        0
176
     1
 90
        0
176
     1
 40
0.6
176
     1
 40
30.0
176
     1
 62
     7
420
 16777215
176
     1
 90
        1
176
     1
 90
        4
176
     1
 62
     7
176
     1
 62
   257
176
     1
 90
        1
176
     1
 90
        1
176
     1
 40
1.0
176
     1
 90
        0
176
     1
 62
   257
176
     1
 40
1.0
176
     1
 90
        1
176
     1
 90
        6
176
     1
 90
        2
176
     1
 62
     7
176
     1
 90
        3
176
     1
 90
        0
176
     1
 90
        0
176
     1
290
     0
176
     1
 90
        1
176
     1
 40
0.0
176
     1
 90
        0
176
     1
290
     0
176
     1
290
     1
176
     1
290
     1
176
     1
290
     0
176
     1
290
     0
176
     1
290
     0
176
     1
290
     0
176
     1
290
     0
176
     1
290
     0
176
     1
 90
       50
176
     1
 40
0.0
176
     1
 40
1.0
176
     1
 90
        0
176
     1
 62
    18
420
        0
176
     1
 90
       50
176
     1
 90
        3
176
     1
 62
     5
420
      255
176
     1
290
     0
176
     1
 90
       50
176
     1
 90
       50
176
     1
 90
       50
176
     1
290
     0
176
     1
 90
       50
176
     1
 62
   256
176
     0
 40
1.0
176
     0
 90
        2
176
     1
  1
strokes_ogs.tif
176
     1
290
     0
176
     1
 40
1.0
176
     1
 40
1.0
176
     1
  0
VISUALSTYLE
  5
40
102
{ACAD_REACTORS
330
2A
102
}
330
2A
100
AcDbVisualStyle
  2
X-Ray
 70
    25
177
     3
291
     0
 70
    58
 90
        2
176
     1
 90
        2
176
     1
 90
        1
176
     1
 90
        1
176
     1
 40
0.5
176
     1
 40
30.0
176
     1
 62
     7
420
 16777215
176
     1
 90
        1
176
     1
 90
        0
176
     1
 62
     7
176
     1
 62
   257
176
     1
 90
        1
176
     1
 90
        1
176
     1
 40
1.0
176
     1
 90
        8
176
     1
 62
     7
176
     1
 40
1.0
176
     1
 90
        1
176
     1
 90
        6
176
     1
 90
        2
176
     1
 62
     7
176
     1
 90
        3
176
     1
 90
        0
176
     1
 90
        0
176
     1
290
     0
176
     1
 90
       13
176
     1
 40
0.0
176
     1
 90
        0
176
     1
290
     0
176
     1
290
     1
176
     1
290
     1
176
     1
290
     0
176
     1
290
     0
176
     1
290
     0
176
     1
290
     0
176
     1
290
     0
176
     1
290
     0
176
     1
 90
       50
176
     1
 40
0.0
176
     1
 40
1.0
176
     1
 90
        0
176
     1
 62
    18
420
        0
176
     1
 90
       50
176
     1
 90
        3
176
     1
 62
     5
420
      255
176
     1
290
     0
176
     1
 90
       50
176
     1
 90
       50
176
     1
 90
       50
176
     1
290
     0
176
     1
 90
       50
176
     1
 62
   256
176
     0
 40
1.0
176
     0
 90
        2
176
     1
  1
strokes_ogs.tif
176
     1
290
     0
176
     1
 40
1.0
176
     1
 40
1.0
176
     1
  0
DICTIONARYVAR
  5
167
102
{ACAD_REACTORS
330
166
102
}
330
166
100
DictionaryVariables
280
     0
  1
1:1
  0
DICTIONARYVAR
  5
16C
102
{ACAD_REACTORS
330
166
102
}
330
166
100
DictionaryVariables
280
     0
  1
Standard
  0
DICTIONARYVAR
  5
16B
102
{ACAD_REACTORS
330
166
102
}
330
166
100
DictionaryVariables
280
     0
  1
Standard
  0
DICTIONARY
  5
168
330
6A
100
AcDbDictionary
280
     1
281
     1
  3
ACAD_ROUNDTRIP_2008_TABLESTYLE_CELLSTYLEMAP
360
169
  0
CELLSTYLEMAP
  5
169
102
{ACAD_REACTORS
330
168
102
}
330
168
100
AcDbCellStyleMap
 90
        3
300
CELLSTYLE
  1
TABLEFORMAT_BEGIN
 90
        5
170
     1
 91
        0
 92
    32768
 62
   257
 93
        1
300
CONTENTFORMAT
  1
CONTENTFORMAT_BEGIN
 90
        0
 91
        0
 92
        4
 93
        0
300

 40
0.0
140
1.0
 94
        5
 62
     0
340
11
144
0.25
309
CONTENTFORMAT_END
171
     1
301
MARGIN
  1
CELLMARGIN_BEGIN
 40
0.06
 40
0.06
 40
0.06
 40
0.06
 40
0.06
 40
0.06
309
CELLMARGIN_END
 94
        6
 95
        1
302
GRIDFORMAT
  1
GRIDFORMAT_BEGIN
 90
        0
 91
        1
 62
     0
 92
       -2
340
14
 93
        0
 40
0.045
309
GRIDFORMAT_END
 95
        2
302
GRIDFORMAT
  1
GRIDFORMAT_BEGIN
 90
        0
 91
        1
 62
     0
 92
       -2
340
14
 93
        0
 40
0.045
309
GRIDFORMAT_END
 95
        4
302
GRIDFORMAT
  1
GRIDFORMAT_BEGIN
 90
        0
 91
        1
 62
     0
 92
       -2
340
14
 93
        0
 40
0.045
309
GRIDFORMAT_END
 95
        8
302
GRIDFORMAT
  1
GRIDFORMAT_BEGIN
 90
        0
 91
        1
 62
     0
 92
       -2
340
14
 93
        0
 40
0.045
309
GRIDFORMAT_END
 95
       16
302
GRIDFORMAT
  1
GRIDFORMAT_BEGIN
 90
        0
 91
        1
 62
     0
 92
       -2
340
14
 93
        0
 40
0.045
309
GRIDFORMAT_END
 95
       32
302
GRIDFORMAT
  1
GRIDFORMAT_BEGIN
 90
        0
 91
        1
 62
     0
 92
       -2
340
14
 93
        0
 40
0.045
309
GRIDFORMAT_END
309
TABLEFORMAT_END
  1
CELLSTYLE_BEGIN
 90
        1
 91
        1
300
_TITLE
309
CELLSTYLE_END
300
CELLSTYLE
  1
TABLEFORMAT_BEGIN
 90
        5
170
     1
 91
        0
 92
        0
 62
   257
 93
        1
300
CONTENTFORMAT
  1
CONTENTFORMAT_BEGIN
 90
        0
 91
        0
 92
        4
 93
        0
300

 40
0.0
140
1.0
 94
        5
 62
     0
340
11
144
0.18
309
CONTENTFORMAT_END
171
     1
301
MARGIN
  1
CELLMARGIN_BEGIN
 40
0.06
 40
0.06
 40
0.06
 40
0.06
 40
0.06
 40
0.06
309
CELLMARGIN_END
 94
        6
 95
        1
302
GRIDFORMAT
  1
GRIDFORMAT_BEGIN
 90
        0
 91
        1
 62
     0
 92
       -2
340
14
 93
        0
 40
0.045
309
GRIDFORMAT_END
 95
        2
302
GRIDFORMAT
  1
GRIDFORMAT_BEGIN
 90
        0
 91
        1
 62
     0
 92
       -2
340
14
 93
        0
 40
0.045
309
GRIDFORMAT_END
 95
        4
302
GRIDFORMAT
  1
GRIDFORMAT_BEGIN
 90
        0
 91
        1
 62
     0
 92
       -2
340
14
 93
        0
 40
0.045
309
GRIDFORMAT_END
 95
        8
302
GRIDFORMAT
  1
GRIDFORMAT_BEGIN
 90
        0
 91
        1
 62
     0
 92
       -2
340
14
 93
        0
 40
0.045
309
GRIDFORMAT_END
 95
       16
302
GRIDFORMAT
  1
GRIDFORMAT_BEGIN
 90
        0
 91
        1
 62
     0
 92
       -2
340
14
 93
        0
 40
0.045
309
GRIDFORMAT_END
 95
       32
302
GRIDFORMAT
  1
GRIDFORMAT_BEGIN
 90
        0
 91
        1
 62
     0
 92
       -2
340
14
 93
        0
 40
0.045
309
GRIDFORMAT_END
309
TABLEFORMAT_END
  1
CELLSTYLE_BEGIN
 90
        2
 91
        1
300
_HEADER
309
CELLSTYLE_END
300
CELLSTYLE
  1
TABLEFORMAT_BEGIN
 90
        5
170
     1
 91
        0
 92
        0
 62
   257
 93
        1
300
CONTENTFORMAT
  1
CONTENTFORMAT_BEGIN
 90
        0
 91
        0
 92
        4
 93
        0
300

 40
0.0
140
1.0
 94
        2
 62
     0
340
11
144
0.18
309
CONTENTFORMAT_END
171
     1
301
MARGIN
  1
CELLMARGIN_BEGIN
 40
0.06
 40
0.06
 40
0.06
 40
0.06
 40
0.06
 40
0.06
309
CELLMARGIN_END
 94
        6
 95
        1
302
GRIDFORMAT
  1
GRIDFORMAT_BEGIN
 90
        0
 91
        1
 62
     0
 92
       -2
340
14
 93
        0
 40
0.045
309
GRIDFORMAT_END
 95
        2
302
GRIDFORMAT
  1
GRIDFORMAT_BEGIN
 90
        0
 91
        1
 62
     0
 92
       -2
340
14
 93
        0
 40
0.045
309
GRIDFORMAT_END
 95
        4
302
GRIDFORMAT
  1
GRIDFORMAT_BEGIN
 90
        0
 91
        1
 62
     0
 92
       -2
340
14
 93
        0
 40
0.045
309
GRIDFORMAT_END
 95
        8
302
GRIDFORMAT
  1
GRIDFORMAT_BEGIN
 90
        0
 91
        1
 62
     0
 92
       -2
340
14
 93
        0
 40
0.045
309
GRIDFORMAT_END
 95
       16
302
GRIDFORMAT
  1
GRIDFORMAT_BEGIN
 90
        0
 91
        1
 62
     0
 92
       -2
340
14
 93
        0
 40
0.045
309
GRIDFORMAT_END
 95
       32
302
GRIDFORMAT
  1
GRIDFORMAT_BEGIN
 90
        0
 91
        1
 62
     0
 92
       -2
340
14
 93
        0
 40
0.045
309
GRIDFORMAT_END
309
TABLEFORMAT_END
  1
CELLSTYLE_BEGIN
 90
        3
 91
        2
300
_DATA
309
CELLSTYLE_END
  0
ENDSEC
  0
EOF