0
SECTION
  2
HEADER
  9
$ACADVER
  1
AC1027
  9
$ACADMAINTVER
 70
     8
  9
$DWGCODEPAGE
  3
ANSI_1252
  9
$REQUIREDVERSIONS
160
                 0
  9
$COMMENTS
  1
File was created by Cadenas
  9
$CUSTOMPROPERTYTAG
  1
NN
  9
$CUSTOMPROPERTY
  1
Double-Interlock S-1 Units Gray Iron - Inch 1-3/16 thru 3
  9
$CUSTOMPROPERTYTAG
  1
NT
  9
$CUSTOMPROPERTY
  1
Double-Interlock Bearings -Units
  9
$CUSTOMPROPERTYTAG
  1
NB
  9
$CUSTOMPROPERTY
  1
023530
  9
$CUSTOMPROPERTYTAG
  1
NBSYN
  9
$CUSTOMPROPERTY
  1
$PN.
  9
$CUSTOMPROPERTYTAG
  1
LINA
  9
$CUSTOMPROPERTY
  1
023530
  9
$CUSTOMPROPERTYTAG
  1
SS
  9
$CUSTOMPROPERTY
  1
3-15/16
  9
$CUSTOMPROPERTYTAG
  1
PN
  9
$CUSTOMPROPERTY
  1
023530
  9
$CUSTOMPROPERTYTAG
  1
DESCRIPTION
  9
$CUSTOMPROPERTY
  1
S1U-DI-315R
  9
$CUSTOMPROPERTYTAG
  1
A
  9
$CUSTOMPROPERTY
  1
6-1/4
  9
$CUSTOMPROPERTYTAG
  1
B
  9
$CUSTOMPROPERTY
  1
4-1/2
  9
$CUSTOMPROPERTYTAG
  1
C
  9
$CUSTOMPROPERTY
  1
2-3/8
  9
$CUSTOMPROPERTYTAG
  1
EM
  9
$CUSTOMPROPERTY
  1
7.438
  9
$CUSTOMPROPERTYTAG
  1
EC
  9
$CUSTOMPROPERTY
  1
7-9/16
  9
$CUSTOMPROPERTYTAG
  1
H
  9
$CUSTOMPROPERTY
  1
15/16
  9
$CUSTOMPROPERTYTAG
  1
K
  9
$CUSTOMPROPERTY
  1
7.997
  9
$CUSTOMPROPERTYTAG
  1
TOL
  9
$CUSTOMPROPERTY
  1
+0.000 to -0.003
  9
$CUSTOMPROPERTYTAG
  1
L
  9
$CUSTOMPROPERTY
  1
6
  9
$CUSTOMPROPERTYTAG
  1
M
  9
$CUSTOMPROPERTY
  1
5.16
  9
$CUSTOMPROPERTYTAG
  1
COMPANY
  9
$CUSTOMPROPERTY
  1
baldor
  9
$INSBASE
 10
0.0
 20
0.0
 30
0.0
  9
$EXTMIN
 10
1.000000000000000E+20
 20
1.000000000000000E+20
 30
1.000000000000000E+20
  9
$EXTMAX
 10
-1.000000000000000E+20
 20
-1.000000000000000E+20
 30
-1.000000000000000E+20
  9
$LIMMIN
 10
0.0
 20
0.0
  9
$LIMMAX
 10
12.0
 20
9.0
  9
$ORTHOMODE
 70
     0
  9
$REGENMODE
 70
     1
  9
$FILLMODE
 70
     1
  9
$QTEXTMODE
 70
     0
  9
$MIRRTEXT
 70
     1
  9
$LTSCALE
 40
1.0
  9
$ATTMODE
 70
     1
  9
$TEXTSIZE
 40
0.2
  9
$TRACEWID
 40
0.05
  9
$TEXTSTYLE
  7
Standard
  9
$CLAYER
  8
0
  9
$CELTYPE
  6
ByLayer
  9
$CECOLOR
 62
   256
  9
$CELTSCALE
 40
1.0
  9
$DISPSILH
 70
     0
  9
$DIMSCALE
 40
1.0
  9
$DIMASZ
 40
0.18
  9
$DIMEXO
 40
0.0625
  9
$DIMDLI
 40
0.38
  9
$DIMRND
 40
0.0
  9
$DIMDLE
 40
0.0
  9
$DIMEXE
 40
0.18
  9
$DIMTP
 40
0.0
  9
$DIMTM
 40
0.0
  9
$DIMTXT
 40
0.18
  9
$DIMCEN
 40
0.09
  9
$DIMTSZ
 40
0.0
  9
$DIMTOL
 70
     0
  9
$DIMLIM
 70
     0
  9
$DIMTIH
 70
     1
  9
$DIMTOH
 70
     1
  9
$DIMSE1
 70
     0
  9
$DIMSE2
 70
     0
  9
$DIMTAD
 70
     0
  9
$DIMZIN
 70
     0
  9
$DIMBLK
  1

  9
$DIMASO
 70
     1
  9
$DIMSHO
 70
     1
  9
$DIMPOST
  1

  9
$DIMAPOST
  1

  9
$DIMALT
 70
     0
  9
$DIMALTD
 70
     2
  9
$DIMALTF
 40
25.4
  9
$DIMLFAC
 40
1.0
  9
$DIMTOFL
 70
     0
  9
$DIMTVP
 40
0.0
  9
$DIMTIX
 70
     0
  9
$DIMSOXD
 70
     0
  9
$DIMSAH
 70
     0
  9
$DIMBLK1
  1

  9
$DIMBLK2
  1

  9
$DIMSTYLE
  2
Standard
  9
$DIMCLRD
 70
     0
  9
$DIMCLRE
 70
     0
  9
$DIMCLRT
 70
     0
  9
$DIMTFAC
 40
1.0
  9
$DIMGAP
 40
0.09
  9
$DIMJUST
 70
     0
  9
$DIMSD1
 70
     0
  9
$DIMSD2
 70
     0
  9
$DIMTOLJ
 70
     1
  9
$DIMTZIN
 70
     0
  9
$DIMALTZ
 70
     0
  9
$DIMALTTZ
 70
     0
  9
$DIMUPT
 70
     0
  9
$DIMDEC
 70
     4
  9
$DIMTDEC
 70
     4
  9
$DIMALTU
 70
     2
  9
$DIMALTTD
 70
     2
  9
$DIMTXSTY
  7
Standard
  9
$DIMAUNIT
 70
     0
  9
$DIMADEC
 70
     0
  9
$DIMALTRND
 40
0.0
  9
$DIMAZIN
 70
     0
  9
$DIMDSEP
 70
    46
  9
$DIMATFIT
 70
     3
  9
$DIMFRAC
 70
     0
  9
$DIMLDRBLK
  1

  9
$DIMLUNIT
 70
     2
  9
$DIMLWD
 70
    -2
  9
$DIMLWE
 70
    -2
  9
$DIMTMOVE
 70
     0
  9
$DIMFXL
 40
1.0
  9
$DIMFXLON
 70
     0
  9
$DIMJOGANG
 40
0.7853981633974483
  9
$DIMTFILL
 70
     0
  9
$DIMTFILLCLR
 70
     0
  9
$DIMARCSYM
 70
     0
  9
$DIMLTYPE
  6

  9
$DIMLTEX1
  6

  9
$DIMLTEX2
  6

  9
$DIMTXTDIRECTION
 70
     0
  9
$LUNITS
 70
     2
  9
$LUPREC
 70
     4
  9
$SKETCHINC
 40
0.1
  9
$FILLETRAD
 40
0.5
  9
$AUNITS
 70
     0
  9
$AUPREC
 70
     0
  9
$MENU
  1
.
  9
$ELEVATION
 40
0.0
  9
$PELEVATION
 40
0.0
  9
$THICKNESS
 40
0.0
  9
$LIMCHECK
 70
     0
  9
$CHAMFERA
 40
0.0
  9
$CHAMFERB
 40
0.0
  9
$CHAMFERC
 40
0.0
  9
$CHAMFERD
 40
0.0
  9
$SKPOLY
 70
     0
  9
$TDCREATE
 40
2458169.015518218
  9
$TDUCREATE
 40
2458168.973851551
  9
$TDUPDATE
 40
2458169.015518403
  9
$TDUUPDATE
 40
2458168.973851736
  9
$TDINDWG
 40
0.0000000116
  9
$TDUSRTIMER
 40
0.0000000116
  9
$USRTIMER
 70
     1
  9
$ANGBASE
 50
0.0
  9
$ANGDIR
 70
     0
  9
$PDMODE
 70
     0
  9
$PDSIZE
 40
0.0
  9
$PLINEWID
 40
0.0
  9
$SPLFRAME
 70
     0
  9
$SPLINETYPE
 70
     6
  9
$SPLINESEGS
 70
     8
  9
$HANDSEED
  5
1B6
  9
$SURFTAB1
 70
     6
  9
$SURFTAB2
 70
     6
  9
$SURFTYPE
 70
     6
  9
$SURFU
 70
     6
  9
$SURFV
 70
     6
  9
$UCSBASE
  2

  9
$UCSNAME
  2

  9
$UCSORG
 10
0.0
 20
0.0
 30
0.0
  9
$UCSXDIR
 10
1.0
 20
0.0
 30
0.0
  9
$UCSYDIR
 10
0.0
 20
1.0
 30
0.0
  9
$UCSORTHOREF
  2

  9
$UCSORTHOVIEW
 70
     0
  9
$UCSORGTOP
 10
0.0
 20
0.0
 30
0.0
  9
$UCSORGBOTTOM
 10
0.0
 20
0.0
 30
0.0
  9
$UCSORGLEFT
 10
0.0
 20
0.0
 30
0.0
  9
$UCSORGRIGHT
 10
0.0
 20
0.0
 30
0.0
  9
$UCSORGFRONT
 10
0.0
 20
0.0
 30
0.0
  9
$UCSORGBACK
 10
0.0
 20
0.0
 30
0.0
  9
$PUCSBASE
  2

  9
$PUCSNAME
  2

  9
$PUCSORG
 10
0.0
 20
0.0
 30
0.0
  9
$PUCSXDIR
 10
1.0
 20
0.0
 30
0.0
  9
$PUCSYDIR
 10
0.0
 20
1.0
 30
0.0
  9
$PUCSORTHOREF
  2

  9
$PUCSORTHOVIEW
 70
     0
  9
$PUCSORGTOP
 10
0.0
 20
0.0
 30
0.0
  9
$PUCSORGBOTTOM
 10
0.0
 20
0.0
 30
0.0
  9
$PUCSORGLEFT
 10
0.0
 20
0.0
 30
0.0
  9
$PUCSORGRIGHT
 10
0.0
 20
0.0
 30
0.0
  9
$PUCSORGFRONT
 10
0.0
 20
0.0
 30
0.0
  9
$PUCSORGBACK
 10
0.0
 20
0.0
 30
0.0
  9
$USERI1
 70
     0
  9
$USERI2
 70
     0
  9
$USERI3
 70
     0
  9
$USERI4
 70
     0
  9
$USERI5
 70
     0
  9
$USERR1
 40
0.0
  9
$USERR2
 40
0.0
  9
$USERR3
 40
0.0
  9
$USERR4
 40
0.0
  9
$USERR5
 40
0.0
  9
$WORLDVIEW
 70
     1
  9
$SHADEDGE
 70
     3
  9
$SHADEDIF
 70
    70
  9
$TILEMODE
 70
     1
  9
$MAXACTVP
 70
    64
  9
$PINSBASE
 10
0.0
 20
0.0
 30
0.0
  9
$PLIMCHECK
 70
     0
  9
$PEXTMIN
 10
1.000000000000000E+20
 20
1.000000000000000E+20
 30
1.000000000000000E+20
  9
$PEXTMAX
 10
-1.000000000000000E+20
 20
-1.000000000000000E+20
 30
-1.000000000000000E+20
  9
$PLIMMIN
 10
0.0
 20
0.0
  9
$PLIMMAX
 10
12.0
 20
9.0
  9
$UNITMODE
 70
     0
  9
$VISRETAIN
 70
     1
  9
$PLINEGEN
 70
     0
  9
$PSLTSCALE
 70
     1
  9
$TREEDEPTH
 70
  3020
  9
$CMLSTYLE
  2
Standard
  9
$CMLJUST
 70
     0
  9
$CMLSCALE
 40
1.0
  9
$PROXYGRAPHICS
 70
     1
  9
$MEASUREMENT
 70
     0
  9
$CELWEIGHT
370
    -1
  9
$ENDCAPS
280
     0
  9
$JOINSTYLE
280
     0
  9
$LWDISPLAY
290
     0
  9
$INSUNITS
 70
     1
  9
$HYPERLINKBASE
  1

  9
$STYLESHEET
  1

  9
$XEDIT
290
     1
  9
$CEPSNTYPE
380
     0
  9
$PSTYLEMODE
290
     1
  9
$FINGERPRINTGUID
  2
{83B86BFB-A8C1-49AF-94F0-F14EF7991EC9}
  9
$VERSIONGUID
  2
{FAEB1C32-E019-11D5-929B-00C0DF256EC4}
  9
$EXTNAMES
290
     1
  9
$PSVPSCALE
 40
0.0
  9
$OLESTARTUP
290
     0
  9
$SORTENTS
280
   127
  9
$INDEXCTL
280
     0
  9
$HIDETEXT
280
     1
  9
$XCLIPFRAME
280
     2
  9
$HALOGAP
280
     0
  9
$OBSCOLOR
 70
   257
  9
$OBSLTYPE
280
     0
  9
$INTERSECTIONDISPLAY
280
     0
  9
$INTERSECTIONCOLOR
 70
   257
  9
$DIMASSOC
280
     2
  9
$PROJECTNAME
  1

  9
$CAMERADISPLAY
290
     0
  9
$LENSLENGTH
 40
50.0
  9
$CAMERAHEIGHT
 40
0.0
  9
$STEPSPERSEC
 40
2.0
  9
$STEPSIZE
 40
6.0
  9
$3DDWFPREC
 40
2.0
  9
$PSOLWIDTH
 40
0.25
  9
$PSOLHEIGHT
 40
4.0
  9
$LOFTANG1
 40
1.570796326794897
  9
$LOFTANG2
 40
1.570796326794897
  9
$LOFTMAG1
 40
0.0
  9
$LOFTMAG2
 40
0.0
  9
$LOFTPARAM
 70
     7
  9
$LOFTNORMALS
280
     1
  9
$LATITUDE
 40
37.795
  9
$LONGITUDE
 40
-122.394
  9
$NORTHDIRECTION
 40
0.0
  9
$TIMEZONE
 70
 -8000
  9
$LIGHTGLYPHDISPLAY
280
     1
  9
$TILEMODELIGHTSYNCH
280
     1
  9
$CMATERIAL
347
44
  9
$SOLIDHIST
280
     0
  9
$SHOWHIST
280
     1
  9
$DWFFRAME
280
     2
  9
$DGNFRAME
280
     2
  9
$REALWORLDSCALE
290
     1
  9
$INTERFERECOLOR
 62
   256
  9
$CSHADOW
280
     0
  9
$SHADOWPLANELOCATION
 40
0.0
  0
ENDSEC
  0
SECTION
  2
CLASSES
  0
CLASS
  1
ACDBDICTIONARYWDFLT
  2
AcDbDictionaryWithDefault
  3
ObjectDBX Classes
 90
        0
 91
        4
280
     0
281
     0
  0
CLASS
  1
VISUALSTYLE
  2
AcDbVisualStyle
  3
ObjectDBX Classes
 90
     4095
 91
        4
280
     0
281
     0
  0
CLASS
  1
MATERIAL
  2
AcDbMaterial
  3
ObjectDBX Classes
 90
     1153
 91
        4
280
     0
281
     0
  0
CLASS
  1
SCALE
  2
AcDbScale
  3
ObjectDBX Classes
 90
     1153
 91
        4
280
     0
281
     0
  0
CLASS
  1
TABLESTYLE
  2
AcDbTableStyle
  3
ObjectDBX Classes
 90
     4095
 91
        4
280
     0
281
     0
  0
CLASS
  1
MLEADERSTYLE
  2
AcDbMLeaderStyle
  3
ACDB_MLEADERSTYLE_CLASS
 90
     4095
 91
        4
280
     0
281
     0
  0
CLASS
  1
SUN
  2
AcDbSun
  3
SCENEOE
 90
     1153
 91
        4
280
     0
281
     0
  0
CLASS
  1
DICTIONARYVAR
  2
AcDbDictionaryVar
  3
ObjectDBX Classes
 90
        0
 91
        4
280
     0
281
     0
  0
CLASS
  1
CELLSTYLEMAP
  2
AcDbCellStyleMap
  3
ObjectDBX Classes
 90
     1152
 91
        4
280
     0
281
     0
  0
ENDSEC
  0
SECTION
  2
TABLES
  0
TABLE
  2
VPORT
  5
8
330
0
100
AcDbSymbolTable
 70
     1
  0
VPORT
  5
29
330
8
100
AcDbSymbolTableRecord
100
AcDbViewportTableRecord
  2
*Active
 70
     0
 10
0.0
 20
0.0
 11
1.0
 21
1.0
 12
0.0
 22
0.5967500000000072
 13
0.0
 23
0.0
 14
0.5
 24
0.5
 15
0.5
 25
0.5
 16
0.0
 26
0.0
 36
1.0
 17
0.0
 27
0.0
 37
0.0
 40
9.374309999999985
 41
0.7480550568521854
 42
50.0
 43
0.0
 44
0.0
 50
0.0
 51
0.0
 71
     0
 72
   100
 73
     1
 74
     3
 75
     0
 76
     0
 77
     0
 78
     0
281
     0
 65
     1
110
0.0
120
0.0
130
0.0
111
1.0
121
0.0
131
0.0
112
0.0
122
1.0
132
0.0
 79
     0
146
0.0
348
2F
 60
     3
 61
     5
292
     1
282
     1
141
0.0
142
0.0
 63
   250
361
6D
  0
ENDTAB
  0
TABLE
  2
LTYPE
  5
5
330
0
100
AcDbSymbolTable
 70
     3
  0
LTYPE
  5
14
330
5
100
AcDbSymbolTableRecord
100
AcDbLinetypeTableRecord
  2
ByBlock
 70
     0
  3

 72
    65
 73
     0
 40
0.0
  0
LTYPE
  5
15
330
5
100
AcDbSymbolTableRecord
100
AcDbLinetypeTableRecord
  2
ByLayer
 70
     0
  3

 72
    65
 73
     0
 40
0.0
  0
LTYPE
  5
16
330
5
100
AcDbSymbolTableRecord
100
AcDbLinetypeTableRecord
  2
Continuous
 70
     0
  3
Solid line
 72
    65
 73
     0
 40
0.0
  0
LTYPE
  5
9B
330
5
100
AcDbSymbolTableRecord
100
AcDbLinetypeTableRecord
  2
Dashed
 70
     0
  3

 72
    65
 73
     2
 40
2.0
 49
1.0
 74
     0
 49
-1.0
 74
     0
  0
LTYPE
  5
185
330
5
100
AcDbSymbolTableRecord
100
AcDbLinetypeTableRecord
  2
Center
 70
     0
  3

 72
    65
 73
     4
 40
1.5
 49
0.45
 74
     0
 49
-0.5
 74
     0
 49
0.05
 74
     0
 49
-0.5
 74
     0
  0
ENDTAB
  0
TABLE
  2
LAYER
  5
2
330
0
100
AcDbSymbolTable
 70
     7
  0
LAYER
  5
10
330
2
100
AcDbSymbolTableRecord
100
AcDbLayerTableRecord
  2
0
 70
     0
 62
     7
  6
Continuous
370
    -3
390
F
347
46
348
0
  0
LAYER
  5
72
330
2
100
AcDbSymbolTableRecord
100
AcDbLayerTableRecord
  2
AM_6
 70
     0
 62
    -2
  6
Continuous
370
    35
390
F
347
46
348
0
  0
LAYER
  5
9C
330
2
100
AcDbSymbolTableRecord
100
AcDbLayerTableRecord
  2
AM_9
 70
     0
 62
     6
  6
Dashed
370
    25
390
F
347
46
348
0
  0
LAYER
  5
B3
330
2
100
AcDbSymbolTableRecord
100
AcDbLayerTableRecord
  2
AM_5
 70
     0
 62
     3
  6
Continuous
370
    25
390
F
347
46
348
0
  0
LAYER
  5
B6
330
2
100
AcDbSymbolTableRecord
100
AcDbLayerTableRecord
  2
AM_4
 70
     0
 62
     7
  6
Continuous
370
    50
390
F
347
46
348
0
  0
LAYER
  5
186
330
2
100
AcDbSymbolTableRecord
100
AcDbLayerTableRecord
  2
AM_7
 70
     0
 62
     7
  6
Center
370
    25
390
F
347
46
348
0
  0
LAYER
  5
1A5
330
2
100
AcDbSymbolTableRecord
100
AcDbLayerTableRecord
  2
ConnectionPoints
 70
     0
 62
     7
  6
Continuous
370
    50
390
F
347
46
348
0
  0
ENDTAB
  0
TABLE
  2
STYLE
  5
3
330
0
100
AcDbSymbolTable
 70
     1
  0
STYLE
  5
11
330
3
100
AcDbSymbolTableRecord
100
AcDbTextStyleTableRecord
  2
Standard
 70
     0
 40
0.0
 41
1.0
 50
0.0
 71
     0
 42
0.2
  3
txt
  4

  0
ENDTAB
  0
TABLE
  2
VIEW
  5
6
330
0
100
AcDbSymbolTable
 70
     0
  0
ENDTAB
  0
TABLE
  2
UCS
  5
7
330
0
100
AcDbSymbolTable
 70
     0
  0
ENDTAB
  0
TABLE
  2
APPID
  5
9
330
0
100
AcDbSymbolTable
 70
     1
  0
APPID
  5
12
330
9
100
AcDbSymbolTableRecord
100
AcDbRegAppTableRecord
  2
ACAD
 70
     0
  0
ENDTAB
  0
TABLE
  2
DIMSTYLE
  5
A
330
0
100
AcDbSymbolTable
 70
     1
100
AcDbDimStyleTable
  0
DIMSTYLE
105
27
330
A
100
AcDbSymbolTableRecord
100
AcDbDimStyleTableRecord
  2
Standard
 70
     0
178
     0
340
11
  0
ENDTAB
  0
TABLE
  2
BLOCK_RECORD
  5
1
330
0
100
AcDbSymbolTable
 70
     6
  0
BLOCK_RECORD
  5
1F
330
1
100
AcDbSymbolTableRecord
100
AcDbBlockTableRecord
  2
*Model_Space
340
22
 70
     0
280
     1
281
     0
  0
BLOCK_RECORD
  5
1B
330
1
100
AcDbSymbolTableRecord
100
AcDbBlockTableRecord
  2
*Paper_Space
340
1E
 70
     0
280
     1
281
     0
  0
BLOCK_RECORD
  5
23
330
1
100
AcDbSymbolTableRecord
100
AcDbBlockTableRecord
  2
*Paper_Space0
340
26
 70
     0
280
     1
281
     0
  0
BLOCK_RECORD
  5
6E
330
1
100
AcDbSymbolTableRecord
100
AcDbBlockTableRecord
  2
1_023530_2
340
0
102
{BLKREFS
331
6F
102
}
 70
     0
280
     1
281
     0
  0
BLOCK_RECORD
  5
86
330
1
100
AcDbSymbolTableRecord
100
AcDbBlockTableRecord
  2
2_3_15_16C_1_0_in_023530_2
340
0
102
{BLKREFS
331
87
102
}
 70
     0
280
     1
281
     0
  0
BLOCK_RECORD
  5
C2
330
1
100
AcDbSymbolTableRecord
100
AcDbBlockTableRecord
  2
3_3_15_16C_2_0_in_023530_2
340
0
102
{BLKREFS
331
C3
102
}
 70
     0
280
     1
281
     0
  0
BLOCK_RECORD
  5
FA
330
1
100
AcDbSymbolTableRecord
100
AcDbBlockTableRecord
  2
4_405015E_Inch_0_in_023530_2
340
0
102
{BLKREFS
331
FB
102
}
 70
     0
280
     1
281
     0
  0
BLOCK_RECORD
  5
138
330
1
100
AcDbSymbolTableRecord
100
AcDbBlockTableRecord
  2
5_023530_Insert_0_in_023530_2
340
0
102
{BLKREFS
331
139
102
}
 70
     0
280
     1
281
     0
  0
ENDTAB
  0
ENDSEC
  0
SECTION
  2
BLOCKS
  0
BLOCK
  5
20
330
1F
100
AcDbEntity
  8
0
100
AcDbBlockBegin
  2
*Model_Space
 70
     0
 10
0.0
 20
0.0
 30
0.0
  3
*Model_Space
  1

  0
ENDBLK
  5
21
330
1F
100
AcDbEntity
  8
0
100
AcDbBlockEnd
  0
BLOCK
  5
1C
330
1B
100
AcDbEntity
 67
     1
  8
0
100
AcDbBlockBegin
  2
*Paper_Space
 70
     0
 10
0.0
 20
0.0
 30
0.0
  3
*Paper_Space
  1

  0
ENDBLK
  5
1D
330
1B
100
AcDbEntity
 67
     1
  8
0
100
AcDbBlockEnd
  0
BLOCK
  5
24
330
23
100
AcDbEntity
  8
0
100
AcDbBlockBegin
  2
*Paper_Space0
 70
     0
 10
0.0
 20
0.0
 30
0.0
  3
*Paper_Space0
  1

  0
ENDBLK
  5
25
330
23
100
AcDbEntity
  8
0
100
AcDbBlockEnd
  0
BLOCK
  5
70
330
6E
100
AcDbEntity
  8
0
100
AcDbBlockBegin
  2
1_023530_2
 70
     2
 10
0.0
 20
0.0
 30
0.0
  3
1_023530_2
  1

  0
ATTDEF
  5
73
330
6E
100
AcDbEntity
  8
AM_6
100
AcDbText
 10
8.437499999999998
 20
5.191999999999999
 30
0.0
 40
0.5
  1
Double-Interlock S-1 Units Gray Iron - Inch 1-3/16 thru 3
100
AcDbAttributeDefinition
  3

  2
NN
 70
     8
280
     0
  0
ATTDEF
  5
74
330
6E
100
AcDbEntity
  8
AM_6
100
AcDbText
 10
8.437499999999998
 20
4.691999999999999
 30
0.0
 40
0.5
  1
Double-Interlock Bearings -Units
100
AcDbAttributeDefinition
  3

  2
NT
 70
     8
280
     0
  0
ATTDEF
  5
75
330
6E
100
AcDbEntity
  8
AM_6
100
AcDbText
 10
8.437499999999998
 20
4.191999999999999
 30
0.0
 40
0.5
  1
023530
100
AcDbAttributeDefinition
  3

  2
NB
 70
     8
280
     0
  0
ATTDEF
  5
76
330
6E
100
AcDbEntity
  8
AM_6
100
AcDbText
 10
8.437499999999998
 20
3.691999999999999
 30
0.0
 40
0.5
  1
$PN.
100
AcDbAttributeDefinition
  3

  2
NBSYN
 70
     8
280
     0
  0
ATTDEF
  5
77
330
6E
100
AcDbEntity
  8
AM_6
100
AcDbText
 10
8.437499999999998
 20
3.191999999999999
 30
0.0
 40
0.5
  1
023530
100
AcDbAttributeDefinition
  3

  2
LINA
 70
     8
280
     0
  0
ATTDEF
  5
78
330
6E
100
AcDbEntity
  8
AM_6
100
AcDbText
 10
8.437499999999998
 20
2.691999999999999
 30
0.0
 40
0.5
  1
3-15/16
100
AcDbAttributeDefinition
  3

  2
SS
 70
     8
280
     0
  0
ATTDEF
  5
79
330
6E
100
AcDbEntity
  8
AM_6
100
AcDbText
 10
8.437499999999998
 20
2.191999999999999
 30
0.0
 40
0.5
  1
023530
100
AcDbAttributeDefinition
  3

  2
PN
 70
     8
280
     0
  0
ATTDEF
  5
7A
330
6E
100
AcDbEntity
  8
AM_6
100
AcDbText
 10
8.437499999999998
 20
1.691999999999999
 30
0.0
 40
0.5
  1
S1U-DI-315R
100
AcDbAttributeDefinition
  3

  2
DESCRIPTION
 70
     8
280
     0
  0
ATTDEF
  5
7B
330
6E
100
AcDbEntity
  8
AM_6
100
AcDbText
 10
8.437499999999998
 20
1.191999999999999
 30
0.0
 40
0.5
  1
6-1/4
100
AcDbAttributeDefinition
  3

  2
A
 70
     8
280
     0
  0
ATTDEF
  5
7C
330
6E
100
AcDbEntity
  8
AM_6
100
AcDbText
 10
8.437499999999998
 20
0.6919999999999993
 30
0.0
 40
0.5
  1
4-1/2
100
AcDbAttributeDefinition
  3

  2
B
 70
     8
280
     0
  0
ATTDEF
  5
7D
330
6E
100
AcDbEntity
  8
AM_6
100
AcDbText
 10
8.437499999999998
 20
0.1919999999999993
 30
0.0
 40
0.5
  1
2-3/8
100
AcDbAttributeDefinition
  3

  2
C
 70
     8
280
     0
  0
ATTDEF
  5
7E
330
6E
100
AcDbEntity
  8
AM_6
100
AcDbText
 10
8.437499999999998
 20
-0.3080000000000007
 30
0.0
 40
0.5
  1
7.438
100
AcDbAttributeDefinition
  3

  2
EM
 70
     8
280
     0
  0
ATTDEF
  5
7F
330
6E
100
AcDbEntity
  8
AM_6
100
AcDbText
 10
8.437499999999998
 20
-0.8080000000000007
 30
0.0
 40
0.5
  1
7-9/16
100
AcDbAttributeDefinition
  3

  2
EC
 70
     8
280
     0
  0
ATTDEF
  5
80
330
6E
100
AcDbEntity
  8
AM_6
100
AcDbText
 10
8.437499999999998
 20
-1.308000000000001
 30
0.0
 40
0.5
  1
15/16
100
AcDbAttributeDefinition
  3

  2
H
 70
     8
280
     0
  0
ATTDEF
  5
81
330
6E
100
AcDbEntity
  8
AM_6
100
AcDbText
 10
8.437499999999998
 20
-1.808000000000001
 30
0.0
 40
0.5
  1
7.997
100
AcDbAttributeDefinition
  3

  2
K
 70
     8
280
     0
  0
ATTDEF
  5
82
330
6E
100
AcDbEntity
  8
AM_6
100
AcDbText
 10
8.437499999999998
 20
-2.308000000000001
 30
0.0
 40
0.5
  1
+0.000 to -0.003
100
AcDbAttributeDefinition
  3

  2
TOL
 70
     8
280
     0
  0
ATTDEF
  5
83
330
6E
100
AcDbEntity
  8
AM_6
100
AcDbText
 10
8.437499999999998
 20
-2.808000000000001
 30
0.0
 40
0.5
  1
6
100
AcDbAttributeDefinition
  3

  2
L
 70
     8
280
     0
  0
ATTDEF
  5
84
330
6E
100
AcDbEntity
  8
AM_6
100
AcDbText
 10
8.437499999999998
 20
-3.308000000000001
 30
0.0
 40
0.5
  1
5.16
100
AcDbAttributeDefinition
  3

  2
M
 70
     8
280
     0
  0
ATTDEF
  5
85
330
6E
100
AcDbEntity
  8
AM_6
100
AcDbText
 10
8.437499999999998
 20
-3.808000000000001
 30
0.0
 40
0.5
  1
baldor
100
AcDbAttributeDefinition
  3

  2
COMPANY
 70
     8
280
     0
  0
INSERT
  5
87
330
6E
100
AcDbEntity
  8
0
100
AcDbBlockReference
  2
2_3_15_16C_1_0_in_023530_2
 10
0.0
 20
0.0
 30
0.0
  0
INSERT
  5
C3
330
6E
100
AcDbEntity
  8
0
100
AcDbBlockReference
  2
3_3_15_16C_2_0_in_023530_2
 10
0.0
 20
0.0
 30
0.0
  0
INSERT
  5
FB
330
6E
100
AcDbEntity
  8
0
100
AcDbBlockReference
  2
4_405015E_Inch_0_in_023530_2
 10
0.0
 20
0.0
 30
0.0
  0
INSERT
  5
139
330
6E
100
AcDbEntity
  8
0
100
AcDbBlockReference
  2
5_023530_Insert_0_in_023530_2
 10
0.0
 20
0.0
 30
0.0
  0
ENDBLK
  5
71
330
6E
100
AcDbEntity
  8
0
100
AcDbBlockEnd
  0
BLOCK
  5
88
330
86
100
AcDbEntity
  8
0
100
AcDbBlockBegin
  2
2_3_15_16C_1_0_in_023530_2
 70
     2
 10
0.0
 20
0.0
 30
0.0
  3
2_3_15_16C_1_0_in_023530_2
  1

  0
ATTDEF
  5
8A
330
86
100
AcDbEntity
  8
AM_6
100
AcDbText
 10
8.125
 20
3.0625
 30
0.0
 40
0.5
  1
E-Type Collar -Inch
100
AcDbAttributeDefinition
  3

  2
NN
 70
     8
280
     0
  0
ATTDEF
  5
8B
330
86
100
AcDbEntity
  8
AM_6
100
AcDbText
 10
8.125
 20
2.5625
 30
0.0
 40
0.5
  1
E-Type Bearings
100
AcDbAttributeDefinition
  3

  2
NT
 70
     8
280
     0
  0
ATTDEF
  5
8C
330
86
100
AcDbEntity
  8
AM_6
100
AcDbText
 10
8.125
 20
2.0625
 30
0.0
 40
0.5
  1
3-15/16C
100
AcDbAttributeDefinition
  3

  2
NB
 70
     8
280
     0
  0
ATTDEF
  5
8D
330
86
100
AcDbEntity
  8
AM_6
100
AcDbText
 10
8.125
 20
1.5625
 30
0.0
 40
0.5
  1
$BORE.C
100
AcDbAttributeDefinition
  3

  2
NBSYN
 70
     8
280
     0
  0
ATTDEF
  5
8E
330
86
100
AcDbEntity
  8
AM_6
100
AcDbText
 10
8.125
 20
1.0625
 30
0.0
 40
0.5
  1
3-15/16C
100
AcDbAttributeDefinition
  3

  2
LINA
 70
     8
280
     0
  0
ATTDEF
  5
8F
330
86
100
AcDbEntity
  8
AM_6
100
AcDbText
 10
8.125
 20
0.5625000000000004
 30
0.0
 40
0.5
  1
3-15/16
100
AcDbAttributeDefinition
  3

  2
BORE
 70
     8
280
     0
  0
ATTDEF
  5
90
330
86
100
AcDbEntity
  8
AM_6
100
AcDbText
 10
8.125
 20
0.0625000000000004
 30
0.0
 40
0.5
  1
6.12500
100
AcDbAttributeDefinition
  3

  2
L
 70
     8
280
     0
  0
ATTDEF
  5
91
330
86
100
AcDbEntity
  8
AM_6
100
AcDbText
 10
8.125
 20
-0.4374999999999996
 30
0.0
 40
0.5
  1
6.25
100
AcDbAttributeDefinition
  3

  2
A
 70
     8
280
     0
  0
ATTDEF
  5
92
330
86
100
AcDbEntity
  8
AM_6
100
AcDbText
 10
8.125
 20
-0.9374999999999996
 30
0.0
 40
0.5
  1
3.12
100
AcDbAttributeDefinition
  3

  2
B
 70
     8
280
     0
  0
ATTDEF
  5
93
330
86
100
AcDbEntity
  8
AM_6
100
AcDbText
 10
8.125
 20
-1.4375
 30
0.0
 40
0.5
  1
4.50
100
AcDbAttributeDefinition
  3

  2
C
 70
     8
280
     0
  0
ATTDEF
  5
94
330
86
100
AcDbEntity
  8
AM_6
100
AcDbText
 10
8.125
 20
-1.9375
 30
0.0
 40
0.5
  1
6.38
100
AcDbAttributeDefinition
  3

  2
D
 70
     8
280
     0
  0
ATTDEF
  5
95
330
86
100
AcDbEntity
  8
AM_6
100
AcDbText
 10
8.125
 20
-2.4375
 30
0.0
 40
0.5
  1
0.66
100
AcDbAttributeDefinition
  3

  2
E
 70
     8
280
     0
  0
ATTDEF
  5
96
330
86
100
AcDbEntity
  8
AM_6
100
AcDbText
 10
8.125
 20
-2.9375
 30
0.0
 40
0.5
  1
0.50
100
AcDbAttributeDefinition
  3

  2
F
 70
     8
280
     0
  0
ATTDEF
  5
97
330
86
100
AcDbEntity
  8
AM_6
100
AcDbText
 10
8.125
 20
-3.4375
 30
0.0
 40
0.5
  1
5/8-11
100
AcDbAttributeDefinition
  3

  2
CS
 70
     8
280
     0
  0
ATTDEF
  5
98
330
86
100
AcDbEntity
  8
AM_6
100
AcDbText
 10
8.125
 20
-3.9375
 30
0.0
 40
0.5
  1
0.6250
100
AcDbAttributeDefinition
  3

  2
NDM
 70
     8
280
     0
  0
ATTDEF
  5
99
330
86
100
AcDbEntity
  8
AM_6
100
AcDbText
 10
8.125
 20
-4.4375
 30
0.0
 40
0.5
  1
0.5270
100
AcDbAttributeDefinition
  3

  2
KDM
 70
     8
280
     0
  0
ATTDEF
  5
9A
330
86
100
AcDbEntity
  8
AM_6
100
AcDbText
 10
8.125
 20
-4.9375
 30
0.0
 40
0.5
  1
baldor
100
AcDbAttributeDefinition
  3

  2
COMPANY
 70
     8
280
     0
  0
LINE
  5
9D
330
86
100
AcDbEntity
  8
AM_9
100
AcDbLine
 10
2.3617
 20
2.257533333333333
 30
0.0
 11
2.354619242727109
 21
2.250452576060442
 31
0.0
  0
LINE
  5
9E
330
86
100
AcDbEntity
  8
AM_9
100
AcDbLine
 10
2.895512784635821
 20
2.250320548697513
 30
0.0
 11
2.8883
 21
2.257533333333333
 31
0.0
  0
LINE
  5
9F
330
86
100
AcDbEntity
  8
AM_9
100
AcDbLine
 10
2.8883
 20
3.0133
 30
0.0
 11
2.936948968284959
 21
3.061948968284959
 31
0.0
  0
LINE
  5
A0
330
86
100
AcDbEntity
  8
AM_9
100
AcDbLine
 10
2.312653128339127
 20
3.062346871660873
 30
0.0
 11
2.3617
 21
3.0133
 31
0.0
  0
LINE
  5
A1
330
86
100
AcDbEntity
  8
AM_9
100
AcDbLine
 10
2.3617
 20
3.0133
 30
0.0
 11
2.8883
 21
3.0133
 31
0.0
  0
LINE
  5
A2
330
86
100
AcDbEntity
  8
AM_9
100
AcDbLine
 10
2.3617
 20
2.257533333333333
 30
0.0
 11
2.8883
 21
2.257533333333333
 31
0.0
  0
LINE
  5
A3
330
86
100
AcDbEntity
  8
AM_9
100
AcDbLine
 10
2.8883
 20
2.257533333333333
 30
0.0
 11
2.8883
 21
3.0133
 31
0.0
  0
LINE
  5
A4
330
86
100
AcDbEntity
  8
AM_9
100
AcDbLine
 10
2.3617
 20
3.0133
 30
0.0
 11
2.3617
 21
2.257533333333333
 31
0.0
  0
ELLIPSE
  5
A5
330
86
100
AcDbEntity
  8
AM_9
100
AcDbEllipse
 10
2.625000000000002
 20
0.9540748131550187
 30
0.0
 11
0.2633000000000019
 21
0.0
 31
0.0
210
0.0
220
0.0
230
1.0
 40
0.90630778703665
 41
2.40841226450434
 42
3.141592653589793
  0
ELLIPSE
  5
A6
330
86
100
AcDbEntity
  8
AM_9
100
AcDbEllipse
 10
2.624999999999998
 20
0.9540748131550187
 30
0.0
 11
0.2633000000000019
 21
0.0
 31
0.0
210
0.0
220
0.0
230
1.0
 40
0.90630778703665
 41
3.141592653589793
 42
7.016365696265039
  0
LINE
  5
A7
330
86
100
AcDbEntity
  8
AM_9
100
AcDbLine
 10
2.8883
 20
0.9540748131550202
 30
0.0
 11
2.8883
 21
1.273475608103249
 31
0.0
  0
LINE
  5
A8
330
86
100
AcDbEntity
  8
AM_9
100
AcDbLine
 10
2.3617
 20
1.273475608103249
 30
0.0
 11
2.3617
 21
0.9540748131550202
 31
0.0
  0
LWPOLYLINE
  5
A9
330
86
100
AcDbEntity
  8
AM_9
100
AcDbPolyline
 90
       39
 70
     0
 43
0.0
 10
2.430735211364563
 20
0.7644799658275648
 10
2.460439735924683
 20
0.7377101135059102
 10
2.494840353049987
 20
0.7148458225873742
 10
2.536135796202668
 20
0.6960301305903352
 10
2.581774836284429
 20
0.6841566556652464
 10
2.624535921085054
 20
0.6805722173805185
 10
2.66862715521264
 20
0.6842240537355554
 10
2.70886390285018
 20
0.6942987487419172
 10
2.747880977350693
 20
0.7109061231910963
 10
2.783590902897186
 20
0.7331908505472827
 10
2.815967199008946
 20
0.7611063470768873
 10
2.844330235923443
 20
0.7945106388713049
 10
2.867328153422485
 20
0.8323919298078102
 10
2.884201068495301
 20
0.8743385835999269
 10
2.893834159892084
 20
0.9190341305332519
 10
2.895462607440459
 20
0.9645586955133844
 10
2.88861806861081
 20
1.010495020928126
 10
2.873646827757242
 20
1.053443629930978
 10
2.850000172924427
 20
1.094251202998459
 10
2.820151131989309
 20
1.128810902280082
 10
2.782593089846569
 20
1.158897733563939
 10
2.74282770580223
 20
1.180649907074633
 10
2.697643841859466
 20
1.196307066982151
 10
2.654701320489271
 20
1.203902817055953
 10
2.60943962131652
 20
1.204988627495685
 10
2.568120692678949
 20
1.199867021059699
 10
2.52724844128487
 20
1.18866204894858
 10
2.489807228378662
 20
1.172197841702228
 10
2.455021789540426
 20
1.150196226666262
 10
2.423819443424516
 20
1.122789082397281
 10
2.39731363970213
 20
1.090421366245112
 10
2.376160028593252
 20
1.053020034990264
 10
2.361669989647122
 20
1.011648930882936
 10
2.354710563360627
 20
0.9674378301967653
 10
2.355919465138447
 20
0.9210618298021317
 10
2.365442175541581
 20
0.8755066019787976
 10
2.383696355065427
 20
0.8303727433870342
 10
2.404405345489852
 20
0.7962759555620313
 10
2.430735211364563
 20
0.7644799658275648
  0
LINE
  5
AA
330
86
100
AcDbEntity
  8
AM_9
100
AcDbLine
 10
3.125
 20
2.25
 30
0.0
 11
2.895086381870144
 21
2.25
 31
0.0
  0
LINE
  5
AB
330
86
100
AcDbEntity
  8
AM_9
100
AcDbLine
 10
2.355217839648494
 20
2.25
 30
0.0
 11
2.125
 21
2.25
 31
0.0
  0
LINE
  5
AC
330
86
100
AcDbEntity
  8
AM_9
100
AcDbLine
 10
2.125
 20
-2.25
 30
0.0
 11
3.125
 21
-2.25
 31
0.0
  0
LWPOLYLINE
  5
AD
330
86
100
AcDbEntity
  8
AM_9
100
AcDbPolyline
 90
       21
 70
     0
 43
0.0
 10
2.354166666666733
 20
2.249999999999991
 10
2.354982978911711
 20
2.249884230587681
 10
2.362801822298493
 20
2.248836500838303
 10
2.379095114298603
 20
2.246737510022851
 10
2.403381185166674
 20
2.243858213446623
 10
2.434588846538541
 20
2.240585188820031
 10
2.472250357517014
 20
2.237282088835058
 10
2.513137637236524
 20
2.234515563699613
 10
2.557795473323702
 20
2.232454757788502
 10
2.601444316209666
 20
2.231443184549411
 10
2.645820447616849
 20
2.231404087753249
 10
2.687520023580483
 20
2.232304107531505
 10
2.727492995204234
 20
2.233993696706846
 10
2.765078911131668
 20
2.236334847618127
 10
2.798991935643685
 20
2.239056755373137
 10
2.830042125346482
 20
2.242058680052957
 10
2.855590758007776
 20
2.244889050854354
 10
2.876188683155972
 20
2.247403370276019
 10
2.889606347972983
 20
2.249157323301504
 10
2.895595235730551
 20
2.249963312185637
 10
2.895833333332689
 20
2.249999999999912
  0
LINE
  5
AE
330
86
100
AcDbEntity
  8
AM_9
100
AcDbLine
 10
2.427367358128679
 20
2.24129849285951
 30
0.0
 11
2.424082972374702
 21
2.241632062175615
 31
0.0
  0
LINE
  5
AF
330
86
100
AcDbEntity
  8
AM_9
100
AcDbLine
 10
2.895833333332689
 20
2.249999999999912
 30
0.0
 11
2.880517904600347
 21
2.247961362452414
 31
0.0
  0
LINE
  5
B0
330
86
100
AcDbEntity
  8
AM_9
100
AcDbLine
 10
2.125
 20
-3.0625
 30
0.0
 11
2.125
 21
3.0625
 31
0.0
  0
LINE
  5
B1
330
86
100
AcDbEntity
  8
AM_9
100
AcDbLine
 10
2.25
 20
3.0625
 30
0.0
 11
2.125
 21
3.0625
 31
0.0
  0
LINE
  5
B2
330
86
100
AcDbEntity
  8
AM_9
100
AcDbLine
 10
2.125
 20
-3.0625
 30
0.0
 11
2.25
 21
-3.0625
 31
0.0
  0
LINE
  5
B4
330
86
100
AcDbEntity
  8
AM_5
100
AcDbLine
 10
2.9375
 20
3.0625
 30
0.0
 11
2.9375
 21
2.25
 31
0.0
  0
LINE
  5
B5
330
86
100
AcDbEntity
  8
AM_5
100
AcDbLine
 10
2.3125
 20
3.0625
 30
0.0
 11
2.3125
 21
2.25
 31
0.0
  0
ELLIPSE
  5
B7
330
86
100
AcDbEntity
  8
AM_4
100
AcDbEllipse
 10
2.625
 20
0.9540748131550201
 30
0.0
 11
0.2632999999999996
 21
0.0
 31
0.0
210
0.0
220
0.0
230
1.0
 40
0.9063077870366518
 41
0.7331803890854527
 42
2.40841226450434
  0
LINE
  5
B8
330
86
100
AcDbEntity
  8
AM_4
100
AcDbLine
 10
3.125
 20
-2.895833333333333
 30
0.0
 11
3.125
 21
2.895833333333333
 31
0.0
  0
ARC
  5
B9
330
86
100
AcDbEntity
  8
AM_4
100
AcDbCircle
 10
2.958333333333333
 20
2.895833333333333
 30
0.0
 40
0.1666666666666674
100
AcDbArc
 50
0.0
 51
90.0
  0
ARC
  5
BA
330
86
100
AcDbEntity
  8
AM_4
100
AcDbCircle
 10
2.958333333333333
 20
-2.895833333333333
 30
0.0
 40
0.1666666666666674
100
AcDbArc
 50
270.0
 51
0.0
  0
LINE
  5
BB
330
86
100
AcDbEntity
  8
AM_4
100
AcDbLine
 10
2.958333333333333
 20
-3.0625
 30
0.0
 11
2.958333333333333
 21
3.0625
 31
0.0
  0
LWPOLYLINE
  5
BC
330
86
100
AcDbEntity
  8
AM_4
100
AcDbPolyline
 90
       39
 70
     0
 43
0.0
 10
2.409038501657308
 20
1.09596897362173
 10
2.378293999030464
 20
1.126302575680296
 10
2.352184302563256
 20
1.16120505777857
 10
2.330679345382352
 20
1.202890739075216
 10
2.316993321100946
 20
1.248506340999335
 10
2.312511660087832
 20
1.291937391624052
 10
2.316364188673969
 20
1.336415137385735
 10
2.327863685547852
 20
1.377242084494781
 10
2.347225504573121
 20
1.416611681100127
 10
2.373253700854286
 20
1.452017523156329
 10
2.406235021022639
 20
1.483895031271883
 10
2.445215298746451
 20
1.510980059554066
 10
2.489824193208893
 20
1.532716606947886
 10
2.538757032163892
 20
1.548142655696852
 10
2.591344420951939
 20
1.556677892016762
 10
2.644943905495578
 20
1.55765363415178
 10
2.699496661741504
 20
1.550730262532842
 10
2.750834228741049
 20
1.536279121393685
 10
2.799989448102393
 20
1.513733134542917
 10
2.841976268288858
 20
1.485350085484716
 10
2.878748219438782
 20
1.44970167873198
 10
2.905846642915295
 20
1.411428806525793
 10
2.925501483050374
 20
1.367853997173736
 10
2.935438087309889
 20
1.325129401945537
 10
2.93705200994823
 20
1.279809932057396
 10
2.930521316926254
 20
1.237298242685765
 10
2.915913603985693
 20
1.194908406515497
 10
2.894411869708007
 20
1.155958023401802
 10
2.865627237334802
 20
1.119571416008727
 10
2.830582360535034
 20
1.087491066174375
 10
2.789423960297644
 20
1.060245806775314
 10
2.743226532860237
 20
1.0390646492183
 10
2.69265697279029
 20
1.024781495263666
 10
2.639853742653766
 20
1.018395088564344
 10
2.585160247710522
 20
1.020383377753426
 10
2.532298454948959
 20
1.030795635495611
 10
2.480592874092777
 20
1.050003772177851
 10
2.443456407984777
 20
1.070470118225304
 10
2.409038501613284
 20
1.095968973468149
  0
LINE
  5
BD
330
86
100
AcDbEntity
  8
AM_4
100
AcDbLine
 10
2.958333333333333
 20
3.0625
 30
0.0
 11
2.936491964330509
 21
3.0625
 31
0.0
  0
LINE
  5
BE
330
86
100
AcDbEntity
  8
AM_4
100
AcDbLine
 10
2.312778889525999
 20
3.0625
 30
0.0
 11
2.25
 21
3.0625
 31
0.0
  0
LINE
  5
BF
330
86
100
AcDbEntity
  8
AM_4
100
AcDbLine
 10
2.25
 20
-3.0625
 30
0.0
 11
2.958333333333333
 21
-3.0625
 31
0.0
  0
LWPOLYLINE
  5
C0
330
86
100
AcDbEntity
  8
AM_4
100
AcDbPolyline
 90
       21
 70
     0
 43
0.0
 10
2.937499999999967
 20
3.062499999999997
 10
2.936066908349553
 20
3.062365297099729
 10
2.927284698360943
 20
3.061569341720519
 10
2.910854155132226
 20
3.060135396684232
 10
2.887397751366645
 20
3.058227380647408
 10
2.85670269498981
 20
3.055974395857444
 10
2.820324030547974
 20
3.053661330779605
 10
2.777237509533978
 20
3.051433100039924
 10
2.730266433147623
 20
3.049624923967696
 10
2.678498866304247
 20
3.048403058229924
 10
2.625291056265331
 20
3.047969864449708
 10
2.570845484767137
 20
3.04841413224259
 10
2.517926403221255
 20
3.049682209424692
 10
2.468053092116228
 20
3.051651136351604
 10
2.422748950221814
 20
3.054071430454401
 10
2.384374815552092
 20
3.056601105868056
 10
2.353075900607327
 20
3.058983219309283
 10
2.330961778577955
 20
3.060838531828408
 10
2.317216726338115
 20
3.062066506327778
 10
2.312550753690212
 20
3.062492800955106
 10
2.312500000000064
 20
3.062499999999994
  0
ELLIPSE
  5
C1
330
86
100
AcDbEntity
  8
AM_4
100
AcDbEllipse
 10
2.625
 20
1.273475608103249
 30
0.0
 11
0.2633000000000005
 21
0.0
 31
0.0
210
0.0
220
0.0
230
1.0
 40
0.9063077870366495
 41
0.0
 42
6.283185307179586
  0
ENDBLK
  5
89
330
86
100
AcDbEntity
  8
0
100
AcDbBlockEnd
  0
BLOCK
  5
C4
330
C2
100
AcDbEntity
  8
0
100
AcDbBlockBegin
  2
3_3_15_16C_2_0_in_023530_2
 70
     2
 10
0.0
 20
0.0
 30
0.0
  3
3_3_15_16C_2_0_in_023530_2
  1

  0
ATTDEF
  5
C6
330
C2
100
AcDbEntity
  8
AM_6
100
AcDbText
 10
2.875
 20
3.0625
 30
0.0
 40
0.5
  1
E-Type Collar -Inch
100
AcDbAttributeDefinition
  3

  2
NN
 70
     8
280
     0
  0
ATTDEF
  5
C7
330
C2
100
AcDbEntity
  8
AM_6
100
AcDbText
 10
2.875
 20
2.5625
 30
0.0
 40
0.5
  1
E-Type Bearings
100
AcDbAttributeDefinition
  3

  2
NT
 70
     8
280
     0
  0
ATTDEF
  5
C8
330
C2
100
AcDbEntity
  8
AM_6
100
AcDbText
 10
2.875
 20
2.0625
 30
0.0
 40
0.5
  1
3-15/16C
100
AcDbAttributeDefinition
  3

  2
NB
 70
     8
280
     0
  0
ATTDEF
  5
C9
330
C2
100
AcDbEntity
  8
AM_6
100
AcDbText
 10
2.875
 20
1.5625
 30
0.0
 40
0.5
  1
$BORE.C
100
AcDbAttributeDefinition
  3

  2
NBSYN
 70
     8
280
     0
  0
ATTDEF
  5
CA
330
C2
100
AcDbEntity
  8
AM_6
100
AcDbText
 10
2.875
 20
1.0625
 30
0.0
 40
0.5
  1
3-15/16C
100
AcDbAttributeDefinition
  3

  2
LINA
 70
     8
280
     0
  0
ATTDEF
  5
CB
330
C2
100
AcDbEntity
  8
AM_6
100
AcDbText
 10
2.875
 20
0.5625
 30
0.0
 40
0.5
  1
3-15/16
100
AcDbAttributeDefinition
  3

  2
BORE
 70
     8
280
     0
  0
ATTDEF
  5
CC
330
C2
100
AcDbEntity
  8
AM_6
100
AcDbText
 10
2.875
 20
0.0625
 30
0.0
 40
0.5
  1
6.12500
100
AcDbAttributeDefinition
  3

  2
L
 70
     8
280
     0
  0
ATTDEF
  5
CD
330
C2
100
AcDbEntity
  8
AM_6
100
AcDbText
 10
2.875
 20
-0.4375
 30
0.0
 40
0.5
  1
6.25
100
AcDbAttributeDefinition
  3

  2
A
 70
     8
280
     0
  0
ATTDEF
  5
CE
330
C2
100
AcDbEntity
  8
AM_6
100
AcDbText
 10
2.875
 20
-0.9375
 30
0.0
 40
0.5
  1
3.12
100
AcDbAttributeDefinition
  3

  2
B
 70
     8
280
     0
  0
ATTDEF
  5
CF
330
C2
100
AcDbEntity
  8
AM_6
100
AcDbText
 10
2.875
 20
-1.4375
 30
0.0
 40
0.5
  1
4.50
100
AcDbAttributeDefinition
  3

  2
C
 70
     8
280
     0
  0
ATTDEF
  5
D0
330
C2
100
AcDbEntity
  8
AM_6
100
AcDbText
 10
2.875
 20
-1.9375
 30
0.0
 40
0.5
  1
6.38
100
AcDbAttributeDefinition
  3

  2
D
 70
     8
280
     0
  0
ATTDEF
  5
D1
330
C2
100
AcDbEntity
  8
AM_6
100
AcDbText
 10
2.875
 20
-2.4375
 30
0.0
 40
0.5
  1
0.66
100
AcDbAttributeDefinition
  3

  2
E
 70
     8
280
     0
  0
ATTDEF
  5
D2
330
C2
100
AcDbEntity
  8
AM_6
100
AcDbText
 10
2.875
 20
-2.9375
 30
0.0
 40
0.5
  1
0.50
100
AcDbAttributeDefinition
  3

  2
F
 70
     8
280
     0
  0
ATTDEF
  5
D3
330
C2
100
AcDbEntity
  8
AM_6
100
AcDbText
 10
2.875
 20
-3.4375
 30
0.0
 40
0.5
  1
5/8-11
100
AcDbAttributeDefinition
  3

  2
CS
 70
     8
280
     0
  0
ATTDEF
  5
D4
330
C2
100
AcDbEntity
  8
AM_6
100
AcDbText
 10
2.875
 20
-3.9375
 30
0.0
 40
0.5
  1
0.6250
100
AcDbAttributeDefinition
  3

  2
NDM
 70
     8
280
     0
  0
ATTDEF
  5
D5
330
C2
100
AcDbEntity
  8
AM_6
100
AcDbText
 10
2.875
 20
-4.4375
 30
0.0
 40
0.5
  1
0.5270
100
AcDbAttributeDefinition
  3

  2
KDM
 70
     8
280
     0
  0
ATTDEF
  5
D6
330
C2
100
AcDbEntity
  8
AM_6
100
AcDbText
 10
2.875
 20
-4.9375
 30
0.0
 40
0.5
  1
baldor
100
AcDbAttributeDefinition
  3

  2
COMPANY
 70
     8
280
     0
  0
LINE
  5
D7
330
C2
100
AcDbEntity
  8
AM_9
100
AcDbLine
 10
-2.3617
 20
2.257533333333333
 30
0.0
 11
-2.3617
 21
3.0133
 31
0.0
  0
LINE
  5
D8
330
C2
100
AcDbEntity
  8
AM_9
100
AcDbLine
 10
-2.8883
 20
3.0133
 30
0.0
 11
-2.8883
 21
2.257533333333333
 31
0.0
  0
LINE
  5
D9
330
C2
100
AcDbEntity
  8
AM_9
100
AcDbLine
 10
-2.8883
 20
2.257533333333333
 30
0.0
 11
-2.3617
 21
2.257533333333333
 31
0.0
  0
LINE
  5
DA
330
C2
100
AcDbEntity
  8
AM_9
100
AcDbLine
 10
-2.8883
 20
2.257533333333333
 30
0.0
 11
-2.895461664881004
 21
2.250371668452329
 31
0.0
  0
LINE
  5
DB
330
C2
100
AcDbEntity
  8
AM_9
100
AcDbLine
 10
-2.354588192613643
 20
2.250421525946976
 30
0.0
 11
-2.3617
 21
2.257533333333333
 31
0.0
  0
LINE
  5
DC
330
C2
100
AcDbEntity
  8
AM_9
100
AcDbLine
 10
-2.8883
 20
3.0133
 30
0.0
 11
-2.3617
 21
3.0133
 31
0.0
  0
LINE
  5
DD
330
C2
100
AcDbEntity
  8
AM_9
100
AcDbLine
 10
-2.3617
 20
3.0133
 30
0.0
 11
-2.3125
 21
3.0625
 31
0.0
  0
LINE
  5
DE
330
C2
100
AcDbEntity
  8
AM_9
100
AcDbLine
 10
-2.9375
 20
3.0625
 30
0.0
 11
-2.8883
 21
3.0133
 31
0.0
  0
LWPOLYLINE
  5
DF
330
C2
100
AcDbEntity
  8
AM_9
100
AcDbPolyline
 90
       33
 70
     0
 43
0.0
 10
-2.361195565912217
 20
1.009735488647058
 10
-2.362801822298493
 20
1.015969927057263
 10
-2.379095114298602
 20
1.059172018061535
 10
-2.403381185166674
 20
1.098863482832118
 10
-2.434588846538541
 20
1.13323176035889
 10
-2.472250357517014
 20
1.16202493681386
 10
-2.513137637236524
 20
1.183183016440649
 10
-2.557795473323702
 20
1.197639748952636
 10
-2.601444316209666
 20
1.204430008401932
 10
-2.645820447616849
 20
1.204664506826899
 10
-2.687520023580483
 20
1.198675843361116
 10
-2.727492995204234
 20
1.186929354302573
 10
-2.765078911131668
 20
1.169518463868775
 10
-2.798991935643685
 20
1.147141469842896
 10
-2.830042125346482
 20
1.118683004646004
 10
-2.855590758007776
 20
1.086099236352993
 10
-2.876188683155972
 20
1.047629301160185
 10
-2.889606347972983
 20
1.006339788910266
 10
-2.895595235730551
 20
0.9612350181282083
 10
-2.893348926536561
 20
0.9153788040192268
 10
-2.882562895888697
 20
0.8692890937681831
 10
-2.863536016522357
 20
0.8251137778181078
 10
-2.836839356576486
 20
0.7846568450662028
 10
-2.803045015133619
 20
0.7489101138516935
 10
-2.764596931006785
 20
0.7204334824210551
 10
-2.721392751805567
 20
0.698848613993494
 10
-2.677962729005909
 20
0.6860077466515151
 10
-2.632836869066099
 20
0.6806889675079348
 10
-2.59018222178112
 20
0.682922921084827
 10
-2.548521681249181
 20
0.6919417727237017
 10
-2.509372715778862
 20
0.7072830282267352
 10
-2.473280229800552
 20
0.728293606104793
 10
-2.424082972374702
 20
0.771648472251829
  0
LWPOLYLINE
  5
E0
330
C2
100
AcDbEntity
  8
AM_9
100
AcDbPolyline
 90
        7
 70
     0
 43
0.0
 10
-2.424082972374702
 20
0.771648472251829
 10
-2.399763396888957
 20
0.8030400480951182
 10
-2.380359313984091
 20
0.8371084369274372
 10
-2.364108572602769
 20
0.8801378002185124
 10
-2.355525839022781
 20
0.924625120130649
 10
-2.354982978911711
 20
0.9708114462547965
 10
-2.361195565912217
 20
1.009735488647058
  0
LINE
  5
E1
330
C2
100
AcDbEntity
  8
AM_9
100
AcDbLine
 10
-3.125
 20
-2.25
 30
0.0
 11
-2.125
 21
-2.25
 31
0.0
  0
LINE
  5
E2
330
C2
100
AcDbEntity
  8
AM_9
100
AcDbLine
 10
-2.125
 20
2.25
 30
0.0
 11
-2.355143352662146
 21
2.25
 31
0.0
  0
LINE
  5
E3
330
C2
100
AcDbEntity
  8
AM_9
100
AcDbLine
 10
-2.894971946695017
 20
2.25
 30
0.0
 11
-3.125
 21
2.25
 31
0.0
  0
LWPOLYLINE
  5
E4
330
C2
100
AcDbEntity
  8
AM_9
100
AcDbPolyline
 90
       21
 70
     0
 43
0.0
 10
-2.895833333332891
 20
2.24999999999994
 10
-2.895462607440459
 20
2.249949302510798
 10
-2.88861806861081
 20
2.249025319996151
 10
-2.873646827757242
 20
2.247084011249307
 10
-2.850000172924427
 20
2.244242040041891
 10
-2.820151131989308
 20
2.241050037783132
 10
-2.782593089846569
 20
2.237666694741664
 10
-2.74282770580223
 20
2.23486087262009
 10
-2.697643841859465
 20
2.232650378419629
 10
-2.654701320489271
 20
2.231519601791616
 10
-2.60943962131652
 20
2.231354815614001
 10
-2.568120692678949
 20
2.232125189933572
 10
-2.527248441284869
 20
2.233749862445228
 10
-2.489807228378662
 20
2.235987458120685
 10
-2.455021789540426
 20
2.238704008097807
 10
-2.423819443424516
 20
2.241659060044011
 10
-2.39731363970213
 20
2.244550989674321
 10
-2.376160028593252
 20
2.247108357152476
 10
-2.361669989647122
 20
2.248986934055441
 10
-2.354710563360627
 20
2.249925643972231
 10
-2.354166666666969
 20
2.249999999999959
  0
ELLIPSE
  5
E5
330
C2
100
AcDbEntity
  8
AM_9
100
AcDbEllipse
 10
-2.624999999999998
 20
0.9540748131550199
 30
0.0
 11
0.2633000000000019
 21
0.0
 31
0.0
210
0.0
220
0.0
230
1.0
 40
0.906307787036649
 41
2.408412264504343
 42
6.283185307179586
  0
LINE
  5
E6
330
C2
100
AcDbEntity
  8
AM_9
100
AcDbLine
 10
-2.3617
 20
0.9540748131550203
 30
0.0
 11
-2.3617
 21
1.273475608103249
 31
0.0
  0
LINE
  5
E7
330
C2
100
AcDbEntity
  8
AM_9
100
AcDbLine
 10
-2.8883
 20
1.273475608103249
 30
0.0
 11
-2.8883
 21
0.9540748131550203
 31
0.0
  0
ELLIPSE
  5
E8
330
C2
100
AcDbEntity
  8
AM_9
100
AcDbEllipse
 10
-2.625000000000002
 20
0.95407481315502
 30
0.0
 11
0.2633000000000019
 21
0.0
 31
0.0
210
0.0
220
0.0
230
1.0
 40
0.9063077870366496
 41
0.0
 42
0.7331803890854507
  0
LINE
  5
E9
330
C2
100
AcDbEntity
  8
AM_9
100
AcDbLine
 10
-2.25
 20
-3.0625
 30
0.0
 11
-2.125
 21
-3.0625
 31
0.0
  0
LINE
  5
EA
330
C2
100
AcDbEntity
  8
AM_9
100
AcDbLine
 10
-2.125
 20
3.0625
 30
0.0
 11
-2.25
 21
3.0625
 31
0.0
  0
LINE
  5
EB
330
C2
100
AcDbEntity
  8
AM_9
100
AcDbLine
 10
-2.125
 20
3.0625
 30
0.0
 11
-2.125
 21
-3.0625
 31
0.0
  0
LINE
  5
EC
330
C2
100
AcDbEntity
  8
AM_5
100
AcDbLine
 10
-2.9375
 20
3.0625
 30
0.0
 11
-2.9375
 21
2.25
 31
0.0
  0
LINE
  5
ED
330
C2
100
AcDbEntity
  8
AM_5
100
AcDbLine
 10
-2.3125
 20
3.0625
 30
0.0
 11
-2.3125
 21
2.25
 31
0.0
  0
ELLIPSE
  5
EE
330
C2
100
AcDbEntity
  8
AM_4
100
AcDbEllipse
 10
-2.625
 20
0.9540748131550193
 30
0.0
 11
0.2633000000000005
 21
0.0
 31
0.0
210
0.0
220
0.0
230
1.0
 40
0.9063077870366507
 41
1.570796326794897
 42
2.408412264504336
  0
ELLIPSE
  5
EF
330
C2
100
AcDbEntity
  8
AM_4
100
AcDbEllipse
 10
-2.625
 20
0.9540748131550193
 30
0.0
 11
0.2633000000000005
 21
0.0
 31
0.0
210
0.0
220
0.0
230
1.0
 40
0.9063077870366516
 41
0.7331803890854545
 42
1.570796326794897
  0
LINE
  5
F0
330
C2
100
AcDbEntity
  8
AM_4
100
AcDbLine
 10
-3.125
 20
2.895833333333333
 30
0.0
 11
-3.125
 21
-2.895833333333333
 31
0.0
  0
ARC
  5
F1
330
C2
100
AcDbEntity
  8
AM_4
100
AcDbCircle
 10
-2.958333333333333
 20
-2.895833333333333
 30
0.0
 40
0.1666666666666674
100
AcDbArc
 50
180.0
 51
270.0
  0
ARC
  5
F2
330
C2
100
AcDbEntity
  8
AM_4
100
AcDbCircle
 10
-2.958333333333333
 20
2.895833333333333
 30
0.0
 40
0.1666666666666674
100
AcDbArc
 50
90.0
 51
180.0
  0
LWPOLYLINE
  5
F3
330
C2
100
AcDbEntity
  8
AM_4
100
AcDbPolyline
 90
       38
 70
     0
 43
0.0
 10
-2.386669224223005
 20
1.117134448123157
 10
-2.419324124323393
 20
1.087585064665388
 10
-2.456249300311386
 20
1.0626952056183
 10
-2.502728121440681
 20
1.040612789425983
 10
-2.552392895672697
 20
1.025812289236124
 10
-2.605765715781386
 20
1.01863979004798
 10
-2.659664745061727
 20
1.019821053414429
 10
-2.713447471209891
 20
1.029663220791344
 10
-2.764707014395128
 20
1.047843778614473
 10
-2.811575755604573
 20
1.073798436903541
 10
-2.852977054622231
 20
1.106795106068807
 10
-2.886480688049366
 20
1.144711120729017
 10
-2.912334954168392
 20
1.187237142326993
 10
-2.928801648034093
 20
1.230854512730279
 10
-2.936793940430575
 20
1.276115161524302
 10
-2.936066908349553
 20
1.319724556296899
 10
-2.927284698360943
 20
1.362296344456282
 10
-2.910854155132226
 20
1.402238134251223
 10
-2.887397751366645
 20
1.439025734648666
 10
-2.85670269498981
 20
1.472588734701264
 10
-2.820324030547974
 20
1.501254431591668
 10
-2.777237509533978
 20
1.525351194563044
 10
-2.730266433147623
 20
1.543068849156442
 10
-2.678498866304247
 20
1.554343684277105
 10
-2.625291056265331
 20
1.558180005571719
 10
-2.570845484767137
 20
1.554246667393414
 10
-2.517926403221255
 20
1.542528014786452
 10
-2.468053092116228
 20
1.523115579517615
 10
-2.422748950221814
 20
1.496488023177302
 10
-2.384374815552091
 20
1.463931133354641
 10
-2.353075900607327
 20
1.42575921839867
 10
-2.330961778577955
 20
1.384836968316625
 10
-2.317216726338115
 20
1.340783922017594
 10
-2.312550753690212
 20
1.297038560531353
 10
-2.316171210940321
 20
1.252891921828291
 10
-2.327720709455908
 20
1.210587598458019
 10
-2.346663868003402
 20
1.170321621124607
 10
-2.386669224151817
 20
1.117134448017203
  0
LINE
  5
F4
330
C2
100
AcDbEntity
  8
AM_4
100
AcDbLine
 10
-2.958333333333333
 20
-3.0625
 30
0.0
 11
-2.25
 21
-3.0625
 31
0.0
  0
LINE
  5
F5
330
C2
100
AcDbEntity
  8
AM_4
100
AcDbLine
 10
-2.25
 20
3.0625
 30
0.0
 11
-2.3125
 21
3.0625
 31
0.0
  0
LINE
  5
F6
330
C2
100
AcDbEntity
  8
AM_4
100
AcDbLine
 10
-2.9375
 20
3.0625
 30
0.0
 11
-2.958333333333333
 21
3.0625
 31
0.0
  0
LINE
  5
F7
330
C2
100
AcDbEntity
  8
AM_4
100
AcDbLine
 10
-2.958333333333333
 20
3.0625
 30
0.0
 11
-2.958333333333333
 21
-3.0625
 31
0.0
  0
LWPOLYLINE
  5
F8
330
C2
100
AcDbEntity
  8
AM_4
100
AcDbPolyline
 90
       20
 70
     0
 43
0.0
 10
-2.312500000000035
 20
3.062499999999996
 10
-2.316364188673969
 20
3.062144379422354
 10
-2.327863685547852
 20
3.061111834868346
 10
-2.347225504573121
 20
3.05946058432806
 10
-2.373253700854286
 20
3.057413808956281
 10
-2.406235021022639
 20
3.055106301105225
 10
-2.445215298746451
 20
3.052793012979376
 10
-2.489824193208893
 20
3.050698175200657
 10
-2.538757032163892
 20
3.049080956749281
 10
-2.591344420951939
 20
3.048139107785282
 10
-2.644943905495578
 20
3.048029289846178
 10
-2.699496661741504
 20
3.048798972787746
 10
-2.750834228741049
 20
3.050334370077038
 10
-2.799989448102393
 20
3.052539501315421
 10
-2.841976268288858
 20
3.054990320061481
 10
-2.878748219438782
 20
3.05756417542814
 10
-2.905846642915295
 20
3.059715270726301
 10
-2.925501483050373
 20
3.061410002240777
 10
-2.935438087309889
 20
3.06230970127784
 10
-2.937499999999877
 20
3.062499999999988
  0
ELLIPSE
  5
F9
330
C2
100
AcDbEntity
  8
AM_4
100
AcDbEllipse
 10
-2.625
 20
1.273475608103249
 30
0.0
 11
0.2633000000000001
 21
0.0
 31
0.0
210
0.0
220
0.0
230
1.0
 40
0.9063077870366502
 41
0.0
 42
6.283185307179586
  0
ENDBLK
  5
C5
330
C2
100
AcDbEntity
  8
0
100
AcDbBlockEnd
  0
BLOCK
  5
FC
330
FA
100
AcDbEntity
  8
0
100
AcDbBlockBegin
  2
4_405015E_Inch_0_in_023530_2
 70
     2
 10
0.0
 20
0.0
 30
0.0
  3
4_405015E_Inch_0_in_023530_2
  1

  0
ATTDEF
  5
FE
330
FA
100
AcDbEntity
  8
AM_6
100
AcDbText
 10
5.252590742770462
 20
5.159999999999999
 30
0.0
 40
0.5
  1
405015E -Inch
100
AcDbAttributeDefinition
  3

  2
NN
 70
     8
280
     0
  0
ATTDEF
  5
FF
330
FA
100
AcDbEntity
  8
AM_6
100
AcDbText
 10
5.252590742770462
 20
4.659999999999999
 30
0.0
 40
0.5
  1
Grease Fitting
100
AcDbAttributeDefinition
  3

  2
NT
 70
     8
280
     0
  0
ATTDEF
  5
100
330
FA
100
AcDbEntity
  8
AM_6
100
AcDbText
 10
5.252590742770462
 20
4.159999999999999
 30
0.0
 40
0.5
  1
405015E-Inch
100
AcDbAttributeDefinition
  3

  2
NB
 70
     8
280
     0
  0
ATTDEF
  5
101
330
FA
100
AcDbEntity
  8
AM_6
100
AcDbText
 10
5.252590742770462
 20
3.659999999999999
 30
0.0
 40
0.5
  1
$MN.-Inch
100
AcDbAttributeDefinition
  3

  2
NBSYN
 70
     8
280
     0
  0
ATTDEF
  5
102
330
FA
100
AcDbEntity
  8
AM_6
100
AcDbText
 10
5.252590742770462
 20
3.159999999999999
 30
0.0
 40
0.5
  1
405015E
100
AcDbAttributeDefinition
  3

  2
LINA
 70
     8
280
     0
  0
ATTDEF
  5
103
330
FA
100
AcDbEntity
  8
AM_6
100
AcDbText
 10
5.252590742770462
 20
2.659999999999999
 30
0.0
 40
0.5
  1
405015E
100
AcDbAttributeDefinition
  3

  2
MN
 70
     8
280
     0
  0
ATTDEF
  5
104
330
FA
100
AcDbEntity
  8
AM_6
100
AcDbText
 10
5.252590742770462
 20
2.159999999999999
 30
0.0
 40
0.5
  1
1/8 x 27PTF
100
AcDbAttributeDefinition
  3

  2
T
 70
     8
280
     0
  0
ATTDEF
  5
105
330
FA
100
AcDbEntity
  8
AM_6
100
AcDbText
 10
5.252590742770462
 20
1.659999999999999
 30
0.0
 40
0.5
  1
baldor
100
AcDbAttributeDefinition
  3

  2
COMPANY
 70
     8
280
     0
  0
LINE
  5
106
330
FA
100
AcDbEntity
  8
AM_9
100
AcDbLine
 10
-0.161902872472269
 20
4.52
 30
0.0
 11
0.161902872472269
 21
4.52
 31
0.0
  0
LINE
  5
107
330
FA
100
AcDbEntity
  8
AM_9
100
AcDbLine
 10
0.161902872472269
 20
4.52
 30
0.0
 11
0.1986176267812154
 21
4.556714754308946
 31
0.0
  0
LINE
  5
108
330
FA
100
AcDbEntity
  8
AM_9
100
AcDbLine
 10
-0.1986176267812154
 20
4.556714754308946
 30
0.0
 11
-0.161902872472269
 21
4.52
 31
0.0
  0
LINE
  5
109
330
FA
100
AcDbEntity
  8
AM_9
100
AcDbLine
 10
-0.1986176267812154
 20
4.556714754308946
 30
0.0
 11
0.1986176267812154
 21
4.556714754308946
 31
0.0
  0
LINE
  5
10A
330
FA
100
AcDbEntity
  8
AM_9
100
AcDbLine
 10
0.1986176267812154
 20
4.556714754308946
 30
0.0
 11
0.2057518972230696
 21
4.785
 31
0.0
  0
LINE
  5
10B
330
FA
100
AcDbEntity
  8
AM_9
100
AcDbLine
 10
-0.2057518972230696
 20
4.785
 30
0.0
 11
-0.1986176267812154
 21
4.556714754308946
 31
0.0
  0
LINE
  5
10C
330
FA
100
AcDbEntity
  8
AM_5
100
AcDbLine
 10
0.1681491248523479
 20
4.719870087748463
 30
0.0
 11
0.161902872472269
 21
4.52
 31
0.0
  0
LINE
  5
10D
330
FA
100
AcDbEntity
  8
AM_5
100
AcDbLine
 10
0.2057518972230696
 20
4.785
 30
0.0
 11
0.1681491248523479
 21
4.719870087748463
 31
0.0
  0
LINE
  5
10E
330
FA
100
AcDbEntity
  8
AM_5
100
AcDbLine
 10
-0.2037164857515568
 20
4.719870087748463
 30
0.0
 11
0.2037164857515568
 21
4.719870087748463
 31
0.0
  0
LINE
  5
10F
330
FA
100
AcDbEntity
  8
AM_5
100
AcDbLine
 10
-0.1681491248523479
 20
4.719870087748463
 30
0.0
 11
-0.161902872472269
 21
4.52
 31
0.0
  0
LINE
  5
110
330
FA
100
AcDbEntity
  8
AM_5
100
AcDbLine
 10
-0.2057518972230696
 20
4.785
 30
0.0
 11
-0.1681491248523479
 21
4.719870087748463
 31
0.0
  0
LINE
  5
111
330
FA
100
AcDbEntity
  8
AM_4
100
AcDbLine
 10
0.105
 20
4.99
 30
0.0
 11
0.105
 21
5.02
 31
0.0
  0
LINE
  5
112
330
FA
100
AcDbEntity
  8
AM_4
100
AcDbLine
 10
-0.105
 20
5.02
 30
0.0
 11
-0.105
 21
4.99
 31
0.0
  0
LINE
  5
113
330
FA
100
AcDbEntity
  8
AM_4
100
AcDbLine
 10
-0.21875
 20
4.885
 30
0.0
 11
0.21875
 21
4.885
 31
0.0
  0
LINE
  5
114
330
FA
100
AcDbEntity
  8
AM_4
100
AcDbLine
 10
0.2525907427704612
 20
4.875932400303386
 30
0.0
 11
0.21875
 21
4.885
 31
0.0
  0
LINE
  5
115
330
FA
100
AcDbEntity
  8
AM_4
100
AcDbLine
 10
-0.21875
 20
4.885
 30
0.0
 11
-0.2525907427704612
 21
4.875932400303386
 31
0.0
  0
LINE
  5
116
330
FA
100
AcDbEntity
  8
AM_4
100
AcDbLine
 10
0.21875
 20
4.785
 30
0.0
 11
0.2525907427704612
 21
4.794067599696614
 31
0.0
  0
LINE
  5
117
330
FA
100
AcDbEntity
  8
AM_4
100
AcDbLine
 10
-0.2525907427704612
 20
4.794067599696614
 30
0.0
 11
-0.21875
 21
4.785
 31
0.0
  0
LINE
  5
118
330
FA
100
AcDbEntity
  8
AM_4
100
AcDbLine
 10
-0.105
 20
4.99
 30
0.0
 11
0.105
 21
4.99
 31
0.0
  0
LINE
  5
119
330
FA
100
AcDbEntity
  8
AM_4
100
AcDbLine
 10
-0.105
 20
4.99
 30
0.0
 11
-0.1188200907348975
 21
4.957753121618572
 31
0.0
  0
LINE
  5
11A
330
FA
100
AcDbEntity
  8
AM_4
100
AcDbLine
 10
0.1188200907348975
 20
4.957753121618572
 30
0.0
 11
0.105
 21
4.99
 31
0.0
  0
LINE
  5
11B
330
FA
100
AcDbEntity
  8
AM_4
100
AcDbLine
 10
-0.105
 20
5.02
 30
0.0
 11
0.105
 21
5.02
 31
0.0
  0
LINE
  5
11C
330
FA
100
AcDbEntity
  8
AM_4
100
AcDbLine
 10
0.105
 20
5.02
 30
0.0
 11
0.135
 21
5.079999999999999
 31
0.0
  0
LINE
  5
11D
330
FA
100
AcDbEntity
  8
AM_4
100
AcDbLine
 10
-0.135
 20
5.079999999999999
 30
0.0
 11
-0.105
 21
5.02
 31
0.0
  0
LINE
  5
11E
330
FA
100
AcDbEntity
  8
AM_4
100
AcDbLine
 10
-0.1026779019331875
 20
5.159999999999999
 30
0.0
 11
0.1026779019331875
 21
5.159999999999999
 31
0.0
  0
LINE
  5
11F
330
FA
100
AcDbEntity
  8
AM_4
100
AcDbLine
 10
-0.135
 20
5.079999999999999
 30
0.0
 11
0.135
 21
5.079999999999999
 31
0.0
  0
LINE
  5
120
330
FA
100
AcDbEntity
  8
AM_4
100
AcDbLine
 10
-0.1026779019331875
 20
5.159999999999999
 30
0.0
 11
-0.135
 21
5.079999999999999
 31
0.0
  0
LINE
  5
121
330
FA
100
AcDbEntity
  8
AM_4
100
AcDbLine
 10
0.135
 20
5.079999999999999
 30
0.0
 11
0.1026779019331875
 21
5.159999999999999
 31
0.0
  0
LINE
  5
122
330
FA
100
AcDbEntity
  8
AM_4
100
AcDbLine
 10
-0.1188200907348975
 20
4.957753121618572
 30
0.0
 11
0.1188200907348975
 21
4.957753121618572
 31
0.0
  0
LINE
  5
123
330
FA
100
AcDbEntity
  8
AM_4
100
AcDbLine
 10
-0.1188200907348975
 20
4.957753121618572
 30
0.0
 11
-0.1725340532830154
 21
4.903318198540882
 31
0.0
  0
LINE
  5
124
330
FA
100
AcDbEntity
  8
AM_4
100
AcDbLine
 10
0.1725340532830154
 20
4.903318198540882
 30
0.0
 11
0.1188200907348975
 21
4.957753121618572
 31
0.0
  0
LINE
  5
125
330
FA
100
AcDbEntity
  8
AM_4
100
AcDbLine
 10
-0.1725340532830154
 20
4.903318198540882
 30
0.0
 11
0.1725340532830154
 21
4.903318198540882
 31
0.0
  0
LINE
  5
126
330
FA
100
AcDbEntity
  8
AM_4
100
AcDbLine
 10
-0.1725340532830154
 20
4.903318198540882
 30
0.0
 11
-0.21375
 21
4.885
 31
0.0
  0
LINE
  5
127
330
FA
100
AcDbEntity
  8
AM_4
100
AcDbLine
 10
0.21375
 20
4.885
 30
0.0
 11
0.1725340532830154
 21
4.903318198540882
 31
0.0
  0
LWPOLYLINE
  5
128
330
FA
100
AcDbEntity
  8
AM_4
100
AcDbPolyline
 90
        4
 70
     0
 43
0.0
 10
-0.1894430570778459
 20
4.885
 10
-0.1736561356546922
 20
4.884392585996001
 10
-0.1578502110457927
 20
4.882603793958984
 10
-0.1262953713852306
 20
4.875932400303386
  0
LWPOLYLINE
  5
129
330
FA
100
AcDbEntity
  8
AM_4
100
AcDbPolyline
 90
        4
 70
     0
 43
0.0
 10
-0.2525907427704612
 20
4.875932400303386
 10
-0.2211429167713369
 20
4.882587854654039
 10
-0.2053230756021531
 20
4.884385438185772
 10
-0.1894430570778459
 20
4.885
  0
LINE
  5
12A
330
FA
100
AcDbEntity
  8
AM_4
100
AcDbLine
 10
-0.2525907427704612
 20
4.875932400303386
 30
0.0
 11
-0.2525907427704612
 21
4.794067599696614
 31
0.0
  0
LWPOLYLINE
  5
12B
330
FA
100
AcDbEntity
  8
AM_4
100
AcDbPolyline
 90
        4
 70
     0
 43
0.0
 10
-0.1894430570778459
 20
4.785
 10
-0.2052299785009998
 20
4.785607414003999
 10
-0.2210168999241536
 20
4.787393380785034
 10
-0.2525907427704612
 20
4.794067599696614
  0
LWPOLYLINE
  5
12C
330
FA
100
AcDbEntity
  8
AM_4
100
AcDbPolyline
 90
        5
 70
     0
 43
0.0
 10
-0.1262953713852306
 20
4.875932400303386
 10
-0.0949251544150459
 20
4.879719184458392
 10
-0.0634316146914367
 20
4.88258547505038
 10
-0.0317600370486143
 20
4.884385438185772
 10
0.0
 20
4.885
  0
LINE
  5
12D
330
FA
100
AcDbEntity
  8
AM_4
100
AcDbLine
 10
-0.1262953713852306
 20
4.875932400303386
 30
0.0
 11
-0.1262953713852306
 21
4.794067599696614
 31
0.0
  0
LINE
  5
12E
330
FA
100
AcDbEntity
  8
AM_4
100
AcDbLine
 10
0.2525907427704612
 20
4.875932400303386
 30
0.0
 11
0.2525907427704612
 21
4.794067599696614
 31
0.0
  0
LWPOLYLINE
  5
12F
330
FA
100
AcDbEntity
  8
AM_4
100
AcDbPolyline
 90
        4
 70
     0
 43
0.0
 10
0.1894430570778459
 20
4.885
 10
0.2052299785009998
 20
4.884392585996001
 10
0.2210359031098993
 20
4.882603793958984
 10
0.2525907427704612
 20
4.875932400303386
  0
LINE
  5
130
330
FA
100
AcDbEntity
  8
AM_4
100
AcDbLine
 10
0.1262953713852306
 20
4.875932400303386
 30
0.0
 11
0.1262953713852306
 21
4.794067599696614
 31
0.0
  0
LWPOLYLINE
  5
131
330
FA
100
AcDbEntity
  8
AM_4
100
AcDbPolyline
 90
        4
 70
     0
 43
0.0
 10
0.2525907427704612
 20
4.794067599696614
 10
0.229031912716827
 20
4.788721412808831
 10
0.205323075602153
 20
4.785614561814227
 10
0.1894430570778459
 20
4.785
  0
LWPOLYLINE
  5
132
330
FA
100
AcDbEntity
  8
AM_4
100
AcDbPolyline
 90
        4
 70
     0
 43
0.0
 10
0.1894430570778459
 20
4.785
 10
0.1736561356546921
 20
4.785607414003999
 10
0.1578692142315383
 20
4.787393380785034
 10
0.1262953713852306
 20
4.794067599696614
  0
LWPOLYLINE
  5
133
330
FA
100
AcDbEntity
  8
AM_4
100
AcDbPolyline
 90
        4
 70
     0
 43
0.0
 10
0.1262953713852306
 20
4.794067599696614
 10
0.0967996321117978
 20
4.790482412517844
 10
0.0485424412477544
 20
4.786425828243072
 10
0.0
 20
4.785
  0
LWPOLYLINE
  5
134
330
FA
100
AcDbEntity
  8
AM_4
100
AcDbPolyline
 90
        4
 70
     0
 43
0.0
 10
0.0
 20
4.885
 10
0.0483998160558989
 20
4.883582439282862
 10
0.0967996321117978
 20
4.879517587482156
 10
0.1262953713852306
 20
4.875932400303386
  0
LWPOLYLINE
  5
135
330
FA
100
AcDbEntity
  8
AM_4
100
AcDbPolyline
 90
        4
 70
     0
 43
0.0
 10
0.1262953713852306
 20
4.875932400303386
 10
0.1498542014388649
 20
4.881278587191169
 10
0.1735630385535388
 20
4.884385438185772
 10
0.1894430570778459
 20
4.885
  0
LWPOLYLINE
  5
136
330
FA
100
AcDbEntity
  8
AM_4
100
AcDbPolyline
 90
        5
 70
     0
 43
0.0
 10
0.0
 20
4.785
 10
-0.0315738428463077
 20
4.785607414003999
 10
-0.0631476856926153
 20
4.787393380785034
 10
-0.094756284056983
 20
4.790262816495164
 10
-0.1262953713852306
 20
4.794067599696614
  0
LWPOLYLINE
  5
137
330
FA
100
AcDbEntity
  8
AM_4
100
AcDbPolyline
 90
        4
 70
     0
 43
0.0
 10
-0.1262953713852306
 20
4.794067599696614
 10
-0.1498542014388649
 20
4.788721412808831
 10
-0.1735630385535388
 20
4.785614561814227
 10
-0.1894430570778459
 20
4.785
  0
ENDBLK
  5
FD
330
FA
100
AcDbEntity
  8
0
100
AcDbBlockEnd
  0
BLOCK
  5
13A
330
138
100
AcDbEntity
  8
0
100
AcDbBlockBegin
  2
5_023530_Insert_0_in_023530_2
 70
     2
 10
0.0
 20
0.0
 30
0.0
  3
5_023530_Insert_0_in_023530_2
  1

  0
ATTDEF
  5
13C
330
138
100
AcDbEntity
  8
AM_6
100
AcDbText
 10
8.437499999999998
 20
5.191999999999999
 30
0.0
 40
0.5
  1
S-1 Unit -Insert -Inch
100
AcDbAttributeDefinition
  3

  2
NN
 70
     8
280
     0
  0
ATTDEF
  5
13D
330
138
100
AcDbEntity
  8
AM_6
100
AcDbText
 10
8.437499999999998
 20
4.691999999999999
 30
0.0
 40
0.5
  1
Double-Interlock Bearings
100
AcDbAttributeDefinition
  3

  2
NT
 70
     8
280
     0
  0
ATTDEF
  5
13E
330
138
100
AcDbEntity
  8
AM_6
100
AcDbText
 10
8.437499999999998
 20
4.191999999999999
 30
0.0
 40
0.5
  1
023530-Insert
100
AcDbAttributeDefinition
  3

  2
NB
 70
     8
280
     0
  0
ATTDEF
  5
13F
330
138
100
AcDbEntity
  8
AM_6
100
AcDbText
 10
8.437499999999998
 20
3.691999999999999
 30
0.0
 40
0.5
  1
$PN.-Insert
100
AcDbAttributeDefinition
  3

  2
NBSYN
 70
     8
280
     0
  0
ATTDEF
  5
140
330
138
100
AcDbEntity
  8
AM_6
100
AcDbText
 10
8.437499999999998
 20
3.191999999999999
 30
0.0
 40
0.5
  1
023530-Insert
100
AcDbAttributeDefinition
  3

  2
LINA
 70
     8
280
     0
  0
ATTDEF
  5
141
330
138
100
AcDbEntity
  8
AM_6
100
AcDbText
 10
8.437499999999998
 20
2.691999999999999
 30
0.0
 40
0.5
  1
3-15/16
100
AcDbAttributeDefinition
  3

  2
SS
 70
     8
280
     0
  0
ATTDEF
  5
142
330
138
100
AcDbEntity
  8
AM_6
100
AcDbText
 10
8.437499999999998
 20
2.191999999999999
 30
0.0
 40
0.5
  1
023530
100
AcDbAttributeDefinition
  3

  2
PN
 70
     8
280
     0
  0
ATTDEF
  5
143
330
138
100
AcDbEntity
  8
AM_6
100
AcDbText
 10
8.437499999999998
 20
1.691999999999999
 30
0.0
 40
0.5
  1
S1U-DI-315R
100
AcDbAttributeDefinition
  3

  2
DESCRIPTION
 70
     8
280
     0
  0
ATTDEF
  5
144
330
138
100
AcDbEntity
  8
AM_6
100
AcDbText
 10
8.437499999999998
 20
1.191999999999999
 30
0.0
 40
0.5
  1
6-1/4
100
AcDbAttributeDefinition
  3

  2
A
 70
     8
280
     0
  0
ATTDEF
  5
145
330
138
100
AcDbEntity
  8
AM_6
100
AcDbText
 10
8.437499999999998
 20
0.6919999999999993
 30
0.0
 40
0.5
  1
4-1/2
100
AcDbAttributeDefinition
  3

  2
B
 70
     8
280
     0
  0
ATTDEF
  5
146
330
138
100
AcDbEntity
  8
AM_6
100
AcDbText
 10
8.437499999999998
 20
0.1919999999999993
 30
0.0
 40
0.5
  1
2-3/8
100
AcDbAttributeDefinition
  3

  2
C
 70
     8
280
     0
  0
ATTDEF
  5
147
330
138
100
AcDbEntity
  8
AM_6
100
AcDbText
 10
8.437499999999998
 20
-0.3080000000000007
 30
0.0
 40
0.5
  1
7.438
100
AcDbAttributeDefinition
  3

  2
EM
 70
     8
280
     0
  0
ATTDEF
  5
148
330
138
100
AcDbEntity
  8
AM_6
100
AcDbText
 10
8.437499999999998
 20
-0.8080000000000007
 30
0.0
 40
0.5
  1
7-9/16
100
AcDbAttributeDefinition
  3

  2
EC
 70
     8
280
     0
  0
ATTDEF
  5
149
330
138
100
AcDbEntity
  8
AM_6
100
AcDbText
 10
8.437499999999998
 20
-1.308000000000001
 30
0.0
 40
0.5
  1
15/16
100
AcDbAttributeDefinition
  3

  2
H
 70
     8
280
     0
  0
ATTDEF
  5
14A
330
138
100
AcDbEntity
  8
AM_6
100
AcDbText
 10
8.437499999999998
 20
-1.808000000000001
 30
0.0
 40
0.5
  1
7.997
100
AcDbAttributeDefinition
  3

  2
K
 70
     8
280
     0
  0
ATTDEF
  5
14B
330
138
100
AcDbEntity
  8
AM_6
100
AcDbText
 10
8.437499999999998
 20
-2.308000000000001
 30
0.0
 40
0.5
  1
+0.000 to -0.003
100
AcDbAttributeDefinition
  3

  2
TOL
 70
     8
280
     0
  0
ATTDEF
  5
14C
330
138
100
AcDbEntity
  8
AM_6
100
AcDbText
 10
8.437499999999998
 20
-2.808000000000001
 30
0.0
 40
0.5
  1
6
100
AcDbAttributeDefinition
  3

  2
L
 70
     8
280
     0
  0
ATTDEF
  5
14D
330
138
100
AcDbEntity
  8
AM_6
100
AcDbText
 10
8.437499999999998
 20
-3.308000000000001
 30
0.0
 40
0.5
  1
5.16
100
AcDbAttributeDefinition
  3

  2
M
 70
     8
280
     0
  0
ATTDEF
  5
14E
330
138
100
AcDbEntity
  8
AM_6
100
AcDbText
 10
8.437499999999998
 20
-3.808000000000001
 30
0.0
 40
0.5
  1
baldor
100
AcDbAttributeDefinition
  3

  2
COMPANY
 70
     8
280
     0
  0
LINE
  5
14F
330
138
100
AcDbEntity
  8
AM_9
100
AcDbLine
 10
2.295
 20
2.25
 30
0.0
 11
2.295
 21
1.96875
 31
0.0
  0
LINE
  5
150
330
138
100
AcDbEntity
  8
AM_9
100
AcDbLine
 10
2.955
 20
1.96875
 30
0.0
 11
2.955
 21
2.25
 31
0.0
  0
LINE
  5
151
330
138
100
AcDbEntity
  8
AM_9
100
AcDbLine
 10
-2.955
 20
2.25
 30
0.0
 11
-2.955
 21
1.96875
 31
0.0
  0
LINE
  5
152
330
138
100
AcDbEntity
  8
AM_9
100
AcDbLine
 10
-2.295
 20
1.96875
 30
0.0
 11
-2.295
 21
2.25
 31
0.0
  0
LINE
  5
153
330
138
100
AcDbEntity
  8
AM_9
100
AcDbLine
 10
-3.125
 20
-1.96875
 30
0.0
 11
3.124999999999999
 21
-1.96875
 31
0.0
  0
LINE
  5
154
330
138
100
AcDbEntity
  8
AM_9
100
AcDbLine
 10
3.124999999999999
 20
1.96875
 30
0.0
 11
2.955
 21
1.96875
 31
0.0
  0
LINE
  5
155
330
138
100
AcDbEntity
  8
AM_9
100
AcDbLine
 10
2.294999999999999
 20
1.96875
 30
0.0
 11
-2.294999999999999
 21
1.96875
 31
0.0
  0
LINE
  5
156
330
138
100
AcDbEntity
  8
AM_9
100
AcDbLine
 10
-2.955000000000001
 20
1.96875
 30
0.0
 11
-3.125
 21
1.96875
 31
0.0
  0
LWPOLYLINE
  5
157
330
138
100
AcDbEntity
  8
AM_9
100
AcDbPolyline
 90
       20
 70
     0
 43
0.0
 10
2.295000000001291
 20
1.968749999999784
 10
2.295350712346058
 20
1.968691244291687
 10
2.302667640560384
 20
1.967479278783365
 10
2.318532034951044
 20
1.96494253760797
 10
2.343384751091952
 20
1.961219954752027
 10
2.375482732179927
 20
1.95686878186566
 10
2.415546681433714
 20
1.952164761273605
 10
2.460782693684619
 20
1.947830558902257
 10
2.51214263012469
 20
1.944174207326898
 10
2.565056605467605
 20
1.94182125156979
 10
2.621306833183247
 20
1.94089932814176
 10
2.675379086262118
 20
1.941549539628749
 10
2.729558148875664
 20
1.943710104155531
 10
2.779265614313307
 20
1.947016805849262
 10
2.826005868384617
 20
1.951276485182214
 10
2.86642852922246
 20
1.955853853748413
 10
2.901102824867755
 20
1.960436005688519
 10
2.927296139844854
 20
1.964296189138771
 10
2.945493312426807
 20
1.967178824054973
 10
2.955
 20
1.96875
  0
LWPOLYLINE
  5
158
330
138
100
AcDbEntity
  8
AM_9
100
AcDbPolyline
 90
       20
 70
     0
 43
0.0
 10
-2.95499999999871
 20
1.968749999999784
 10
-2.954649287653942
 20
1.968691244291687
 10
-2.947332359439616
 20
1.967479278783365
 10
-2.931467965048956
 20
1.96494253760797
 10
-2.906615248908048
 20
1.961219954752027
 10
-2.874517267820074
 20
1.95686878186566
 10
-2.834453318566286
 20
1.952164761273605
 10
-2.789217306315381
 20
1.947830558902257
 10
-2.73785736987531
 20
1.944174207326898
 10
-2.684943394532395
 20
1.94182125156979
 10
-2.628693166816753
 20
1.94089932814176
 10
-2.574620913737882
 20
1.941549539628749
 10
-2.520441851124336
 20
1.943710104155531
 10
-2.470734385686693
 20
1.947016805849262
 10
-2.423994131615383
 20
1.951276485182214
 10
-2.38357147077754
 20
1.955853853748413
 10
-2.348897175132245
 20
1.960436005688519
 10
-2.322703860155146
 20
1.964296189138771
 10
-2.304506687573193
 20
1.967178824054973
 10
-2.295
 20
1.96875
  0
LWPOLYLINE
  5
159
330
138
100
AcDbEntity
  8
AM_9
100
AcDbPolyline
 90
       11
 70
     0
 43
0.0
 10
2.625
 20
0.5211764455951712
 10
2.679179584802427
 20
0.5255544152180269
 10
2.733359169604854
 20
0.5390371906000321
 10
2.78297189194913
 20
0.5603836852326627
 10
2.829488858107481
 20
0.5900585050799416
 10
2.869433126271469
 20
0.6258056402363312
 10
2.90352581329157
 20
0.6682588273735796
 10
2.929061098880966
 20
0.7140328764411835
 10
2.946529345405549
 20
0.7641082926750179
 10
2.954378801531536
 20
0.813643243875486
 10
2.954999998928852
 20
0.8320056051992506
  0
LINE
  5
15A
330
138
100
AcDbEntity
  8
AM_9
100
AcDbLine
 10
2.295
 20
0.9508234954370164
 30
0.0
 11
2.295
 21
0.8320096942523668
 31
0.0
  0
LINE
  5
15B
330
138
100
AcDbEntity
  8
AM_9
100
AcDbLine
 10
2.955
 20
0.8319515540383142
 30
0.0
 11
2.955
 21
0.95088095001844
 31
0.0
  0
LWPOLYLINE
  5
15C
330
138
100
AcDbEntity
  8
AM_9
100
AcDbPolyline
 90
        4
 70
     0
 43
0.0
 10
2.301690093902551
 20
0.8914776459932274
 10
2.300493013690279
 20
0.8859860554330983
 10
2.295020961605815
 20
0.835399173746326
 10
2.295000000618594
 20
0.8320480153801278
  0
LWPOLYLINE
  5
15D
330
138
100
AcDbEntity
  8
AM_9
100
AcDbPolyline
 90
        5
 70
     0
 43
0.0
 10
2.37433920366494
 20
1.021597688754201
 10
2.370005979879419
 20
1.017151886070753
 10
2.338769676152205
 20
0.9779745622983953
 10
2.314901538483637
 20
0.9329534646349601
 10
2.301690093902551
 20
0.8914776459932274
  0
LWPOLYLINE
  5
15E
330
138
100
AcDbEntity
  8
AM_9
100
AcDbPolyline
 90
        4
 70
     0
 43
0.0
 10
2.466704133627262
 20
1.085408014846367
 10
2.452996131317593
 20
1.078714923345489
 10
2.409053252133066
 20
1.05147364220822
 10
2.37433920366494
 20
1.021597688754201
  0
LWPOLYLINE
  5
15F
330
138
100
AcDbEntity
  8
AM_9
100
AcDbPolyline
 90
        4
 70
     0
 43
0.0
 10
2.879588919426977
 20
1.017575659208567
 10
2.860632089668266
 20
1.035670246175773
 10
2.819120780630441
 20
1.066212572737275
 10
2.782821227540881
 20
1.085626443060644
  0
LWPOLYLINE
  5
160
330
138
100
AcDbEntity
  8
AM_9
100
AcDbPolyline
 90
        5
 70
     0
 43
0.0
 10
2.948477105648465
 20
0.890743363964494
 10
2.942747309350713
 20
0.9119184373469549
 10
2.923289625252019
 20
0.9578138179112344
 10
2.896145190318725
 20
0.9986968782398201
 10
2.879588919426977
 20
1.017575659208567
  0
LWPOLYLINE
  5
161
330
138
100
AcDbEntity
  8
AM_9
100
AcDbPolyline
 90
        3
 70
     0
 43
0.0
 10
2.954999998928852
 20
0.8320056051992506
 10
2.953031115391975
 20
0.8645125191401904
 10
2.948477105648465
 20
0.890743363964494
  0
LWPOLYLINE
  5
162
330
138
100
AcDbEntity
  8
AM_9
100
AcDbPolyline
 90
       10
 70
     0
 43
0.0
 10
2.295000000618594
 20
0.8320480153801278
 10
2.298866104244193
 20
0.7861107611503869
 10
2.312002181553412
 20
0.7360937982102903
 10
2.333284796960168
 20
0.6896460994870597
 10
2.363301944349407
 20
0.6454831633652016
 10
2.400048060769916
 20
0.6069236832393221
 10
2.444274127280297
 20
0.573563314560532
 10
2.492664241559321
 20
0.5481826745898326
 10
2.546378657779373
 20
0.5304612790554131
 10
2.625
 20
0.5211764455951712
  0
LWPOLYLINE
  5
163
330
138
100
AcDbEntity
  8
AM_9
100
AcDbPolyline
 90
        7
 70
     0
 43
0.0
 10
2.856000843790071
 20
1.159246999360857
 10
2.881154771020808
 20
1.135374453640431
 10
2.912488253196607
 20
1.095200640735685
 10
2.935690300290527
 20
1.050534773329088
 10
2.949925705937017
 20
1.002644890037913
 10
2.954993799701043
 20
0.9527240823420599
 10
2.954999999751507
 20
0.9509026955013133
  0
LWPOLYLINE
  5
164
330
138
100
AcDbEntity
  8
AM_9
100
AcDbPolyline
 90
       11
 70
     0
 43
0.0
 10
2.395005193494135
 20
1.160093130439875
 10
2.432491068944226
 20
1.187003759664208
 10
2.480250504355878
 20
1.211369544640846
 10
2.532241767732093
 20
1.228419383126994
 10
2.586903087696888
 20
1.237827779064613
 10
2.642163731775345
 20
1.239286300248901
 10
2.696936692657839
 20
1.232988271536408
 10
2.749395773312105
 20
1.219066562927685
 10
2.798387250180438
 20
1.197930277826203
 10
2.842811245917006
 20
1.169745602650391
 10
2.856000843790071
 20
1.159246999360857
  0
LWPOLYLINE
  5
165
330
138
100
AcDbEntity
  8
AM_9
100
AcDbPolyline
 90
        7
 70
     0
 43
0.0
 10
2.295000001194736
 20
0.9508656390812034
 10
2.297025960543156
 20
0.9838557987138687
 10
2.307683730652907
 20
1.032132419329275
 10
2.327085339110721
 20
1.077638087448723
 10
2.354902714177372
 20
1.119293738316906
 10
2.390189213533481
 20
1.155974339088606
 10
2.395005193494135
 20
1.160093130439875
  0
LWPOLYLINE
  5
166
330
138
100
AcDbEntity
  8
AM_9
100
AcDbPolyline
 90
       10
 70
     0
 43
0.0
 10
2.954999999751507
 20
0.9509026955013133
 10
2.950691369060479
 20
0.9026391610941978
 10
2.937369531395752
 20
0.8533773503322214
 10
2.915315534408016
 20
0.8064382935248676
 10
2.885269727561705
 20
0.76314735583973
 10
2.847597124884275
 20
0.7245467656363989
 10
2.80367327173102
 20
0.6921834139399324
 10
2.754377117972799
 20
0.6670944780324816
 10
2.701365063548396
 20
0.6501981840910688
 10
2.625
 20
0.6415265571449762
  0
LWPOLYLINE
  5
167
330
138
100
AcDbEntity
  8
AM_9
100
AcDbPolyline
 90
       11
 70
     0
 43
0.0
 10
-2.625
 20
0.5211764455951712
 10
-2.570820415197573
 20
0.5255544152180269
 10
-2.516640830395146
 20
0.5390371906000321
 10
-2.46702810805087
 20
0.5603836852326627
 10
-2.42051114189252
 20
0.5900585050799412
 10
-2.380566873728532
 20
0.6258056402363307
 10
-2.34647418670843
 20
0.6682588273735792
 10
-2.320938901119034
 20
0.7140328764411835
 10
-2.303470654594451
 20
0.7641082926750179
 10
-2.295621198468465
 20
0.8136432438754859
 10
-2.295000001071148
 20
0.8320056051992506
  0
LINE
  5
168
330
138
100
AcDbEntity
  8
AM_9
100
AcDbLine
 10
-2.955
 20
0.9508234954370164
 30
0.0
 11
-2.955
 21
0.8320096942523668
 31
0.0
  0
LINE
  5
169
330
138
100
AcDbEntity
  8
AM_9
100
AcDbLine
 10
-2.295
 20
0.8319515540383141
 30
0.0
 11
-2.295
 21
0.9508809500184399
 31
0.0
  0
LWPOLYLINE
  5
16A
330
138
100
AcDbEntity
  8
AM_9
100
AcDbPolyline
 90
        4
 70
     0
 43
0.0
 10
-2.948309906097449
 20
0.891477645993228
 10
-2.949506986309721
 20
0.8859860554330983
 10
-2.954979038394185
 20
0.8353991737463262
 10
-2.954999999381406
 20
0.8320480153801276
  0
LWPOLYLINE
  5
16B
330
138
100
AcDbEntity
  8
AM_9
100
AcDbPolyline
 90
        5
 70
     0
 43
0.0
 10
-2.875641287345737
 20
1.021617279520693
 10
-2.879994020120581
 20
1.017151886070753
 10
-2.911230323847795
 20
0.9779745622983954
 10
-2.935098461516363
 20
0.9329534646349602
 10
-2.948309906097449
 20
0.891477645993228
  0
LWPOLYLINE
  5
16C
330
138
100
AcDbEntity
  8
AM_9
100
AcDbPolyline
 90
        4
 70
     0
 43
0.0
 10
-2.785001507406192
 20
1.084615904822352
 10
-2.797003868682407
 20
1.078714923345489
 10
-2.840946747866934
 20
1.05147364220822
 10
-2.875641287345737
 20
1.021617279520693
  0
LWPOLYLINE
  5
16D
330
138
100
AcDbEntity
  8
AM_9
100
AcDbPolyline
 90
        4
 70
     0
 43
0.0
 10
-2.370752820025613
 20
1.017931816434871
 10
-2.389367910331734
 20
1.035670246175773
 10
-2.430879219369559
 20
1.066212572737275
 10
-2.466656339576797
 20
1.085385972059379
  0
LWPOLYLINE
  5
16E
330
138
100
AcDbEntity
  8
AM_9
100
AcDbPolyline
 90
        5
 70
     0
 43
0.0
 10
-2.301522894351535
 20
0.8907433639644939
 10
-2.307252690649287
 20
0.9119184373469549
 10
-2.326710374747981
 20
0.9578138179112344
 10
-2.353854809681275
 20
0.9986968782398199
 10
-2.370752820025613
 20
1.017931816434871
  0
LWPOLYLINE
  5
16F
330
138
100
AcDbEntity
  8
AM_9
100
AcDbPolyline
 90
        3
 70
     0
 43
0.0
 10
-2.295000001071148
 20
0.8320056051992506
 10
-2.296968884608024
 20
0.8645125191401904
 10
-2.301522894351535
 20
0.8907433639644939
  0
LWPOLYLINE
  5
170
330
138
100
AcDbEntity
  8
AM_9
100
AcDbPolyline
 90
       10
 70
     0
 43
0.0
 10
-2.954999999381406
 20
0.8320480153801276
 10
-2.951133895755807
 20
0.786110761150387
 10
-2.937997818446588
 20
0.7360937982102906
 10
-2.916715203039832
 20
0.6896460994870598
 10
-2.886698055650593
 20
0.6454831633652017
 10
-2.849951939230084
 20
0.6069236832393221
 10
-2.805725872719703
 20
0.5735633145605322
 10
-2.757335758440679
 20
0.5481826745898325
 10
-2.703621342220627
 20
0.5304612790554131
 10
-2.625
 20
0.5211764455951712
  0
LWPOLYLINE
  5
171
330
138
100
AcDbEntity
  8
AM_9
100
AcDbPolyline
 90
        7
 70
     0
 43
0.0
 10
-2.395164439259215
 20
1.160226388576215
 10
-2.368845228979192
 20
1.135374453640431
 10
-2.337511746803392
 20
1.095200640735685
 10
-2.314309699709472
 20
1.050534773329087
 10
-2.300074294062983
 20
1.002644890037912
 10
-2.295006200298957
 20
0.9527240823420596
 10
-2.295000000248493
 20
0.9509026955013135
  0
LWPOLYLINE
  5
172
330
138
100
AcDbEntity
  8
AM_9
100
AcDbPolyline
 90
       11
 70
     0
 43
0.0
 10
-2.854339115624369
 20
1.16064064020939
 10
-2.817508931055774
 20
1.187003759664208
 10
-2.769749495644122
 20
1.211369544640846
 10
-2.717758232267907
 20
1.228419383126994
 10
-2.663096912303112
 20
1.237827779064613
 10
-2.607836268224656
 20
1.239286300248901
 10
-2.553063307342161
 20
1.232988271536408
 10
-2.500604226687895
 20
1.219066562927685
 10
-2.451612749819562
 20
1.197930277826203
 10
-2.407188754082995
 20
1.169745602650391
 10
-2.395164439259215
 20
1.160226388576215
  0
LWPOLYLINE
  5
173
330
138
100
AcDbEntity
  8
AM_9
100
AcDbPolyline
 90
        7
 70
     0
 43
0.0
 10
-2.954999998805263
 20
0.9508656390812033
 10
-2.952974039456843
 20
0.9838557987138689
 10
-2.942316269347093
 20
1.032132419329275
 10
-2.922914660889279
 20
1.077638087448723
 10
-2.895097285822628
 20
1.119293738316906
 10
-2.859810786466519
 20
1.155974339088606
 10
-2.854339115624369
 20
1.16064064020939
  0
LWPOLYLINE
  5
174
330
138
100
AcDbEntity
  8
AM_9
100
AcDbPolyline
 90
       10
 70
     0
 43
0.0
 10
-2.295000000248493
 20
0.9509026955013135
 10
-2.299308630939521
 20
0.9026391610941976
 10
-2.312630468604248
 20
0.8533773503322214
 10
-2.334684465591986
 20
0.8064382935248676
 10
-2.364730272438295
 20
0.76314735583973
 10
-2.402402875115725
 20
0.7245467656363989
 10
-2.44632672826898
 20
0.6921834139399324
 10
-2.495622882027201
 20
0.6670944780324816
 10
-2.548634936451604
 20
0.6501981840910688
 10
-2.625
 20
0.6415265571449762
  0
LWPOLYLINE
  5
175
330
138
100
AcDbEntity
  8
AM_9
100
AcDbPolyline
 90
       20
 70
     0
 43
0.0
 10
2.955
 20
2.25
 10
2.950504287056606
 20
2.249345024866623
 10
2.936628245781599
 20
2.247378954152796
 10
2.914560534655912
 20
2.244425383751979
 10
2.883686153369501
 20
2.240651361980509
 10
2.846296944416248
 20
2.23664309571464
 10
2.801492681713192
 20
2.232655295091097
 10
2.752756256517078
 20
2.229332110987337
 10
2.698845290419666
 20
2.226893155703067
 10
2.644740543084137
 20
2.225755981468152
 10
2.588475560100185
 20
2.225968111790912
 10
2.535248654154962
 20
2.227477340868139
 10
2.48306933624708
 20
2.230189299883161
 10
2.436085341709681
 20
2.233671584659873
 10
2.393142874472839
 20
2.237712610380904
 10
2.357457222615977
 20
2.241691133437066
 10
2.328443632277634
 20
2.245338655801544
 10
2.308540849548163
 20
2.248053912588552
 10
2.297208146513488
 20
2.249677198891459
 10
2.295000000000684
 20
2.2499999999999
  0
LWPOLYLINE
  5
176
330
138
100
AcDbEntity
  8
AM_9
100
AcDbPolyline
 90
       11
 70
     0
 43
0.0
 10
2.625
 20
0.6415265571449762
 10
2.569937738785685
 20
0.6460418247264762
 10
2.516435654489237
 20
0.6592930070427678
 10
2.466056303705213
 20
0.6809344250376754
 10
2.420120522262447
 20
0.7101253979294719
 10
2.379703764001181
 20
0.7462817108212859
 10
2.34616699883927
 20
0.787997827272165
 10
2.320453933613878
 20
0.8342696352803076
 10
2.303370528947349
 20
0.8834438071145082
 10
2.295578437506997
 20
0.9336854096388378
 10
2.295000001194736
 20
0.9508656390812034
  0
LINE
  5
177
330
138
100
AcDbEntity
  8
AM_9
100
AcDbLine
 10
2.075
 20
-2.25
 30
0.0
 11
3.125
 21
-2.25
 31
0.0
  0
LINE
  5
178
330
138
100
AcDbEntity
  8
AM_9
100
AcDbLine
 10
3.125
 20
2.25
 30
0.0
 11
2.955
 21
2.25
 31
0.0
  0
LINE
  5
179
330
138
100
AcDbEntity
  8
AM_9
100
AcDbLine
 10
2.295
 20
2.25
 30
0.0
 11
2.075
 21
2.25
 31
0.0
  0
LWPOLYLINE
  5
17A
330
138
100
AcDbEntity
  8
AM_9
100
AcDbPolyline
 90
       20
 70
     0
 43
0.0
 10
-2.295
 20
2.25
 10
-2.299495712943394
 20
2.249345024866623
 10
-2.313371754218401
 20
2.247378954152796
 10
-2.335439465344088
 20
2.244425383751979
 10
-2.366313846630499
 20
2.240651361980509
 10
-2.403703055583752
 20
2.23664309571464
 10
-2.448507318286808
 20
2.232655295091097
 10
-2.497243743482922
 20
2.229332110987337
 10
-2.551154709580334
 20
2.226893155703067
 10
-2.605259456915863
 20
2.225755981468152
 10
-2.661524439899815
 20
2.225968111790912
 10
-2.714751345845038
 20
2.227477340868139
 10
-2.76693066375292
 20
2.230189299883161
 10
-2.813914658290319
 20
2.233671584659873
 10
-2.856857125527161
 20
2.237712610380904
 10
-2.892542777384023
 20
2.241691133437066
 10
-2.921556367722366
 20
2.245338655801544
 10
-2.941459150451837
 20
2.248053912588552
 10
-2.952791853486512
 20
2.249677198891459
 10
-2.954999999999317
 20
2.2499999999999
  0
LWPOLYLINE
  5
17B
330
138
100
AcDbEntity
  8
AM_9
100
AcDbPolyline
 90
       11
 70
     0
 43
0.0
 10
-2.625
 20
0.6415265571449762
 10
-2.680062261214315
 20
0.6460418247264762
 10
-2.733564345510763
 20
0.6592930070427678
 10
-2.783943696294787
 20
0.6809344250376754
 10
-2.829879477737553
 20
0.7101253979294719
 10
-2.870296235998819
 20
0.7462817108212859
 10
-2.90383300116073
 20
0.7879978272721648
 10
-2.929546066386122
 20
0.8342696352803073
 10
-2.946629471052651
 20
0.8834438071145081
 10
-2.954421562493002
 20
0.9336854096388378
 10
-2.954999998805263
 20
0.9508656390812033
  0
LINE
  5
17C
330
138
100
AcDbEntity
  8
AM_9
100
AcDbLine
 10
-3.125
 20
-2.25
 30
0.0
 11
-2.075
 21
-2.25
 31
0.0
  0
LINE
  5
17D
330
138
100
AcDbEntity
  8
AM_9
100
AcDbLine
 10
-2.075
 20
2.25
 30
0.0
 11
-2.295
 21
2.25
 31
0.0
  0
LINE
  5
17E
330
138
100
AcDbEntity
  8
AM_9
100
AcDbLine
 10
-2.955
 20
2.25
 30
0.0
 11
-3.125
 21
2.25
 31
0.0
  0
LINE
  5
17F
330
138
100
AcDbEntity
  8
AM_9
100
AcDbLine
 10
-2.075
 20
3.076923076923077
 30
0.0
 11
-2.25
 21
3.107780298547058
 31
0.0
  0
LINE
  5
180
330
138
100
AcDbEntity
  8
AM_9
100
AcDbLine
 10
-2.25
 20
-3.107780298547058
 30
0.0
 11
-2.075
 21
-3.076923076923077
 31
0.0
  0
LINE
  5
181
330
138
100
AcDbEntity
  8
AM_9
100
AcDbLine
 10
-2.075
 20
3.076923076923077
 30
0.0
 11
-2.075
 21
-3.076923076923077
 31
0.0
  0
LINE
  5
182
330
138
100
AcDbEntity
  8
AM_9
100
AcDbLine
 10
2.075
 20
-3.076923076923078
 30
0.0
 11
2.075
 21
3.076923076923078
 31
0.0
  0
LINE
  5
183
330
138
100
AcDbEntity
  8
AM_9
100
AcDbLine
 10
2.075
 20
-3.076923076923078
 30
0.0
 11
2.25
 21
-3.107780298547059
 31
0.0
  0
LINE
  5
184
330
138
100
AcDbEntity
  8
AM_9
100
AcDbLine
 10
2.25
 20
3.107780298547059
 30
0.0
 11
2.075
 21
3.076923076923078
 31
0.0
  0
LINE
  5
187
330
138
100
AcDbEntity
  8
AM_7
100
AcDbLine
 10
-3.4375
 20
0.0
 30
0.0
 11
3.437499999999998
 21
0.0
 31
0.0
  0
LINE
  5
188
330
138
100
AcDbEntity
  8
AM_7
100
AcDbLine
 10
-2.625
 20
-0.15
 30
0.0
 11
-2.625
 21
3.149999999999999
 31
0.0
  0
LINE
  5
189
330
138
100
AcDbEntity
  8
AM_7
100
AcDbLine
 10
2.625
 20
-0.15
 30
0.0
 11
2.625
 21
3.149999999999999
 31
0.0
  0
LINE
  5
18A
330
138
100
AcDbEntity
  8
AM_7
100
AcDbLine
 10
0.0
 20
5.191999999999999
 30
0.0
 11
0.0
 21
2.516999999999999
 31
0.0
  0
LINE
  5
18B
330
138
100
AcDbEntity
  8
AM_4
100
AcDbLine
 10
0.4123806747594111
 20
4.785
 30
0.0
 11
-0.4123806733501189
 21
4.785
 31
0.0
  0
ARC
  5
18C
330
138
100
AcDbEntity
  8
AM_4
100
AcDbCircle
 10
-0.4123806747594122
 20
4.719000000000001
 30
0.0
 40
0.0659999999999989
100
AcDbArc
 50
90.0
 51
171.0000000000005
  0
ARC
  5
18D
330
138
100
AcDbEntity
  8
AM_4
100
AcDbCircle
 10
0.4123806747594122
 20
4.719000000000001
 30
0.0
 40
0.0659999999999987
100
AcDbArc
 50
8.999999999999496
 51
90.0
  0
LINE
  5
18E
330
138
100
AcDbEntity
  8
AM_4
100
AcDbLine
 10
0.4775681052386901
 20
4.729324674692656
 30
0.0
 11
-0.4775681052386901
 21
4.729324674692656
 31
0.0
  0
LINE
  5
18F
330
138
100
AcDbEntity
  8
AM_4
100
AcDbLine
 10
-0.4775681052386901
 20
4.729324674692656
 30
0.0
 11
-0.6005020030957008
 21
3.953150590893047
 31
0.0
  0
LINE
  5
190
330
138
100
AcDbEntity
  8
AM_4
100
AcDbLine
 10
0.6005020030957008
 20
3.953150590893047
 30
0.0
 11
0.4775681052386901
 21
4.729324674692656
 31
0.0
  0
LWPOLYLINE
  5
191
330
138
100
AcDbEntity
  8
AM_4
100
AcDbPolyline
 90
        8
 70
     0
 43
0.0
 10
2.782821227540881
 20
1.085626443060644
 10
2.770789552109093
 20
1.090880910022249
 10
2.719619547444024
 20
1.107756082441387
 10
2.664136618284209
 20
1.117395590222105
 10
2.60976911464674
 20
1.119046117651352
 10
2.554259679688801
 20
1.112931684417978
 10
2.502620787814438
 20
1.099642297652485
 10
2.466704133627262
 20
1.085408014846367
  0
LWPOLYLINE
  5
192
330
138
100
AcDbEntity
  8
AM_4
100
AcDbPolyline
 90
        8
 70
     0
 43
0.0
 10
-2.466656339576797
 20
1.085385972059379
 10
-2.479210447890908
 20
1.090880910022249
 10
-2.530380452555975
 20
1.107756082441387
 10
-2.585863381715791
 20
1.117395590222105
 10
-2.64023088535326
 20
1.119046117651352
 10
-2.695740320311199
 20
1.112931684417978
 10
-2.747379212185562
 20
1.099642297652485
 10
-2.785001507406192
 20
1.084615904822352
  0
LINE
  5
193
330
138
100
AcDbEntity
  8
AM_4
100
AcDbLine
 10
-2.25
 20
3.653000000983476
 30
0.0
 11
-2.25
 21
-3.653000000983476
 31
0.0
  0
ARC
  5
194
330
138
100
AcDbEntity
  8
AM_4
100
AcDbCircle
 10
-2.184
 20
-3.653
 30
0.0
 40
0.0660000000000003
100
AcDbArc
 50
180.0
 51
270.0
  0
ARC
  5
195
330
138
100
AcDbEntity
  8
AM_4
100
AcDbCircle
 10
-2.184
 20
3.653
 30
0.0
 40
0.0660000000000003
100
AcDbArc
 50
90.0
 51
180.0
  0
LINE
  5
196
330
138
100
AcDbEntity
  8
AM_4
100
AcDbLine
 10
-2.184000000000001
 20
-3.719
 30
0.0
 11
-1.1875
 21
-3.719
 31
0.0
  0
LINE
  5
197
330
138
100
AcDbEntity
  8
AM_4
100
AcDbLine
 10
-1.1875
 20
3.719
 30
0.0
 11
-2.184000000000001
 21
3.719
 31
0.0
  0
LINE
  5
198
330
138
100
AcDbEntity
  8
AM_4
100
AcDbLine
 10
-2.184000000000001
 20
3.719
 30
0.0
 11
-2.184000000000001
 21
-3.719
 31
0.0
  0
LINE
  5
199
330
138
100
AcDbEntity
  8
AM_4
100
AcDbLine
 10
2.25
 20
3.715250000000001
 30
0.0
 11
2.25
 21
-3.715250000000001
 31
0.0
  0
ARC
  5
19A
330
138
100
AcDbEntity
  8
AM_4
100
AcDbCircle
 10
2.183999999999999
 20
-3.71525
 30
0.0
 40
0.0660000000000003
100
AcDbArc
 50
270.0
 51
0.0
  0
ARC
  5
19B
330
138
100
AcDbEntity
  8
AM_4
100
AcDbCircle
 10
2.183999999999999
 20
3.71525
 30
0.0
 40
0.0660000000000007
100
AcDbArc
 50
0.0
 51
90.0
  0
LINE
  5
19C
330
138
100
AcDbEntity
  8
AM_4
100
AcDbLine
 10
1.1875
 20
-3.78125
 30
0.0
 11
2.184
 21
-3.78125
 31
0.0
  0
LINE
  5
19D
330
138
100
AcDbEntity
  8
AM_4
100
AcDbLine
 10
2.184
 20
3.78125
 30
0.0
 11
1.1875
 21
3.78125
 31
0.0
  0
LINE
  5
19E
330
138
100
AcDbEntity
  8
AM_4
100
AcDbLine
 10
2.184
 20
3.78125
 30
0.0
 11
2.184
 21
-3.78125
 31
0.0
  0
LINE
  5
19F
330
138
100
AcDbEntity
  8
AM_4
100
AcDbLine
 10
0.600502003095699
 20
3.953150590893047
 30
0.0
 11
-0.6005020030957025
 21
3.953150590893047
 31
0.0
  0
ARC
  5
1A0
330
138
100
AcDbEntity
  8
AM_4
100
AcDbCircle
 10
-0.0000000000000087
 20
-0.0000000000000306
 30
0.0
 40
3.998500000000031
100
AcDbArc
 50
72.7233128974054
 51
81.36253662352394
  0
ARC
  5
1A1
330
138
100
AcDbEntity
  8
AM_4
100
AcDbCircle
 10
0.0000000000000195
 20
-0.0000000000000786
 30
0.0
 40
3.998500000000081
100
AcDbArc
 50
98.63746337647618
 51
107.2766871025946
  0
ARC
  5
1A2
330
138
100
AcDbEntity
  8
AM_4
100
AcDbCircle
 10
-0.0000000000000019
 20
0.000000000000159
 30
0.0
 40
3.998500000000145
100
AcDbArc
 50
252.723312897406
 51
287.276687102594
  0
LINE
  5
1A3
330
138
100
AcDbEntity
  8
AM_4
100
AcDbLine
 10
-1.1875
 20
3.818094550950775
 30
0.0
 11
-1.1875
 21
-3.818094550950768
 31
0.0
  0
LINE
  5
1A4
330
138
100
AcDbEntity
  8
AM_4
100
AcDbLine
 10
1.1875
 20
3.818094550950774
 30
0.0
 11
1.1875
 21
-3.818094550950767
 31
0.0
  0
ENDBLK
  5
13B
330
138
100
AcDbEntity
  8
0
100
AcDbBlockEnd
  0
ENDSEC
  0
SECTION
  2
ENTITIES
  0
INSERT
  5
6F
330
1F
100
AcDbEntity
  8
0
100
AcDbBlockReference
  2
1_023530_2
 10
0.0
 20
0.0
 30
0.0
  0
POINT
  5
1A6
330
1F
100
AcDbEntity
  8
ConnectionPoints
100
AcDbPoint
 10
-3.125
 20
0.0
 30
0.0000000000000002
  0
POINT
  5
1A7
330
1F
100
AcDbEntity
  8
ConnectionPoints
100
AcDbPoint
 10
0.0
 20
4.785
 30
0.0
  0
POINT
  5
1A8
330
1F
100
AcDbEntity
  8
ConnectionPoints
100
AcDbPoint
 10
0.0
 20
0.0
 30
0.0
  0
POINT
  5
1A9
330
1F
100
AcDbEntity
  8
ConnectionPoints
100
AcDbPoint
 10
-3.125
 20
0.0
 30
0.0000000000000002
  0
POINT
  5
1AA
330
1F
100
AcDbEntity
  8
ConnectionPoints
100
AcDbPoint
 10
3.125
 20
0.0
 30
-0.0000000000000002
  0
POINT
  5
1AB
330
1F
100
AcDbEntity
  8
ConnectionPoints
100
AcDbPoint
 10
0.0
 20
4.785
 30
0.0
  0
POINT
  5
1AC
330
1F
100
AcDbEntity
  8
ConnectionPoints
100
AcDbPoint
 10
0.0
 20
4.785
 30
0.0
  0
ENDSEC
  0
SECTION
  2
OBJECTS
  0
DICTIONARY
  5
C
330
0
100
AcDbDictionary
281
     1
  3
ACAD_DETAILVIEWSTYLE
350
1B4
  3
ACAD_GROUP
350
D
  3
ACAD_LAYOUT
350
1A
  3
ACAD_MATERIAL
350
43
  3
ACAD_MLEADERSTYLE
350
6B
  3
ACAD_MLINESTYLE
350
17
  3
ACAD_PLOTSETTINGS
350
19
  3
ACAD_PLOTSTYLENAME
350
E
  3
ACAD_SCALELIST
350
47
  3
ACAD_SECTIONVIEWSTYLE
350
1B5
  3
ACAD_TABLESTYLE
350
69
  3
ACAD_VISUALSTYLE
350
2A
  3
ACDB_RECOMPOSE_DATA
350
1B1
  3
AcDbVariableDictionary
350
1AD
  0
SUN
  5
6D
330
29
100
AcDbSun
 90
        1
290
     0
 63
     7
421
 16777215
 40
1.0
291
     1
 91
  2455826
 92
 54000000
292
     0
 70
     2
 71
   256
280
     1
  0
DICTIONARY
  5
1B4
102
{ACAD_REACTORS
330
C
102
}
330
C
100
AcDbDictionary
281
     1
  0
DICTIONARY
  5
D
102
{ACAD_REACTORS
330
C
102
}
330
C
100
AcDbDictionary
281
     1
  0
DICTIONARY
  5
1A
102
{ACAD_REACTORS
330
C
102
}
330
C
100
AcDbDictionary
281
     1
  3
Layout1
350
1E
  3
Layout2
350
26
  3
Model
350
22
  0
DICTIONARY
  5
43
102
{ACAD_REACTORS
330
C
102
}
330
C
100
AcDbDictionary
281
     1
  3
ByBlock
350
45
  3
ByLayer
350
44
  3
Global
350
46
  0
DICTIONARY
  5
6B
102
{ACAD_REACTORS
330
C
102
}
330
C
100
AcDbDictionary
281
     1
  3
Standard
350
6C
  0
DICTIONARY
  5
17
102
{ACAD_REACTORS
330
C
102
}
330
C
100
AcDbDictionary
281
     1
  3
Standard
350
18
  0
DICTIONARY
  5
19
102
{ACAD_REACTORS
330
C
102
}
330
C
100
AcDbDictionary
281
     1
  0
ACDBDICTIONARYWDFLT
  5
E
102
{ACAD_REACTORS
330
C
102
}
330
C
100
AcDbDictionary
281
     1
  3
Normal
350
F
100
AcDbDictionaryWithDefault
340
F
  0
DICTIONARY
  5
47
102
{ACAD_REACTORS
330
C
102
}
330
C
100
AcDbDictionary
281
     1
  3
A0
350
48
  3
A1
350
49
  3
A2
350
4A
  3
A3
350
4B
  3
A4
350
4C
  3
A5
350
4D
  3
A6
350
4E
  3
A7
350
4F
  3
A8
350
50
  3
A9
350
51
  3
B0
350
52
  3
B1
350
53
  3
B2
350
54
  3
B3
350
55
  3
B4
350
56
  3
B5
350
57
  3
B6
350
58
  3
B7
350
59
  3
B8
350
5A
  3
B9
350
5B
  3
C0
350
5C
  3
C1
350
5D
  3
C2
350
5E
  3
C3
350
5F
  3
C4
350
60
  3
C5
350
61
  3
C6
350
62
  3
C7
350
63
  3
C8
350
64
  3
C9
350
65
  3
D0
350
66
  3
D1
350
67
  3
D2
350
68
  0
DICTIONARY
  5
1B5
102
{ACAD_REACTORS
330
C
102
}
330
C
100
AcDbDictionary
281
     1
  0
DICTIONARY
  5
69
102
{ACAD_REACTORS
330
C
102
}
330
C
100
AcDbDictionary
281
     1
  3
Standard
350
6A
  0
DICTIONARY
  5
2A
102
{ACAD_REACTORS
330
C
102
}
330
C
100
AcDbDictionary
281
     1
  3
2dWireframe
350
2F
  3
Basic
350
32
  3
Brighten
350
36
  3
ColorChange
350
3A
  3
Conceptual
350
34
  3
Dim
350
35
  3
EdgeColorOff
350
3D
  3
Facepattern
350
39
  3
Flat
350
2B
  3
FlatWithEdges
350
2C
  3
Gouraud
350
2D
  3
GouraudWithEdges
350
2E
  3
Hidden
350
31
  3
JitterOff
350
3B
  3
Linepattern
350
38
  3
OverhangOff
350
3C
  3
Realistic
350
33
  3
Shaded
350
42
  3
Shaded with edges
350
41
  3
Shades of Gray
350
3E
  3
Sketchy
350
3F
  3
Thicken
350
37
  3
Wireframe
350
30
  3
X-Ray
350
40
  0
XRECORD
  5
1B1
102
{ACAD_REACTORS
330
C
102
}
330
C
100
AcDbXrecord
280
     1
 90
        1
330
6A
  0
DICTIONARY
  5
1AD
102
{ACAD_REACTORS
330
C
102
}
330
C
100
AcDbDictionary
281
     1
  3
CANNOSCALE
350
1AE
  3
CMLEADERSTYLE
350
1B3
  3
CTABLESTYLE
350
1B2
  0
LAYOUT
  5
1E
102
{ACAD_REACTORS
330
1A
102
}
330
1A
100
AcDbPlotSettings
  1

  2
none_device
  4

  6

 40
0.0
 41
0.0
 42
0.0
 43
0.0
 44
0.0
 45
0.0
 46
0.0
 47
0.0
 48
0.0
 49
0.0
140
0.0
141
0.0
142
1.0
143
1.0
 70
   688
 72
     0
 73
     0
 74
     5
  7

 75
    16
 76
     0
 77
     2
 78
   300
147
1.0
148
0.0
149
0.0
100
AcDbLayout
  1
Layout1
 70
     1
 71
     1
 10
0.0
 20
0.0
 11
12.0
 21
9.0
 12
0.0
 22
0.0
 32
0.0
 14
1.000000000000000E+20
 24
1.000000000000000E+20
 34
1.000000000000000E+20
 15
-1.000000000000000E+20
 25
-1.000000000000000E+20
 35
-1.000000000000000E+20
146
0.0
 13
0.0
 23
0.0
 33
0.0
 16
1.0
 26
0.0
 36
0.0
 17
0.0
 27
1.0
 37
0.0
 76
     0
330
1B
  0
LAYOUT
  5
26
102
{ACAD_REACTORS
330
1A
102
}
330
1A
100
AcDbPlotSettings
  1

  2
none_device
  4

  6

 40
0.0
 41
0.0
 42
0.0
 43
0.0
 44
0.0
 45
0.0
 46
0.0
 47
0.0
 48
0.0
 49
0.0
140
0.0
141
0.0
142
1.0
143
1.0
 70
   688
 72
     0
 73
     0
 74
     5
  7

 75
    16
 76
     0
 77
     2
 78
   300
147
1.0
148
0.0
149
0.0
100
AcDbLayout
  1
Layout2
 70
     1
 71
     2
 10
0.0
 20
0.0
 11
0.0
 21
0.0
 12
0.0
 22
0.0
 32
0.0
 14
0.0
 24
0.0
 34
0.0
 15
0.0
 25
0.0
 35
0.0
146
0.0
 13
0.0
 23
0.0
 33
0.0
 16
1.0
 26
0.0
 36
0.0
 17
0.0
 27
1.0
 37
0.0
 76
     0
330
23
  0
LAYOUT
  5
22
102
{ACAD_REACTORS
330
1A
102
}
330
1A
100
AcDbPlotSettings
  1

  2
none_device
  4
Letter_(8.50_x_11.00_Inches)
  6

 40
6.35
 41
6.35
 42
6.35000508
 43
6.35000508
 44
215.9
 45
279.4
 46
0.0
 47
0.0
 48
0.0
 49
0.0
140
0.0
141
0.0
142
1.0
143
1.0
 70
  1712
 72
     0
 73
     0
 74
     0
  7

 75
     0
 76
     0
 77
     2
 78
   300
147
1.0
148
0.0
149
0.0
100
AcDbLayout
  1
Model
 70
     1
 71
     0
 10
0.0
 20
0.0
 11
12.0
 21
9.0
 12
0.0
 22
0.0
 32
0.0
 14
1.000000000000000E+20
 24
1.000000000000000E+20
 34
1.000000000000000E+20
 15
-1.000000000000000E+20
 25
-1.000000000000000E+20
 35
-1.000000000000000E+20
146
0.0
 13
0.0
 23
0.0
 33
0.0
 16
1.0
 26
0.0
 36
0.0
 17
0.0
 27
1.0
 37
0.0
 76
     0
330
1F
331
29
  0
MATERIAL
  5
45
102
{ACAD_REACTORS
330
43
102
}
330
43
100
AcDbMaterial
  1
ByBlock
 72
     1
 94
      127
  0
MATERIAL
  5
44
102
{ACAD_REACTORS
330
43
102
}
330
43
100
AcDbMaterial
  1
ByLayer
 72
     1
 94
      127
  0
MATERIAL
  5
46
102
{ACAD_REACTORS
330
43
102
}
330
43
100
AcDbMaterial
  1
Global
 72
     1
 94
      127
  0
MLEADERSTYLE
  5
6C
102
{ACAD_REACTORS
330
6B
102
}
330
6B
100
AcDbMLeaderStyle
179
     2
170
     2
171
     1
172
     0
 90
        2
 40
0.0
 41
0.0
173
     1
 91
-1056964608
340
14
 92
       -2
290
     1
 42
0.09
291
     1
 43
0.36
  3
Standard
341
0
 44
0.18
300

342
11
174
     1
178
     6
175
     1
176
     0
 93
-1056964608
 45
0.18
292
     0
297
     0
 46
0.18
343
0
 94
-1056964608
 47
1.0
 49
1.0
140
1.0
293
     1
141
0.0
294
     1
177
     0
142
1.0
295
     0
296
     0
143
0.125
271
     0
272
     9
273
     9
298
     0
  0
MLINESTYLE
  5
18
102
{ACAD_REACTORS
330
17
102
}
330
17
100
AcDbMlineStyle
  2
Standard
 70
     0
  3

 62
   256
 51
90.0
 52
90.0
 71
     2
 49
0.5
 62
   256
  6
BYLAYER
 49
-0.5
 62
   256
  6
BYLAYER
  0
ACDBPLACEHOLDER
  5
F
102
{ACAD_REACTORS
330
E
102
}
330
E
  0
SCALE
  5
48
102
{ACAD_REACTORS
330
47
102
}
330
47
100
AcDbScale
 70
     0
300
1:1
140
1.0
141
1.0
290
     1
  0
SCALE
  5
49
102
{ACAD_REACTORS
330
47
102
}
330
47
100
AcDbScale
 70
     0
300
1:2
140
1.0
141
2.0
290
     0
  0
SCALE
  5
4A
102
{ACAD_REACTORS
330
47
102
}
330
47
100
AcDbScale
 70
     0
300
1:4
140
1.0
141
4.0
290
     0
  0
SCALE
  5
4B
102
{ACAD_REACTORS
330
47
102
}
330
47
100
AcDbScale
 70
     0
300
1:5
140
1.0
141
5.0
290
     0
  0
SCALE
  5
4C
102
{ACAD_REACTORS
330
47
102
}
330
47
100
AcDbScale
 70
     0
300
1:8
140
1.0
141
8.0
290
     0
  0
SCALE
  5
4D
102
{ACAD_REACTORS
330
47
102
}
330
47
100
AcDbScale
 70
     0
300
1:10
140
1.0
141
10.0
290
     0
  0
SCALE
  5
4E
102
{ACAD_REACTORS
330
47
102
}
330
47
100
AcDbScale
 70
     0
300
1:16
140
1.0
141
16.0
290
     0
  0
SCALE
  5
4F
102
{ACAD_REACTORS
330
47
102
}
330
47
100
AcDbScale
 70
     0
300
1:20
140
1.0
141
20.0
290
     0
  0
SCALE
  5
50
102
{ACAD_REACTORS
330
47
102
}
330
47
100
AcDbScale
 70
     0
300
1:30
140
1.0
141
30.0
290
     0
  0
SCALE
  5
51
102
{ACAD_REACTORS
330
47
102
}
330
47
100
AcDbScale
 70
     0
300
1:40
140
1.0
141
40.0
290
     0
  0
SCALE
  5
52
102
{ACAD_REACTORS
330
47
102
}
330
47
100
AcDbScale
 70
     0
300
1:50
140
1.0
141
50.0
290
     0
  0
SCALE
  5
53
102
{ACAD_REACTORS
330
47
102
}
330
47
100
AcDbScale
 70
     0
300
1:100
140
1.0
141
100.0
290
     0
  0
SCALE
  5
54
102
{ACAD_REACTORS
330
47
102
}
330
47
100
AcDbScale
 70
     0
300
2:1
140
2.0
141
1.0
290
     0
  0
SCALE
  5
55
102
{ACAD_REACTORS
330
47
102
}
330
47
100
AcDbScale
 70
     0
300
4:1
140
4.0
141
1.0
290
     0
  0
SCALE
  5
56
102
{ACAD_REACTORS
330
47
102
}
330
47
100
AcDbScale
 70
     0
300
8:1
140
8.0
141
1.0
290
     0
  0
SCALE
  5
57
102
{ACAD_REACTORS
330
47
102
}
330
47
100
AcDbScale
 70
     0
300
10:1
140
10.0
141
1.0
290
     0
  0
SCALE
  5
58
102
{ACAD_REACTORS
330
47
102
}
330
47
100
AcDbScale
 70
     0
300
100:1
140
100.0
141
1.0
290
     0
  0
SCALE
  5
59
102
{ACAD_REACTORS
330
47
102
}
330
47
100
AcDbScale
 70
     0
300
1/128" = 1'-0"
140
0.0078125
141
12.0
290
     0
  0
SCALE
  5
5A
102
{ACAD_REACTORS
330
47
102
}
330
47
100
AcDbScale
 70
     0
300
1/64" = 1'-0"
140
0.015625
141
12.0
290
     0
  0
SCALE
  5
5B
102
{ACAD_REACTORS
330
47
102
}
330
47
100
AcDbScale
 70
     0
300
1/32" = 1'-0"
140
0.03125
141
12.0
290
     0
  0
SCALE
  5
5C
102
{ACAD_REACTORS
330
47
102
}
330
47
100
AcDbScale
 70
     0
300
1/16" = 1'-0"
140
0.0625
141
12.0
290
     0
  0
SCALE
  5
5D
102
{ACAD_REACTORS
330
47
102
}
330
47
100
AcDbScale
 70
     0
300
3/32" = 1'-0"
140
0.09375
141
12.0
290
     0
  0
SCALE
  5
5E
102
{ACAD_REACTORS
330
47
102
}
330
47
100
AcDbScale
 70
     0
300
1/8" = 1'-0"
140
0.125
141
12.0
290
     0
  0
SCALE
  5
5F
102
{ACAD_REACTORS
330
47
102
}
330
47
100
AcDbScale
 70
     0
300
3/16" = 1'-0"
140
0.1875
141
12.0
290
     0
  0
SCALE
  5
60
102
{ACAD_REACTORS
330
47
102
}
330
47
100
AcDbScale
 70
     0
300
1/4" = 1'-0"
140
0.25
141
12.0
290
     0
  0
SCALE
  5
61
102
{ACAD_REACTORS
330
47
102
}
330
47
100
AcDbScale
 70
     0
300
3/8" = 1'-0"
140
0.375
141
12.0
290
     0
  0
SCALE
  5
62
102
{ACAD_REACTORS
330
47
102
}
330
47
100
AcDbScale
 70
     0
300
1/2" = 1'-0"
140
0.5
141
12.0
290
     0
  0
SCALE
  5
63
102
{ACAD_REACTORS
330
47
102
}
330
47
100
AcDbScale
 70
     0
300
3/4" = 1'-0"
140
0.75
141
12.0
290
     0
  0
SCALE
  5
64
102
{ACAD_REACTORS
330
47
102
}
330
47
100
AcDbScale
 70
     0
300
1" = 1'-0"
140
1.0
141
12.0
290
     0
  0
SCALE
  5
65
102
{ACAD_REACTORS
330
47
102
}
330
47
100
AcDbScale
 70
     0
300
1-1/2" = 1'-0"
140
1.5
141
12.0
290
     0
  0
SCALE
  5
66
102
{ACAD_REACTORS
330
47
102
}
330
47
100
AcDbScale
 70
     0
300
3" = 1'-0"
140
3.0
141
12.0
290
     0
  0
SCALE
  5
67
102
{ACAD_REACTORS
330
47
102
}
330
47
100
AcDbScale
 70
     0
300
6" = 1'-0"
140
6.0
141
12.0
290
     0
  0
SCALE
  5
68
102
{ACAD_REACTORS
330
47
102
}
330
47
100
AcDbScale
 70
     0
300
1'-0" = 1'-0"
140
12.0
141
12.0
290
     0
  0
TABLESTYLE
  5
6A
102
{ACAD_REACTORS
330
69
102
}
102
{ACAD_XDICTIONARY
360
1AF
102
}
330
69
100
AcDbTableStyle
  3
Standard
 70
     0
 71
     0
 40
0.06
 41
0.06
280
     0
281
     0
  7
Standard
140
0.18
170
     2
 62
     0
 63
   257
283
     0
 90
        4
 91
        0
  1

274
    -2
284
     1
 64
     0
275
    -2
285
     1
 65
     0
276
    -2
286
     1
 66
     0
277
    -2
287
     1
 67
     0
278
    -2
288
     1
 68
     0
279
    -2
289
     1
 69
     0
  7
Standard
140
0.25
170
     5
 62
     0
 63
   257
283
     0
 90
        4
 91
        0
  1

274
    -2
284
     1
 64
     0
275
    -2
285
     1
 65
     0
276
    -2
286
     1
 66
     0
277
    -2
287
     1
 67
     0
278
    -2
288
     1
 68
     0
279
    -2
289
     1
 69
     0
  7
Standard
140
0.18
170
     5
 62
     0
 63
   257
283
     0
 90
        4
 91
        0
  1

274
    -2
284
     1
 64
     0
275
    -2
285
     1
 65
     0
276
    -2
286
     1
 66
     0
277
    -2
287
     1
 67
     0
278
    -2
288
     1
 68
     0
279
    -2
289
     1
 69
     0
  0
VISUALSTYLE
  5
2F
102
{ACAD_REACTORS
330
2A
102
}
330
2A
100
AcDbVisualStyle
  2
2dWireframe
 70
     4
177
     3
291
     0
 70
    58
 90
        0
176
     1
 90
        2
176
     1
 90
        0
176
     1
 90
        0
176
     1
 40
0.6
176
     1
 40
30.0
176
     1
 62
     7
420
 16777215
176
     1
 90
        1
176
     1
 90
        4
176
     1
 62
     7
176
     1
 62
   257
176
     1
 90
        1
176
     1
 90
        1
176
     1
 40
1.0
176
     1
 90
        0
176
     1
 62
   257
176
     1
 40
1.0
176
     1
 90
        1
176
     1
 90
        6
176
     1
 90
        2
176
     1
 62
     7
176
     1
 90
        5
176
     1
 90
        0
176
     1
 90
        0
176
     1
290
     0
176
     1
 90
        1
176
     1
 40
0.0
176
     1
 90
        0
176
     1
290
     1
176
     1
290
     1
176
     1
290
     0
176
     1
290
     0
176
     1
290
     0
176
     1
290
     0
176
     1
290
     0
176
     1
290
     0
176
     1
290
     0
176
     1
 90
       50
176
     1
 40
0.0
176
     1
 40
1.0
176
     1
 90
        0
176
     1
 62
    18
420
        0
176
     1
 90
       50
176
     1
 90
        3
176
     1
 62
     5
420
      255
176
     1
290
     0
176
     1
 90
       50
176
     1
 90
       50
176
     1
 90
       50
176
     1
290
     0
176
     1
 90
       50
176
     1
 62
   256
176
     0
 40
1.0
176
     0
 90
        2
176
     1
  1
strokes_ogs.tif
176
     1
290
     0
176
     1
 40
1.0
176
     1
 40
1.0
176
     1
  0
VISUALSTYLE
  5
32
102
{ACAD_REACTORS
330
2A
102
}
330
2A
100
AcDbVisualStyle
  2
Basic
 70
     7
177
     3
291
     1
 70
    58
 90
        1
176
     1
 90
        0
176
     1
 90
        1
176
     1
 90
        0
176
     1
 40
0.6
176
     1
 40
30.0
176
     1
 62
     7
420
 16777215
176
     1
 90
        0
176
     1
 90
        4
176
     1
 62
     7
176
     1
 62
   257
176
     1
 90
        1
176
     1
 90
        1
176
     1
 40
1.0
176
     1
 90
        8
176
     1
 62
     7
176
     1
 40
1.0
176
     1
 90
        1
176
     1
 90
        6
176
     1
 90
        2
176
     1
 62
     7
176
     1
 90
        5
176
     1
 90
        0
176
     1
 90
        0
176
     1
290
     0
176
     1
 90
        1
176
     1
 40
0.0
176
     1
 90
        0
176
     1
290
     0
176
     1
290
     1
176
     1
290
     1
176
     1
290
     0
176
     1
290
     0
176
     1
290
     0
176
     1
290
     0
176
     1
290
     0
176
     1
290
     0
176
     1
 90
       50
176
     1
 40
0.0
176
     1
 40
1.0
176
     1
 90
        0
176
     1
 62
    18
420
        0
176
     1
 90
       50
176
     1
 90
        3
176
     1
 62
     5
420
      255
176
     1
290
     0
176
     1
 90
       50
176
     1
 90
       50
176
     1
 90
       50
176
     1
290
     0
176
     1
 90
       50
176
     1
 62
   256
176
     0
 40
1.0
176
     0
 90
        2
176
     1
  1
strokes_ogs.tif
176
     1
290
     0
176
     1
 40
1.0
176
     1
 40
1.0
176
     1
  0
VISUALSTYLE
  5
36
102
{ACAD_REACTORS
330
2A
102
}
330
2A
100
AcDbVisualStyle
  2
Brighten
 70
    12
177
     3
291
     1
 70
    58
 90
        2
176
     1
 90
        2
176
     1
 90
        0
176
     1
 90
        0
176
     1
 40
0.6
176
     1
 40
30.0
176
     1
 62
     7
420
 16777215
176
     1
 90
        1
176
     1
 90
        4
176
     1
 62
     7
176
     1
 62
   257
176
     1
 90
        1
176
     1
 90
        1
176
     1
 40
1.0
176
     1
 90
        8
176
     1
 62
     7
176
     1
 40
1.0
176
     1
 90
        1
176
     1
 90
        6
176
     1
 90
        2
176
     1
 62
     7
176
     1
 90
        5
176
     1
 90
        0
176
     1
 90
        0
176
     1
290
     0
176
     1
 90
        1
176
     1
 40
50.0
176
     1
 90
        0
176
     1
290
     0
176
     1
290
     1
176
     1
290
     1
176
     1
290
     0
176
     1
290
     0
176
     1
290
     0
176
     1
290
     0
176
     1
290
     0
176
     1
290
     0
176
     1
 90
       50
176
     1
 40
0.0
176
     1
 40
1.0
176
     1
 90
        0
176
     1
 62
    18
420
        0
176
     1
 90
       50
176
     1
 90
        3
176
     1
 62
     5
420
      255
176
     1
290
     0
176
     1
 90
       50
176
     1
 90
       50
176
     1
 90
       50
176
     1
290
     0
176
     1
 90
       50
176
     1
 62
   256
176
     0
 40
1.0
176
     0
 90
        2
176
     1
  1
strokes_ogs.tif
176
     1
290
     0
176
     1
 40
1.0
176
     1
 40
1.0
176
     1
  0
VISUALSTYLE
  5
3A
102
{ACAD_REACTORS
330
2A
102
}
330
2A
100
AcDbVisualStyle
  2
ColorChange
 70
    16
177
     3
291
     1
 70
    58
 90
        2
176
     1
 90
        2
176
     1
 90
        3
176
     1
 90
        0
176
     1
 40
0.6
176
     1
 40
30.0
176
     1
 62
     8
420
  8421504
176
     1
 90
        1
176
     1
 90
        4
176
     1
 62
     7
176
     1
 62
   257
176
     1
 90
        1
176
     1
 90
        1
176
     1
 40
1.0
176
     1
 90
        8
176
     1
 62
     8
420
  8421504
176
     1
 40
1.0
176
     1
 90
        1
176
     1
 90
        6
176
     1
 90
        2
176
     1
 62
     7
176
     1
 90
        5
176
     1
 90
        0
176
     1
 90
        0
176
     1
290
     0
176
     1
 90
        1
176
     1
 40
0.0
176
     1
 90
        0
176
     1
290
     0
176
     1
290
     1
176
     1
290
     1
176
     1
290
     0
176
     1
290
     0
176
     1
290
     0
176
     1
290
     0
176
     1
290
     0
176
     1
290
     0
176
     1
 90
       50
176
     1
 40
0.0
176
     1
 40
1.0
176
     1
 90
        0
176
     1
 62
    18
420
        0
176
     1
 90
       50
176
     1
 90
        3
176
     1
 62
     5
420
      255
176
     1
290
     0
176
     1
 90
       50
176
     1
 90
       50
176
     1
 90
       50
176
     1
290
     0
176
     1
 90
       50
176
     1
 62
   256
176
     0
 40
1.0
176
     0
 90
        2
176
     1
  1
strokes_ogs.tif
176
     1
290
     0
176
     1
 40
1.0
176
     1
 40
1.0
176
     1
  0
VISUALSTYLE
  5
34
102
{ACAD_REACTORS
330
2A
102
}
330
2A
100
AcDbVisualStyle
  2
Conceptual
 70
     9
177
     3
291
     0
 70
    58
 90
        3
176
     1
 90
        2
176
     1
 90
        0
176
     1
 90
        0
176
     1
 40
0.6
176
     1
 40
30.0
176
     1
 62
     7
420
 16777215
176
     1
 90
        2
176
     1
 90
        2
176
     1
 62
     7
176
     1
 62
   257
176
     1
 90
        1
176
     1
 90
        1
176
     1
 40
179.0
176
     1
 90
        8
176
     1
 62
     7
176
     1
 40
1.0
176
     1
 90
        1
176
     1
 90
        6
176
     1
 90
        2
176
     1
 62
     7
176
     1
 90
        3
176
     1
 90
        0
176
     1
 90
        0
176
     1
290
     0
176
     1
 90
        1
176
     1
 40
0.0
176
     1
 90
        0
176
     1
290
     0
176
     1
290
     1
176
     1
290
     1
176
     1
290
     0
176
     1
290
     0
176
     1
290
     0
176
     1
290
     0
176
     1
290
     0
176
     1
290
     0
176
     1
 90
       50
176
     1
 40
0.0
176
     1
 40
1.0
176
     1
 90
        0
176
     1
 62
    18
420
        0
176
     1
 90
       50
176
     1
 90
        3
176
     1
 62
     5
420
      255
176
     1
290
     0
176
     1
 90
       50
176
     1
 90
       50
176
     1
 90
       50
176
     1
290
     0
176
     1
 90
       50
176
     1
 62
   256
176
     0
 40
1.0
176
     0
 90
        2
176
     1
  1
strokes_ogs.tif
176
     1
290
     0
176
     1
 40
1.0
176
     1
 40
1.0
176
     1
  0
VISUALSTYLE
  5
35
102
{ACAD_REACTORS
330
2A
102
}
330
2A
100
AcDbVisualStyle
  2
Dim
 70
    11
177
     3
291
     1
 70
    58
 90
        2
176
     1
 90
        2
176
     1
 90
        0
176
     1
 90
        0
176
     1
 40
0.6
176
     1
 40
30.0
176
     1
 62
     7
420
 16777215
176
     1
 90
        1
176
     1
 90
        4
176
     1
 62
     7
176
     1
 62
   257
176
     1
 90
        1
176
     1
 90
        1
176
     1
 40
1.0
176
     1
 90
        8
176
     1
 62
     7
176
     1
 40
1.0
176
     1
 90
        1
176
     1
 90
        6
176
     1
 90
        2
176
     1
 62
     7
176
     1
 90
        5
176
     1
 90
        0
176
     1
 90
        0
176
     1
290
     0
176
     1
 90
        1
176
     1
 40
-50.0
176
     1
 90
        0
176
     1
290
     0
176
     1
290
     1
176
     1
290
     1
176
     1
290
     0
176
     1
290
     0
176
     1
290
     0
176
     1
290
     0
176
     1
290
     0
176
     1
290
     0
176
     1
 90
       50
176
     1
 40
0.0
176
     1
 40
1.0
176
     1
 90
        0
176
     1
 62
    18
420
        0
176
     1
 90
       50
176
     1
 90
        3
176
     1
 62
     5
420
      255
176
     1
290
     0
176
     1
 90
       50
176
     1
 90
       50
176
     1
 90
       50
176
     1
290
     0
176
     1
 90
       50
176
     1
 62
   256
176
     0
 40
1.0
176
     0
 90
        2
176
     1
  1
strokes_ogs.tif
176
     1
290
     0
176
     1
 40
1.0
176
     1
 40
1.0
176
     1
  0
VISUALSTYLE
  5
3D
102
{ACAD_REACTORS
330
2A
102
}
330
2A
100
AcDbVisualStyle
  2
EdgeColorOff
 70
    22
177
     3
291
     1
 70
    58
 90
        2
176
     0
 90
        2
176
     0
 90
        0
176
     0
 90
        0
176
     0
 40
0.6
176
     0
 40
30.0
176
     0
 62
     7
420
 16777215
176
     0
 90
        1
176
     0
 90
        4
176
     0
 62
     7
176
     0
 62
   257
176
     0
 90
        1
176
     0
 90
        1
176
     0
 40
1.0
176
     0
 90
        8
176
     2
 62
     7
176
     0
 40
1.0
176
     0
 90
        1
176
     0
 90
        6
176
     0
 90
        2
176
     0
 62
     7
176
     0
 90
        5
176
     0
 90
        0
176
     0
 90
        0
176
     0
290
     0
176
     0
 90
        1
176
     0
 40
0.0
176
     0
 90
        0
176
     0
290
     0
176
     0
290
     1
176
     0
290
     1
176
     0
290
     0
176
     0
290
     0
176
     0
290
     0
176
     0
290
     0
176
     0
290
     0
176
     0
290
     0
176
     0
 90
       50
176
     0
 40
0.0
176
     0
 40
1.0
176
     0
 90
        0
176
     0
 62
    18
420
        0
176
     0
 90
       50
176
     0
 90
        3
176
     0
 62
     5
420
      255
176
     0
290
     0
176
     0
 90
       50
176
     0
 90
       50
176
     0
 90
       50
176
     0
290
     0
176
     0
 90
       50
176
     0
 62
   256
176
     0
 40
1.0
176
     0
 90
        2
176
     0
  1
strokes_ogs.tif
176
     0
290
     0
176
     0
 40
1.0
176
     0
 40
1.0
176
     0
  0
VISUALSTYLE
  5
39
102
{ACAD_REACTORS
330
2A
102
}
330
2A
100
AcDbVisualStyle
  2
Facepattern
 70
    15
177
     3
291
     1
 70
    58
 90
        2
176
     1
 90
        2
176
     1
 90
        0
176
     1
 90
        0
176
     1
 40
0.6
176
     1
 40
30.0
176
     1
 62
     7
420
 16777215
176
     1
 90
        1
176
     1
 90
        4
176
     1
 62
     7
176
     1
 62
   257
176
     1
 90
        1
176
     1
 90
        1
176
     1
 40
1.0
176
     1
 90
        8
176
     1
 62
     7
176
     1
 40
1.0
176
     1
 90
        1
176
     1
 90
        6
176
     1
 90
        2
176
     1
 62
     7
176
     1
 90
        5
176
     1
 90
        0
176
     1
 90
        0
176
     1
290
     0
176
     1
 90
        1
176
     1
 40
0.0
176
     1
 90
        0
176
     1
290
     0
176
     1
290
     1
176
     1
290
     1
176
     1
290
     0
176
     1
290
     0
176
     1
290
     0
176
     1
290
     0
176
     1
290
     0
176
     1
290
     0
176
     1
 90
       50
176
     1
 40
0.0
176
     1
 40
1.0
176
     1
 90
        0
176
     1
 62
    18
420
        0
176
     1
 90
       50
176
     1
 90
        3
176
     1
 62
     5
420
      255
176
     1
290
     0
176
     1
 90
       50
176
     1
 90
       50
176
     1
 90
       50
176
     1
290
     0
176
     1
 90
       50
176
     1
 62
   256
176
     0
 40
1.0
176
     0
 90
        2
176
     1
  1
strokes_ogs.tif
176
     1
290
     0
176
     1
 40
1.0
176
     1
 40
1.0
176
     1
  0
VISUALSTYLE
  5
2B
102
{ACAD_REACTORS
330
2A
102
}
330
2A
100
AcDbVisualStyle
  2
Flat
 70
     0
177
     3
291
     1
 70
    58
 90
        2
176
     1
 90
        1
176
     1
 90
        1
176
     1
 90
        2
176
     1
 40
0.6
176
     1
 40
30.0
176
     1
 62
     7
420
 16777215
176
     1
 90
        0
176
     1
 90
        0
176
     1
 62
     7
176
     1
 62
   257
176
     1
 90
        1
176
     1
 90
        1
176
     1
 40
1.0
176
     1
 90
        8
176
     1
 62
     7
176
     1
 40
1.0
176
     1
 90
        1
176
     1
 90
        6
176
     1
 90
        2
176
     1
 62
     7
176
     1
 90
        5
176
     1
 90
        0
176
     1
 90
        0
176
     1
290
     0
176
     1
 90
       13
176
     1
 40
0.0
176
     1
 90
        0
176
     1
290
     0
176
     1
290
     1
176
     1
290
     1
176
     1
290
     0
176
     1
290
     0
176
     1
290
     0
176
     1
290
     0
176
     1
290
     0
176
     1
290
     0
176
     1
 90
       50
176
     1
 40
0.0
176
     1
 40
1.0
176
     1
 90
        0
176
     1
 62
    18
420
        0
176
     1
 90
       50
176
     1
 90
        3
176
     1
 62
     5
420
      255
176
     1
290
     0
176
     1
 90
       50
176
     1
 90
       50
176
     1
 90
       50
176
     1
290
     0
176
     1
 90
       50
176
     1
 62
   256
176
     0
 40
1.0
176
     0
 90
        2
176
     1
  1
strokes_ogs.tif
176
     1
290
     0
176
     1
 40
1.0
176
     1
 40
1.0
176
     1
  0
VISUALSTYLE
  5
2C
102
{ACAD_REACTORS
330
2A
102
}
330
2A
100
AcDbVisualStyle
  2
FlatWithEdges
 70
     1
177
     3
291
     1
 70
    58
 90
        2
176
     1
 90
        1
176
     1
 90
        1
176
     1
 90
        2
176
     1
 40
0.6
176
     1
 40
30.0
176
     1
 62
     7
420
 16777215
176
     1
 90
        1
176
     1
 90
        0
176
     1
 62
     7
176
     1
 62
   257
176
     1
 90
        1
176
     1
 90
        1
176
     1
 40
1.0
176
     1
 90
        0
176
     1
 62
   257
176
     1
 40
1.0
176
     1
 90
        1
176
     1
 90
        6
176
     1
 90
        2
176
     1
 62
     7
176
     1
 90
        5
176
     1
 90
        0
176
     1
 90
        0
176
     1
290
     0
176
     1
 90
       13
176
     1
 40
0.0
176
     1
 90
        0
176
     1
290
     0
176
     1
290
     1
176
     1
290
     1
176
     1
290
     0
176
     1
290
     0
176
     1
290
     0
176
     1
290
     0
176
     1
290
     0
176
     1
290
     0
176
     1
 90
       50
176
     1
 40
0.0
176
     1
 40
1.0
176
     1
 90
        0
176
     1
 62
    18
420
        0
176
     1
 90
       50
176
     1
 90
        3
176
     1
 62
     5
420
      255
176
     1
290
     0
176
     1
 90
       50
176
     1
 90
       50
176
     1
 90
       50
176
     1
290
     0
176
     1
 90
       50
176
     1
 62
   256
176
     0
 40
1.0
176
     0
 90
        2
176
     1
  1
strokes_ogs.tif
176
     1
290
     0
176
     1
 40
1.0
176
     1
 40
1.0
176
     1
  0
VISUALSTYLE
  5
2D
102
{ACAD_REACTORS
330
2A
102
}
330
2A
100
AcDbVisualStyle
  2
Gouraud
 70
     2
177
     3
291
     1
 70
    58
 90
        2
176
     1
 90
        2
176
     1
 90
        1
176
     1
 90
        2
176
     1
 40
0.6
176
     1
 40
30.0
176
     1
 62
     7
420
 16777215
176
     1
 90
        0
176
     1
 90
        0
176
     1
 62
     7
176
     1
 62
   257
176
     1
 90
        1
176
     1
 90
        1
176
     1
 40
1.0
176
     1
 90
        0
176
     1
 62
     7
176
     1
 40
1.0
176
     1
 90
        1
176
     1
 90
        6
176
     1
 90
        2
176
     1
 62
     7
176
     1
 90
        5
176
     1
 90
        0
176
     1
 90
        0
176
     1
290
     0
176
     1
 90
       13
176
     1
 40
0.0
176
     1
 90
        0
176
     1
290
     0
176
     1
290
     1
176
     1
290
     1
176
     1
290
     0
176
     1
290
     0
176
     1
290
     0
176
     1
290
     0
176
     1
290
     0
176
     1
290
     0
176
     1
 90
       50
176
     1
 40
0.0
176
     1
 40
1.0
176
     1
 90
        0
176
     1
 62
    18
420
        0
176
     1
 90
       50
176
     1
 90
        3
176
     1
 62
     5
420
      255
176
     1
290
     0
176
     1
 90
       50
176
     1
 90
       50
176
     1
 90
       50
176
     1
290
     0
176
     1
 90
       50
176
     1
 62
   256
176
     0
 40
1.0
176
     0
 90
        2
176
     1
  1
strokes_ogs.tif
176
     1
290
     0
176
     1
 40
1.0
176
     1
 40
1.0
176
     1
  0
VISUALSTYLE
  5
2E
102
{ACAD_REACTORS
330
2A
102
}
330
2A
100
AcDbVisualStyle
  2
GouraudWithEdges
 70
     3
177
     3
291
     1
 70
    58
 90
        2
176
     1
 90
        2
176
     1
 90
        1
176
     1
 90
        2
176
     1
 40
0.6
176
     1
 40
30.0
176
     1
 62
     7
420
 16777215
176
     1
 90
        1
176
     1
 90
        0
176
     1
 62
     7
176
     1
 62
   257
176
     1
 90
        1
176
     1
 90
        1
176
     1
 40
1.0
176
     1
 90
        0
176
     1
 62
   257
176
     1
 40
1.0
176
     1
 90
        1
176
     1
 90
        6
176
     1
 90
        2
176
     1
 62
     7
176
     1
 90
        5
176
     1
 90
        0
176
     1
 90
        0
176
     1
290
     0
176
     1
 90
       13
176
     1
 40
0.0
176
     1
 90
        0
176
     1
290
     0
176
     1
290
     1
176
     1
290
     1
176
     1
290
     0
176
     1
290
     0
176
     1
290
     0
176
     1
290
     0
176
     1
290
     0
176
     1
290
     0
176
     1
 90
       50
176
     1
 40
0.0
176
     1
 40
1.0
176
     1
 90
        0
176
     1
 62
    18
420
        0
176
     1
 90
       50
176
     1
 90
        3
176
     1
 62
     5
420
      255
176
     1
290
     0
176
     1
 90
       50
176
     1
 90
       50
176
     1
 90
       50
176
     1
290
     0
176
     1
 90
       50
176
     1
 62
   256
176
     0
 40
1.0
176
     0
 90
        2
176
     1
  1
strokes_ogs.tif
176
     1
290
     0
176
     1
 40
1.0
176
     1
 40
1.0
176
     1
  0
VISUALSTYLE
  5
31
102
{ACAD_REACTORS
330
2A
102
}
330
2A
100
AcDbVisualStyle
  2
Hidden
 70
     6
177
     3
291
     0
 70
    58
 90
        1
176
     1
 90
        2
176
     1
 90
        2
176
     1
 90
        0
176
     1
 40
0.6
176
     1
 40
30.0
176
     1
 62
     7
420
 16777215
176
     1
 90
        2
176
     1
 90
        2
176
     1
 62
     7
176
     1
 62
   257
176
     1
 90
        2
176
     1
 90
        1
176
     1
 40
40.0
176
     1
 90
        0
176
     1
 62
   257
176
     1
 40
1.0
176
     1
 90
        1
176
     1
 90
        6
176
     1
 90
        2
176
     1
 62
     7
176
     1
 90
        3
176
     1
 90
        0
176
     1
 90
        0
176
     1
290
     0
176
     1
 90
        1
176
     1
 40
0.0
176
     1
 90
        0
176
     1
290
     0
176
     1
290
     1
176
     1
290
     1
176
     1
290
     0
176
     1
290
     0
176
     1
290
     0
176
     1
290
     0
176
     1
290
     0
176
     1
290
     0
176
     1
 90
       50
176
     1
 40
0.0
176
     1
 40
1.0
176
     1
 90
        0
176
     1
 62
    18
420
        0
176
     1
 90
       50
176
     1
 90
        3
176
     1
 62
     5
420
      255
176
     1
290
     0
176
     1
 90
       50
176
     1
 90
       50
176
     1
 90
       50
176
     1
290
     0
176
     1
 90
       50
176
     1
 62
   256
176
     0
 40
1.0
176
     0
 90
        2
176
     1
  1
strokes_ogs.tif
176
     1
290
     0
176
     1
 40
1.0
176
     1
 40
1.0
176
     1
  0
VISUALSTYLE
  5
3B
102
{ACAD_REACTORS
330
2A
102
}
330
2A
100
AcDbVisualStyle
  2
JitterOff
 70
    20
177
     3
291
     1
 70
    58
 90
        2
176
     0
 90
        2
176
     0
 90
        0
176
     0
 90
        0
176
     0
 40
0.6
176
     0
 40
30.0
176
     0
 62
     7
420
 16777215
176
     0
 90
        1
176
     0
 90
        4
176
     0
 62
     7
176
     0
 62
   257
176
     0
 90
        1
176
     0
 90
        1
176
     0
 40
1.0
176
     0
 90
       10
176
     2
 62
     7
176
     0
 40
1.0
176
     0
 90
        1
176
     0
 90
        6
176
     0
 90
        2
176
     0
 62
     7
176
     0
 90
        5
176
     0
 90
        0
176
     0
 90
        0
176
     0
290
     0
176
     0
 90
        1
176
     0
 40
0.0
176
     0
 90
        0
176
     0
290
     0
176
     0
290
     1
176
     0
290
     1
176
     0
290
     0
176
     0
290
     0
176
     0
290
     0
176
     0
290
     0
176
     0
290
     0
176
     0
290
     0
176
     0
 90
       50
176
     0
 40
0.0
176
     0
 40
1.0
176
     0
 90
        0
176
     0
 62
    18
420
        0
176
     0
 90
       50
176
     0
 90
        3
176
     0
 62
     5
420
      255
176
     0
290
     0
176
     0
 90
       50
176
     0
 90
       50
176
     0
 90
       50
176
     0
290
     0
176
     0
 90
       50
176
     0
 62
   256
176
     0
 40
1.0
176
     0
 90
        2
176
     0
  1
strokes_ogs.tif
176
     0
290
     0
176
     0
 40
1.0
176
     0
 40
1.0
176
     0
  0
VISUALSTYLE
  5
38
102
{ACAD_REACTORS
330
2A
102
}
330
2A
100
AcDbVisualStyle
  2
Linepattern
 70
    14
177
     3
291
     1
 70
    58
 90
        2
176
     1
 90
        2
176
     1
 90
        0
176
     1
 90
        0
176
     1
 40
0.6
176
     1
 40
30.0
176
     1
 62
     7
420
 16777215
176
     1
 90
        1
176
     1
 90
        4
176
     1
 62
     7
176
     1
 62
   257
176
     1
 90
        7
176
     1
 90
        7
176
     1
 40
1.0
176
     1
 90
        8
176
     1
 62
     7
176
     1
 40
1.0
176
     1
 90
        1
176
     1
 90
        6
176
     1
 90
        2
176
     1
 62
     7
176
     1
 90
        5
176
     1
 90
        0
176
     1
 90
        0
176
     1
290
     0
176
     1
 90
        1
176
     1
 40
0.0
176
     1
 90
        0
176
     1
290
     0
176
     1
290
     1
176
     1
290
     1
176
     1
290
     0
176
     1
290
     0
176
     1
290
     0
176
     1
290
     0
176
     1
290
     0
176
     1
290
     0
176
     1
 90
       50
176
     1
 40
0.0
176
     1
 40
1.0
176
     1
 90
        0
176
     1
 62
    18
420
        0
176
     1
 90
       50
176
     1
 90
        3
176
     1
 62
     5
420
      255
176
     1
290
     0
176
     1
 90
       50
176
     1
 90
       50
176
     1
 90
       50
176
     1
290
     0
176
     1
 90
       50
176
     1
 62
   256
176
     0
 40
1.0
176
     0
 90
        2
176
     1
  1
strokes_ogs.tif
176
     1
290
     0
176
     1
 40
1.0
176
     1
 40
1.0
176
     1
  0
VISUALSTYLE
  5
3C
102
{ACAD_REACTORS
330
2A
102
}
330
2A
100
AcDbVisualStyle
  2
OverhangOff
 70
    21
177
     3
291
     1
 70
    58
 90
        2
176
     0
 90
        2
176
     0
 90
        0
176
     0
 90
        0
176
     0
 40
0.6
176
     0
 40
30.0
176
     0
 62
     7
420
 16777215
176
     0
 90
        1
176
     0
 90
        4
176
     0
 62
     7
176
     0
 62
   257
176
     0
 90
        1
176
     0
 90
        1
176
     0
 40
1.0
176
     0
 90
        9
176
     2
 62
     7
176
     0
 40
1.0
176
     0
 90
        1
176
     0
 90
        6
176
     0
 90
        2
176
     0
 62
     7
176
     0
 90
        5
176
     0
 90
        0
176
     0
 90
        0
176
     0
290
     0
176
     0
 90
        1
176
     0
 40
0.0
176
     0
 90
        0
176
     0
290
     0
176
     0
290
     1
176
     0
290
     1
176
     0
290
     0
176
     0
290
     0
176
     0
290
     0
176
     0
290
     0
176
     0
290
     0
176
     0
290
     0
176
     0
 90
       50
176
     0
 40
0.0
176
     0
 40
1.0
176
     0
 90
        0
176
     0
 62
    18
420
        0
176
     0
 90
       50
176
     0
 90
        3
176
     0
 62
     5
420
      255
176
     0
290
     0
176
     0
 90
       50
176
     0
 90
       50
176
     0
 90
       50
176
     0
290
     0
176
     0
 90
       50
176
     0
 62
   256
176
     0
 40
1.0
176
     0
 90
        2
176
     0
  1
strokes_ogs.tif
176
     0
290
     0
176
     0
 40
1.0
176
     0
 40
1.0
176
     0
  0
VISUALSTYLE
  5
33
102
{ACAD_REACTORS
330
2A
102
}
330
2A
100
AcDbVisualStyle
  2
Realistic
 70
     8
177
     3
291
     0
 70
    58
 90
        2
176
     1
 90
        3
176
     1
 90
        0
176
     1
 90
        2
176
     1
 40
0.6
176
     1
 40
30.0
176
     1
 62
     7
420
 16777215
176
     1
 90
        0
176
     1
 90
        0
176
     1
 62
     7
176
     1
 62
   257
176
     1
 90
        1
176
     1
 90
        1
176
     1
 40
1.0
176
     1
 90
        8
176
     1
 62
   257
176
     1
 40
1.0
176
     1
 90
        1
176
     1
 90
        6
176
     1
 90
        2
176
     1
 62
     7
176
     1
 90
        3
176
     1
 90
        0
176
     1
 90
        0
176
     1
290
     0
176
     1
 90
       13
176
     1
 40
0.0
176
     1
 90
        0
176
     1
290
     0
176
     1
290
     1
176
     1
290
     1
176
     1
290
     0
176
     1
290
     0
176
     1
290
     0
176
     1
290
     0
176
     1
290
     0
176
     1
290
     0
176
     1
 90
       50
176
     1
 40
0.0
176
     1
 40
1.0
176
     1
 90
        0
176
     1
 62
    18
420
        0
176
     1
 90
       50
176
     1
 90
        3
176
     1
 62
     5
420
      255
176
     1
290
     0
176
     1
 90
       50
176
     1
 90
       50
176
     1
 90
       50
176
     1
290
     0
176
     1
 90
       50
176
     1
 62
   256
176
     0
 40
1.0
176
     0
 90
        2
176
     1
  1
strokes_ogs.tif
176
     1
290
     0
176
     1
 40
1.0
176
     1
 40
1.0
176
     1
  0
VISUALSTYLE
  5
42
102
{ACAD_REACTORS
330
2A
102
}
330
2A
100
AcDbVisualStyle
  2
Shaded
 70
    27
177
     3
291
     0
 70
    58
 90
        2
176
     1
 90
        2
176
     1
 90
        1
176
     1
 90
        2
176
     1
 40
0.6
176
     1
 40
30.0
176
     1
 62
     7
420
 16777215
176
     1
 90
        0
176
     1
 90
        4
176
     1
 62
     7
176
     1
 62
   257
176
     1
 90
        1
176
     1
 90
        1
176
     1
 40
1.0
176
     1
 90
        8
176
     1
 62
   257
176
     1
 40
1.0
176
     1
 90
        1
176
     1
 90
        6
176
     1
 90
        2
176
     1
 62
     8
420
  7895160
176
     1
 90
        3
176
     1
 90
        0
176
     1
 90
        0
176
     1
290
     0
176
     1
 90
        5
176
     1
 40
0.0
176
     1
 90
        0
176
     1
290
     0
176
     1
290
     1
176
     1
290
     1
176
     1
290
     0
176
     1
290
     0
176
     1
290
     0
176
     1
290
     0
176
     1
290
     0
176
     1
290
     0
176
     1
 90
       50
176
     1
 40
0.0
176
     1
 40
1.0
176
     1
 90
        0
176
     1
 62
    18
420
        0
176
     1
 90
       50
176
     1
 90
        3
176
     1
 62
     5
420
      255
176
     1
290
     0
176
     1
 90
       50
176
     1
 90
       50
176
     1
 90
       50
176
     1
290
     0
176
     1
 90
       50
176
     1
 62
   256
176
     0
 40
1.0
176
     0
 90
        2
176
     1
  1
strokes_ogs.tif
176
     1
290
     0
176
     1
 40
1.0
176
     1
 40
1.0
176
     1
  0
VISUALSTYLE
  5
41
102
{ACAD_REACTORS
330
2A
102
}
330
2A
100
AcDbVisualStyle
  2
Shaded with edges
 70
    26
177
     3
291
     0
 70
    58
 90
        2
176
     1
 90
        2
176
     1
 90
        1
176
     1
 90
        2
176
     1
 40
0.6
176
     1
 40
30.0
176
     1
 62
     7
420
 16777215
176
     1
 90
        1
176
     1
 90
       10
176
     1
 62
     7
176
     1
 62
   257
176
     1
 90
        2
176
     1
 90
        1
176
     1
 40
1.0
176
     1
 90
        8
176
     1
 62
   257
176
     1
 40
1.0
176
     1
 90
        1
176
     1
 90
        6
176
     1
 90
        2
176
     1
 62
     7
176
     1
 90
        3
176
     1
 90
        0
176
     1
 90
        0
176
     1
290
     0
176
     1
 90
        5
176
     1
 40
0.0
176
     1
 90
        0
176
     1
290
     0
176
     1
290
     1
176
     1
290
     1
176
     1
290
     0
176
     1
290
     0
176
     1
290
     0
176
     1
290
     0
176
     1
290
     0
176
     1
290
     0
176
     1
 90
       50
176
     1
 40
0.0
176
     1
 40
1.0
176
     1
 90
        0
176
     1
 62
    18
420
        0
176
     1
 90
       50
176
     1
 90
        3
176
     1
 62
     5
420
      255
176
     1
290
     0
176
     1
 90
       50
176
     1
 90
       50
176
     1
 90
       50
176
     1
290
     0
176
     1
 90
       50
176
     1
 62
   256
176
     0
 40
1.0
176
     0
 90
        2
176
     1
  1
strokes_ogs.tif
176
     1
290
     0
176
     1
 40
1.0
176
     1
 40
1.0
176
     1
  0
VISUALSTYLE
  5
3E
102
{ACAD_REACTORS
330
2A
102
}
330
2A
100
AcDbVisualStyle
  2
Shades of Gray
 70
    23
177
     3
291
     0
 70
    58
 90
        2
176
     1
 90
        2
176
     1
 90
        3
176
     1
 90
        0
176
     1
 40
0.6
176
     1
 40
30.0
176
     1
 62
     7
420
 16777215
176
     1
 90
        2
176
     1
 90
        2
176
     1
 62
     7
176
     1
 62
     7
176
     1
 90
        1
176
     1
 90
        1
176
     1
 40
40.0
176
     1
 90
        8
176
     1
 62
     7
176
     1
 40
1.0
176
     1
 90
        1
176
     1
 90
        6
176
     1
 90
        2
176
     1
 62
     7
176
     1
 90
        3
176
     1
 90
        0
176
     1
 90
        0
176
     1
290
     0
176
     1
 90
        1
176
     1
 40
0.0
176
     1
 90
        0
176
     1
290
     0
176
     1
290
     1
176
     1
290
     1
176
     1
290
     0
176
     1
290
     0
176
     1
290
     0
176
     1
290
     0
176
     1
290
     0
176
     1
290
     0
176
     1
 90
       50
176
     1
 40
0.0
176
     1
 40
1.0
176
     1
 90
        0
176
     1
 62
    18
420
        0
176
     1
 90
       50
176
     1
 90
        3
176
     1
 62
     5
420
      255
176
     1
290
     0
176
     1
 90
       50
176
     1
 90
       50
176
     1
 90
       50
176
     1
290
     0
176
     1
 90
       50
176
     1
 62
   256
176
     0
 40
1.0
176
     0
 90
        2
176
     1
  1
strokes_ogs.tif
176
     1
290
     0
176
     1
 40
1.0
176
     1
 40
1.0
176
     1
  0
VISUALSTYLE
  5
3F
102
{ACAD_REACTORS
330
2A
102
}
330
2A
100
AcDbVisualStyle
  2
Sketchy
 70
    24
177
     3
291
     0
 70
    58
 90
        1
176
     1
 90
        2
176
     1
 90
        2
176
     1
 90
        0
176
     1
 40
0.6
176
     1
 40
30.0
176
     1
 62
     7
420
 16777215
176
     1
 90
        2
176
     1
 90
        2
176
     1
 62
     7
176
     1
 62
     7
176
     1
 90
        1
176
     1
 90
        1
176
     1
 40
40.0
176
     1
 90
       11
176
     1
 62
     7
176
     1
 40
1.0
176
     1
 90
        1
176
     1
 90
        6
176
     1
 90
        2
176
     1
 62
     7
176
     1
 90
        6
176
     1
 90
        0
176
     1
 90
        0
176
     1
290
     0
176
     1
 90
        1
176
     1
 40
0.0
176
     1
 90
        0
176
     1
290
     0
176
     1
290
     1
176
     1
290
     1
176
     1
290
     0
176
     1
290
     0
176
     1
290
     0
176
     1
290
     0
176
     1
290
     0
176
     1
290
     0
176
     1
 90
       50
176
     1
 40
0.0
176
     1
 40
1.0
176
     1
 90
        0
176
     1
 62
    18
420
        0
176
     1
 90
       50
176
     1
 90
        3
176
     1
 62
     5
420
      255
176
     1
290
     0
176
     1
 90
       50
176
     1
 90
       50
176
     1
 90
       50
176
     1
290
     0
176
     1
 90
       50
176
     1
 62
   256
176
     0
 40
1.0
176
     0
 90
        2
176
     1
  1
strokes_ogs.tif
176
     1
290
     0
176
     1
 40
1.0
176
     1
 40
1.0
176
     1
  0
VISUALSTYLE
  5
37
102
{ACAD_REACTORS
330
2A
102
}
330
2A
100
AcDbVisualStyle
  2
Thicken
 70
    13
177
     3
291
     1
 70
    58
 90
        2
176
     1
 90
        2
176
     1
 90
        0
176
     1
 90
        0
176
     1
 40
0.6
176
     1
 40
30.0
176
     1
 62
     7
420
 16777215
176
     1
 90
        1
176
     1
 90
        4
176
     1
 62
     7
176
     1
 62
   257
176
     1
 90
        1
176
     1
 90
        1
176
     1
 40
1.0
176
     1
 90
       12
176
     1
 62
     7
176
     1
 40
1.0
176
     1
 90
        1
176
     1
 90
        6
176
     1
 90
        2
176
     1
 62
     7
176
     1
 90
        5
176
     1
 90
        0
176
     1
 90
        0
176
     1
290
     0
176
     1
 90
        1
176
     1
 40
0.0
176
     1
 90
        0
176
     1
290
     0
176
     1
290
     1
176
     1
290
     1
176
     1
290
     0
176
     1
290
     0
176
     1
290
     0
176
     1
290
     0
176
     1
290
     0
176
     1
290
     0
176
     1
 90
       50
176
     1
 40
0.0
176
     1
 40
1.0
176
     1
 90
        0
176
     1
 62
    18
420
        0
176
     1
 90
       50
176
     1
 90
        3
176
     1
 62
     5
420
      255
176
     1
290
     0
176
     1
 90
       50
176
     1
 90
       50
176
     1
 90
       50
176
     1
290
     0
176
     1
 90
       50
176
     1
 62
   256
176
     0
 40
1.0
176
     0
 90
        2
176
     1
  1
strokes_ogs.tif
176
     1
290
     0
176
     1
 40
1.0
176
     1
 40
1.0
176
     1
  0
VISUALSTYLE
  5
30
102
{ACAD_REACTORS
330
2A
102
}
330
2A
100
AcDbVisualStyle
  2
Wireframe
 70
     5
177
     3
291
     0
 70
    58
 90
        0
176
     1
 90
        2
176
     1
 90
        0
176
     1
 90
        0
176
     1
 40
0.6
176
     1
 40
30.0
176
     1
 62
     7
420
 16777215
176
     1
 90
        1
176
     1
 90
        4
176
     1
 62
     7
176
     1
 62
   257
176
     1
 90
        1
176
     1
 90
        1
176
     1
 40
1.0
176
     1
 90
        0
176
     1
 62
   257
176
     1
 40
1.0
176
     1
 90
        1
176
     1
 90
        6
176
     1
 90
        2
176
     1
 62
     7
176
     1
 90
        3
176
     1
 90
        0
176
     1
 90
        0
176
     1
290
     0
176
     1
 90
        1
176
     1
 40
0.0
176
     1
 90
        0
176
     1
290
     0
176
     1
290
     1
176
     1
290
     1
176
     1
290
     0
176
     1
290
     0
176
     1
290
     0
176
     1
290
     0
176
     1
290
     0
176
     1
290
     0
176
     1
 90
       50
176
     1
 40
0.0
176
     1
 40
1.0
176
     1
 90
        0
176
     1
 62
    18
420
        0
176
     1
 90
       50
176
     1
 90
        3
176
     1
 62
     5
420
      255
176
     1
290
     0
176
     1
 90
       50
176
     1
 90
       50
176
     1
 90
       50
176
     1
290
     0
176
     1
 90
       50
176
     1
 62
   256
176
     0
 40
1.0
176
     0
 90
        2
176
     1
  1
strokes_ogs.tif
176
     1
290
     0
176
     1
 40
1.0
176
     1
 40
1.0
176
     1
  0
VISUALSTYLE
  5
40
102
{ACAD_REACTORS
330
2A
102
}
330
2A
100
AcDbVisualStyle
  2
X-Ray
 70
    25
177
     3
291
     0
 70
    58
 90
        2
176
     1
 90
        2
176
     1
 90
        1
176
     1
 90
        1
176
     1
 40
0.5
176
     1
 40
30.0
176
     1
 62
     7
420
 16777215
176
     1
 90
        1
176
     1
 90
        0
176
     1
 62
     7
176
     1
 62
   257
176
     1
 90
        1
176
     1
 90
        1
176
     1
 40
1.0
176
     1
 90
        8
176
     1
 62
     7
176
     1
 40
1.0
176
     1
 90
        1
176
     1
 90
        6
176
     1
 90
        2
176
     1
 62
     7
176
     1
 90
        3
176
     1
 90
        0
176
     1
 90
        0
176
     1
290
     0
176
     1
 90
       13
176
     1
 40
0.0
176
     1
 90
        0
176
     1
290
     0
176
     1
290
     1
176
     1
290
     1
176
     1
290
     0
176
     1
290
     0
176
     1
290
     0
176
     1
290
     0
176
     1
290
     0
176
     1
290
     0
176
     1
 90
       50
176
     1
 40
0.0
176
     1
 40
1.0
176
     1
 90
        0
176
     1
 62
    18
420
        0
176
     1
 90
       50
176
     1
 90
        3
176
     1
 62
     5
420
      255
176
     1
290
     0
176
     1
 90
       50
176
     1
 90
       50
176
     1
 90
       50
176
     1
290
     0
176
     1
 90
       50
176
     1
 62
   256
176
     0
 40
1.0
176
     0
 90
        2
176
     1
  1
strokes_ogs.tif
176
     1
290
     0
176
     1
 40
1.0
176
     1
 40
1.0
176
     1
  0
DICTIONARYVAR
  5
1AE
102
{ACAD_REACTORS
330
1AD
102
}
330
1AD
100
DictionaryVariables
280
     0
  1
1:1
  0
DICTIONARYVAR
  5
1B3
102
{ACAD_REACTORS
330
1AD
102
}
330
1AD
100
DictionaryVariables
280
     0
  1
Standard
  0
DICTIONARYVAR
  5
1B2
102
{ACAD_REACTORS
330
1AD
102
}
330
1AD
100
DictionaryVariables
280
     0
  1
Standard
  0
DICTIONARY
  5
1AF
330
6A
100
AcDbDictionary
280
     1
281
     1
  3
ACAD_ROUNDTRIP_2008_TABLESTYLE_CELLSTYLEMAP
360
1B0
  0
CELLSTYLEMAP
  5
1B0
102
{ACAD_REACTORS
330
1AF
102
}
330
1AF
100
AcDbCellStyleMap
 90
        3
300
CELLSTYLE
  1
TABLEFORMAT_BEGIN
 90
        5
170
     1
 91
        0
 92
    32768
 62
   257
 93
        1
300
CONTENTFORMAT
  1
CONTENTFORMAT_BEGIN
 90
        0
 91
        0
 92
        4
 93
        0
300

 40
0.0
140
1.0
 94
        5
 62
     0
340
11
144
0.25
309
CONTENTFORMAT_END
171
     1
301
MARGIN
  1
CELLMARGIN_BEGIN
 40
0.06
 40
0.06
 40
0.06
 40
0.06
 40
0.06
 40
0.06
309
CELLMARGIN_END
 94
        6
 95
        1
302
GRIDFORMAT
  1
GRIDFORMAT_BEGIN
 90
        0
 91
        1
 62
     0
 92
       -2
340
14
 93
        0
 40
0.045
309
GRIDFORMAT_END
 95
        2
302
GRIDFORMAT
  1
GRIDFORMAT_BEGIN
 90
        0
 91
        1
 62
     0
 92
       -2
340
14
 93
        0
 40
0.045
309
GRIDFORMAT_END
 95
        4
302
GRIDFORMAT
  1
GRIDFORMAT_BEGIN
 90
        0
 91
        1
 62
     0
 92
       -2
340
14
 93
        0
 40
0.045
309
GRIDFORMAT_END
 95
        8
302
GRIDFORMAT
  1
GRIDFORMAT_BEGIN
 90
        0
 91
        1
 62
     0
 92
       -2
340
14
 93
        0
 40
0.045
309
GRIDFORMAT_END
 95
       16
302
GRIDFORMAT
  1
GRIDFORMAT_BEGIN
 90
        0
 91
        1
 62
     0
 92
       -2
340
14
 93
        0
 40
0.045
309
GRIDFORMAT_END
 95
       32
302
GRIDFORMAT
  1
GRIDFORMAT_BEGIN
 90
        0
 91
        1
 62
     0
 92
       -2
340
14
 93
        0
 40
0.045
309
GRIDFORMAT_END
309
TABLEFORMAT_END
  1
CELLSTYLE_BEGIN
 90
        1
 91
        1
300
_TITLE
309
CELLSTYLE_END
300
CELLSTYLE
  1
TABLEFORMAT_BEGIN
 90
        5
170
     1
 91
        0
 92
        0
 62
   257
 93
        1
300
CONTENTFORMAT
  1
CONTENTFORMAT_BEGIN
 90
        0
 91
        0
 92
        4
 93
        0
300

 40
0.0
140
1.0
 94
        5
 62
     0
340
11
144
0.18
309
CONTENTFORMAT_END
171
     1
301
MARGIN
  1
CELLMARGIN_BEGIN
 40
0.06
 40
0.06
 40
0.06
 40
0.06
 40
0.06
 40
0.06
309
CELLMARGIN_END
 94
        6
 95
        1
302
GRIDFORMAT
  1
GRIDFORMAT_BEGIN
 90
        0
 91
        1
 62
     0
 92
       -2
340
14
 93
        0
 40
0.045
309
GRIDFORMAT_END
 95
        2
302
GRIDFORMAT
  1
GRIDFORMAT_BEGIN
 90
        0
 91
        1
 62
     0
 92
       -2
340
14
 93
        0
 40
0.045
309
GRIDFORMAT_END
 95
        4
302
GRIDFORMAT
  1
GRIDFORMAT_BEGIN
 90
        0
 91
        1
 62
     0
 92
       -2
340
14
 93
        0
 40
0.045
309
GRIDFORMAT_END
 95
        8
302
GRIDFORMAT
  1
GRIDFORMAT_BEGIN
 90
        0
 91
        1
 62
     0
 92
       -2
340
14
 93
        0
 40
0.045
309
GRIDFORMAT_END
 95
       16
302
GRIDFORMAT
  1
GRIDFORMAT_BEGIN
 90
        0
 91
        1
 62
     0
 92
       -2
340
14
 93
        0
 40
0.045
309
GRIDFORMAT_END
 95
       32
302
GRIDFORMAT
  1
GRIDFORMAT_BEGIN
 90
        0
 91
        1
 62
     0
 92
       -2
340
14
 93
        0
 40
0.045
309
GRIDFORMAT_END
309
TABLEFORMAT_END
  1
CELLSTYLE_BEGIN
 90
        2
 91
        1
300
_HEADER
309
CELLSTYLE_END
300
CELLSTYLE
  1
TABLEFORMAT_BEGIN
 90
        5
170
     1
 91
        0
 92
        0
 62
   257
 93
        1
300
CONTENTFORMAT
  1
CONTENTFORMAT_BEGIN
 90
        0
 91
        0
 92
        4
 93
        0
300

 40
0.0
140
1.0
 94
        2
 62
     0
340
11
144
0.18
309
CONTENTFORMAT_END
171
     1
301
MARGIN
  1
CELLMARGIN_BEGIN
 40
0.06
 40
0.06
 40
0.06
 40
0.06
 40
0.06
 40
0.06
309
CELLMARGIN_END
 94
        6
 95
        1
302
GRIDFORMAT
  1
GRIDFORMAT_BEGIN
 90
        0
 91
        1
 62
     0
 92
       -2
340
14
 93
        0
 40
0.045
309
GRIDFORMAT_END
 95
        2
302
GRIDFORMAT
  1
GRIDFORMAT_BEGIN
 90
        0
 91
        1
 62
     0
 92
       -2
340
14
 93
        0
 40
0.045
309
GRIDFORMAT_END
 95
        4
302
GRIDFORMAT
  1
GRIDFORMAT_BEGIN
 90
        0
 91
        1
 62
     0
 92
       -2
340
14
 93
        0
 40
0.045
309
GRIDFORMAT_END
 95
        8
302
GRIDFORMAT
  1
GRIDFORMAT_BEGIN
 90
        0
 91
        1
 62
     0
 92
       -2
340
14
 93
        0
 40
0.045
309
GRIDFORMAT_END
 95
       16
302
GRIDFORMAT
  1
GRIDFORMAT_BEGIN
 90
        0
 91
        1
 62
     0
 92
       -2
340
14
 93
        0
 40
0.045
309
GRIDFORMAT_END
 95
       32
302
GRIDFORMAT
  1
GRIDFORMAT_BEGIN
 90
        0
 91
        1
 62
     0
 92
       -2
340
14
 93
        0
 40
0.045
309
GRIDFORMAT_END
309
TABLEFORMAT_END
  1
CELLSTYLE_BEGIN
 90
        3
 91
        2
300
_DATA
309
CELLSTYLE_END
  0
ENDSEC
  0
EOF