0
SECTION
  2
HEADER
  9
$ACADVER
  1
AC1027
  9
$ACADMAINTVER
 70
     8
  9
$DWGCODEPAGE
  3
ANSI_1252
  9
$REQUIREDVERSIONS
160
                 0
  9
$COMMENTS
  1
File was created by Cadenas
  9
$CUSTOMPROPERTYTAG
  1
NN
  9
$CUSTOMPROPERTY
  1
Double-Interlock S-1 Units Gray Iron - Inch 1-3/16 thru 3
  9
$CUSTOMPROPERTYTAG
  1
NT
  9
$CUSTOMPROPERTY
  1
Double-Interlock Bearings -Units
  9
$CUSTOMPROPERTYTAG
  1
NB
  9
$CUSTOMPROPERTY
  1
023527
  9
$CUSTOMPROPERTYTAG
  1
NBSYN
  9
$CUSTOMPROPERTY
  1
$PN.
  9
$CUSTOMPROPERTYTAG
  1
LINA
  9
$CUSTOMPROPERTY
  1
023527
  9
$CUSTOMPROPERTYTAG
  1
SS
  9
$CUSTOMPROPERTY
  1
3-1/4
  9
$CUSTOMPROPERTYTAG
  1
PN
  9
$CUSTOMPROPERTY
  1
023527
  9
$CUSTOMPROPERTYTAG
  1
DESCRIPTION
  9
$CUSTOMPROPERTY
  1
S1U-DI-304R
  9
$CUSTOMPROPERTYTAG
  1
A
  9
$CUSTOMPROPERTY
  1
5
  9
$CUSTOMPROPERTYTAG
  1
B
  9
$CUSTOMPROPERTY
  1
3-1/2
  9
$CUSTOMPROPERTYTAG
  1
C
  9
$CUSTOMPROPERTY
  1
2
  9
$CUSTOMPROPERTYTAG
  1
EM
  9
$CUSTOMPROPERTY
  1
6.813
  9
$CUSTOMPROPERTYTAG
  1
EC
  9
$CUSTOMPROPERTY
  1
6-15/16
  9
$CUSTOMPROPERTYTAG
  1
H
  9
$CUSTOMPROPERTY
  1
11/16
  9
$CUSTOMPROPERTYTAG
  1
K
  9
$CUSTOMPROPERTY
  1
7.373
  9
$CUSTOMPROPERTYTAG
  1
TOL
  9
$CUSTOMPROPERTY
  1
+0.000 to -0.003
  9
$CUSTOMPROPERTYTAG
  1
L
  9
$CUSTOMPROPERTY
  1
5-1/2
  9
$CUSTOMPROPERTYTAG
  1
M
  9
$CUSTOMPROPERTY
  1
4.51
  9
$CUSTOMPROPERTYTAG
  1
COMPANY
  9
$CUSTOMPROPERTY
  1
baldor
  9
$INSBASE
 10
0.0
 20
0.0
 30
0.0
  9
$EXTMIN
 10
1.000000000000000E+20
 20
1.000000000000000E+20
 30
1.000000000000000E+20
  9
$EXTMAX
 10
-1.000000000000000E+20
 20
-1.000000000000000E+20
 30
-1.000000000000000E+20
  9
$LIMMIN
 10
0.0
 20
0.0
  9
$LIMMAX
 10
12.0
 20
9.0
  9
$ORTHOMODE
 70
     0
  9
$REGENMODE
 70
     1
  9
$FILLMODE
 70
     1
  9
$QTEXTMODE
 70
     0
  9
$MIRRTEXT
 70
     1
  9
$LTSCALE
 40
1.0
  9
$ATTMODE
 70
     1
  9
$TEXTSIZE
 40
0.2
  9
$TRACEWID
 40
0.05
  9
$TEXTSTYLE
  7
Standard
  9
$CLAYER
  8
0
  9
$CELTYPE
  6
ByLayer
  9
$CECOLOR
 62
   256
  9
$CELTSCALE
 40
1.0
  9
$DISPSILH
 70
     0
  9
$DIMSCALE
 40
1.0
  9
$DIMASZ
 40
0.18
  9
$DIMEXO
 40
0.0625
  9
$DIMDLI
 40
0.38
  9
$DIMRND
 40
0.0
  9
$DIMDLE
 40
0.0
  9
$DIMEXE
 40
0.18
  9
$DIMTP
 40
0.0
  9
$DIMTM
 40
0.0
  9
$DIMTXT
 40
0.18
  9
$DIMCEN
 40
0.09
  9
$DIMTSZ
 40
0.0
  9
$DIMTOL
 70
     0
  9
$DIMLIM
 70
     0
  9
$DIMTIH
 70
     1
  9
$DIMTOH
 70
     1
  9
$DIMSE1
 70
     0
  9
$DIMSE2
 70
     0
  9
$DIMTAD
 70
     0
  9
$DIMZIN
 70
     0
  9
$DIMBLK
  1

  9
$DIMASO
 70
     1
  9
$DIMSHO
 70
     1
  9
$DIMPOST
  1

  9
$DIMAPOST
  1

  9
$DIMALT
 70
     0
  9
$DIMALTD
 70
     2
  9
$DIMALTF
 40
25.4
  9
$DIMLFAC
 40
1.0
  9
$DIMTOFL
 70
     0
  9
$DIMTVP
 40
0.0
  9
$DIMTIX
 70
     0
  9
$DIMSOXD
 70
     0
  9
$DIMSAH
 70
     0
  9
$DIMBLK1
  1

  9
$DIMBLK2
  1

  9
$DIMSTYLE
  2
Standard
  9
$DIMCLRD
 70
     0
  9
$DIMCLRE
 70
     0
  9
$DIMCLRT
 70
     0
  9
$DIMTFAC
 40
1.0
  9
$DIMGAP
 40
0.09
  9
$DIMJUST
 70
     0
  9
$DIMSD1
 70
     0
  9
$DIMSD2
 70
     0
  9
$DIMTOLJ
 70
     1
  9
$DIMTZIN
 70
     0
  9
$DIMALTZ
 70
     0
  9
$DIMALTTZ
 70
     0
  9
$DIMUPT
 70
     0
  9
$DIMDEC
 70
     4
  9
$DIMTDEC
 70
     4
  9
$DIMALTU
 70
     2
  9
$DIMALTTD
 70
     2
  9
$DIMTXSTY
  7
Standard
  9
$DIMAUNIT
 70
     0
  9
$DIMADEC
 70
     0
  9
$DIMALTRND
 40
0.0
  9
$DIMAZIN
 70
     0
  9
$DIMDSEP
 70
    46
  9
$DIMATFIT
 70
     3
  9
$DIMFRAC
 70
     0
  9
$DIMLDRBLK
  1

  9
$DIMLUNIT
 70
     2
  9
$DIMLWD
 70
    -2
  9
$DIMLWE
 70
    -2
  9
$DIMTMOVE
 70
     0
  9
$DIMFXL
 40
1.0
  9
$DIMFXLON
 70
     0
  9
$DIMJOGANG
 40
0.7853981633974483
  9
$DIMTFILL
 70
     0
  9
$DIMTFILLCLR
 70
     0
  9
$DIMARCSYM
 70
     0
  9
$DIMLTYPE
  6

  9
$DIMLTEX1
  6

  9
$DIMLTEX2
  6

  9
$DIMTXTDIRECTION
 70
     0
  9
$LUNITS
 70
     2
  9
$LUPREC
 70
     4
  9
$SKETCHINC
 40
0.1
  9
$FILLETRAD
 40
0.5
  9
$AUNITS
 70
     0
  9
$AUPREC
 70
     0
  9
$MENU
  1
.
  9
$ELEVATION
 40
0.0
  9
$PELEVATION
 40
0.0
  9
$THICKNESS
 40
0.0
  9
$LIMCHECK
 70
     0
  9
$CHAMFERA
 40
0.0
  9
$CHAMFERB
 40
0.0
  9
$CHAMFERC
 40
0.0
  9
$CHAMFERD
 40
0.0
  9
$SKPOLY
 70
     0
  9
$TDCREATE
 40
2458169.015545312
  9
$TDUCREATE
 40
2458168.973878646
  9
$TDUPDATE
 40
2458169.015545498
  9
$TDUUPDATE
 40
2458168.973878831
  9
$TDINDWG
 40
0.0000000116
  9
$TDUSRTIMER
 40
0.0000000116
  9
$USRTIMER
 70
     1
  9
$ANGBASE
 50
0.0
  9
$ANGDIR
 70
     0
  9
$PDMODE
 70
     0
  9
$PDSIZE
 40
0.0
  9
$PLINEWID
 40
0.0
  9
$SPLFRAME
 70
     0
  9
$SPLINETYPE
 70
     6
  9
$SPLINESEGS
 70
     8
  9
$HANDSEED
  5
1B0
  9
$SURFTAB1
 70
     6
  9
$SURFTAB2
 70
     6
  9
$SURFTYPE
 70
     6
  9
$SURFU
 70
     6
  9
$SURFV
 70
     6
  9
$UCSBASE
  2

  9
$UCSNAME
  2

  9
$UCSORG
 10
0.0
 20
0.0
 30
0.0
  9
$UCSXDIR
 10
1.0
 20
0.0
 30
0.0
  9
$UCSYDIR
 10
0.0
 20
1.0
 30
0.0
  9
$UCSORTHOREF
  2

  9
$UCSORTHOVIEW
 70
     0
  9
$UCSORGTOP
 10
0.0
 20
0.0
 30
0.0
  9
$UCSORGBOTTOM
 10
0.0
 20
0.0
 30
0.0
  9
$UCSORGLEFT
 10
0.0
 20
0.0
 30
0.0
  9
$UCSORGRIGHT
 10
0.0
 20
0.0
 30
0.0
  9
$UCSORGFRONT
 10
0.0
 20
0.0
 30
0.0
  9
$UCSORGBACK
 10
0.0
 20
0.0
 30
0.0
  9
$PUCSBASE
  2

  9
$PUCSNAME
  2

  9
$PUCSORG
 10
0.0
 20
0.0
 30
0.0
  9
$PUCSXDIR
 10
1.0
 20
0.0
 30
0.0
  9
$PUCSYDIR
 10
0.0
 20
1.0
 30
0.0
  9
$PUCSORTHOREF
  2

  9
$PUCSORTHOVIEW
 70
     0
  9
$PUCSORGTOP
 10
0.0
 20
0.0
 30
0.0
  9
$PUCSORGBOTTOM
 10
0.0
 20
0.0
 30
0.0
  9
$PUCSORGLEFT
 10
0.0
 20
0.0
 30
0.0
  9
$PUCSORGRIGHT
 10
0.0
 20
0.0
 30
0.0
  9
$PUCSORGFRONT
 10
0.0
 20
0.0
 30
0.0
  9
$PUCSORGBACK
 10
0.0
 20
0.0
 30
0.0
  9
$USERI1
 70
     0
  9
$USERI2
 70
     0
  9
$USERI3
 70
     0
  9
$USERI4
 70
     0
  9
$USERI5
 70
     0
  9
$USERR1
 40
0.0
  9
$USERR2
 40
0.0
  9
$USERR3
 40
0.0
  9
$USERR4
 40
0.0
  9
$USERR5
 40
0.0
  9
$WORLDVIEW
 70
     1
  9
$SHADEDGE
 70
     3
  9
$SHADEDIF
 70
    70
  9
$TILEMODE
 70
     1
  9
$MAXACTVP
 70
    64
  9
$PINSBASE
 10
0.0
 20
0.0
 30
0.0
  9
$PLIMCHECK
 70
     0
  9
$PEXTMIN
 10
1.000000000000000E+20
 20
1.000000000000000E+20
 30
1.000000000000000E+20
  9
$PEXTMAX
 10
-1.000000000000000E+20
 20
-1.000000000000000E+20
 30
-1.000000000000000E+20
  9
$PLIMMIN
 10
0.0
 20
0.0
  9
$PLIMMAX
 10
12.0
 20
9.0
  9
$UNITMODE
 70
     0
  9
$VISRETAIN
 70
     1
  9
$PLINEGEN
 70
     0
  9
$PSLTSCALE
 70
     1
  9
$TREEDEPTH
 70
  3020
  9
$CMLSTYLE
  2
Standard
  9
$CMLJUST
 70
     0
  9
$CMLSCALE
 40
1.0
  9
$PROXYGRAPHICS
 70
     1
  9
$MEASUREMENT
 70
     0
  9
$CELWEIGHT
370
    -1
  9
$ENDCAPS
280
     0
  9
$JOINSTYLE
280
     0
  9
$LWDISPLAY
290
     0
  9
$INSUNITS
 70
     1
  9
$HYPERLINKBASE
  1

  9
$STYLESHEET
  1

  9
$XEDIT
290
     1
  9
$CEPSNTYPE
380
     0
  9
$PSTYLEMODE
290
     1
  9
$FINGERPRINTGUID
  2
{479CEE74-4F7D-4E0E-9D29-1F5C3F520F4D}
  9
$VERSIONGUID
  2
{FAEB1C32-E019-11D5-929B-00C0DF256EC4}
  9
$EXTNAMES
290
     1
  9
$PSVPSCALE
 40
0.0
  9
$OLESTARTUP
290
     0
  9
$SORTENTS
280
   127
  9
$INDEXCTL
280
     0
  9
$HIDETEXT
280
     1
  9
$XCLIPFRAME
280
     2
  9
$HALOGAP
280
     0
  9
$OBSCOLOR
 70
   257
  9
$OBSLTYPE
280
     0
  9
$INTERSECTIONDISPLAY
280
     0
  9
$INTERSECTIONCOLOR
 70
   257
  9
$DIMASSOC
280
     2
  9
$PROJECTNAME
  1

  9
$CAMERADISPLAY
290
     0
  9
$LENSLENGTH
 40
50.0
  9
$CAMERAHEIGHT
 40
0.0
  9
$STEPSPERSEC
 40
2.0
  9
$STEPSIZE
 40
6.0
  9
$3DDWFPREC
 40
2.0
  9
$PSOLWIDTH
 40
0.25
  9
$PSOLHEIGHT
 40
4.0
  9
$LOFTANG1
 40
1.570796326794897
  9
$LOFTANG2
 40
1.570796326794897
  9
$LOFTMAG1
 40
0.0
  9
$LOFTMAG2
 40
0.0
  9
$LOFTPARAM
 70
     7
  9
$LOFTNORMALS
280
     1
  9
$LATITUDE
 40
37.795
  9
$LONGITUDE
 40
-122.394
  9
$NORTHDIRECTION
 40
0.0
  9
$TIMEZONE
 70
 -8000
  9
$LIGHTGLYPHDISPLAY
280
     1
  9
$TILEMODELIGHTSYNCH
280
     1
  9
$CMATERIAL
347
44
  9
$SOLIDHIST
280
     0
  9
$SHOWHIST
280
     1
  9
$DWFFRAME
280
     2
  9
$DGNFRAME
280
     2
  9
$REALWORLDSCALE
290
     1
  9
$INTERFERECOLOR
 62
   256
  9
$CSHADOW
280
     0
  9
$SHADOWPLANELOCATION
 40
0.0
  0
ENDSEC
  0
SECTION
  2
CLASSES
  0
CLASS
  1
ACDBDICTIONARYWDFLT
  2
AcDbDictionaryWithDefault
  3
ObjectDBX Classes
 90
        0
 91
        4
280
     0
281
     0
  0
CLASS
  1
VISUALSTYLE
  2
AcDbVisualStyle
  3
ObjectDBX Classes
 90
     4095
 91
        4
280
     0
281
     0
  0
CLASS
  1
MATERIAL
  2
AcDbMaterial
  3
ObjectDBX Classes
 90
     1153
 91
        4
280
     0
281
     0
  0
CLASS
  1
SCALE
  2
AcDbScale
  3
ObjectDBX Classes
 90
     1153
 91
        4
280
     0
281
     0
  0
CLASS
  1
TABLESTYLE
  2
AcDbTableStyle
  3
ObjectDBX Classes
 90
     4095
 91
        4
280
     0
281
     0
  0
CLASS
  1
MLEADERSTYLE
  2
AcDbMLeaderStyle
  3
ACDB_MLEADERSTYLE_CLASS
 90
     4095
 91
        4
280
     0
281
     0
  0
CLASS
  1
SUN
  2
AcDbSun
  3
SCENEOE
 90
     1153
 91
        4
280
     0
281
     0
  0
CLASS
  1
DICTIONARYVAR
  2
AcDbDictionaryVar
  3
ObjectDBX Classes
 90
        0
 91
        4
280
     0
281
     0
  0
CLASS
  1
CELLSTYLEMAP
  2
AcDbCellStyleMap
  3
ObjectDBX Classes
 90
     1152
 91
        4
280
     0
281
     0
  0
ENDSEC
  0
SECTION
  2
TABLES
  0
TABLE
  2
VPORT
  5
8
330
0
100
AcDbSymbolTable
 70
     1
  0
VPORT
  5
29
330
8
100
AcDbSymbolTableRecord
100
AcDbViewportTableRecord
  2
*Active
 70
     0
 10
0.0
 20
0.0
 11
1.0
 21
1.0
 12
0.0
 22
0.4277499999999943
 13
0.0
 23
0.0
 14
0.5
 24
0.5
 15
0.5
 25
0.5
 16
0.0
 26
0.0
 36
1.0
 17
0.0
 27
0.0
 37
0.0
 40
8.393070000000007
 41
0.6684085799355892
 42
50.0
 43
0.0
 44
0.0
 50
0.0
 51
0.0
 71
     0
 72
   100
 73
     1
 74
     3
 75
     0
 76
     0
 77
     0
 78
     0
281
     0
 65
     1
110
0.0
120
0.0
130
0.0
111
1.0
121
0.0
131
0.0
112
0.0
122
1.0
132
0.0
 79
     0
146
0.0
348
2F
 60
     3
 61
     5
292
     1
282
     1
141
0.0
142
0.0
 63
   250
361
6D
  0
ENDTAB
  0
TABLE
  2
LTYPE
  5
5
330
0
100
AcDbSymbolTable
 70
     3
  0
LTYPE
  5
14
330
5
100
AcDbSymbolTableRecord
100
AcDbLinetypeTableRecord
  2
ByBlock
 70
     0
  3

 72
    65
 73
     0
 40
0.0
  0
LTYPE
  5
15
330
5
100
AcDbSymbolTableRecord
100
AcDbLinetypeTableRecord
  2
ByLayer
 70
     0
  3

 72
    65
 73
     0
 40
0.0
  0
LTYPE
  5
16
330
5
100
AcDbSymbolTableRecord
100
AcDbLinetypeTableRecord
  2
Continuous
 70
     0
  3
Solid line
 72
    65
 73
     0
 40
0.0
  0
LTYPE
  5
9B
330
5
100
AcDbSymbolTableRecord
100
AcDbLinetypeTableRecord
  2
Dashed
 70
     0
  3

 72
    65
 73
     2
 40
2.0
 49
1.0
 74
     0
 49
-1.0
 74
     0
  0
LTYPE
  5
181
330
5
100
AcDbSymbolTableRecord
100
AcDbLinetypeTableRecord
  2
Center
 70
     0
  3

 72
    65
 73
     4
 40
1.5
 49
0.45
 74
     0
 49
-0.5
 74
     0
 49
0.05
 74
     0
 49
-0.5
 74
     0
  0
ENDTAB
  0
TABLE
  2
LAYER
  5
2
330
0
100
AcDbSymbolTable
 70
     7
  0
LAYER
  5
10
330
2
100
AcDbSymbolTableRecord
100
AcDbLayerTableRecord
  2
0
 70
     0
 62
     7
  6
Continuous
370
    -3
390
F
347
46
348
0
  0
LAYER
  5
72
330
2
100
AcDbSymbolTableRecord
100
AcDbLayerTableRecord
  2
AM_6
 70
     0
 62
    -2
  6
Continuous
370
    35
390
F
347
46
348
0
  0
LAYER
  5
9C
330
2
100
AcDbSymbolTableRecord
100
AcDbLayerTableRecord
  2
AM_9
 70
     0
 62
     6
  6
Dashed
370
    25
390
F
347
46
348
0
  0
LAYER
  5
B4
330
2
100
AcDbSymbolTableRecord
100
AcDbLayerTableRecord
  2
AM_5
 70
     0
 62
     3
  6
Continuous
370
    25
390
F
347
46
348
0
  0
LAYER
  5
B7
330
2
100
AcDbSymbolTableRecord
100
AcDbLayerTableRecord
  2
AM_4
 70
     0
 62
     7
  6
Continuous
370
    50
390
F
347
46
348
0
  0
LAYER
  5
182
330
2
100
AcDbSymbolTableRecord
100
AcDbLayerTableRecord
  2
AM_7
 70
     0
 62
     7
  6
Center
370
    25
390
F
347
46
348
0
  0
LAYER
  5
19F
330
2
100
AcDbSymbolTableRecord
100
AcDbLayerTableRecord
  2
ConnectionPoints
 70
     0
 62
     7
  6
Continuous
370
    50
390
F
347
46
348
0
  0
ENDTAB
  0
TABLE
  2
STYLE
  5
3
330
0
100
AcDbSymbolTable
 70
     1
  0
STYLE
  5
11
330
3
100
AcDbSymbolTableRecord
100
AcDbTextStyleTableRecord
  2
Standard
 70
     0
 40
0.0
 41
1.0
 50
0.0
 71
     0
 42
0.2
  3
txt
  4

  0
ENDTAB
  0
TABLE
  2
VIEW
  5
6
330
0
100
AcDbSymbolTable
 70
     0
  0
ENDTAB
  0
TABLE
  2
UCS
  5
7
330
0
100
AcDbSymbolTable
 70
     0
  0
ENDTAB
  0
TABLE
  2
APPID
  5
9
330
0
100
AcDbSymbolTable
 70
     1
  0
APPID
  5
12
330
9
100
AcDbSymbolTableRecord
100
AcDbRegAppTableRecord
  2
ACAD
 70
     0
  0
ENDTAB
  0
TABLE
  2
DIMSTYLE
  5
A
330
0
100
AcDbSymbolTable
 70
     1
100
AcDbDimStyleTable
  0
DIMSTYLE
105
27
330
A
100
AcDbSymbolTableRecord
100
AcDbDimStyleTableRecord
  2
Standard
 70
     0
178
     0
340
11
  0
ENDTAB
  0
TABLE
  2
BLOCK_RECORD
  5
1
330
0
100
AcDbSymbolTable
 70
     6
  0
BLOCK_RECORD
  5
1F
330
1
100
AcDbSymbolTableRecord
100
AcDbBlockTableRecord
  2
*Model_Space
340
22
 70
     0
280
     1
281
     0
  0
BLOCK_RECORD
  5
1B
330
1
100
AcDbSymbolTableRecord
100
AcDbBlockTableRecord
  2
*Paper_Space
340
1E
 70
     0
280
     1
281
     0
  0
BLOCK_RECORD
  5
23
330
1
100
AcDbSymbolTableRecord
100
AcDbBlockTableRecord
  2
*Paper_Space0
340
26
 70
     0
280
     1
281
     0
  0
BLOCK_RECORD
  5
6E
330
1
100
AcDbSymbolTableRecord
100
AcDbBlockTableRecord
  2
1_023527_2
340
0
102
{BLKREFS
331
6F
102
}
 70
     0
280
     1
281
     0
  0
BLOCK_RECORD
  5
86
330
1
100
AcDbSymbolTableRecord
100
AcDbBlockTableRecord
  2
2_3_1_4C_1_0_in_023527_2
340
0
102
{BLKREFS
331
87
102
}
 70
     0
280
     1
281
     0
  0
BLOCK_RECORD
  5
C3
330
1
100
AcDbSymbolTableRecord
100
AcDbBlockTableRecord
  2
3_3_1_4C_2_0_in_023527_2
340
0
102
{BLKREFS
331
C4
102
}
 70
     0
280
     1
281
     0
  0
BLOCK_RECORD
  5
FC
330
1
100
AcDbSymbolTableRecord
100
AcDbBlockTableRecord
  2
4_405015E_Inch_0_in_023527_2
340
0
102
{BLKREFS
331
FD
102
}
 70
     0
280
     1
281
     0
  0
BLOCK_RECORD
  5
13A
330
1
100
AcDbSymbolTableRecord
100
AcDbBlockTableRecord
  2
5_023527_Insert_0_in_023527_2
340
0
102
{BLKREFS
331
13B
102
}
 70
     0
280
     1
281
     0
  0
ENDTAB
  0
ENDSEC
  0
SECTION
  2
BLOCKS
  0
BLOCK
  5
20
330
1F
100
AcDbEntity
  8
0
100
AcDbBlockBegin
  2
*Model_Space
 70
     0
 10
0.0
 20
0.0
 30
0.0
  3
*Model_Space
  1

  0
ENDBLK
  5
21
330
1F
100
AcDbEntity
  8
0
100
AcDbBlockEnd
  0
BLOCK
  5
1C
330
1B
100
AcDbEntity
 67
     1
  8
0
100
AcDbBlockBegin
  2
*Paper_Space
 70
     0
 10
0.0
 20
0.0
 30
0.0
  3
*Paper_Space
  1

  0
ENDBLK
  5
1D
330
1B
100
AcDbEntity
 67
     1
  8
0
100
AcDbBlockEnd
  0
BLOCK
  5
24
330
23
100
AcDbEntity
  8
0
100
AcDbBlockBegin
  2
*Paper_Space0
 70
     0
 10
0.0
 20
0.0
 30
0.0
  3
*Paper_Space0
  1

  0
ENDBLK
  5
25
330
23
100
AcDbEntity
  8
0
100
AcDbBlockEnd
  0
BLOCK
  5
70
330
6E
100
AcDbEntity
  8
0
100
AcDbBlockBegin
  2
1_023527_2
 70
     2
 10
0.0
 20
0.0
 30
0.0
  3
1_023527_2
  1

  0
ATTDEF
  5
73
330
6E
100
AcDbEntity
  8
AM_6
100
AcDbText
 10
7.75
 20
4.541999999999999
 30
0.0
 40
0.5
  1
Double-Interlock S-1 Units Gray Iron - Inch 1-3/16 thru 3
100
AcDbAttributeDefinition
  3

  2
NN
 70
     8
280
     0
  0
ATTDEF
  5
74
330
6E
100
AcDbEntity
  8
AM_6
100
AcDbText
 10
7.75
 20
4.041999999999999
 30
0.0
 40
0.5
  1
Double-Interlock Bearings -Units
100
AcDbAttributeDefinition
  3

  2
NT
 70
     8
280
     0
  0
ATTDEF
  5
75
330
6E
100
AcDbEntity
  8
AM_6
100
AcDbText
 10
7.75
 20
3.541999999999999
 30
0.0
 40
0.5
  1
023527
100
AcDbAttributeDefinition
  3

  2
NB
 70
     8
280
     0
  0
ATTDEF
  5
76
330
6E
100
AcDbEntity
  8
AM_6
100
AcDbText
 10
7.75
 20
3.041999999999999
 30
0.0
 40
0.5
  1
$PN.
100
AcDbAttributeDefinition
  3

  2
NBSYN
 70
     8
280
     0
  0
ATTDEF
  5
77
330
6E
100
AcDbEntity
  8
AM_6
100
AcDbText
 10
7.75
 20
2.541999999999999
 30
0.0
 40
0.5
  1
023527
100
AcDbAttributeDefinition
  3

  2
LINA
 70
     8
280
     0
  0
ATTDEF
  5
78
330
6E
100
AcDbEntity
  8
AM_6
100
AcDbText
 10
7.75
 20
2.041999999999999
 30
0.0
 40
0.5
  1
3-1/4
100
AcDbAttributeDefinition
  3

  2
SS
 70
     8
280
     0
  0
ATTDEF
  5
79
330
6E
100
AcDbEntity
  8
AM_6
100
AcDbText
 10
7.75
 20
1.541999999999999
 30
0.0
 40
0.5
  1
023527
100
AcDbAttributeDefinition
  3

  2
PN
 70
     8
280
     0
  0
ATTDEF
  5
7A
330
6E
100
AcDbEntity
  8
AM_6
100
AcDbText
 10
7.75
 20
1.041999999999999
 30
0.0
 40
0.5
  1
S1U-DI-304R
100
AcDbAttributeDefinition
  3

  2
DESCRIPTION
 70
     8
280
     0
  0
ATTDEF
  5
7B
330
6E
100
AcDbEntity
  8
AM_6
100
AcDbText
 10
7.75
 20
0.5419999999999989
 30
0.0
 40
0.5
  1
5
100
AcDbAttributeDefinition
  3

  2
A
 70
     8
280
     0
  0
ATTDEF
  5
7C
330
6E
100
AcDbEntity
  8
AM_6
100
AcDbText
 10
7.75
 20
0.0419999999999989
 30
0.0
 40
0.5
  1
3-1/2
100
AcDbAttributeDefinition
  3

  2
B
 70
     8
280
     0
  0
ATTDEF
  5
7D
330
6E
100
AcDbEntity
  8
AM_6
100
AcDbText
 10
7.75
 20
-0.4580000000000011
 30
0.0
 40
0.5
  1
2
100
AcDbAttributeDefinition
  3

  2
C
 70
     8
280
     0
  0
ATTDEF
  5
7E
330
6E
100
AcDbEntity
  8
AM_6
100
AcDbText
 10
7.75
 20
-0.9580000000000011
 30
0.0
 40
0.5
  1
6.813
100
AcDbAttributeDefinition
  3

  2
EM
 70
     8
280
     0
  0
ATTDEF
  5
7F
330
6E
100
AcDbEntity
  8
AM_6
100
AcDbText
 10
7.75
 20
-1.458000000000001
 30
0.0
 40
0.5
  1
6-15/16
100
AcDbAttributeDefinition
  3

  2
EC
 70
     8
280
     0
  0
ATTDEF
  5
80
330
6E
100
AcDbEntity
  8
AM_6
100
AcDbText
 10
7.75
 20
-1.958000000000001
 30
0.0
 40
0.5
  1
11/16
100
AcDbAttributeDefinition
  3

  2
H
 70
     8
280
     0
  0
ATTDEF
  5
81
330
6E
100
AcDbEntity
  8
AM_6
100
AcDbText
 10
7.75
 20
-2.458000000000001
 30
0.0
 40
0.5
  1
7.373
100
AcDbAttributeDefinition
  3

  2
K
 70
     8
280
     0
  0
ATTDEF
  5
82
330
6E
100
AcDbEntity
  8
AM_6
100
AcDbText
 10
7.75
 20
-2.958000000000001
 30
0.0
 40
0.5
  1
+0.000 to -0.003
100
AcDbAttributeDefinition
  3

  2
TOL
 70
     8
280
     0
  0
ATTDEF
  5
83
330
6E
100
AcDbEntity
  8
AM_6
100
AcDbText
 10
7.75
 20
-3.458000000000001
 30
0.0
 40
0.5
  1
5-1/2
100
AcDbAttributeDefinition
  3

  2
L
 70
     8
280
     0
  0
ATTDEF
  5
84
330
6E
100
AcDbEntity
  8
AM_6
100
AcDbText
 10
7.75
 20
-3.958000000000001
 30
0.0
 40
0.5
  1
4.51
100
AcDbAttributeDefinition
  3

  2
M
 70
     8
280
     0
  0
ATTDEF
  5
85
330
6E
100
AcDbEntity
  8
AM_6
100
AcDbText
 10
7.75
 20
-4.458000000000001
 30
0.0
 40
0.5
  1
baldor
100
AcDbAttributeDefinition
  3

  2
COMPANY
 70
     8
280
     0
  0
INSERT
  5
87
330
6E
100
AcDbEntity
  8
0
100
AcDbBlockReference
  2
2_3_1_4C_1_0_in_023527_2
 10
0.0
 20
0.0
 30
0.0
  0
INSERT
  5
C4
330
6E
100
AcDbEntity
  8
0
100
AcDbBlockReference
  2
3_3_1_4C_2_0_in_023527_2
 10
0.0
 20
0.0
 30
0.0
  0
INSERT
  5
FD
330
6E
100
AcDbEntity
  8
0
100
AcDbBlockReference
  2
4_405015E_Inch_0_in_023527_2
 10
0.0
 20
0.0
 30
0.0
  0
INSERT
  5
13B
330
6E
100
AcDbEntity
  8
0
100
AcDbBlockReference
  2
5_023527_Insert_0_in_023527_2
 10
0.0
 20
0.0
 30
0.0
  0
ENDBLK
  5
71
330
6E
100
AcDbEntity
  8
0
100
AcDbBlockEnd
  0
BLOCK
  5
88
330
86
100
AcDbEntity
  8
0
100
AcDbBlockBegin
  2
2_3_1_4C_1_0_in_023527_2
 70
     2
 10
0.0
 20
0.0
 30
0.0
  3
2_3_1_4C_1_0_in_023527_2
  1

  0
ATTDEF
  5
8A
330
86
100
AcDbEntity
  8
AM_6
100
AcDbText
 10
7.5
 20
2.765625
 30
0.0
 40
0.5
  1
E-Type Collar -Inch
100
AcDbAttributeDefinition
  3

  2
NN
 70
     8
280
     0
  0
ATTDEF
  5
8B
330
86
100
AcDbEntity
  8
AM_6
100
AcDbText
 10
7.5
 20
2.265625
 30
0.0
 40
0.5
  1
E-Type Bearings
100
AcDbAttributeDefinition
  3

  2
NT
 70
     8
280
     0
  0
ATTDEF
  5
8C
330
86
100
AcDbEntity
  8
AM_6
100
AcDbText
 10
7.5
 20
1.765625
 30
0.0
 40
0.5
  1
3-1/4C
100
AcDbAttributeDefinition
  3

  2
NB
 70
     8
280
     0
  0
ATTDEF
  5
8D
330
86
100
AcDbEntity
  8
AM_6
100
AcDbText
 10
7.5
 20
1.265625
 30
0.0
 40
0.5
  1
$BORE.C
100
AcDbAttributeDefinition
  3

  2
NBSYN
 70
     8
280
     0
  0
ATTDEF
  5
8E
330
86
100
AcDbEntity
  8
AM_6
100
AcDbText
 10
7.5
 20
0.765625
 30
0.0
 40
0.5
  1
3-1/4C
100
AcDbAttributeDefinition
  3

  2
LINA
 70
     8
280
     0
  0
ATTDEF
  5
8F
330
86
100
AcDbEntity
  8
AM_6
100
AcDbText
 10
7.5
 20
0.265625
 30
0.0
 40
0.5
  1
3-1/4
100
AcDbAttributeDefinition
  3

  2
BORE
 70
     8
280
     0
  0
ATTDEF
  5
90
330
86
100
AcDbEntity
  8
AM_6
100
AcDbText
 10
7.5
 20
-0.234375
 30
0.0
 40
0.5
  1
5.53125
100
AcDbAttributeDefinition
  3

  2
L
 70
     8
280
     0
  0
ATTDEF
  5
91
330
86
100
AcDbEntity
  8
AM_6
100
AcDbText
 10
7.5
 20
-0.734375
 30
0.0
 40
0.5
  1
5.00
100
AcDbAttributeDefinition
  3

  2
A
 70
     8
280
     0
  0
ATTDEF
  5
92
330
86
100
AcDbEntity
  8
AM_6
100
AcDbText
 10
7.5
 20
-1.234375
 30
0.0
 40
0.5
  1
2.25
100
AcDbAttributeDefinition
  3

  2
B
 70
     8
280
     0
  0
ATTDEF
  5
93
330
86
100
AcDbEntity
  8
AM_6
100
AcDbText
 10
7.5
 20
-1.734375
 30
0.0
 40
0.5
  1
4.24
100
AcDbAttributeDefinition
  3

  2
C
 70
     8
280
     0
  0
ATTDEF
  5
94
330
86
100
AcDbEntity
  8
AM_6
100
AcDbText
 10
7.5
 20
-2.234375
 30
0.0
 40
0.5
  1
5.84
100
AcDbAttributeDefinition
  3

  2
D
 70
     8
280
     0
  0
ATTDEF
  5
95
330
86
100
AcDbEntity
  8
AM_6
100
AcDbText
 10
7.5
 20
-2.734375
 30
0.0
 40
0.5
  1
0.54
100
AcDbAttributeDefinition
  3

  2
E
 70
     8
280
     0
  0
ATTDEF
  5
96
330
86
100
AcDbEntity
  8
AM_6
100
AcDbText
 10
7.5
 20
-3.234375
 30
0.0
 40
0.5
  1
0.44
100
AcDbAttributeDefinition
  3

  2
F
 70
     8
280
     0
  0
ATTDEF
  5
97
330
86
100
AcDbEntity
  8
AM_6
100
AcDbText
 10
7.5
 20
-3.734375
 30
0.0
 40
0.5
  1
1/2-13
100
AcDbAttributeDefinition
  3

  2
CS
 70
     8
280
     0
  0
ATTDEF
  5
98
330
86
100
AcDbEntity
  8
AM_6
100
AcDbText
 10
7.5
 20
-4.234375
 30
0.0
 40
0.5
  1
0.5000
100
AcDbAttributeDefinition
  3

  2
NDM
 70
     8
280
     0
  0
ATTDEF
  5
99
330
86
100
AcDbEntity
  8
AM_6
100
AcDbText
 10
7.5
 20
-4.734375
 30
0.0
 40
0.5
  1
0.4170
100
AcDbAttributeDefinition
  3

  2
KDM
 70
     8
280
     0
  0
ATTDEF
  5
9A
330
86
100
AcDbEntity
  8
AM_6
100
AcDbText
 10
7.5
 20
-5.234375
 30
0.0
 40
0.5
  1
baldor
100
AcDbAttributeDefinition
  3

  2
COMPANY
 70
     8
280
     0
  0
LINE
  5
9D
330
86
100
AcDbEntity
  8
AM_9
100
AcDbLine
 10
1.85165
 20
2.128316666666667
 30
0.0
 11
1.84370400789711
 21
2.120370674563777
 31
0.0
  0
LINE
  5
9E
330
86
100
AcDbEntity
  8
AM_9
100
AcDbLine
 10
2.27643466219393
 20
2.120232004472737
 30
0.0
 11
2.26835
 21
2.128316666666667
 31
0.0
  0
LINE
  5
9F
330
86
100
AcDbEntity
  8
AM_9
100
AcDbLine
 10
2.26835
 20
2.723975
 30
0.0
 11
2.309551971658684
 21
2.765176971658684
 31
0.0
  0
LINE
  5
A0
330
86
100
AcDbEntity
  8
AM_9
100
AcDbLine
 10
1.810153555962912
 20
2.765471444037088
 30
0.0
 11
1.85165
 21
2.723975
 31
0.0
  0
LINE
  5
A1
330
86
100
AcDbEntity
  8
AM_9
100
AcDbLine
 10
1.85165
 20
2.723975
 30
0.0
 11
2.26835
 21
2.723975
 31
0.0
  0
LINE
  5
A2
330
86
100
AcDbEntity
  8
AM_9
100
AcDbLine
 10
1.85165
 20
2.128316666666667
 30
0.0
 11
2.26835
 21
2.128316666666667
 31
0.0
  0
LINE
  5
A3
330
86
100
AcDbEntity
  8
AM_9
100
AcDbLine
 10
2.26835
 20
2.128316666666667
 30
0.0
 11
2.26835
 21
2.723975
 31
0.0
  0
LINE
  5
A4
330
86
100
AcDbEntity
  8
AM_9
100
AcDbLine
 10
1.85165
 20
2.723975
 30
0.0
 11
1.85165
 21
2.128316666666667
 31
0.0
  0
ELLIPSE
  5
A5
330
86
100
AcDbEntity
  8
AM_9
100
AcDbEllipse
 10
2.06
 20
0.8994654901004255
 30
0.0
 11
0.2083499999999998
 21
0.0
 31
0.0
210
0.0
220
0.0
230
1.0
 40
0.9063077870366515
 41
2.411993640411825
 42
3.141592653589793
  0
ELLIPSE
  5
A6
330
86
100
AcDbEntity
  8
AM_9
100
AcDbEllipse
 10
2.059999999999997
 20
0.8994654901004239
 30
0.0
 11
0.2083500000000029
 21
0.0
 31
0.0
210
0.0
220
0.0
230
1.0
 40
0.9063077870366522
 41
3.141592653589793
 42
7.012784320357548
  0
LINE
  5
A7
330
86
100
AcDbEntity
  8
AM_9
100
AcDbLine
 10
2.26835
 20
0.8994654901004262
 30
0.0
 11
2.26835
 21
1.151201579525121
 31
0.0
  0
LINE
  5
A8
330
86
100
AcDbEntity
  8
AM_9
100
AcDbLine
 10
1.85165
 20
1.151201579525121
 30
0.0
 11
1.85165
 21
0.8994654901004262
 31
0.0
  0
LWPOLYLINE
  5
A9
330
86
100
AcDbEntity
  8
AM_9
100
AcDbPolyline
 90
       39
 70
     0
 43
0.0
 10
1.905064722724611
 20
0.7483987821969753
 10
1.928921760141795
 20
0.727429235858337
 10
1.95648482574691
 20
0.7095949449734662
 10
1.989487237530668
 20
0.6949870803460505
 10
2.025842931974718
 20
0.685824599030104
 10
2.060328885050799
 20
0.6830881594991707
 10
2.09585032082609
 20
0.6861044799784601
 10
2.128499192500931
 20
0.6943001094787283
 10
2.160140536456121
 20
0.70779185158401
 10
2.188905203869766
 20
0.7258017956032089
 10
2.214923585882261
 20
0.7483869084803634
 10
2.237346179249616
 20
0.7751006938724032
 10
2.255399301159092
 20
0.8054047623124788
 10
2.268325513416767
 20
0.8385998014471729
 10
2.275449863970397
 20
0.8739589630583517
 10
2.276182956173145
 20
0.9097679429622358
 10
2.27020631638895
 20
0.9458797501199336
 10
2.257861595767471
 20
0.9795596553970422
 10
2.23871033895681
 20
1.011523036723774
 10
2.214763064002313
 20
1.038555704167196
 10
2.184851475392249
 20
1.062033341879488
 10
2.153136256702723
 20
1.079072472128792
 10
2.117273549354084
 20
1.091279797005783
 10
2.082772149730406
 20
1.097225761392618
 10
2.046484095318383
 20
1.097936221231976
 10
2.01299329392418
 20
1.093607513004777
 10
1.979890231451798
 20
1.084282170590916
 10
1.949636014858393
 20
1.070651951144068
 10
1.921581632183136
 20
1.052461071366766
 10
1.896772845840065
 20
1.030081436202219
 10
1.875816305205841
 20
1.003702108954144
 10
1.85945351547205
 20
0.9736657200777639
 10
1.848466031346462
 20
0.940552155168568
 10
1.843566681920978
 20
0.9055552754850518
 10
1.84516139722598
 20
0.8689980597706768
 10
1.853299965631898
 20
0.833339511246785
 10
1.868311707043658
 20
0.7981768857503355
 10
1.884615013553354
 20
0.7723897937705566
 10
1.905064722724611
 20
0.7483987821969753
  0
LINE
  5
AA
330
86
100
AcDbEntity
  8
AM_9
100
AcDbLine
 10
2.5
 20
2.120000000000001
 30
0.0
 11
2.27614002814271
 21
2.120000000000001
 31
0.0
  0
LINE
  5
AB
330
86
100
AcDbEntity
  8
AM_9
100
AcDbLine
 10
1.844171427464763
 20
2.120000000000001
 30
0.0
 11
1.62
 21
2.120000000000001
 31
0.0
  0
LINE
  5
AC
330
86
100
AcDbEntity
  8
AM_9
100
AcDbLine
 10
1.62
 20
-2.120000000000001
 30
0.0
 11
2.5
 21
-2.120000000000001
 31
0.0
  0
LWPOLYLINE
  5
AD
330
86
100
AcDbEntity
  8
AM_9
100
AcDbPolyline
 90
       21
 70
     0
 43
0.0
 10
1.843333333333343
 20
2.119999999999999
 10
1.844046838535621
 20
2.119916144858298
 10
1.850371643799554
 20
2.11921147804162
 10
1.86336464503481
 20
2.117820875176238
 10
1.882630222958654
 20
2.115923561821402
 10
1.907329963640262
 20
2.11377132797401
 10
1.937054845632422
 20
2.111601576047704
 10
1.969493259689729
 20
2.109768711052761
 10
2.004880521281623
 20
2.108395193366658
 10
2.039950344360223
 20
2.107698986855625
 10
2.075628263858183
 20
2.107651886081991
 10
2.109512587883563
 20
2.108243073320195
 10
2.142022607819821
 20
2.109375880893753
 10
2.172517053153457
 20
2.110952595816538
 10
2.200020869556716
 20
2.112790925911175
 10
2.224898641905716
 20
2.114796856122356
 10
2.245319014011168
 20
2.116683896521471
 10
2.261534341330013
 20
2.118334448538115
 10
2.27201166016802
 20
2.119475643529774
 10
2.276524871196479
 20
2.119981152308442
 10
2.276666666666414
 20
2.119999999999971
  0
LINE
  5
AE
330
86
100
AcDbEntity
  8
AM_9
100
AcDbLine
 10
1.901252640999867
 20
2.114270743639629
 30
0.0
 11
1.898527269720325
 21
2.114501364675657
 31
0.0
  0
LINE
  5
AF
330
86
100
AcDbEntity
  8
AM_9
100
AcDbLine
 10
2.276666666666414
 20
2.119999999999971
 30
0.0
 11
2.271034926216284
 21
2.119367030035916
 31
0.0
  0
LINE
  5
B0
330
86
100
AcDbEntity
  8
AM_9
100
AcDbLine
 10
1.62
 20
-2.765625
 30
0.0
 11
1.62
 21
2.765625
 31
0.0
  0
LINE
  5
B1
330
86
100
AcDbEntity
  8
AM_9
100
AcDbLine
 10
1.75
 20
2.765625
 30
0.0
 11
1.62
 21
2.765625
 31
0.0
  0
LINE
  5
B2
330
86
100
AcDbEntity
  8
AM_9
100
AcDbLine
 10
1.62
 20
-2.765625
 30
0.0
 11
1.75
 21
-2.765625
 31
0.0
  0
LINE
  5
B3
330
86
100
AcDbEntity
  8
AM_9
100
AcDbLine
 10
1.810000000000046
 20
2.765624999999996
 30
0.0
 11
1.828864377487845
 21
2.764119365533478
 31
0.0
  0
LINE
  5
B5
330
86
100
AcDbEntity
  8
AM_5
100
AcDbLine
 10
2.31
 20
2.765625
 30
0.0
 11
2.31
 21
2.120000000000001
 31
0.0
  0
LINE
  5
B6
330
86
100
AcDbEntity
  8
AM_5
100
AcDbLine
 10
1.81
 20
2.765625
 30
0.0
 11
1.81
 21
2.120000000000001
 31
0.0
  0
ELLIPSE
  5
B8
330
86
100
AcDbEntity
  8
AM_4
100
AcDbEllipse
 10
2.06
 20
0.8994654901004263
 30
0.0
 11
0.2083499999999998
 21
0.0
 31
0.0
210
0.0
220
0.0
230
1.0
 40
0.9063077870366509
 41
0.7295990131779622
 42
2.411993640411828
  0
LINE
  5
B9
330
86
100
AcDbEntity
  8
AM_4
100
AcDbLine
 10
2.5
 20
-2.618958333333334
 30
0.0
 11
2.5
 21
2.618958333333334
 31
0.0
  0
ARC
  5
BA
330
86
100
AcDbEntity
  8
AM_4
100
AcDbCircle
 10
2.353333333333334
 20
2.618958333333334
 30
0.0
 40
0.1466666666666661
100
AcDbArc
 50
0.0
 51
90.0
  0
ARC
  5
BB
330
86
100
AcDbEntity
  8
AM_4
100
AcDbCircle
 10
2.353333333333334
 20
-2.618958333333334
 30
0.0
 40
0.1466666666666661
100
AcDbArc
 50
270.0
 51
0.0
  0
LINE
  5
BC
330
86
100
AcDbEntity
  8
AM_4
100
AcDbLine
 10
2.353333333333333
 20
-2.765625
 30
0.0
 11
2.353333333333333
 21
2.765625
 31
0.0
  0
LWPOLYLINE
  5
BD
330
86
100
AcDbEntity
  8
AM_4
100
AcDbPolyline
 90
       39
 70
     0
 43
0.0
 10
1.886876531480668
 20
1.009920393434852
 10
1.86232696986577
 20
1.034281646724805
 10
1.841511939567762
 20
1.062293019937824
 10
1.824392854716466
 20
1.095746943637121
 10
1.813532865482273
 20
1.132330917001837
 10
1.810005520892252
 20
1.167361417824522
 10
1.813189910085176
 20
1.203244853558882
 10
1.822562414249224
 20
1.236296810508027
 10
1.838310804003542
 20
1.268180941124355
 10
1.859423890105266
 20
1.296797244505886
 10
1.886174387082822
 20
1.322549234092799
 10
1.917620076383417
 20
1.344286693966815
 10
1.953592237731818
 20
1.361680028300106
 10
1.992825692305774
 20
1.373882179404277
 10
2.034954074112151
 20
1.380511711506275
 10
2.077718291680145
 20
1.381036895483242
 10
2.12119329861714
 20
1.375210149819714
 10
2.16201189771363
 20
1.363368594668319
 10
2.201039362641247
 20
1.345061793002242
 10
2.234354545975526
 20
1.322116212193978
 10
2.263480912538765
 20
1.293417472057395
 10
2.284990278917518
 20
1.262582426337787
 10
2.300549553365496
 20
1.227577205772122
 10
2.30841968821041
 20
1.193107294973628
 10
2.309605652863203
 20
1.156607286556538
 10
2.304230782875942
 20
1.12225670778314
 10
2.292317720695634
 20
1.088044259213894
 10
2.274830081559216
 20
1.056661562940828
 10
2.251433278534374
 20
1.027390434712349
 10
2.223087997504319
 20
1.001754665273658
 10
2.189811943954918
 20
0.9800525742764794
 10
2.152687282490253
 20
0.9633599394911208
 10
2.11208246672326
 20
0.952219637687541
 10
2.069889342403728
 20
0.9474334877258642
 10
2.026236460859731
 20
0.9493293922784631
 10
1.98417059397395
 20
0.9579071577430683
 10
1.943084660893379
 20
0.9734629993144966
 10
1.913905885719618
 20
0.9897450527977062
 10
1.886876531444414
 20
1.009920393308539
  0
LINE
  5
BE
330
86
100
AcDbEntity
  8
AM_4
100
AcDbLine
 10
2.353333333333333
 20
2.765625
 30
0.0
 11
2.309173082009239
 21
2.765625
 31
0.0
  0
LINE
  5
BF
330
86
100
AcDbEntity
  8
AM_4
100
AcDbLine
 10
1.810282742937412
 20
2.765625
 30
0.0
 11
1.75
 21
2.765625
 31
0.0
  0
LINE
  5
C0
330
86
100
AcDbEntity
  8
AM_4
100
AcDbLine
 10
1.75
 20
-2.765625
 30
0.0
 11
2.353333333333333
 21
-2.765625
 31
0.0
  0
LWPOLYLINE
  5
C1
330
86
100
AcDbEntity
  8
AM_4
100
AcDbPolyline
 90
       21
 70
     0
 43
0.0
 10
2.309999999999991
 20
2.765625
 10
2.308937410158271
 20
2.765535395502093
 10
2.302002634740324
 20
2.764972469202632
 10
2.288855825897105
 20
2.763944599637083
 10
2.269992761535575
 20
2.762570625116764
 10
2.24532565185167
 20
2.760950460165633
 10
2.216043588687772
 20
2.759286221362292
 10
2.181505497673463
 20
2.757691791415301
 10
2.143837169016963
 20
2.756399457974291
 10
2.10248355305022
 20
2.755531719341481
 10
2.059981881092285
 20
2.755226449220588
 10
2.01658008263652
 20
2.755545488299534
 10
1.974402289691657
 20
2.756449220209827
 10
1.934662822324092
 20
2.757850013407725
 10
1.898562444813533
 20
2.75957132793095
 10
1.867915814673118
 20
2.761374653407461
 10
1.842891104021224
 20
2.763075490813503
 10
1.825081310450273
 20
2.764410729341622
 10
1.81394777968995
 20
2.765300271995515
 10
1.810050537462284
 20
2.765618988135126
 10
1.810000000000046
 20
2.765624999999996
  0
ELLIPSE
  5
C2
330
86
100
AcDbEntity
  8
AM_4
100
AcDbEllipse
 10
2.06
 20
1.151201579525122
 30
0.0
 11
0.2083500000000002
 21
3.104656934738163E-9
 31
0.0
210
0.0
220
0.0
230
1.0
 40
0.9063077870366506
 41
0.0
 42
6.283185307179586
  0
ENDBLK
  5
89
330
86
100
AcDbEntity
  8
0
100
AcDbBlockEnd
  0
BLOCK
  5
C5
330
C3
100
AcDbEntity
  8
0
100
AcDbBlockBegin
  2
3_3_1_4C_2_0_in_023527_2
 70
     2
 10
0.0
 20
0.0
 30
0.0
  3
3_3_1_4C_2_0_in_023527_2
  1

  0
ATTDEF
  5
C7
330
C3
100
AcDbEntity
  8
AM_6
100
AcDbText
 10
3.38
 20
2.765625
 30
0.0
 40
0.5
  1
E-Type Collar -Inch
100
AcDbAttributeDefinition
  3

  2
NN
 70
     8
280
     0
  0
ATTDEF
  5
C8
330
C3
100
AcDbEntity
  8
AM_6
100
AcDbText
 10
3.38
 20
2.265625
 30
0.0
 40
0.5
  1
E-Type Bearings
100
AcDbAttributeDefinition
  3

  2
NT
 70
     8
280
     0
  0
ATTDEF
  5
C9
330
C3
100
AcDbEntity
  8
AM_6
100
AcDbText
 10
3.38
 20
1.765625
 30
0.0
 40
0.5
  1
3-1/4C
100
AcDbAttributeDefinition
  3

  2
NB
 70
     8
280
     0
  0
ATTDEF
  5
CA
330
C3
100
AcDbEntity
  8
AM_6
100
AcDbText
 10
3.38
 20
1.265625
 30
0.0
 40
0.5
  1
$BORE.C
100
AcDbAttributeDefinition
  3

  2
NBSYN
 70
     8
280
     0
  0
ATTDEF
  5
CB
330
C3
100
AcDbEntity
  8
AM_6
100
AcDbText
 10
3.38
 20
0.765625
 30
0.0
 40
0.5
  1
3-1/4C
100
AcDbAttributeDefinition
  3

  2
LINA
 70
     8
280
     0
  0
ATTDEF
  5
CC
330
C3
100
AcDbEntity
  8
AM_6
100
AcDbText
 10
3.38
 20
0.265625
 30
0.0
 40
0.5
  1
3-1/4
100
AcDbAttributeDefinition
  3

  2
BORE
 70
     8
280
     0
  0
ATTDEF
  5
CD
330
C3
100
AcDbEntity
  8
AM_6
100
AcDbText
 10
3.38
 20
-0.234375
 30
0.0
 40
0.5
  1
5.53125
100
AcDbAttributeDefinition
  3

  2
L
 70
     8
280
     0
  0
ATTDEF
  5
CE
330
C3
100
AcDbEntity
  8
AM_6
100
AcDbText
 10
3.38
 20
-0.734375
 30
0.0
 40
0.5
  1
5.00
100
AcDbAttributeDefinition
  3

  2
A
 70
     8
280
     0
  0
ATTDEF
  5
CF
330
C3
100
AcDbEntity
  8
AM_6
100
AcDbText
 10
3.38
 20
-1.234375
 30
0.0
 40
0.5
  1
2.25
100
AcDbAttributeDefinition
  3

  2
B
 70
     8
280
     0
  0
ATTDEF
  5
D0
330
C3
100
AcDbEntity
  8
AM_6
100
AcDbText
 10
3.38
 20
-1.734375
 30
0.0
 40
0.5
  1
4.24
100
AcDbAttributeDefinition
  3

  2
C
 70
     8
280
     0
  0
ATTDEF
  5
D1
330
C3
100
AcDbEntity
  8
AM_6
100
AcDbText
 10
3.38
 20
-2.234375
 30
0.0
 40
0.5
  1
5.84
100
AcDbAttributeDefinition
  3

  2
D
 70
     8
280
     0
  0
ATTDEF
  5
D2
330
C3
100
AcDbEntity
  8
AM_6
100
AcDbText
 10
3.38
 20
-2.734375
 30
0.0
 40
0.5
  1
0.54
100
AcDbAttributeDefinition
  3

  2
E
 70
     8
280
     0
  0
ATTDEF
  5
D3
330
C3
100
AcDbEntity
  8
AM_6
100
AcDbText
 10
3.38
 20
-3.234375
 30
0.0
 40
0.5
  1
0.44
100
AcDbAttributeDefinition
  3

  2
F
 70
     8
280
     0
  0
ATTDEF
  5
D4
330
C3
100
AcDbEntity
  8
AM_6
100
AcDbText
 10
3.38
 20
-3.734375
 30
0.0
 40
0.5
  1
1/2-13
100
AcDbAttributeDefinition
  3

  2
CS
 70
     8
280
     0
  0
ATTDEF
  5
D5
330
C3
100
AcDbEntity
  8
AM_6
100
AcDbText
 10
3.38
 20
-4.234375
 30
0.0
 40
0.5
  1
0.5000
100
AcDbAttributeDefinition
  3

  2
NDM
 70
     8
280
     0
  0
ATTDEF
  5
D6
330
C3
100
AcDbEntity
  8
AM_6
100
AcDbText
 10
3.38
 20
-4.734375
 30
0.0
 40
0.5
  1
0.4170
100
AcDbAttributeDefinition
  3

  2
KDM
 70
     8
280
     0
  0
ATTDEF
  5
D7
330
C3
100
AcDbEntity
  8
AM_6
100
AcDbText
 10
3.38
 20
-5.234375
 30
0.0
 40
0.5
  1
baldor
100
AcDbAttributeDefinition
  3

  2
COMPANY
 70
     8
280
     0
  0
LINE
  5
D8
330
C3
100
AcDbEntity
  8
AM_9
100
AcDbLine
 10
-1.85165
 20
2.128316666666667
 30
0.0
 11
-1.85165
 21
2.723975
 31
0.0
  0
LINE
  5
D9
330
C3
100
AcDbEntity
  8
AM_9
100
AcDbLine
 10
-2.26835
 20
2.723975
 30
0.0
 11
-2.26835
 21
2.128316666666667
 31
0.0
  0
LINE
  5
DA
330
C3
100
AcDbEntity
  8
AM_9
100
AcDbLine
 10
-2.26835
 20
2.128316666666667
 30
0.0
 11
-1.85165
 21
2.128316666666667
 31
0.0
  0
LINE
  5
DB
330
C3
100
AcDbEntity
  8
AM_9
100
AcDbLine
 10
-2.26835
 20
2.128316666666667
 30
0.0
 11
-2.27632665512292
 21
2.120340011543747
 31
0.0
  0
LINE
  5
DC
330
C3
100
AcDbEntity
  8
AM_9
100
AcDbLine
 10
-1.843622808238081
 20
2.120289474904749
 30
0.0
 11
-1.85165
 21
2.128316666666667
 31
0.0
  0
LINE
  5
DD
330
C3
100
AcDbEntity
  8
AM_9
100
AcDbLine
 10
-2.26835
 20
2.723975
 30
0.0
 11
-1.85165
 21
2.723975
 31
0.0
  0
LINE
  5
DE
330
C3
100
AcDbEntity
  8
AM_9
100
AcDbLine
 10
-1.85165
 20
2.723975
 30
0.0
 11
-1.81
 21
2.765625
 31
0.0
  0
LINE
  5
DF
330
C3
100
AcDbEntity
  8
AM_9
100
AcDbLine
 10
-2.31
 20
2.765625
 30
0.0
 11
-2.26835
 21
2.723975
 31
0.0
  0
LWPOLYLINE
  5
E0
330
C3
100
AcDbEntity
  8
AM_9
100
AcDbPolyline
 90
       38
 70
     0
 43
0.0
 10
-1.898527269720325
 20
0.7553325821002994
 10
-1.879156530532244
 20
0.7801819617212915
 10
-1.863735721553157
 20
0.8071919897255869
 10
-1.850981308949331
 20
0.841075323147585
 10
-1.844320148061696
 20
0.8761460700674862
 10
-1.844046838535621
 20
0.9124668146907514
 10
-1.850371643799554
 20
0.948016730488352
 10
-1.86336464503481
 20
0.9820358871958395
 10
-1.882630222958654
 20
1.013322024561616
 10
-1.907329963640261
 20
1.040470903864965
 10
-1.937054845632422
 20
1.06325611250384
 10
-1.969493259689729
 20
1.080173263803238
 10
-2.004880521281622
 20
1.091808745021455
 10
-2.039950344360223
 20
1.097450383710986
 10
-2.075628263858183
 20
1.097806206079551
 10
-2.109512587883563
 20
1.093065402581919
 10
-2.14202260781982
 20
1.083575345219365
 10
-2.172517053153456
 20
1.069446891839833
 10
-2.200020869556716
 20
1.051221507161746
 10
-2.224898641905716
 20
1.02826015568347
 10
-2.245319014011168
 20
1.001973630145817
 10
-2.261534341330013
 20
0.9713080817300328
 10
-2.27201166016802
 20
0.9384603132853394
 10
-2.276524871196479
 20
0.9028705789295719
 10
-2.274525336237965
 20
0.866782636017469
 10
-2.26579246465159
 20
0.8306666761628062
 10
-2.250581458022958
 20
0.7961441815955926
 10
-2.229361093349507
 20
0.7646092471893663
 10
-2.20260832287007
 20
0.7368045473401853
 10
-2.172130238998791
 20
0.714583459955741
 10
-2.137961439144591
 20
0.6977227203400462
 10
-2.103226657961343
 20
0.6875147685228971
 10
-2.067142861238747
 20
0.6832069106349892
 10
-2.032581780542767
 20
0.6848709731065872
 10
-1.998801935484985
 20
0.6919918567810912
 10
-1.966994881265923
 20
0.7042439095664906
 10
-1.937677427931419
 20
0.7211192011086273
 10
-1.898527269720325
 20
0.7553325821002994
  0
LINE
  5
E1
330
C3
100
AcDbEntity
  8
AM_9
100
AcDbLine
 10
-2.5
 20
-2.12
 30
0.0
 11
-1.62
 21
-2.12
 31
0.0
  0
LINE
  5
E2
330
C3
100
AcDbEntity
  8
AM_9
100
AcDbLine
 10
-1.62
 20
2.12
 30
0.0
 11
-1.843987010698913
 21
2.12
 31
0.0
  0
LINE
  5
E3
330
C3
100
AcDbEntity
  8
AM_9
100
AcDbLine
 10
-2.275899334973031
 20
2.12
 30
0.0
 11
-2.5
 21
2.12
 31
0.0
  0
LWPOLYLINE
  5
E4
330
C3
100
AcDbEntity
  8
AM_9
100
AcDbPolyline
 90
       21
 70
     0
 43
0.0
 10
-2.276666666666597
 20
2.119999999999992
 10
-2.276182956173145
 20
2.119944996509076
 10
-2.27020631638895
 20
2.119275271596195
 10
-2.257861595767471
 20
2.117950007450867
 10
-2.23871033895681
 20
2.116049490654317
 10
-2.214763064002313
 20
2.113940558988845
 10
-2.184851475392248
 20
2.111726765405039
 10
-2.153136256702722
 20
2.109892892457725
 10
-2.117273549354084
 20
2.108459575893357
 10
-2.082772149730406
 20
2.107724895794853
 10
-2.046484095318383
 20
2.10763550093538
 10
-2.01299329392418
 20
2.108174829241166
 10
-1.979890231451798
 20
2.10929348643794
 10
-1.949636014858393
 20
2.110823294463101
 10
-1.921581632183136
 20
2.112672808573442
 10
-1.896772845840065
 20
2.114651870692609
 10
-1.875816305205841
 20
2.11657330240036
 10
-1.85945351547205
 20
2.118231574436285
 10
-1.848466031346461
 20
2.119422462789338
 10
-1.843566681920977
 20
2.119973450609591
 10
-1.843333333333564
 20
2.119999999999973
  0
LINE
  5
E5
330
C3
100
AcDbEntity
  8
AM_9
100
AcDbLine
 10
-1.899959973597598
 20
2.114379646812575
 30
0.0
 11
-1.905064722724611
 21
2.113954659390664
 31
0.0
  0
LINE
  5
E6
330
C3
100
AcDbEntity
  8
AM_9
100
AcDbLine
 10
-1.843333333333564
 20
2.119999999999973
 30
0.0
 11
-1.855053938575536
 21
2.118700981282759
 31
0.0
  0
ELLIPSE
  5
E7
330
C3
100
AcDbEntity
  8
AM_9
100
AcDbEllipse
 10
-2.060000000000002
 20
0.8994654901004276
 30
0.0
 11
0.208349999999998
 21
0.0
 31
0.0
210
0.0
220
0.0
230
1.0
 40
0.9063077870366489
 41
2.411993640411821
 42
3.141592653589793
  0
LINE
  5
E8
330
C3
100
AcDbEntity
  8
AM_9
100
AcDbLine
 10
-1.85165
 20
0.8994654901004264
 30
0.0
 11
-1.85165
 21
1.151201579525122
 31
0.0
  0
LINE
  5
E9
330
C3
100
AcDbEntity
  8
AM_9
100
AcDbLine
 10
-2.26835
 20
1.151201579525122
 30
0.0
 11
-2.26835
 21
0.8994654901004264
 31
0.0
  0
ELLIPSE
  5
EA
330
C3
100
AcDbEntity
  8
AM_9
100
AcDbEllipse
 10
-2.06
 20
0.8994654901004265
 30
0.0
 11
0.2083500000000002
 21
3.104656934738163E-9
 31
0.0
210
0.0
220
0.0
230
1.0
 40
0.90630778703665
 41
3.141592638688632
 42
7.012784305220713
  0
LINE
  5
EB
330
C3
100
AcDbEntity
  8
AM_9
100
AcDbLine
 10
-1.75
 20
-2.765625
 30
0.0
 11
-1.62
 21
-2.765625
 31
0.0
  0
LINE
  5
EC
330
C3
100
AcDbEntity
  8
AM_9
100
AcDbLine
 10
-1.62
 20
2.765625
 30
0.0
 11
-1.75
 21
2.765625
 31
0.0
  0
LINE
  5
ED
330
C3
100
AcDbEntity
  8
AM_9
100
AcDbLine
 10
-1.62
 20
2.765625
 30
0.0
 11
-1.62
 21
-2.765625
 31
0.0
  0
LINE
  5
EE
330
C3
100
AcDbEntity
  8
AM_5
100
AcDbLine
 10
-2.31
 20
2.765625
 30
0.0
 11
-2.31
 21
2.12
 31
0.0
  0
LINE
  5
EF
330
C3
100
AcDbEntity
  8
AM_5
100
AcDbLine
 10
-1.81
 20
2.765625
 30
0.0
 11
-1.81
 21
2.12
 31
0.0
  0
ELLIPSE
  5
F0
330
C3
100
AcDbEntity
  8
AM_4
100
AcDbEllipse
 10
-2.06
 20
0.8994654901004268
 30
0.0
 11
0.2083499999999996
 21
0.0
 31
0.0
210
0.0
220
0.0
230
1.0
 40
0.9063077870366495
 41
1.570796326794897
 42
2.411993640411823
  0
ELLIPSE
  5
F1
330
C3
100
AcDbEntity
  8
AM_4
100
AcDbEllipse
 10
-2.06
 20
0.8994654901004274
 30
0.0
 11
0.2083499999999987
 21
0.0
 31
0.0
210
0.0
220
0.0
230
1.0
 40
0.9063077870366504
 41
0.7295990131779684
 42
1.570796326794897
  0
LWPOLYLINE
  5
F2
330
C3
100
AcDbEntity
  8
AM_4
100
AcDbPolyline
 90
       38
 70
     0
 43
0.0
 10
-1.86945614888546
 20
1.026451711298556
 10
-1.895595106237953
 20
1.002794012684716
 10
-1.925168227803887
 20
0.9828689636514688
 10
-1.962363309203198
 20
0.965220280033866
 10
-2.002120924653908
 20
0.9534014472575235
 10
-2.044714561147385
 20
0.9477022032084667
 10
-2.087727338148771
 20
0.9486524139600839
 10
-2.130591772637654
 20
0.9564827417226229
 10
-2.171444182224608
 20
0.9709323007771595
 10
-2.208817166659082
 20
0.9915615813438996
 10
-2.241844775217019
 20
1.017782120166919
 10
-2.268674417529128
 20
1.047998534011156
 10
-2.289425905261161
 20
1.081901934368151
 10
-2.302781924176859
 20
1.116894250659609
 10
-2.309358550585322
 20
1.153247557605483
 10
-2.308937410158271
 20
1.188503951349196
 10
-2.302002634740324
 20
1.22297339043453
 10
-2.288855825897105
 20
1.255389465439179
 10
-2.269992761535575
 20
1.285281143474083
 10
-2.24532565185167
 20
1.312484506152882
 10
-2.216043588687772
 20
1.335730724795755
 10
-2.181505497673463
 20
1.355174190027062
 10
-2.143837169016963
 20
1.369464797136195
 10
-2.10248355305022
 20
1.37850706452665
 10
-2.059981881092285
 20
1.381561671264592
 10
-2.016580082636519
 20
1.378369005254935
 10
-1.974402289691657
 20
1.368934306107206
 10
-1.934662822324092
 20
1.353343607654619
 10
-1.898562444813532
 20
1.331997328202906
 10
-1.867915814673118
 20
1.305890813806645
 10
-1.842891104021224
 20
1.275326969275161
 10
-1.825081310450273
 20
1.242444834380287
 10
-1.81394777968995
 20
1.207075524902919
 10
-1.810050537462284
 20
1.171768550621999
 10
-1.812830771049182
 20
1.136144148962878
 10
-1.822041235355646
 20
1.101924090800926
 10
-1.837258966098944
 20
1.069358309749664
 10
-1.869456148851914
 20
1.026451711248347
  0
LINE
  5
F3
330
C3
100
AcDbEntity
  8
AM_4
100
AcDbLine
 10
-2.353333333333333
 20
-2.765625
 30
0.0
 11
-1.75
 21
-2.765625
 31
0.0
  0
LINE
  5
F4
330
C3
100
AcDbEntity
  8
AM_4
100
AcDbLine
 10
-1.75
 20
2.765625
 30
0.0
 11
-1.81
 21
2.765625
 31
0.0
  0
LINE
  5
F5
330
C3
100
AcDbEntity
  8
AM_4
100
AcDbLine
 10
-2.31
 20
2.765625
 30
0.0
 11
-2.353333333333333
 21
2.765625
 31
0.0
  0
LWPOLYLINE
  5
F6
330
C3
100
AcDbEntity
  8
AM_4
100
AcDbPolyline
 90
       20
 70
     0
 43
0.0
 10
-1.810000000000012
 20
2.765624999999999
 10
-1.813189910085175
 20
2.765362215730176
 10
-1.822562414249223
 20
2.764609380378981
 10
-1.838310804003542
 20
2.763409253771417
 10
-1.859423890105266
 20
2.761928161472382
 10
-1.886174387082822
 20
2.760262568058591
 10
-1.917620076383417
 20
2.75860714167513
 10
-1.953592237731818
 20
2.757115618482621
 10
-1.992825692305774
 20
2.755979623175299
 10
-2.034954074112151
 20
2.755331175796079
 10
-2.077718291680144
 20
2.755278861587559
 10
-2.12119329861714
 20
2.755851499844154
 10
-2.16201189771363
 20
2.756962842291866
 10
-2.201039362641246
 20
2.758543850396657
 10
-2.234354545975526
 20
2.760293211692305
 10
-2.263480912538765
 20
2.762123231212157
 10
-2.284990278917517
 20
2.763654074655163
 10
-2.300549553365496
 20
2.764856155296163
 10
-2.30841968821041
 20
2.765494398114297
 10
-2.309999999999945
 20
2.765624999999995
  0
LINE
  5
F7
330
C3
100
AcDbEntity
  8
AM_4
100
AcDbLine
 10
-2.5
 20
2.618958333333333
 30
0.0
 11
-2.5
 21
-2.618958333333333
 31
0.0
  0
ARC
  5
F8
330
C3
100
AcDbEntity
  8
AM_4
100
AcDbCircle
 10
-2.353333333333333
 20
-2.618958333333333
 30
0.0
 40
0.1466666666666665
100
AcDbArc
 50
179.9999991462263
 51
270.0
  0
ARC
  5
F9
330
C3
100
AcDbEntity
  8
AM_4
100
AcDbCircle
 10
-2.353333333333333
 20
2.618958333333333
 30
0.0
 40
0.1466666666666665
100
AcDbArc
 50
90.0
 51
179.9999991462263
  0
LINE
  5
FA
330
C3
100
AcDbEntity
  8
AM_4
100
AcDbLine
 10
-2.353333333333333
 20
2.765625
 30
0.0
 11
-2.353333333333333
 21
-2.765625
 31
0.0
  0
ELLIPSE
  5
FB
330
C3
100
AcDbEntity
  8
AM_4
100
AcDbEllipse
 10
-2.059999999999999
 20
1.151201579525121
 30
0.0
 11
0.2083499999999993
 21
3.104656934738150E-9
 31
0.0
210
0.0
220
0.0
230
1.0
 40
0.9063077870366533
 41
0.0
 42
6.283185307179586
  0
ENDBLK
  5
C6
330
C3
100
AcDbEntity
  8
0
100
AcDbBlockEnd
  0
BLOCK
  5
FE
330
FC
100
AcDbEntity
  8
0
100
AcDbBlockBegin
  2
4_405015E_Inch_0_in_023527_2
 70
     2
 10
0.0
 20
0.0
 30
0.0
  3
4_405015E_Inch_0_in_023527_2
  1

  0
ATTDEF
  5
100
330
FC
100
AcDbEntity
  8
AM_6
100
AcDbText
 10
5.252590742770462
 20
4.51
 30
0.0
 40
0.5
  1
405015E -Inch
100
AcDbAttributeDefinition
  3

  2
NN
 70
     8
280
     0
  0
ATTDEF
  5
101
330
FC
100
AcDbEntity
  8
AM_6
100
AcDbText
 10
5.252590742770462
 20
4.01
 30
0.0
 40
0.5
  1
Grease Fitting
100
AcDbAttributeDefinition
  3

  2
NT
 70
     8
280
     0
  0
ATTDEF
  5
102
330
FC
100
AcDbEntity
  8
AM_6
100
AcDbText
 10
5.252590742770462
 20
3.51
 30
0.0
 40
0.5
  1
405015E-Inch
100
AcDbAttributeDefinition
  3

  2
NB
 70
     8
280
     0
  0
ATTDEF
  5
103
330
FC
100
AcDbEntity
  8
AM_6
100
AcDbText
 10
5.252590742770462
 20
3.01
 30
0.0
 40
0.5
  1
$MN.-Inch
100
AcDbAttributeDefinition
  3

  2
NBSYN
 70
     8
280
     0
  0
ATTDEF
  5
104
330
FC
100
AcDbEntity
  8
AM_6
100
AcDbText
 10
5.252590742770462
 20
2.51
 30
0.0
 40
0.5
  1
405015E
100
AcDbAttributeDefinition
  3

  2
LINA
 70
     8
280
     0
  0
ATTDEF
  5
105
330
FC
100
AcDbEntity
  8
AM_6
100
AcDbText
 10
5.252590742770462
 20
2.01
 30
0.0
 40
0.5
  1
405015E
100
AcDbAttributeDefinition
  3

  2
MN
 70
     8
280
     0
  0
ATTDEF
  5
106
330
FC
100
AcDbEntity
  8
AM_6
100
AcDbText
 10
5.252590742770462
 20
1.51
 30
0.0
 40
0.5
  1
1/8 x 27PTF
100
AcDbAttributeDefinition
  3

  2
T
 70
     8
280
     0
  0
ATTDEF
  5
107
330
FC
100
AcDbEntity
  8
AM_6
100
AcDbText
 10
5.252590742770462
 20
1.01
 30
0.0
 40
0.5
  1
baldor
100
AcDbAttributeDefinition
  3

  2
COMPANY
 70
     8
280
     0
  0
LINE
  5
108
330
FC
100
AcDbEntity
  8
AM_9
100
AcDbLine
 10
-0.161902872472269
 20
3.869999999999999
 30
0.0
 11
0.161902872472269
 21
3.869999999999999
 31
0.0
  0
LINE
  5
109
330
FC
100
AcDbEntity
  8
AM_9
100
AcDbLine
 10
0.161902872472269
 20
3.869999999999999
 30
0.0
 11
0.1986176267812154
 21
3.906714754308946
 31
0.0
  0
LINE
  5
10A
330
FC
100
AcDbEntity
  8
AM_9
100
AcDbLine
 10
-0.1986176267812154
 20
3.906714754308946
 30
0.0
 11
-0.161902872472269
 21
3.869999999999999
 31
0.0
  0
LINE
  5
10B
330
FC
100
AcDbEntity
  8
AM_9
100
AcDbLine
 10
-0.1986176267812154
 20
3.906714754308946
 30
0.0
 11
0.1986176267812154
 21
3.906714754308946
 31
0.0
  0
LINE
  5
10C
330
FC
100
AcDbEntity
  8
AM_9
100
AcDbLine
 10
0.1986176267812154
 20
3.906714754308946
 30
0.0
 11
0.2057518972230696
 21
4.135
 31
0.0
  0
LINE
  5
10D
330
FC
100
AcDbEntity
  8
AM_9
100
AcDbLine
 10
-0.2057518972230696
 20
4.135
 30
0.0
 11
-0.1986176267812154
 21
3.906714754308946
 31
0.0
  0
LINE
  5
10E
330
FC
100
AcDbEntity
  8
AM_5
100
AcDbLine
 10
0.1681491248523479
 20
4.069870087748463
 30
0.0
 11
0.161902872472269
 21
3.869999999999999
 31
0.0
  0
LINE
  5
10F
330
FC
100
AcDbEntity
  8
AM_5
100
AcDbLine
 10
0.2057518972230696
 20
4.135
 30
0.0
 11
0.1681491248523479
 21
4.069870087748463
 31
0.0
  0
LINE
  5
110
330
FC
100
AcDbEntity
  8
AM_5
100
AcDbLine
 10
-0.2037164857515568
 20
4.069870087748463
 30
0.0
 11
0.2037164857515567
 21
4.069870087748463
 31
0.0
  0
LINE
  5
111
330
FC
100
AcDbEntity
  8
AM_5
100
AcDbLine
 10
-0.1681491248523479
 20
4.069870087748463
 30
0.0
 11
-0.161902872472269
 21
3.869999999999999
 31
0.0
  0
LINE
  5
112
330
FC
100
AcDbEntity
  8
AM_5
100
AcDbLine
 10
-0.2057518972230696
 20
4.135
 30
0.0
 11
-0.1681491248523479
 21
4.069870087748463
 31
0.0
  0
LINE
  5
113
330
FC
100
AcDbEntity
  8
AM_4
100
AcDbLine
 10
0.105
 20
4.34
 30
0.0
 11
0.105
 21
4.369999999999999
 31
0.0
  0
LINE
  5
114
330
FC
100
AcDbEntity
  8
AM_4
100
AcDbLine
 10
-0.105
 20
4.369999999999999
 30
0.0
 11
-0.105
 21
4.34
 31
0.0
  0
LINE
  5
115
330
FC
100
AcDbEntity
  8
AM_4
100
AcDbLine
 10
-0.21875
 20
4.234999999999999
 30
0.0
 11
0.21875
 21
4.234999999999999
 31
0.0
  0
LINE
  5
116
330
FC
100
AcDbEntity
  8
AM_4
100
AcDbLine
 10
0.2525907427704612
 20
4.225932400303385
 30
0.0
 11
0.21875
 21
4.234999999999999
 31
0.0
  0
LINE
  5
117
330
FC
100
AcDbEntity
  8
AM_4
100
AcDbLine
 10
-0.21875
 20
4.234999999999999
 30
0.0
 11
-0.2525907427704612
 21
4.225932400303385
 31
0.0
  0
LINE
  5
118
330
FC
100
AcDbEntity
  8
AM_4
100
AcDbLine
 10
0.21875
 20
4.135
 30
0.0
 11
0.2525907427704612
 21
4.144067599696614
 31
0.0
  0
LINE
  5
119
330
FC
100
AcDbEntity
  8
AM_4
100
AcDbLine
 10
-0.2525907427704612
 20
4.144067599696614
 30
0.0
 11
-0.21875
 21
4.135
 31
0.0
  0
LINE
  5
11A
330
FC
100
AcDbEntity
  8
AM_4
100
AcDbLine
 10
-0.105
 20
4.34
 30
0.0
 11
0.105
 21
4.34
 31
0.0
  0
LINE
  5
11B
330
FC
100
AcDbEntity
  8
AM_4
100
AcDbLine
 10
-0.105
 20
4.34
 30
0.0
 11
-0.1188200907348975
 21
4.307753121618572
 31
0.0
  0
LINE
  5
11C
330
FC
100
AcDbEntity
  8
AM_4
100
AcDbLine
 10
0.1188200907348975
 20
4.307753121618572
 30
0.0
 11
0.105
 21
4.34
 31
0.0
  0
LINE
  5
11D
330
FC
100
AcDbEntity
  8
AM_4
100
AcDbLine
 10
-0.105
 20
4.369999999999999
 30
0.0
 11
0.105
 21
4.369999999999999
 31
0.0
  0
LINE
  5
11E
330
FC
100
AcDbEntity
  8
AM_4
100
AcDbLine
 10
0.105
 20
4.369999999999999
 30
0.0
 11
0.135
 21
4.43
 31
0.0
  0
LINE
  5
11F
330
FC
100
AcDbEntity
  8
AM_4
100
AcDbLine
 10
-0.135
 20
4.43
 30
0.0
 11
-0.105
 21
4.369999999999999
 31
0.0
  0
LINE
  5
120
330
FC
100
AcDbEntity
  8
AM_4
100
AcDbLine
 10
-0.1026779019331875
 20
4.51
 30
0.0
 11
0.1026779019331875
 21
4.51
 31
0.0
  0
LINE
  5
121
330
FC
100
AcDbEntity
  8
AM_4
100
AcDbLine
 10
-0.135
 20
4.43
 30
0.0
 11
0.135
 21
4.43
 31
0.0
  0
LINE
  5
122
330
FC
100
AcDbEntity
  8
AM_4
100
AcDbLine
 10
-0.1026779019331875
 20
4.51
 30
0.0
 11
-0.135
 21
4.43
 31
0.0
  0
LINE
  5
123
330
FC
100
AcDbEntity
  8
AM_4
100
AcDbLine
 10
0.135
 20
4.43
 30
0.0
 11
0.1026779019331875
 21
4.51
 31
0.0
  0
LINE
  5
124
330
FC
100
AcDbEntity
  8
AM_4
100
AcDbLine
 10
-0.1188200907348975
 20
4.307753121618572
 30
0.0
 11
0.1188200907348975
 21
4.307753121618572
 31
0.0
  0
LINE
  5
125
330
FC
100
AcDbEntity
  8
AM_4
100
AcDbLine
 10
-0.1188200907348975
 20
4.307753121618572
 30
0.0
 11
-0.1725340532830154
 21
4.253318198540882
 31
0.0
  0
LINE
  5
126
330
FC
100
AcDbEntity
  8
AM_4
100
AcDbLine
 10
0.1725340532830154
 20
4.253318198540882
 30
0.0
 11
0.1188200907348975
 21
4.307753121618572
 31
0.0
  0
LINE
  5
127
330
FC
100
AcDbEntity
  8
AM_4
100
AcDbLine
 10
-0.1725340532830154
 20
4.253318198540882
 30
0.0
 11
0.1725340532830154
 21
4.253318198540882
 31
0.0
  0
LINE
  5
128
330
FC
100
AcDbEntity
  8
AM_4
100
AcDbLine
 10
-0.1725340532830154
 20
4.253318198540882
 30
0.0
 11
-0.21375
 21
4.234999999999999
 31
0.0
  0
LINE
  5
129
330
FC
100
AcDbEntity
  8
AM_4
100
AcDbLine
 10
0.21375
 20
4.234999999999999
 30
0.0
 11
0.1725340532830154
 21
4.253318198540882
 31
0.0
  0
LWPOLYLINE
  5
12A
330
FC
100
AcDbEntity
  8
AM_4
100
AcDbPolyline
 90
        3
 70
     0
 43
0.0
 10
-0.2525907427704612
 20
4.225932400303385
 10
-0.2211588644235643
 20
4.23258547505038
 10
-0.1894430570778459
 20
4.234999999999999
  0
LINE
  5
12B
330
FC
100
AcDbEntity
  8
AM_4
100
AcDbLine
 10
-0.2525907427704612
 20
4.225932400303385
 30
0.0
 11
-0.2525907427704612
 21
4.144067599696614
 31
0.0
  0
LWPOLYLINE
  5
12C
330
FC
100
AcDbEntity
  8
AM_4
100
AcDbPolyline
 90
        3
 70
     0
 43
0.0
 10
-0.1894430570778459
 20
4.135
 10
-0.2210168999241536
 20
4.137393380785034
 10
-0.2525907427704612
 20
4.144067599696614
  0
LWPOLYLINE
  5
12D
330
FC
100
AcDbEntity
  8
AM_4
100
AcDbPolyline
 90
        3
 70
     0
 43
0.0
 10
-0.1894430570778459
 20
4.234999999999999
 10
-0.1578692142315383
 20
4.232606619214964
 10
-0.1262953713852306
 20
4.225932400303385
  0
LINE
  5
12E
330
FC
100
AcDbEntity
  8
AM_4
100
AcDbLine
 10
0.2525907427704612
 20
4.225932400303385
 30
0.0
 11
0.2525907427704612
 21
4.144067599696614
 31
0.0
  0
LWPOLYLINE
  5
12F
330
FC
100
AcDbEntity
  8
AM_4
100
AcDbPolyline
 90
        3
 70
     0
 43
0.0
 10
0.1894430570778459
 20
4.234999999999999
 10
0.2210168999241536
 20
4.232606619214964
 10
0.2525907427704612
 20
4.225932400303385
  0
LWPOLYLINE
  5
130
330
FC
100
AcDbEntity
  8
AM_4
100
AcDbPolyline
 90
        3
 70
     0
 43
0.0
 10
0.2525907427704612
 20
4.144067599696614
 10
0.2211588644235643
 20
4.137414524949619
 10
0.1894430570778459
 20
4.135
  0
LWPOLYLINE
  5
131
330
FC
100
AcDbEntity
  8
AM_4
100
AcDbPolyline
 90
        3
 70
     0
 43
0.0
 10
0.1894430570778459
 20
4.135
 10
0.1578692142315383
 20
4.137393380785034
 10
0.1262953713852306
 20
4.144067599696614
  0
LWPOLYLINE
  5
132
330
FC
100
AcDbEntity
  8
AM_4
100
AcDbPolyline
 90
        3
 70
     0
 43
0.0
 10
0.1262953713852306
 20
4.225932400303385
 10
0.1577272497321276
 20
4.23258547505038
 10
0.1894430570778459
 20
4.234999999999999
  0
LWPOLYLINE
  5
133
330
FC
100
AcDbEntity
  8
AM_4
100
AcDbPolyline
 90
        3
 70
     0
 43
0.0
 10
-0.1262953713852306
 20
4.144067599696614
 10
-0.1577272497321276
 20
4.137414524949619
 10
-0.1894430570778459
 20
4.135
  0
LINE
  5
134
330
FC
100
AcDbEntity
  8
AM_4
100
AcDbLine
 10
0.1262953713852306
 20
4.225932400303385
 30
0.0
 11
0.1262953713852306
 21
4.144067599696614
 31
0.0
  0
LWPOLYLINE
  5
135
330
FC
100
AcDbEntity
  8
AM_4
100
AcDbPolyline
 90
        4
 70
     0
 43
0.0
 10
0.0
 20
4.234999999999999
 10
0.0483998160558989
 20
4.233582439282862
 10
0.0967996321117978
 20
4.229517587482156
 10
0.1262953713852306
 20
4.225932400303385
  0
LWPOLYLINE
  5
136
330
FC
100
AcDbEntity
  8
AM_4
100
AcDbPolyline
 90
        3
 70
     0
 43
0.0
 10
-0.1262953713852306
 20
4.225932400303385
 10
-0.0634316146914367
 20
4.23258547505038
 10
0.0
 20
4.234999999999999
  0
LINE
  5
137
330
FC
100
AcDbEntity
  8
AM_4
100
AcDbLine
 10
-0.1262953713852306
 20
4.225932400303385
 30
0.0
 11
-0.1262953713852306
 21
4.144067599696614
 31
0.0
  0
LWPOLYLINE
  5
138
330
FC
100
AcDbEntity
  8
AM_4
100
AcDbPolyline
 90
        3
 70
     0
 43
0.0
 10
0.0
 20
4.135
 10
-0.0631476856926153
 20
4.137393380785034
 10
-0.1262953713852306
 20
4.144067599696614
  0
LWPOLYLINE
  5
139
330
FC
100
AcDbEntity
  8
AM_4
100
AcDbPolyline
 90
        4
 70
     0
 43
0.0
 10
0.1262953713852306
 20
4.144067599696614
 10
0.0967996321117978
 20
4.140482412517843
 10
0.0485424412477544
 20
4.136425828243071
 10
0.0
 20
4.135
  0
ENDBLK
  5
FF
330
FC
100
AcDbEntity
  8
0
100
AcDbBlockEnd
  0
BLOCK
  5
13C
330
13A
100
AcDbEntity
  8
0
100
AcDbBlockBegin
  2
5_023527_Insert_0_in_023527_2
 70
     2
 10
0.0
 20
0.0
 30
0.0
  3
5_023527_Insert_0_in_023527_2
  1

  0
ATTDEF
  5
13E
330
13A
100
AcDbEntity
  8
AM_6
100
AcDbText
 10
7.75
 20
4.541999999999999
 30
0.0
 40
0.5
  1
S-1 Unit -Insert -Inch
100
AcDbAttributeDefinition
  3

  2
NN
 70
     8
280
     0
  0
ATTDEF
  5
13F
330
13A
100
AcDbEntity
  8
AM_6
100
AcDbText
 10
7.75
 20
4.041999999999999
 30
0.0
 40
0.5
  1
Double-Interlock Bearings
100
AcDbAttributeDefinition
  3

  2
NT
 70
     8
280
     0
  0
ATTDEF
  5
140
330
13A
100
AcDbEntity
  8
AM_6
100
AcDbText
 10
7.75
 20
3.541999999999999
 30
0.0
 40
0.5
  1
023527-Insert
100
AcDbAttributeDefinition
  3

  2
NB
 70
     8
280
     0
  0
ATTDEF
  5
141
330
13A
100
AcDbEntity
  8
AM_6
100
AcDbText
 10
7.75
 20
3.041999999999999
 30
0.0
 40
0.5
  1
$PN.-Insert
100
AcDbAttributeDefinition
  3

  2
NBSYN
 70
     8
280
     0
  0
ATTDEF
  5
142
330
13A
100
AcDbEntity
  8
AM_6
100
AcDbText
 10
7.75
 20
2.541999999999999
 30
0.0
 40
0.5
  1
023527-Insert
100
AcDbAttributeDefinition
  3

  2
LINA
 70
     8
280
     0
  0
ATTDEF
  5
143
330
13A
100
AcDbEntity
  8
AM_6
100
AcDbText
 10
7.75
 20
2.041999999999999
 30
0.0
 40
0.5
  1
3-1/4
100
AcDbAttributeDefinition
  3

  2
SS
 70
     8
280
     0
  0
ATTDEF
  5
144
330
13A
100
AcDbEntity
  8
AM_6
100
AcDbText
 10
7.75
 20
1.541999999999999
 30
0.0
 40
0.5
  1
023527
100
AcDbAttributeDefinition
  3

  2
PN
 70
     8
280
     0
  0
ATTDEF
  5
145
330
13A
100
AcDbEntity
  8
AM_6
100
AcDbText
 10
7.75
 20
1.041999999999999
 30
0.0
 40
0.5
  1
S1U-DI-304R
100
AcDbAttributeDefinition
  3

  2
DESCRIPTION
 70
     8
280
     0
  0
ATTDEF
  5
146
330
13A
100
AcDbEntity
  8
AM_6
100
AcDbText
 10
7.75
 20
0.5419999999999989
 30
0.0
 40
0.5
  1
5
100
AcDbAttributeDefinition
  3

  2
A
 70
     8
280
     0
  0
ATTDEF
  5
147
330
13A
100
AcDbEntity
  8
AM_6
100
AcDbText
 10
7.75
 20
0.0419999999999989
 30
0.0
 40
0.5
  1
3-1/2
100
AcDbAttributeDefinition
  3

  2
B
 70
     8
280
     0
  0
ATTDEF
  5
148
330
13A
100
AcDbEntity
  8
AM_6
100
AcDbText
 10
7.75
 20
-0.4580000000000011
 30
0.0
 40
0.5
  1
2
100
AcDbAttributeDefinition
  3

  2
C
 70
     8
280
     0
  0
ATTDEF
  5
149
330
13A
100
AcDbEntity
  8
AM_6
100
AcDbText
 10
7.75
 20
-0.9580000000000011
 30
0.0
 40
0.5
  1
6.813
100
AcDbAttributeDefinition
  3

  2
EM
 70
     8
280
     0
  0
ATTDEF
  5
14A
330
13A
100
AcDbEntity
  8
AM_6
100
AcDbText
 10
7.75
 20
-1.458000000000001
 30
0.0
 40
0.5
  1
6-15/16
100
AcDbAttributeDefinition
  3

  2
EC
 70
     8
280
     0
  0
ATTDEF
  5
14B
330
13A
100
AcDbEntity
  8
AM_6
100
AcDbText
 10
7.75
 20
-1.958000000000001
 30
0.0
 40
0.5
  1
11/16
100
AcDbAttributeDefinition
  3

  2
H
 70
     8
280
     0
  0
ATTDEF
  5
14C
330
13A
100
AcDbEntity
  8
AM_6
100
AcDbText
 10
7.75
 20
-2.458000000000001
 30
0.0
 40
0.5
  1
7.373
100
AcDbAttributeDefinition
  3

  2
K
 70
     8
280
     0
  0
ATTDEF
  5
14D
330
13A
100
AcDbEntity
  8
AM_6
100
AcDbText
 10
7.75
 20
-2.958000000000001
 30
0.0
 40
0.5
  1
+0.000 to -0.003
100
AcDbAttributeDefinition
  3

  2
TOL
 70
     8
280
     0
  0
ATTDEF
  5
14E
330
13A
100
AcDbEntity
  8
AM_6
100
AcDbText
 10
7.75
 20
-3.458000000000001
 30
0.0
 40
0.5
  1
5-1/2
100
AcDbAttributeDefinition
  3

  2
L
 70
     8
280
     0
  0
ATTDEF
  5
14F
330
13A
100
AcDbEntity
  8
AM_6
100
AcDbText
 10
7.75
 20
-3.958000000000001
 30
0.0
 40
0.5
  1
4.51
100
AcDbAttributeDefinition
  3

  2
M
 70
     8
280
     0
  0
ATTDEF
  5
150
330
13A
100
AcDbEntity
  8
AM_6
100
AcDbText
 10
7.75
 20
-4.458000000000001
 30
0.0
 40
0.5
  1
baldor
100
AcDbAttributeDefinition
  3

  2
COMPANY
 70
     8
280
     0
  0
LINE
  5
151
330
13A
100
AcDbEntity
  8
AM_9
100
AcDbLine
 10
1.79
 20
2.12
 30
0.0
 11
1.79
 21
1.625
 31
0.0
  0
LINE
  5
152
330
13A
100
AcDbEntity
  8
AM_9
100
AcDbLine
 10
2.33
 20
1.625
 30
0.0
 11
2.33
 21
2.12
 31
0.0
  0
LINE
  5
153
330
13A
100
AcDbEntity
  8
AM_9
100
AcDbLine
 10
-2.33
 20
2.120000000000001
 30
0.0
 11
-2.33
 21
1.625
 31
0.0
  0
LINE
  5
154
330
13A
100
AcDbEntity
  8
AM_9
100
AcDbLine
 10
-1.79
 20
1.625
 30
0.0
 11
-1.79
 21
2.120000000000001
 31
0.0
  0
LINE
  5
155
330
13A
100
AcDbEntity
  8
AM_9
100
AcDbLine
 10
-2.5
 20
-1.625
 30
0.0
 11
2.5
 21
-1.625
 31
0.0
  0
LINE
  5
156
330
13A
100
AcDbEntity
  8
AM_9
100
AcDbLine
 10
2.5
 20
1.625
 30
0.0
 11
2.33
 21
1.625
 31
0.0
  0
LINE
  5
157
330
13A
100
AcDbEntity
  8
AM_9
100
AcDbLine
 10
1.79
 20
1.625
 30
0.0
 11
-1.79
 21
1.625
 31
0.0
  0
LINE
  5
158
330
13A
100
AcDbEntity
  8
AM_9
100
AcDbLine
 10
-2.33
 20
1.625
 30
0.0
 11
-2.5
 21
1.625
 31
0.0
  0
LWPOLYLINE
  5
159
330
13A
100
AcDbEntity
  8
AM_9
100
AcDbPolyline
 90
       20
 70
     0
 43
0.0
 10
1.790000000001013
 20
1.624999999999831
 10
1.790290157255709
 20
1.624951814446555
 10
1.79628953746
 20
1.623966812485114
 10
1.809285171980699
 20
1.621907187538407
 10
1.82963845991646
 20
1.618885863533825
 10
1.855917416312344
 20
1.615355905354801
 10
1.888714744756088
 20
1.611540765436597
 10
1.925734726760542
 20
1.608027413820444
 10
1.967761512103428
 20
1.605064777088278
 10
2.011058312858787
 20
1.60315947077645
 10
2.057080529332813
 20
1.602414903609229
 10
2.101328244969747
 20
1.602945109425859
 10
2.145660384637282
 20
1.604700190532863
 10
2.186332061703379
 20
1.607384456131832
 10
2.224572222845067
 20
1.610841089782653
 10
2.257631653404176
 20
1.614553582395848
 10
2.285983999953592
 20
1.61826875649103
 10
2.307391750823075
 20
1.621396829395971
 10
2.322255491225156
 20
1.623731179314404
 10
2.33
 20
1.625
  0
LWPOLYLINE
  5
15A
330
13A
100
AcDbEntity
  8
AM_9
100
AcDbPolyline
 90
       20
 70
     0
 43
0.0
 10
-2.329999999998987
 20
1.624999999999831
 10
-2.329709842744291
 20
1.624951814446555
 10
-2.32371046254
 20
1.623966812485114
 10
-2.310714828019301
 20
1.621907187538407
 10
-2.29036154008354
 20
1.618885863533825
 10
-2.264082583687656
 20
1.615355905354801
 10
-2.231285255243912
 20
1.611540765436597
 10
-2.194265273239458
 20
1.608027413820444
 10
-2.152238487896572
 20
1.605064777088278
 10
-2.108941687141213
 20
1.60315947077645
 10
-2.062919470667187
 20
1.602414903609229
 10
-2.018671755030253
 20
1.602945109425859
 10
-1.974339615362718
 20
1.604700190532863
 10
-1.933667938296622
 20
1.607384456131832
 10
-1.895427777154933
 20
1.610841089782653
 10
-1.862368346595824
 20
1.614553582395848
 10
-1.834016000046409
 20
1.61826875649103
 10
-1.812608249176925
 20
1.621396829395971
 10
-1.797744508774845
 20
1.623731179314404
 10
-1.79
 20
1.625
  0
LWPOLYLINE
  5
15B
330
13A
100
AcDbEntity
  8
AM_9
100
AcDbPolyline
 90
       11
 70
     0
 43
0.0
 10
2.06
 20
0.4325055746881744
 10
2.104334990347832
 20
0.4360862144836873
 10
2.148669980695665
 20
0.4471137530065339
 10
2.189268196047309
 20
0.464574091239506
 10
2.22733282900185
 20
0.4888484575057924
 10
2.260012577828033
 20
0.5180869541338521
 10
2.287903474046892
 20
0.5528123273383352
 10
2.308789599483739
 20
0.5902517958692962
 10
2.323075571802491
 20
0.6312112337106542
 10
2.329493563085911
 20
0.6717384661169453
 10
2.32999999911659
 20
0.6867348803454076
  0
LINE
  5
15C
330
13A
100
AcDbEntity
  8
AM_9
100
AcDbLine
 10
1.79
 20
0.8959031063012052
 30
0.0
 11
1.79
 21
0.6867389560382006
 31
0.0
  0
LINE
  5
15D
330
13A
100
AcDbEntity
  8
AM_9
100
AcDbLine
 10
2.33
 20
0.6866913406976309
 30
0.0
 11
2.33
 21
0.8959483170521764
 31
0.0
  0
LWPOLYLINE
  5
15E
330
13A
100
AcDbEntity
  8
AM_9
100
AcDbPolyline
 90
        5
 70
     0
 43
0.0
 10
1.816137786527261
 20
0.7900407602401073
 10
1.806246842048012
 20
0.7692505780745653
 10
1.794475205062915
 20
0.730811178259953
 10
1.790016009656243
 20
0.6894183053778146
 10
1.790000000480259
 20
0.6867692705023594
  0
LWPOLYLINE
  5
15F
330
13A
100
AcDbEntity
  8
AM_9
100
AcDbPolyline
 90
       15
 70
     0
 43
0.0
 10
2.303521331599664
 20
0.7906667288988994
 10
2.281811129479953
 20
0.8231896786717235
 10
2.252740162530821
 20
0.8534545080845974
 10
2.218768738517999
 20
0.8784496790595607
 10
2.179219180094653
 20
0.898636665831724
 10
2.137351086505365
 20
0.912443486060375
 10
2.091957788281451
 20
0.9203263017105582
 10
2.047469560925778
 20
0.9216688218150052
 10
2.002049107704186
 20
0.9166516343816077
 10
1.959792169849226
 20
0.9057572088573331
 10
1.91918560617102
 20
0.8886064784666905
 10
1.883237334392544
 20
0.8662897950369228
 10
1.851297791002193
 20
0.838178032422651
 10
1.825757206902399
 20
0.8061023570659588
 10
1.816137786527261
 20
0.7900407602401073
  0
LWPOLYLINE
  5
160
330
13A
100
AcDbEntity
  8
AM_9
100
AcDbPolyline
 90
        5
 70
     0
 43
0.0
 10
2.32999999911659
 20
0.6867348803454076
 10
2.328385654916989
 20
0.7133606731807128
 10
2.319963834305852
 20
0.7521598394138101
 10
2.304032500201183
 20
0.7897262284985469
 10
2.303521331599664
 20
0.7906667288988994
  0
LWPOLYLINE
  5
161
330
13A
100
AcDbEntity
  8
AM_9
100
AcDbPolyline
 90
       10
 70
     0
 43
0.0
 10
1.790000000480259
 20
0.6867692705023594
 10
1.793180092822099
 20
0.6490862629429472
 10
1.803948602495241
 20
0.6081652762795416
 10
1.821384442540313
 20
0.570169940540942
 10
1.845969582382391
 20
0.5340505191671083
 10
1.87605439423749
 20
0.5025277292027592
 10
1.912257805266107
 20
0.475262970452964
 10
1.951858652018742
 20
0.4545309337060657
 10
1.99581044921318
 20
0.4400645675717774
 10
2.06
 20
0.4325055746881744
  0
LWPOLYLINE
  5
162
330
13A
100
AcDbEntity
  8
AM_9
100
AcDbPolyline
 90
        7
 70
     0
 43
0.0
 10
2.247407418604987
 20
1.068333393413998
 10
2.270339835912528
 20
1.046513394252286
 10
2.295794250661976
 20
1.01338337986988
 10
2.314584493986311
 20
0.9766451995084805
 10
2.326043687786772
 20
0.9373262719416712
 10
2.329999466442034
 20
0.8964371641452153
 10
2.329999999974892
 20
0.8959540521073359
  0
LWPOLYLINE
  5
163
330
13A
100
AcDbEntity
  8
AM_9
100
AcDbPolyline
 90
       11
 70
     0
 43
0.0
 10
1.872795995577048
 20
1.068503334903074
 10
1.903118139761372
 20
1.090253266955972
 10
1.942252664268236
 20
1.110254682574585
 10
1.984807399015732
 20
1.124221452913873
 10
2.029515345233332
 20
1.13188653693128
 10
2.074791870714374
 20
1.132990279782632
 10
2.11964899722793
 20
1.127669084950707
 10
2.162645922811061
 20
1.116019269941662
 10
2.202773836892609
 20
1.098392999280693
 10
2.239062404981112
 20
1.0749877530829
 10
2.247407418604987
 20
1.068333393413998
  0
LWPOLYLINE
  5
164
330
13A
100
AcDbEntity
  8
AM_9
100
AcDbPolyline
 90
        7
 70
     0
 43
0.0
 10
1.790000001052307
 20
0.8959291103520818
 10
1.791695732560156
 20
0.923241923479359
 10
1.800503316690021
 20
0.9628954837163609
 10
1.816501039310451
 20
1.000318114378463
 10
1.839398549565755
 20
1.034581188340918
 10
1.868425704694225
 20
1.064770412110507
 10
1.872795995577048
 20
1.068503334903074
  0
LWPOLYLINE
  5
165
330
13A
100
AcDbEntity
  8
AM_9
100
AcDbPolyline
 90
       10
 70
     0
 43
0.0
 10
2.329999999974892
 20
0.8959540521073359
 10
2.326278395609493
 20
0.8554106603145312
 10
2.315152437476752
 20
0.8151444539496382
 10
2.296853523188738
 20
0.7768511634655715
 10
2.271995975984996
 20
0.7416199883106783
 10
2.240958083473564
 20
0.7103619953335842
 10
2.204831793678195
 20
0.6842418298831975
 10
2.164406084803952
 20
0.6641112482016288
 10
2.120995086612004
 20
0.6506513485957608
 10
2.06
 20
0.6439516627973394
  0
LWPOLYLINE
  5
166
330
13A
100
AcDbEntity
  8
AM_9
100
AcDbPolyline
 90
       11
 70
     0
 43
0.0
 10
-2.06
 20
0.4325055746881744
 10
-2.015665009652168
 20
0.4360862144836873
 10
-1.971330019304336
 20
0.4471137530065339
 10
-1.930731803952692
 20
0.464574091239506
 10
-1.89266717099815
 20
0.4888484575057924
 10
-1.859987422171967
 20
0.5180869541338521
 10
-1.832096525953109
 20
0.5528123273383352
 10
-1.811210400516261
 20
0.5902517958692962
 10
-1.79692442819751
 20
0.6312112337106542
 10
-1.79050643691409
 20
0.6717384661169453
 10
-1.79000000088341
 20
0.6867348803454076
  0
LINE
  5
167
330
13A
100
AcDbEntity
  8
AM_9
100
AcDbLine
 10
-2.33
 20
0.8959031063012053
 30
0.0
 11
-2.33
 21
0.6867389560382006
 31
0.0
  0
LINE
  5
168
330
13A
100
AcDbEntity
  8
AM_9
100
AcDbLine
 10
-1.79
 20
0.6866913406976309
 30
0.0
 11
-1.79
 21
0.8959483170521767
 31
0.0
  0
LWPOLYLINE
  5
169
330
13A
100
AcDbEntity
  8
AM_9
100
AcDbPolyline
 90
        5
 70
     0
 43
0.0
 10
-2.30386221347274
 20
0.7900407602401076
 10
-2.313753157951988
 20
0.7692505780745653
 10
-2.325524794937085
 20
0.730811178259953
 10
-2.329983990343757
 20
0.6894183053778146
 10
-2.329999999519742
 20
0.6867692705023594
  0
LWPOLYLINE
  5
16A
330
13A
100
AcDbEntity
  8
AM_9
100
AcDbPolyline
 90
       15
 70
     0
 43
0.0
 10
-1.816478668400337
 20
0.7906667288988996
 10
-1.838188870520047
 20
0.8231896786717235
 10
-1.86725983746918
 20
0.8534545080845974
 10
-1.901231261482001
 20
0.8784496790595607
 10
-1.940780819905347
 20
0.898636665831724
 10
-1.982648913494635
 20
0.912443486060375
 10
-2.028042211718549
 20
0.9203263017105582
 10
-2.072530439074222
 20
0.9216688218150052
 10
-2.117950892295814
 20
0.9166516343816077
 10
-2.160207830150775
 20
0.9057572088573331
 10
-2.200814393828981
 20
0.8886064784666905
 10
-2.236762665607456
 20
0.8662897950369228
 10
-2.268702208997808
 20
0.838178032422651
 10
-2.294242793097601
 20
0.8061023570659588
 10
-2.30386221347274
 20
0.7900407602401076
  0
LWPOLYLINE
  5
16B
330
13A
100
AcDbEntity
  8
AM_9
100
AcDbPolyline
 90
        5
 70
     0
 43
0.0
 10
-1.79000000088341
 20
0.6867348803454076
 10
-1.791614345083011
 20
0.7133606731807128
 10
-1.800036165694148
 20
0.7521598394138101
 10
-1.815967499798817
 20
0.7897262284985469
 10
-1.816478668400337
 20
0.7906667288988996
  0
LWPOLYLINE
  5
16C
330
13A
100
AcDbEntity
  8
AM_9
100
AcDbPolyline
 90
       10
 70
     0
 43
0.0
 10
-2.329999999519742
 20
0.6867692705023594
 10
-2.326819907177902
 20
0.6490862629429472
 10
-2.316051397504759
 20
0.6081652762795416
 10
-2.298615557459687
 20
0.570169940540942
 10
-2.27403041761761
 20
0.5340505191671083
 10
-2.24394560576251
 20
0.5025277292027592
 10
-2.207742194733894
 20
0.475262970452964
 10
-2.168141347981258
 20
0.4545309337060657
 10
-2.12418955078682
 20
0.4400645675717774
 10
-2.06
 20
0.4325055746881744
  0
LWPOLYLINE
  5
16D
330
13A
100
AcDbEntity
  8
AM_9
100
AcDbPolyline
 90
        7
 70
     0
 43
0.0
 10
-1.873982090493537
 20
1.069487059765803
 10
-1.849660164087472
 20
1.046513394252286
 10
-1.824205749338025
 20
1.01338337986988
 10
-1.805415506013689
 20
0.9766451995084808
 10
-1.793956312213228
 20
0.9373262719416714
 10
-1.790000533557966
 20
0.8964371641452155
 10
-1.790000000025109
 20
0.8959540521073363
  0
LWPOLYLINE
  5
16E
330
13A
100
AcDbEntity
  8
AM_9
100
AcDbPolyline
 90
       11
 70
     0
 43
0.0
 10
-2.246106518862853
 20
1.069413990493797
 10
-2.216881860238628
 20
1.090253266955972
 10
-2.177747335731764
 20
1.110254682574585
 10
-2.135192600984268
 20
1.124221452913874
 10
-2.090484654766668
 20
1.13188653693128
 10
-2.045208129285626
 20
1.132990279782633
 10
-2.00035100277207
 20
1.127669084950707
 10
-1.95735407718894
 20
1.116019269941662
 10
-1.917226163107391
 20
1.098392999280693
 10
-1.880937595018888
 20
1.0749877530829
 10
-1.873982090493537
 20
1.069487059765803
  0
LWPOLYLINE
  5
16F
330
13A
100
AcDbEntity
  8
AM_9
100
AcDbPolyline
 90
        7
 70
     0
 43
0.0
 10
-2.329999998947693
 20
0.895929110352082
 10
-2.328304267439845
 20
0.9232419234793594
 10
-2.319496683309979
 20
0.9628954837163614
 10
-2.303498960689549
 20
1.000318114378464
 10
-2.280601450434246
 20
1.034581188340918
 10
-2.251574295305775
 20
1.064770412110507
 10
-2.246106518862853
 20
1.069413990493797
  0
LWPOLYLINE
  5
170
330
13A
100
AcDbEntity
  8
AM_9
100
AcDbPolyline
 90
       10
 70
     0
 43
0.0
 10
-1.790000000025109
 20
0.8959540521073363
 10
-1.793721604390507
 20
0.8554106603145314
 10
-1.804847562523248
 20
0.8151444539496385
 10
-1.823146476811262
 20
0.7768511634655719
 10
-1.848004024015004
 20
0.7416199883106787
 10
-1.879041916526437
 20
0.7103619953335847
 10
-1.915168206321805
 20
0.6842418298831978
 10
-1.955593915196048
 20
0.664111248201629
 10
-1.999004913387996
 20
0.650651348595761
 10
-2.06
 20
0.6439516627973396
  0
LWPOLYLINE
  5
171
330
13A
100
AcDbEntity
  8
AM_9
100
AcDbPolyline
 90
       20
 70
     0
 43
0.0
 10
2.33
 20
2.12
 10
2.326310672319148
 20
2.119533291597723
 10
2.314922530907542
 20
2.118132549385026
 10
2.296806347019211
 20
2.116028649614315
 10
2.271453143286445
 20
2.113341532219939
 10
2.240804564888041
 20
2.110495271419567
 10
2.204087801095833
 20
2.10766726368861
 10
2.164215161535895
 20
2.1053172682268
 10
2.120136862597146
 20
2.103596073927461
 10
2.075834848353393
 20
2.102795934564829
 10
2.029780687555213
 20
2.102953448568141
 10
1.986131476984326
 20
2.104033402465968
 10
1.943349773713936
 20
2.105969438356737
 10
1.904882056897088
 20
2.108450041208584
 10
1.869745043386905
 20
2.111325874543257
 10
1.840649193832328
 20
2.114146346913195
 10
1.817029133094757
 20
2.116727389666578
 10
1.800870822003287
 20
2.118642945587871
 10
1.791727259014528
 20
2.119780711195349
 10
1.790000000000287
 20
2.119999999999964
  0
LWPOLYLINE
  5
172
330
13A
100
AcDbEntity
  8
AM_9
100
AcDbPolyline
 90
       11
 70
     0
 43
0.0
 10
2.06
 20
0.6439516627973394
 10
2.014881609168771
 20
0.6476249139438294
 10
1.971039980071375
 20
0.6584103219105828
 10
1.929753229493176
 20
0.6760384091664734
 10
1.892115134634748
 20
0.6998362474154123
 10
1.859067735546931
 20
0.7292862314649693
 10
1.831663057710494
 20
0.7632879888944594
 10
1.81069556198666
 20
0.800987048231468
 10
1.796783284591927
 20
0.8410837112432663
 10
1.790454953389078
 20
0.8821667555722523
 10
1.790000001052307
 20
0.8959291103520818
  0
LINE
  5
173
330
13A
100
AcDbEntity
  8
AM_9
100
AcDbLine
 10
1.576
 20
-2.12
 30
0.0
 11
2.5
 21
-2.12
 31
0.0
  0
LINE
  5
174
330
13A
100
AcDbEntity
  8
AM_9
100
AcDbLine
 10
2.5
 20
2.12
 30
0.0
 11
2.33
 21
2.12
 31
0.0
  0
LINE
  5
175
330
13A
100
AcDbEntity
  8
AM_9
100
AcDbLine
 10
1.79
 20
2.12
 30
0.0
 11
1.576
 21
2.12
 31
0.0
  0
LWPOLYLINE
  5
176
330
13A
100
AcDbEntity
  8
AM_9
100
AcDbPolyline
 90
       20
 70
     0
 43
0.0
 10
-1.79
 20
2.120000000000001
 10
-1.793689327680852
 20
2.119533291597723
 10
-1.805077469092458
 20
2.118132549385026
 10
-1.823193652980789
 20
2.116028649614316
 10
-1.848546856713555
 20
2.11334153221994
 10
-1.879195435111959
 20
2.110495271419568
 10
-1.915912198904167
 20
2.107667263688611
 10
-1.955784838464105
 20
2.105317268226801
 10
-1.999863137402854
 20
2.103596073927462
 10
-2.044165151646608
 20
2.10279593456483
 10
-2.090219312444787
 20
2.102953448568142
 10
-2.133868523015674
 20
2.104033402465969
 10
-2.176650226286065
 20
2.105969438356738
 10
-2.215117943102912
 20
2.108450041208584
 10
-2.250254956613095
 20
2.111325874543259
 10
-2.279350806167672
 20
2.114146346913196
 10
-2.302970866905243
 20
2.116727389666579
 10
-2.319129177996713
 20
2.118642945587872
 10
-2.328272740985473
 20
2.11978071119535
 10
-2.329999999999714
 20
2.119999999999964
  0
LWPOLYLINE
  5
177
330
13A
100
AcDbEntity
  8
AM_9
100
AcDbPolyline
 90
       11
 70
     0
 43
0.0
 10
-2.06
 20
0.6439516627973396
 10
-2.105118390831229
 20
0.6476249139438298
 10
-2.148960019928626
 20
0.6584103219105832
 10
-2.190246770506825
 20
0.6760384091664738
 10
-2.227884865365252
 20
0.6998362474154126
 10
-2.26093226445307
 20
0.7292862314649696
 10
-2.288336942289506
 20
0.7632879888944599
 10
-2.30930443801334
 20
0.8009870482314685
 10
-2.323216715408073
 20
0.8410837112432666
 10
-2.329545046610922
 20
0.8821667555722528
 10
-2.329999998947693
 20
0.895929110352082
  0
LINE
  5
178
330
13A
100
AcDbEntity
  8
AM_9
100
AcDbLine
 10
-2.5
 20
-2.120000000000001
 30
0.0
 11
-1.576
 21
-2.120000000000001
 31
0.0
  0
LINE
  5
179
330
13A
100
AcDbEntity
  8
AM_9
100
AcDbLine
 10
-1.576
 20
2.120000000000001
 30
0.0
 11
-1.79
 21
2.120000000000001
 31
0.0
  0
LINE
  5
17A
330
13A
100
AcDbEntity
  8
AM_9
100
AcDbLine
 10
-2.33
 20
2.120000000000001
 30
0.0
 11
-2.5
 21
2.120000000000001
 31
0.0
  0
LINE
  5
17B
330
13A
100
AcDbEntity
  8
AM_9
100
AcDbLine
 10
-1.576
 20
2.820512820512821
 30
0.0
 11
-1.75
 21
2.851193715156094
 31
0.0
  0
LINE
  5
17C
330
13A
100
AcDbEntity
  8
AM_9
100
AcDbLine
 10
-1.75
 20
-2.851193715156094
 30
0.0
 11
-1.576
 21
-2.820512820512821
 31
0.0
  0
LINE
  5
17D
330
13A
100
AcDbEntity
  8
AM_9
100
AcDbLine
 10
-1.576
 20
2.820512820512821
 30
0.0
 11
-1.576
 21
-2.820512820512821
 31
0.0
  0
LINE
  5
17E
330
13A
100
AcDbEntity
  8
AM_9
100
AcDbLine
 10
1.576
 20
-2.820512820512821
 30
0.0
 11
1.576
 21
2.820512820512821
 31
0.0
  0
LINE
  5
17F
330
13A
100
AcDbEntity
  8
AM_9
100
AcDbLine
 10
1.576
 20
-2.820512820512821
 30
0.0
 11
1.75
 21
-2.851193715156094
 31
0.0
  0
LINE
  5
180
330
13A
100
AcDbEntity
  8
AM_9
100
AcDbLine
 10
1.75
 20
2.851193715156094
 30
0.0
 11
1.576
 21
2.820512820512821
 31
0.0
  0
LINE
  5
183
330
13A
100
AcDbEntity
  8
AM_7
100
AcDbLine
 10
-2.75
 20
0.0
 30
0.0
 11
2.75
 21
0.0
 31
0.0
  0
LINE
  5
184
330
13A
100
AcDbEntity
  8
AM_7
100
AcDbLine
 10
-2.06
 20
-0.1375
 30
0.0
 11
-2.06
 21
2.8875
 31
0.0
  0
LINE
  5
185
330
13A
100
AcDbEntity
  8
AM_7
100
AcDbLine
 10
2.06
 20
-0.1375
 30
0.0
 11
2.06
 21
2.8875
 31
0.0
  0
LINE
  5
186
330
13A
100
AcDbEntity
  8
AM_7
100
AcDbLine
 10
0.0
 20
4.541999999999999
 30
0.0
 11
0.0
 21
2.287
 31
0.0
  0
LINE
  5
187
330
13A
100
AcDbEntity
  8
AM_4
100
AcDbLine
 10
0.2976296429849727
 20
4.135
 30
0.0
 11
-0.297629642914542
 21
4.135
 31
0.0
  0
ARC
  5
188
330
13A
100
AcDbEntity
  8
AM_4
100
AcDbCircle
 10
-0.2976296429849711
 20
4.080999999999998
 30
0.0
 40
0.054000000000002
100
AcDbArc
 50
90.0
 51
170.9999999999981
  0
ARC
  5
189
330
13A
100
AcDbEntity
  8
AM_4
100
AcDbCircle
 10
0.2976296429849711
 20
4.080999999999998
 30
0.0
 40
0.0540000000000022
100
AcDbArc
 50
9.000000000001855
 51
90.0
  0
LINE
  5
18A
330
13A
100
AcDbEntity
  8
AM_4
100
AcDbLine
 10
0.3509648133771103
 20
4.089447461112172
 30
0.0
 11
-0.3509648133771103
 21
4.089447461112172
 31
0.0
  0
LINE
  5
18B
330
13A
100
AcDbEntity
  8
AM_4
100
AcDbLine
 10
-0.3509648133771103
 20
4.089447461112172
 30
0.0
 11
-0.4185610773786937
 21
3.662661446885801
 31
0.0
  0
LINE
  5
18C
330
13A
100
AcDbEntity
  8
AM_4
100
AcDbLine
 10
0.4185610773786937
 20
3.662661446885801
 30
0.0
 11
0.3509648133771103
 21
4.089447461112172
 31
0.0
  0
LINE
  5
18D
330
13A
100
AcDbEntity
  8
AM_4
100
AcDbLine
 10
-1.75
 20
3.352499999999999
 30
0.0
 11
-1.75
 21
-3.352499999999999
 31
0.0
  0
ARC
  5
18E
330
13A
100
AcDbEntity
  8
AM_4
100
AcDbCircle
 10
-1.695999999999998
 20
-3.352499999999999
 30
0.0
 40
0.0540000000000012
100
AcDbArc
 50
180.0
 51
270.0
  0
ARC
  5
18F
330
13A
100
AcDbEntity
  8
AM_4
100
AcDbCircle
 10
-1.695999999999998
 20
3.352499999999999
 30
0.0
 40
0.0540000000000007
100
AcDbArc
 50
90.0
 51
180.0
  0
LINE
  5
190
330
13A
100
AcDbEntity
  8
AM_4
100
AcDbLine
 10
-1.696
 20
-3.4065
 30
0.0
 11
-1.0
 21
-3.4065
 31
0.0
  0
LINE
  5
191
330
13A
100
AcDbEntity
  8
AM_4
100
AcDbLine
 10
-1.0
 20
3.4065
 30
0.0
 11
-1.696
 21
3.4065
 31
0.0
  0
LINE
  5
192
330
13A
100
AcDbEntity
  8
AM_4
100
AcDbLine
 10
-1.696
 20
3.4065
 30
0.0
 11
-1.696
 21
-3.4065
 31
0.0
  0
LINE
  5
193
330
13A
100
AcDbEntity
  8
AM_4
100
AcDbLine
 10
1.75
 20
3.41475
 30
0.0
 11
1.75
 21
-3.41475
 31
0.0
  0
ARC
  5
194
330
13A
100
AcDbEntity
  8
AM_4
100
AcDbCircle
 10
1.696000000000001
 20
-3.414750000000001
 30
0.0
 40
0.0539999999999994
100
AcDbArc
 50
270.0
 51
0.0
  0
ARC
  5
195
330
13A
100
AcDbEntity
  8
AM_4
100
AcDbCircle
 10
1.696000000000001
 20
3.414750000000001
 30
0.0
 40
0.0539999999999994
100
AcDbArc
 50
0.0
 51
90.0
  0
LINE
  5
196
330
13A
100
AcDbEntity
  8
AM_4
100
AcDbLine
 10
1.0
 20
-3.46875
 30
0.0
 11
1.696
 21
-3.46875
 31
0.0
  0
LINE
  5
197
330
13A
100
AcDbEntity
  8
AM_4
100
AcDbLine
 10
1.696
 20
3.46875
 30
0.0
 11
1.0
 21
3.46875
 31
0.0
  0
LINE
  5
198
330
13A
100
AcDbEntity
  8
AM_4
100
AcDbLine
 10
1.696
 20
3.46875
 30
0.0
 11
1.696
 21
-3.46875
 31
0.0
  0
LINE
  5
199
330
13A
100
AcDbEntity
  8
AM_4
100
AcDbLine
 10
0.4185610773786955
 20
3.662661446885801
 30
0.0
 11
-0.4185610773786893
 21
3.662661446885801
 31
0.0
  0
ARC
  5
19A
330
13A
100
AcDbEntity
  8
AM_4
100
AcDbCircle
 10
0.0000000000000419
 20
0.0000000000002021
 30
0.0
 40
3.686499999999794
100
AcDbArc
 50
74.26074188866481
 51
83.48064299961203
  0
ARC
  5
19B
330
13A
100
AcDbEntity
  8
AM_4
100
AcDbCircle
 10
0.0000000000000268
 20
-0.0000000000001332
 30
0.0
 40
3.686500000000135
100
AcDbArc
 50
96.5193570003884
 51
105.7392581113348
  0
ARC
  5
19C
330
13A
100
AcDbEntity
  8
AM_4
100
AcDbCircle
 10
0.0000000000000014
 20
-0.0000000000001434
 30
0.0
 40
3.686499999999867
100
AcDbArc
 50
254.2607418886644
 51
285.7392581113355
  0
LINE
  5
19D
330
13A
100
AcDbEntity
  8
AM_4
100
AcDbLine
 10
-1.0
 20
3.548278772870023
 30
0.0
 11
-1.0
 21
-3.548278772870028
 31
0.0
  0
LINE
  5
19E
330
13A
100
AcDbEntity
  8
AM_4
100
AcDbLine
 10
1.0
 20
3.548278772870024
 30
0.0
 11
1.0
 21
-3.548278772870029
 31
0.0
  0
ENDBLK
  5
13D
330
13A
100
AcDbEntity
  8
0
100
AcDbBlockEnd
  0
ENDSEC
  0
SECTION
  2
ENTITIES
  0
INSERT
  5
6F
330
1F
100
AcDbEntity
  8
0
100
AcDbBlockReference
  2
1_023527_2
 10
0.0
 20
0.0
 30
0.0
  0
POINT
  5
1A0
330
1F
100
AcDbEntity
  8
ConnectionPoints
100
AcDbPoint
 10
-2.5
 20
0.0
 30
0.0000000000000002
  0
POINT
  5
1A1
330
1F
100
AcDbEntity
  8
ConnectionPoints
100
AcDbPoint
 10
0.0
 20
4.135
 30
0.0
  0
POINT
  5
1A2
330
1F
100
AcDbEntity
  8
ConnectionPoints
100
AcDbPoint
 10
0.0
 20
0.0
 30
0.0
  0
POINT
  5
1A3
330
1F
100
AcDbEntity
  8
ConnectionPoints
100
AcDbPoint
 10
-2.5
 20
0.0
 30
0.0000000000000002
  0
POINT
  5
1A4
330
1F
100
AcDbEntity
  8
ConnectionPoints
100
AcDbPoint
 10
2.5
 20
0.0
 30
-0.0000000000000002
  0
POINT
  5
1A5
330
1F
100
AcDbEntity
  8
ConnectionPoints
100
AcDbPoint
 10
0.0
 20
4.135
 30
0.0
  0
POINT
  5
1A6
330
1F
100
AcDbEntity
  8
ConnectionPoints
100
AcDbPoint
 10
0.0
 20
4.135
 30
0.0
  0
ENDSEC
  0
SECTION
  2
OBJECTS
  0
DICTIONARY
  5
C
330
0
100
AcDbDictionary
281
     1
  3
ACAD_DETAILVIEWSTYLE
350
1AE
  3
ACAD_GROUP
350
D
  3
ACAD_LAYOUT
350
1A
  3
ACAD_MATERIAL
350
43
  3
ACAD_MLEADERSTYLE
350
6B
  3
ACAD_MLINESTYLE
350
17
  3
ACAD_PLOTSETTINGS
350
19
  3
ACAD_PLOTSTYLENAME
350
E
  3
ACAD_SCALELIST
350
47
  3
ACAD_SECTIONVIEWSTYLE
350
1AF
  3
ACAD_TABLESTYLE
350
69
  3
ACAD_VISUALSTYLE
350
2A
  3
ACDB_RECOMPOSE_DATA
350
1AB
  3
AcDbVariableDictionary
350
1A7
  0
SUN
  5
6D
330
29
100
AcDbSun
 90
        1
290
     0
 63
     7
421
 16777215
 40
1.0
291
     1
 91
  2455826
 92
 54000000
292
     0
 70
     2
 71
   256
280
     1
  0
DICTIONARY
  5
1AE
102
{ACAD_REACTORS
330
C
102
}
330
C
100
AcDbDictionary
281
     1
  0
DICTIONARY
  5
D
102
{ACAD_REACTORS
330
C
102
}
330
C
100
AcDbDictionary
281
     1
  0
DICTIONARY
  5
1A
102
{ACAD_REACTORS
330
C
102
}
330
C
100
AcDbDictionary
281
     1
  3
Layout1
350
1E
  3
Layout2
350
26
  3
Model
350
22
  0
DICTIONARY
  5
43
102
{ACAD_REACTORS
330
C
102
}
330
C
100
AcDbDictionary
281
     1
  3
ByBlock
350
45
  3
ByLayer
350
44
  3
Global
350
46
  0
DICTIONARY
  5
6B
102
{ACAD_REACTORS
330
C
102
}
330
C
100
AcDbDictionary
281
     1
  3
Standard
350
6C
  0
DICTIONARY
  5
17
102
{ACAD_REACTORS
330
C
102
}
330
C
100
AcDbDictionary
281
     1
  3
Standard
350
18
  0
DICTIONARY
  5
19
102
{ACAD_REACTORS
330
C
102
}
330
C
100
AcDbDictionary
281
     1
  0
ACDBDICTIONARYWDFLT
  5
E
102
{ACAD_REACTORS
330
C
102
}
330
C
100
AcDbDictionary
281
     1
  3
Normal
350
F
100
AcDbDictionaryWithDefault
340
F
  0
DICTIONARY
  5
47
102
{ACAD_REACTORS
330
C
102
}
330
C
100
AcDbDictionary
281
     1
  3
A0
350
48
  3
A1
350
49
  3
A2
350
4A
  3
A3
350
4B
  3
A4
350
4C
  3
A5
350
4D
  3
A6
350
4E
  3
A7
350
4F
  3
A8
350
50
  3
A9
350
51
  3
B0
350
52
  3
B1
350
53
  3
B2
350
54
  3
B3
350
55
  3
B4
350
56
  3
B5
350
57
  3
B6
350
58
  3
B7
350
59
  3
B8
350
5A
  3
B9
350
5B
  3
C0
350
5C
  3
C1
350
5D
  3
C2
350
5E
  3
C3
350
5F
  3
C4
350
60
  3
C5
350
61
  3
C6
350
62
  3
C7
350
63
  3
C8
350
64
  3
C9
350
65
  3
D0
350
66
  3
D1
350
67
  3
D2
350
68
  0
DICTIONARY
  5
1AF
102
{ACAD_REACTORS
330
C
102
}
330
C
100
AcDbDictionary
281
     1
  0
DICTIONARY
  5
69
102
{ACAD_REACTORS
330
C
102
}
330
C
100
AcDbDictionary
281
     1
  3
Standard
350
6A
  0
DICTIONARY
  5
2A
102
{ACAD_REACTORS
330
C
102
}
330
C
100
AcDbDictionary
281
     1
  3
2dWireframe
350
2F
  3
Basic
350
32
  3
Brighten
350
36
  3
ColorChange
350
3A
  3
Conceptual
350
34
  3
Dim
350
35
  3
EdgeColorOff
350
3D
  3
Facepattern
350
39
  3
Flat
350
2B
  3
FlatWithEdges
350
2C
  3
Gouraud
350
2D
  3
GouraudWithEdges
350
2E
  3
Hidden
350
31
  3
JitterOff
350
3B
  3
Linepattern
350
38
  3
OverhangOff
350
3C
  3
Realistic
350
33
  3
Shaded
350
42
  3
Shaded with edges
350
41
  3
Shades of Gray
350
3E
  3
Sketchy
350
3F
  3
Thicken
350
37
  3
Wireframe
350
30
  3
X-Ray
350
40
  0
XRECORD
  5
1AB
102
{ACAD_REACTORS
330
C
102
}
330
C
100
AcDbXrecord
280
     1
 90
        1
330
6A
  0
DICTIONARY
  5
1A7
102
{ACAD_REACTORS
330
C
102
}
330
C
100
AcDbDictionary
281
     1
  3
CANNOSCALE
350
1A8
  3
CMLEADERSTYLE
350
1AD
  3
CTABLESTYLE
350
1AC
  0
LAYOUT
  5
1E
102
{ACAD_REACTORS
330
1A
102
}
330
1A
100
AcDbPlotSettings
  1

  2
none_device
  4

  6

 40
0.0
 41
0.0
 42
0.0
 43
0.0
 44
0.0
 45
0.0
 46
0.0
 47
0.0
 48
0.0
 49
0.0
140
0.0
141
0.0
142
1.0
143
1.0
 70
   688
 72
     0
 73
     0
 74
     5
  7

 75
    16
 76
     0
 77
     2
 78
   300
147
1.0
148
0.0
149
0.0
100
AcDbLayout
  1
Layout1
 70
     1
 71
     1
 10
0.0
 20
0.0
 11
12.0
 21
9.0
 12
0.0
 22
0.0
 32
0.0
 14
1.000000000000000E+20
 24
1.000000000000000E+20
 34
1.000000000000000E+20
 15
-1.000000000000000E+20
 25
-1.000000000000000E+20
 35
-1.000000000000000E+20
146
0.0
 13
0.0
 23
0.0
 33
0.0
 16
1.0
 26
0.0
 36
0.0
 17
0.0
 27
1.0
 37
0.0
 76
     0
330
1B
  0
LAYOUT
  5
26
102
{ACAD_REACTORS
330
1A
102
}
330
1A
100
AcDbPlotSettings
  1

  2
none_device
  4

  6

 40
0.0
 41
0.0
 42
0.0
 43
0.0
 44
0.0
 45
0.0
 46
0.0
 47
0.0
 48
0.0
 49
0.0
140
0.0
141
0.0
142
1.0
143
1.0
 70
   688
 72
     0
 73
     0
 74
     5
  7

 75
    16
 76
     0
 77
     2
 78
   300
147
1.0
148
0.0
149
0.0
100
AcDbLayout
  1
Layout2
 70
     1
 71
     2
 10
0.0
 20
0.0
 11
0.0
 21
0.0
 12
0.0
 22
0.0
 32
0.0
 14
0.0
 24
0.0
 34
0.0
 15
0.0
 25
0.0
 35
0.0
146
0.0
 13
0.0
 23
0.0
 33
0.0
 16
1.0
 26
0.0
 36
0.0
 17
0.0
 27
1.0
 37
0.0
 76
     0
330
23
  0
LAYOUT
  5
22
102
{ACAD_REACTORS
330
1A
102
}
330
1A
100
AcDbPlotSettings
  1

  2
none_device
  4
Letter_(8.50_x_11.00_Inches)
  6

 40
6.35
 41
6.35
 42
6.35000508
 43
6.35000508
 44
215.9
 45
279.4
 46
0.0
 47
0.0
 48
0.0
 49
0.0
140
0.0
141
0.0
142
1.0
143
1.0
 70
  1712
 72
     0
 73
     0
 74
     0
  7

 75
     0
 76
     0
 77
     2
 78
   300
147
1.0
148
0.0
149
0.0
100
AcDbLayout
  1
Model
 70
     1
 71
     0
 10
0.0
 20
0.0
 11
12.0
 21
9.0
 12
0.0
 22
0.0
 32
0.0
 14
1.000000000000000E+20
 24
1.000000000000000E+20
 34
1.000000000000000E+20
 15
-1.000000000000000E+20
 25
-1.000000000000000E+20
 35
-1.000000000000000E+20
146
0.0
 13
0.0
 23
0.0
 33
0.0
 16
1.0
 26
0.0
 36
0.0
 17
0.0
 27
1.0
 37
0.0
 76
     0
330
1F
331
29
  0
MATERIAL
  5
45
102
{ACAD_REACTORS
330
43
102
}
330
43
100
AcDbMaterial
  1
ByBlock
 72
     1
 94
      127
  0
MATERIAL
  5
44
102
{ACAD_REACTORS
330
43
102
}
330
43
100
AcDbMaterial
  1
ByLayer
 72
     1
 94
      127
  0
MATERIAL
  5
46
102
{ACAD_REACTORS
330
43
102
}
330
43
100
AcDbMaterial
  1
Global
 72
     1
 94
      127
  0
MLEADERSTYLE
  5
6C
102
{ACAD_REACTORS
330
6B
102
}
330
6B
100
AcDbMLeaderStyle
179
     2
170
     2
171
     1
172
     0
 90
        2
 40
0.0
 41
0.0
173
     1
 91
-1056964608
340
14
 92
       -2
290
     1
 42
0.09
291
     1
 43
0.36
  3
Standard
341
0
 44
0.18
300

342
11
174
     1
178
     6
175
     1
176
     0
 93
-1056964608
 45
0.18
292
     0
297
     0
 46
0.18
343
0
 94
-1056964608
 47
1.0
 49
1.0
140
1.0
293
     1
141
0.0
294
     1
177
     0
142
1.0
295
     0
296
     0
143
0.125
271
     0
272
     9
273
     9
298
     0
  0
MLINESTYLE
  5
18
102
{ACAD_REACTORS
330
17
102
}
330
17
100
AcDbMlineStyle
  2
Standard
 70
     0
  3

 62
   256
 51
90.0
 52
90.0
 71
     2
 49
0.5
 62
   256
  6
BYLAYER
 49
-0.5
 62
   256
  6
BYLAYER
  0
ACDBPLACEHOLDER
  5
F
102
{ACAD_REACTORS
330
E
102
}
330
E
  0
SCALE
  5
48
102
{ACAD_REACTORS
330
47
102
}
330
47
100
AcDbScale
 70
     0
300
1:1
140
1.0
141
1.0
290
     1
  0
SCALE
  5
49
102
{ACAD_REACTORS
330
47
102
}
330
47
100
AcDbScale
 70
     0
300
1:2
140
1.0
141
2.0
290
     0
  0
SCALE
  5
4A
102
{ACAD_REACTORS
330
47
102
}
330
47
100
AcDbScale
 70
     0
300
1:4
140
1.0
141
4.0
290
     0
  0
SCALE
  5
4B
102
{ACAD_REACTORS
330
47
102
}
330
47
100
AcDbScale
 70
     0
300
1:5
140
1.0
141
5.0
290
     0
  0
SCALE
  5
4C
102
{ACAD_REACTORS
330
47
102
}
330
47
100
AcDbScale
 70
     0
300
1:8
140
1.0
141
8.0
290
     0
  0
SCALE
  5
4D
102
{ACAD_REACTORS
330
47
102
}
330
47
100
AcDbScale
 70
     0
300
1:10
140
1.0
141
10.0
290
     0
  0
SCALE
  5
4E
102
{ACAD_REACTORS
330
47
102
}
330
47
100
AcDbScale
 70
     0
300
1:16
140
1.0
141
16.0
290
     0
  0
SCALE
  5
4F
102
{ACAD_REACTORS
330
47
102
}
330
47
100
AcDbScale
 70
     0
300
1:20
140
1.0
141
20.0
290
     0
  0
SCALE
  5
50
102
{ACAD_REACTORS
330
47
102
}
330
47
100
AcDbScale
 70
     0
300
1:30
140
1.0
141
30.0
290
     0
  0
SCALE
  5
51
102
{ACAD_REACTORS
330
47
102
}
330
47
100
AcDbScale
 70
     0
300
1:40
140
1.0
141
40.0
290
     0
  0
SCALE
  5
52
102
{ACAD_REACTORS
330
47
102
}
330
47
100
AcDbScale
 70
     0
300
1:50
140
1.0
141
50.0
290
     0
  0
SCALE
  5
53
102
{ACAD_REACTORS
330
47
102
}
330
47
100
AcDbScale
 70
     0
300
1:100
140
1.0
141
100.0
290
     0
  0
SCALE
  5
54
102
{ACAD_REACTORS
330
47
102
}
330
47
100
AcDbScale
 70
     0
300
2:1
140
2.0
141
1.0
290
     0
  0
SCALE
  5
55
102
{ACAD_REACTORS
330
47
102
}
330
47
100
AcDbScale
 70
     0
300
4:1
140
4.0
141
1.0
290
     0
  0
SCALE
  5
56
102
{ACAD_REACTORS
330
47
102
}
330
47
100
AcDbScale
 70
     0
300
8:1
140
8.0
141
1.0
290
     0
  0
SCALE
  5
57
102
{ACAD_REACTORS
330
47
102
}
330
47
100
AcDbScale
 70
     0
300
10:1
140
10.0
141
1.0
290
     0
  0
SCALE
  5
58
102
{ACAD_REACTORS
330
47
102
}
330
47
100
AcDbScale
 70
     0
300
100:1
140
100.0
141
1.0
290
     0
  0
SCALE
  5
59
102
{ACAD_REACTORS
330
47
102
}
330
47
100
AcDbScale
 70
     0
300
1/128" = 1'-0"
140
0.0078125
141
12.0
290
     0
  0
SCALE
  5
5A
102
{ACAD_REACTORS
330
47
102
}
330
47
100
AcDbScale
 70
     0
300
1/64" = 1'-0"
140
0.015625
141
12.0
290
     0
  0
SCALE
  5
5B
102
{ACAD_REACTORS
330
47
102
}
330
47
100
AcDbScale
 70
     0
300
1/32" = 1'-0"
140
0.03125
141
12.0
290
     0
  0
SCALE
  5
5C
102
{ACAD_REACTORS
330
47
102
}
330
47
100
AcDbScale
 70
     0
300
1/16" = 1'-0"
140
0.0625
141
12.0
290
     0
  0
SCALE
  5
5D
102
{ACAD_REACTORS
330
47
102
}
330
47
100
AcDbScale
 70
     0
300
3/32" = 1'-0"
140
0.09375
141
12.0
290
     0
  0
SCALE
  5
5E
102
{ACAD_REACTORS
330
47
102
}
330
47
100
AcDbScale
 70
     0
300
1/8" = 1'-0"
140
0.125
141
12.0
290
     0
  0
SCALE
  5
5F
102
{ACAD_REACTORS
330
47
102
}
330
47
100
AcDbScale
 70
     0
300
3/16" = 1'-0"
140
0.1875
141
12.0
290
     0
  0
SCALE
  5
60
102
{ACAD_REACTORS
330
47
102
}
330
47
100
AcDbScale
 70
     0
300
1/4" = 1'-0"
140
0.25
141
12.0
290
     0
  0
SCALE
  5
61
102
{ACAD_REACTORS
330
47
102
}
330
47
100
AcDbScale
 70
     0
300
3/8" = 1'-0"
140
0.375
141
12.0
290
     0
  0
SCALE
  5
62
102
{ACAD_REACTORS
330
47
102
}
330
47
100
AcDbScale
 70
     0
300
1/2" = 1'-0"
140
0.5
141
12.0
290
     0
  0
SCALE
  5
63
102
{ACAD_REACTORS
330
47
102
}
330
47
100
AcDbScale
 70
     0
300
3/4" = 1'-0"
140
0.75
141
12.0
290
     0
  0
SCALE
  5
64
102
{ACAD_REACTORS
330
47
102
}
330
47
100
AcDbScale
 70
     0
300
1" = 1'-0"
140
1.0
141
12.0
290
     0
  0
SCALE
  5
65
102
{ACAD_REACTORS
330
47
102
}
330
47
100
AcDbScale
 70
     0
300
1-1/2" = 1'-0"
140
1.5
141
12.0
290
     0
  0
SCALE
  5
66
102
{ACAD_REACTORS
330
47
102
}
330
47
100
AcDbScale
 70
     0
300
3" = 1'-0"
140
3.0
141
12.0
290
     0
  0
SCALE
  5
67
102
{ACAD_REACTORS
330
47
102
}
330
47
100
AcDbScale
 70
     0
300
6" = 1'-0"
140
6.0
141
12.0
290
     0
  0
SCALE
  5
68
102
{ACAD_REACTORS
330
47
102
}
330
47
100
AcDbScale
 70
     0
300
1'-0" = 1'-0"
140
12.0
141
12.0
290
     0
  0
TABLESTYLE
  5
6A
102
{ACAD_REACTORS
330
69
102
}
102
{ACAD_XDICTIONARY
360
1A9
102
}
330
69
100
AcDbTableStyle
  3
Standard
 70
     0
 71
     0
 40
0.06
 41
0.06
280
     0
281
     0
  7
Standard
140
0.18
170
     2
 62
     0
 63
   257
283
     0
 90
        4
 91
        0
  1

274
    -2
284
     1
 64
     0
275
    -2
285
     1
 65
     0
276
    -2
286
     1
 66
     0
277
    -2
287
     1
 67
     0
278
    -2
288
     1
 68
     0
279
    -2
289
     1
 69
     0
  7
Standard
140
0.25
170
     5
 62
     0
 63
   257
283
     0
 90
        4
 91
        0
  1

274
    -2
284
     1
 64
     0
275
    -2
285
     1
 65
     0
276
    -2
286
     1
 66
     0
277
    -2
287
     1
 67
     0
278
    -2
288
     1
 68
     0
279
    -2
289
     1
 69
     0
  7
Standard
140
0.18
170
     5
 62
     0
 63
   257
283
     0
 90
        4
 91
        0
  1

274
    -2
284
     1
 64
     0
275
    -2
285
     1
 65
     0
276
    -2
286
     1
 66
     0
277
    -2
287
     1
 67
     0
278
    -2
288
     1
 68
     0
279
    -2
289
     1
 69
     0
  0
VISUALSTYLE
  5
2F
102
{ACAD_REACTORS
330
2A
102
}
330
2A
100
AcDbVisualStyle
  2
2dWireframe
 70
     4
177
     3
291
     0
 70
    58
 90
        0
176
     1
 90
        2
176
     1
 90
        0
176
     1
 90
        0
176
     1
 40
0.6
176
     1
 40
30.0
176
     1
 62
     7
420
 16777215
176
     1
 90
        1
176
     1
 90
        4
176
     1
 62
     7
176
     1
 62
   257
176
     1
 90
        1
176
     1
 90
        1
176
     1
 40
1.0
176
     1
 90
        0
176
     1
 62
   257
176
     1
 40
1.0
176
     1
 90
        1
176
     1
 90
        6
176
     1
 90
        2
176
     1
 62
     7
176
     1
 90
        5
176
     1
 90
        0
176
     1
 90
        0
176
     1
290
     0
176
     1
 90
        1
176
     1
 40
0.0
176
     1
 90
        0
176
     1
290
     1
176
     1
290
     1
176
     1
290
     0
176
     1
290
     0
176
     1
290
     0
176
     1
290
     0
176
     1
290
     0
176
     1
290
     0
176
     1
290
     0
176
     1
 90
       50
176
     1
 40
0.0
176
     1
 40
1.0
176
     1
 90
        0
176
     1
 62
    18
420
        0
176
     1
 90
       50
176
     1
 90
        3
176
     1
 62
     5
420
      255
176
     1
290
     0
176
     1
 90
       50
176
     1
 90
       50
176
     1
 90
       50
176
     1
290
     0
176
     1
 90
       50
176
     1
 62
   256
176
     0
 40
1.0
176
     0
 90
        2
176
     1
  1
strokes_ogs.tif
176
     1
290
     0
176
     1
 40
1.0
176
     1
 40
1.0
176
     1
  0
VISUALSTYLE
  5
32
102
{ACAD_REACTORS
330
2A
102
}
330
2A
100
AcDbVisualStyle
  2
Basic
 70
     7
177
     3
291
     1
 70
    58
 90
        1
176
     1
 90
        0
176
     1
 90
        1
176
     1
 90
        0
176
     1
 40
0.6
176
     1
 40
30.0
176
     1
 62
     7
420
 16777215
176
     1
 90
        0
176
     1
 90
        4
176
     1
 62
     7
176
     1
 62
   257
176
     1
 90
        1
176
     1
 90
        1
176
     1
 40
1.0
176
     1
 90
        8
176
     1
 62
     7
176
     1
 40
1.0
176
     1
 90
        1
176
     1
 90
        6
176
     1
 90
        2
176
     1
 62
     7
176
     1
 90
        5
176
     1
 90
        0
176
     1
 90
        0
176
     1
290
     0
176
     1
 90
        1
176
     1
 40
0.0
176
     1
 90
        0
176
     1
290
     0
176
     1
290
     1
176
     1
290
     1
176
     1
290
     0
176
     1
290
     0
176
     1
290
     0
176
     1
290
     0
176
     1
290
     0
176
     1
290
     0
176
     1
 90
       50
176
     1
 40
0.0
176
     1
 40
1.0
176
     1
 90
        0
176
     1
 62
    18
420
        0
176
     1
 90
       50
176
     1
 90
        3
176
     1
 62
     5
420
      255
176
     1
290
     0
176
     1
 90
       50
176
     1
 90
       50
176
     1
 90
       50
176
     1
290
     0
176
     1
 90
       50
176
     1
 62
   256
176
     0
 40
1.0
176
     0
 90
        2
176
     1
  1
strokes_ogs.tif
176
     1
290
     0
176
     1
 40
1.0
176
     1
 40
1.0
176
     1
  0
VISUALSTYLE
  5
36
102
{ACAD_REACTORS
330
2A
102
}
330
2A
100
AcDbVisualStyle
  2
Brighten
 70
    12
177
     3
291
     1
 70
    58
 90
        2
176
     1
 90
        2
176
     1
 90
        0
176
     1
 90
        0
176
     1
 40
0.6
176
     1
 40
30.0
176
     1
 62
     7
420
 16777215
176
     1
 90
        1
176
     1
 90
        4
176
     1
 62
     7
176
     1
 62
   257
176
     1
 90
        1
176
     1
 90
        1
176
     1
 40
1.0
176
     1
 90
        8
176
     1
 62
     7
176
     1
 40
1.0
176
     1
 90
        1
176
     1
 90
        6
176
     1
 90
        2
176
     1
 62
     7
176
     1
 90
        5
176
     1
 90
        0
176
     1
 90
        0
176
     1
290
     0
176
     1
 90
        1
176
     1
 40
50.0
176
     1
 90
        0
176
     1
290
     0
176
     1
290
     1
176
     1
290
     1
176
     1
290
     0
176
     1
290
     0
176
     1
290
     0
176
     1
290
     0
176
     1
290
     0
176
     1
290
     0
176
     1
 90
       50
176
     1
 40
0.0
176
     1
 40
1.0
176
     1
 90
        0
176
     1
 62
    18
420
        0
176
     1
 90
       50
176
     1
 90
        3
176
     1
 62
     5
420
      255
176
     1
290
     0
176
     1
 90
       50
176
     1
 90
       50
176
     1
 90
       50
176
     1
290
     0
176
     1
 90
       50
176
     1
 62
   256
176
     0
 40
1.0
176
     0
 90
        2
176
     1
  1
strokes_ogs.tif
176
     1
290
     0
176
     1
 40
1.0
176
     1
 40
1.0
176
     1
  0
VISUALSTYLE
  5
3A
102
{ACAD_REACTORS
330
2A
102
}
330
2A
100
AcDbVisualStyle
  2
ColorChange
 70
    16
177
     3
291
     1
 70
    58
 90
        2
176
     1
 90
        2
176
     1
 90
        3
176
     1
 90
        0
176
     1
 40
0.6
176
     1
 40
30.0
176
     1
 62
     8
420
  8421504
176
     1
 90
        1
176
     1
 90
        4
176
     1
 62
     7
176
     1
 62
   257
176
     1
 90
        1
176
     1
 90
        1
176
     1
 40
1.0
176
     1
 90
        8
176
     1
 62
     8
420
  8421504
176
     1
 40
1.0
176
     1
 90
        1
176
     1
 90
        6
176
     1
 90
        2
176
     1
 62
     7
176
     1
 90
        5
176
     1
 90
        0
176
     1
 90
        0
176
     1
290
     0
176
     1
 90
        1
176
     1
 40
0.0
176
     1
 90
        0
176
     1
290
     0
176
     1
290
     1
176
     1
290
     1
176
     1
290
     0
176
     1
290
     0
176
     1
290
     0
176
     1
290
     0
176
     1
290
     0
176
     1
290
     0
176
     1
 90
       50
176
     1
 40
0.0
176
     1
 40
1.0
176
     1
 90
        0
176
     1
 62
    18
420
        0
176
     1
 90
       50
176
     1
 90
        3
176
     1
 62
     5
420
      255
176
     1
290
     0
176
     1
 90
       50
176
     1
 90
       50
176
     1
 90
       50
176
     1
290
     0
176
     1
 90
       50
176
     1
 62
   256
176
     0
 40
1.0
176
     0
 90
        2
176
     1
  1
strokes_ogs.tif
176
     1
290
     0
176
     1
 40
1.0
176
     1
 40
1.0
176
     1
  0
VISUALSTYLE
  5
34
102
{ACAD_REACTORS
330
2A
102
}
330
2A
100
AcDbVisualStyle
  2
Conceptual
 70
     9
177
     3
291
     0
 70
    58
 90
        3
176
     1
 90
        2
176
     1
 90
        0
176
     1
 90
        0
176
     1
 40
0.6
176
     1
 40
30.0
176
     1
 62
     7
420
 16777215
176
     1
 90
        2
176
     1
 90
        2
176
     1
 62
     7
176
     1
 62
   257
176
     1
 90
        1
176
     1
 90
        1
176
     1
 40
179.0
176
     1
 90
        8
176
     1
 62
     7
176
     1
 40
1.0
176
     1
 90
        1
176
     1
 90
        6
176
     1
 90
        2
176
     1
 62
     7
176
     1
 90
        3
176
     1
 90
        0
176
     1
 90
        0
176
     1
290
     0
176
     1
 90
        1
176
     1
 40
0.0
176
     1
 90
        0
176
     1
290
     0
176
     1
290
     1
176
     1
290
     1
176
     1
290
     0
176
     1
290
     0
176
     1
290
     0
176
     1
290
     0
176
     1
290
     0
176
     1
290
     0
176
     1
 90
       50
176
     1
 40
0.0
176
     1
 40
1.0
176
     1
 90
        0
176
     1
 62
    18
420
        0
176
     1
 90
       50
176
     1
 90
        3
176
     1
 62
     5
420
      255
176
     1
290
     0
176
     1
 90
       50
176
     1
 90
       50
176
     1
 90
       50
176
     1
290
     0
176
     1
 90
       50
176
     1
 62
   256
176
     0
 40
1.0
176
     0
 90
        2
176
     1
  1
strokes_ogs.tif
176
     1
290
     0
176
     1
 40
1.0
176
     1
 40
1.0
176
     1
  0
VISUALSTYLE
  5
35
102
{ACAD_REACTORS
330
2A
102
}
330
2A
100
AcDbVisualStyle
  2
Dim
 70
    11
177
     3
291
     1
 70
    58
 90
        2
176
     1
 90
        2
176
     1
 90
        0
176
     1
 90
        0
176
     1
 40
0.6
176
     1
 40
30.0
176
     1
 62
     7
420
 16777215
176
     1
 90
        1
176
     1
 90
        4
176
     1
 62
     7
176
     1
 62
   257
176
     1
 90
        1
176
     1
 90
        1
176
     1
 40
1.0
176
     1
 90
        8
176
     1
 62
     7
176
     1
 40
1.0
176
     1
 90
        1
176
     1
 90
        6
176
     1
 90
        2
176
     1
 62
     7
176
     1
 90
        5
176
     1
 90
        0
176
     1
 90
        0
176
     1
290
     0
176
     1
 90
        1
176
     1
 40
-50.0
176
     1
 90
        0
176
     1
290
     0
176
     1
290
     1
176
     1
290
     1
176
     1
290
     0
176
     1
290
     0
176
     1
290
     0
176
     1
290
     0
176
     1
290
     0
176
     1
290
     0
176
     1
 90
       50
176
     1
 40
0.0
176
     1
 40
1.0
176
     1
 90
        0
176
     1
 62
    18
420
        0
176
     1
 90
       50
176
     1
 90
        3
176
     1
 62
     5
420
      255
176
     1
290
     0
176
     1
 90
       50
176
     1
 90
       50
176
     1
 90
       50
176
     1
290
     0
176
     1
 90
       50
176
     1
 62
   256
176
     0
 40
1.0
176
     0
 90
        2
176
     1
  1
strokes_ogs.tif
176
     1
290
     0
176
     1
 40
1.0
176
     1
 40
1.0
176
     1
  0
VISUALSTYLE
  5
3D
102
{ACAD_REACTORS
330
2A
102
}
330
2A
100
AcDbVisualStyle
  2
EdgeColorOff
 70
    22
177
     3
291
     1
 70
    58
 90
        2
176
     0
 90
        2
176
     0
 90
        0
176
     0
 90
        0
176
     0
 40
0.6
176
     0
 40
30.0
176
     0
 62
     7
420
 16777215
176
     0
 90
        1
176
     0
 90
        4
176
     0
 62
     7
176
     0
 62
   257
176
     0
 90
        1
176
     0
 90
        1
176
     0
 40
1.0
176
     0
 90
        8
176
     2
 62
     7
176
     0
 40
1.0
176
     0
 90
        1
176
     0
 90
        6
176
     0
 90
        2
176
     0
 62
     7
176
     0
 90
        5
176
     0
 90
        0
176
     0
 90
        0
176
     0
290
     0
176
     0
 90
        1
176
     0
 40
0.0
176
     0
 90
        0
176
     0
290
     0
176
     0
290
     1
176
     0
290
     1
176
     0
290
     0
176
     0
290
     0
176
     0
290
     0
176
     0
290
     0
176
     0
290
     0
176
     0
290
     0
176
     0
 90
       50
176
     0
 40
0.0
176
     0
 40
1.0
176
     0
 90
        0
176
     0
 62
    18
420
        0
176
     0
 90
       50
176
     0
 90
        3
176
     0
 62
     5
420
      255
176
     0
290
     0
176
     0
 90
       50
176
     0
 90
       50
176
     0
 90
       50
176
     0
290
     0
176
     0
 90
       50
176
     0
 62
   256
176
     0
 40
1.0
176
     0
 90
        2
176
     0
  1
strokes_ogs.tif
176
     0
290
     0
176
     0
 40
1.0
176
     0
 40
1.0
176
     0
  0
VISUALSTYLE
  5
39
102
{ACAD_REACTORS
330
2A
102
}
330
2A
100
AcDbVisualStyle
  2
Facepattern
 70
    15
177
     3
291
     1
 70
    58
 90
        2
176
     1
 90
        2
176
     1
 90
        0
176
     1
 90
        0
176
     1
 40
0.6
176
     1
 40
30.0
176
     1
 62
     7
420
 16777215
176
     1
 90
        1
176
     1
 90
        4
176
     1
 62
     7
176
     1
 62
   257
176
     1
 90
        1
176
     1
 90
        1
176
     1
 40
1.0
176
     1
 90
        8
176
     1
 62
     7
176
     1
 40
1.0
176
     1
 90
        1
176
     1
 90
        6
176
     1
 90
        2
176
     1
 62
     7
176
     1
 90
        5
176
     1
 90
        0
176
     1
 90
        0
176
     1
290
     0
176
     1
 90
        1
176
     1
 40
0.0
176
     1
 90
        0
176
     1
290
     0
176
     1
290
     1
176
     1
290
     1
176
     1
290
     0
176
     1
290
     0
176
     1
290
     0
176
     1
290
     0
176
     1
290
     0
176
     1
290
     0
176
     1
 90
       50
176
     1
 40
0.0
176
     1
 40
1.0
176
     1
 90
        0
176
     1
 62
    18
420
        0
176
     1
 90
       50
176
     1
 90
        3
176
     1
 62
     5
420
      255
176
     1
290
     0
176
     1
 90
       50
176
     1
 90
       50
176
     1
 90
       50
176
     1
290
     0
176
     1
 90
       50
176
     1
 62
   256
176
     0
 40
1.0
176
     0
 90
        2
176
     1
  1
strokes_ogs.tif
176
     1
290
     0
176
     1
 40
1.0
176
     1
 40
1.0
176
     1
  0
VISUALSTYLE
  5
2B
102
{ACAD_REACTORS
330
2A
102
}
330
2A
100
AcDbVisualStyle
  2
Flat
 70
     0
177
     3
291
     1
 70
    58
 90
        2
176
     1
 90
        1
176
     1
 90
        1
176
     1
 90
        2
176
     1
 40
0.6
176
     1
 40
30.0
176
     1
 62
     7
420
 16777215
176
     1
 90
        0
176
     1
 90
        0
176
     1
 62
     7
176
     1
 62
   257
176
     1
 90
        1
176
     1
 90
        1
176
     1
 40
1.0
176
     1
 90
        8
176
     1
 62
     7
176
     1
 40
1.0
176
     1
 90
        1
176
     1
 90
        6
176
     1
 90
        2
176
     1
 62
     7
176
     1
 90
        5
176
     1
 90
        0
176
     1
 90
        0
176
     1
290
     0
176
     1
 90
       13
176
     1
 40
0.0
176
     1
 90
        0
176
     1
290
     0
176
     1
290
     1
176
     1
290
     1
176
     1
290
     0
176
     1
290
     0
176
     1
290
     0
176
     1
290
     0
176
     1
290
     0
176
     1
290
     0
176
     1
 90
       50
176
     1
 40
0.0
176
     1
 40
1.0
176
     1
 90
        0
176
     1
 62
    18
420
        0
176
     1
 90
       50
176
     1
 90
        3
176
     1
 62
     5
420
      255
176
     1
290
     0
176
     1
 90
       50
176
     1
 90
       50
176
     1
 90
       50
176
     1
290
     0
176
     1
 90
       50
176
     1
 62
   256
176
     0
 40
1.0
176
     0
 90
        2
176
     1
  1
strokes_ogs.tif
176
     1
290
     0
176
     1
 40
1.0
176
     1
 40
1.0
176
     1
  0
VISUALSTYLE
  5
2C
102
{ACAD_REACTORS
330
2A
102
}
330
2A
100
AcDbVisualStyle
  2
FlatWithEdges
 70
     1
177
     3
291
     1
 70
    58
 90
        2
176
     1
 90
        1
176
     1
 90
        1
176
     1
 90
        2
176
     1
 40
0.6
176
     1
 40
30.0
176
     1
 62
     7
420
 16777215
176
     1
 90
        1
176
     1
 90
        0
176
     1
 62
     7
176
     1
 62
   257
176
     1
 90
        1
176
     1
 90
        1
176
     1
 40
1.0
176
     1
 90
        0
176
     1
 62
   257
176
     1
 40
1.0
176
     1
 90
        1
176
     1
 90
        6
176
     1
 90
        2
176
     1
 62
     7
176
     1
 90
        5
176
     1
 90
        0
176
     1
 90
        0
176
     1
290
     0
176
     1
 90
       13
176
     1
 40
0.0
176
     1
 90
        0
176
     1
290
     0
176
     1
290
     1
176
     1
290
     1
176
     1
290
     0
176
     1
290
     0
176
     1
290
     0
176
     1
290
     0
176
     1
290
     0
176
     1
290
     0
176
     1
 90
       50
176
     1
 40
0.0
176
     1
 40
1.0
176
     1
 90
        0
176
     1
 62
    18
420
        0
176
     1
 90
       50
176
     1
 90
        3
176
     1
 62
     5
420
      255
176
     1
290
     0
176
     1
 90
       50
176
     1
 90
       50
176
     1
 90
       50
176
     1
290
     0
176
     1
 90
       50
176
     1
 62
   256
176
     0
 40
1.0
176
     0
 90
        2
176
     1
  1
strokes_ogs.tif
176
     1
290
     0
176
     1
 40
1.0
176
     1
 40
1.0
176
     1
  0
VISUALSTYLE
  5
2D
102
{ACAD_REACTORS
330
2A
102
}
330
2A
100
AcDbVisualStyle
  2
Gouraud
 70
     2
177
     3
291
     1
 70
    58
 90
        2
176
     1
 90
        2
176
     1
 90
        1
176
     1
 90
        2
176
     1
 40
0.6
176
     1
 40
30.0
176
     1
 62
     7
420
 16777215
176
     1
 90
        0
176
     1
 90
        0
176
     1
 62
     7
176
     1
 62
   257
176
     1
 90
        1
176
     1
 90
        1
176
     1
 40
1.0
176
     1
 90
        0
176
     1
 62
     7
176
     1
 40
1.0
176
     1
 90
        1
176
     1
 90
        6
176
     1
 90
        2
176
     1
 62
     7
176
     1
 90
        5
176
     1
 90
        0
176
     1
 90
        0
176
     1
290
     0
176
     1
 90
       13
176
     1
 40
0.0
176
     1
 90
        0
176
     1
290
     0
176
     1
290
     1
176
     1
290
     1
176
     1
290
     0
176
     1
290
     0
176
     1
290
     0
176
     1
290
     0
176
     1
290
     0
176
     1
290
     0
176
     1
 90
       50
176
     1
 40
0.0
176
     1
 40
1.0
176
     1
 90
        0
176
     1
 62
    18
420
        0
176
     1
 90
       50
176
     1
 90
        3
176
     1
 62
     5
420
      255
176
     1
290
     0
176
     1
 90
       50
176
     1
 90
       50
176
     1
 90
       50
176
     1
290
     0
176
     1
 90
       50
176
     1
 62
   256
176
     0
 40
1.0
176
     0
 90
        2
176
     1
  1
strokes_ogs.tif
176
     1
290
     0
176
     1
 40
1.0
176
     1
 40
1.0
176
     1
  0
VISUALSTYLE
  5
2E
102
{ACAD_REACTORS
330
2A
102
}
330
2A
100
AcDbVisualStyle
  2
GouraudWithEdges
 70
     3
177
     3
291
     1
 70
    58
 90
        2
176
     1
 90
        2
176
     1
 90
        1
176
     1
 90
        2
176
     1
 40
0.6
176
     1
 40
30.0
176
     1
 62
     7
420
 16777215
176
     1
 90
        1
176
     1
 90
        0
176
     1
 62
     7
176
     1
 62
   257
176
     1
 90
        1
176
     1
 90
        1
176
     1
 40
1.0
176
     1
 90
        0
176
     1
 62
   257
176
     1
 40
1.0
176
     1
 90
        1
176
     1
 90
        6
176
     1
 90
        2
176
     1
 62
     7
176
     1
 90
        5
176
     1
 90
        0
176
     1
 90
        0
176
     1
290
     0
176
     1
 90
       13
176
     1
 40
0.0
176
     1
 90
        0
176
     1
290
     0
176
     1
290
     1
176
     1
290
     1
176
     1
290
     0
176
     1
290
     0
176
     1
290
     0
176
     1
290
     0
176
     1
290
     0
176
     1
290
     0
176
     1
 90
       50
176
     1
 40
0.0
176
     1
 40
1.0
176
     1
 90
        0
176
     1
 62
    18
420
        0
176
     1
 90
       50
176
     1
 90
        3
176
     1
 62
     5
420
      255
176
     1
290
     0
176
     1
 90
       50
176
     1
 90
       50
176
     1
 90
       50
176
     1
290
     0
176
     1
 90
       50
176
     1
 62
   256
176
     0
 40
1.0
176
     0
 90
        2
176
     1
  1
strokes_ogs.tif
176
     1
290
     0
176
     1
 40
1.0
176
     1
 40
1.0
176
     1
  0
VISUALSTYLE
  5
31
102
{ACAD_REACTORS
330
2A
102
}
330
2A
100
AcDbVisualStyle
  2
Hidden
 70
     6
177
     3
291
     0
 70
    58
 90
        1
176
     1
 90
        2
176
     1
 90
        2
176
     1
 90
        0
176
     1
 40
0.6
176
     1
 40
30.0
176
     1
 62
     7
420
 16777215
176
     1
 90
        2
176
     1
 90
        2
176
     1
 62
     7
176
     1
 62
   257
176
     1
 90
        2
176
     1
 90
        1
176
     1
 40
40.0
176
     1
 90
        0
176
     1
 62
   257
176
     1
 40
1.0
176
     1
 90
        1
176
     1
 90
        6
176
     1
 90
        2
176
     1
 62
     7
176
     1
 90
        3
176
     1
 90
        0
176
     1
 90
        0
176
     1
290
     0
176
     1
 90
        1
176
     1
 40
0.0
176
     1
 90
        0
176
     1
290
     0
176
     1
290
     1
176
     1
290
     1
176
     1
290
     0
176
     1
290
     0
176
     1
290
     0
176
     1
290
     0
176
     1
290
     0
176
     1
290
     0
176
     1
 90
       50
176
     1
 40
0.0
176
     1
 40
1.0
176
     1
 90
        0
176
     1
 62
    18
420
        0
176
     1
 90
       50
176
     1
 90
        3
176
     1
 62
     5
420
      255
176
     1
290
     0
176
     1
 90
       50
176
     1
 90
       50
176
     1
 90
       50
176
     1
290
     0
176
     1
 90
       50
176
     1
 62
   256
176
     0
 40
1.0
176
     0
 90
        2
176
     1
  1
strokes_ogs.tif
176
     1
290
     0
176
     1
 40
1.0
176
     1
 40
1.0
176
     1
  0
VISUALSTYLE
  5
3B
102
{ACAD_REACTORS
330
2A
102
}
330
2A
100
AcDbVisualStyle
  2
JitterOff
 70
    20
177
     3
291
     1
 70
    58
 90
        2
176
     0
 90
        2
176
     0
 90
        0
176
     0
 90
        0
176
     0
 40
0.6
176
     0
 40
30.0
176
     0
 62
     7
420
 16777215
176
     0
 90
        1
176
     0
 90
        4
176
     0
 62
     7
176
     0
 62
   257
176
     0
 90
        1
176
     0
 90
        1
176
     0
 40
1.0
176
     0
 90
       10
176
     2
 62
     7
176
     0
 40
1.0
176
     0
 90
        1
176
     0
 90
        6
176
     0
 90
        2
176
     0
 62
     7
176
     0
 90
        5
176
     0
 90
        0
176
     0
 90
        0
176
     0
290
     0
176
     0
 90
        1
176
     0
 40
0.0
176
     0
 90
        0
176
     0
290
     0
176
     0
290
     1
176
     0
290
     1
176
     0
290
     0
176
     0
290
     0
176
     0
290
     0
176
     0
290
     0
176
     0
290
     0
176
     0
290
     0
176
     0
 90
       50
176
     0
 40
0.0
176
     0
 40
1.0
176
     0
 90
        0
176
     0
 62
    18
420
        0
176
     0
 90
       50
176
     0
 90
        3
176
     0
 62
     5
420
      255
176
     0
290
     0
176
     0
 90
       50
176
     0
 90
       50
176
     0
 90
       50
176
     0
290
     0
176
     0
 90
       50
176
     0
 62
   256
176
     0
 40
1.0
176
     0
 90
        2
176
     0
  1
strokes_ogs.tif
176
     0
290
     0
176
     0
 40
1.0
176
     0
 40
1.0
176
     0
  0
VISUALSTYLE
  5
38
102
{ACAD_REACTORS
330
2A
102
}
330
2A
100
AcDbVisualStyle
  2
Linepattern
 70
    14
177
     3
291
     1
 70
    58
 90
        2
176
     1
 90
        2
176
     1
 90
        0
176
     1
 90
        0
176
     1
 40
0.6
176
     1
 40
30.0
176
     1
 62
     7
420
 16777215
176
     1
 90
        1
176
     1
 90
        4
176
     1
 62
     7
176
     1
 62
   257
176
     1
 90
        7
176
     1
 90
        7
176
     1
 40
1.0
176
     1
 90
        8
176
     1
 62
     7
176
     1
 40
1.0
176
     1
 90
        1
176
     1
 90
        6
176
     1
 90
        2
176
     1
 62
     7
176
     1
 90
        5
176
     1
 90
        0
176
     1
 90
        0
176
     1
290
     0
176
     1
 90
        1
176
     1
 40
0.0
176
     1
 90
        0
176
     1
290
     0
176
     1
290
     1
176
     1
290
     1
176
     1
290
     0
176
     1
290
     0
176
     1
290
     0
176
     1
290
     0
176
     1
290
     0
176
     1
290
     0
176
     1
 90
       50
176
     1
 40
0.0
176
     1
 40
1.0
176
     1
 90
        0
176
     1
 62
    18
420
        0
176
     1
 90
       50
176
     1
 90
        3
176
     1
 62
     5
420
      255
176
     1
290
     0
176
     1
 90
       50
176
     1
 90
       50
176
     1
 90
       50
176
     1
290
     0
176
     1
 90
       50
176
     1
 62
   256
176
     0
 40
1.0
176
     0
 90
        2
176
     1
  1
strokes_ogs.tif
176
     1
290
     0
176
     1
 40
1.0
176
     1
 40
1.0
176
     1
  0
VISUALSTYLE
  5
3C
102
{ACAD_REACTORS
330
2A
102
}
330
2A
100
AcDbVisualStyle
  2
OverhangOff
 70
    21
177
     3
291
     1
 70
    58
 90
        2
176
     0
 90
        2
176
     0
 90
        0
176
     0
 90
        0
176
     0
 40
0.6
176
     0
 40
30.0
176
     0
 62
     7
420
 16777215
176
     0
 90
        1
176
     0
 90
        4
176
     0
 62
     7
176
     0
 62
   257
176
     0
 90
        1
176
     0
 90
        1
176
     0
 40
1.0
176
     0
 90
        9
176
     2
 62
     7
176
     0
 40
1.0
176
     0
 90
        1
176
     0
 90
        6
176
     0
 90
        2
176
     0
 62
     7
176
     0
 90
        5
176
     0
 90
        0
176
     0
 90
        0
176
     0
290
     0
176
     0
 90
        1
176
     0
 40
0.0
176
     0
 90
        0
176
     0
290
     0
176
     0
290
     1
176
     0
290
     1
176
     0
290
     0
176
     0
290
     0
176
     0
290
     0
176
     0
290
     0
176
     0
290
     0
176
     0
290
     0
176
     0
 90
       50
176
     0
 40
0.0
176
     0
 40
1.0
176
     0
 90
        0
176
     0
 62
    18
420
        0
176
     0
 90
       50
176
     0
 90
        3
176
     0
 62
     5
420
      255
176
     0
290
     0
176
     0
 90
       50
176
     0
 90
       50
176
     0
 90
       50
176
     0
290
     0
176
     0
 90
       50
176
     0
 62
   256
176
     0
 40
1.0
176
     0
 90
        2
176
     0
  1
strokes_ogs.tif
176
     0
290
     0
176
     0
 40
1.0
176
     0
 40
1.0
176
     0
  0
VISUALSTYLE
  5
33
102
{ACAD_REACTORS
330
2A
102
}
330
2A
100
AcDbVisualStyle
  2
Realistic
 70
     8
177
     3
291
     0
 70
    58
 90
        2
176
     1
 90
        3
176
     1
 90
        0
176
     1
 90
        2
176
     1
 40
0.6
176
     1
 40
30.0
176
     1
 62
     7
420
 16777215
176
     1
 90
        0
176
     1
 90
        0
176
     1
 62
     7
176
     1
 62
   257
176
     1
 90
        1
176
     1
 90
        1
176
     1
 40
1.0
176
     1
 90
        8
176
     1
 62
   257
176
     1
 40
1.0
176
     1
 90
        1
176
     1
 90
        6
176
     1
 90
        2
176
     1
 62
     7
176
     1
 90
        3
176
     1
 90
        0
176
     1
 90
        0
176
     1
290
     0
176
     1
 90
       13
176
     1
 40
0.0
176
     1
 90
        0
176
     1
290
     0
176
     1
290
     1
176
     1
290
     1
176
     1
290
     0
176
     1
290
     0
176
     1
290
     0
176
     1
290
     0
176
     1
290
     0
176
     1
290
     0
176
     1
 90
       50
176
     1
 40
0.0
176
     1
 40
1.0
176
     1
 90
        0
176
     1
 62
    18
420
        0
176
     1
 90
       50
176
     1
 90
        3
176
     1
 62
     5
420
      255
176
     1
290
     0
176
     1
 90
       50
176
     1
 90
       50
176
     1
 90
       50
176
     1
290
     0
176
     1
 90
       50
176
     1
 62
   256
176
     0
 40
1.0
176
     0
 90
        2
176
     1
  1
strokes_ogs.tif
176
     1
290
     0
176
     1
 40
1.0
176
     1
 40
1.0
176
     1
  0
VISUALSTYLE
  5
42
102
{ACAD_REACTORS
330
2A
102
}
330
2A
100
AcDbVisualStyle
  2
Shaded
 70
    27
177
     3
291
     0
 70
    58
 90
        2
176
     1
 90
        2
176
     1
 90
        1
176
     1
 90
        2
176
     1
 40
0.6
176
     1
 40
30.0
176
     1
 62
     7
420
 16777215
176
     1
 90
        0
176
     1
 90
        4
176
     1
 62
     7
176
     1
 62
   257
176
     1
 90
        1
176
     1
 90
        1
176
     1
 40
1.0
176
     1
 90
        8
176
     1
 62
   257
176
     1
 40
1.0
176
     1
 90
        1
176
     1
 90
        6
176
     1
 90
        2
176
     1
 62
     8
420
  7895160
176
     1
 90
        3
176
     1
 90
        0
176
     1
 90
        0
176
     1
290
     0
176
     1
 90
        5
176
     1
 40
0.0
176
     1
 90
        0
176
     1
290
     0
176
     1
290
     1
176
     1
290
     1
176
     1
290
     0
176
     1
290
     0
176
     1
290
     0
176
     1
290
     0
176
     1
290
     0
176
     1
290
     0
176
     1
 90
       50
176
     1
 40
0.0
176
     1
 40
1.0
176
     1
 90
        0
176
     1
 62
    18
420
        0
176
     1
 90
       50
176
     1
 90
        3
176
     1
 62
     5
420
      255
176
     1
290
     0
176
     1
 90
       50
176
     1
 90
       50
176
     1
 90
       50
176
     1
290
     0
176
     1
 90
       50
176
     1
 62
   256
176
     0
 40
1.0
176
     0
 90
        2
176
     1
  1
strokes_ogs.tif
176
     1
290
     0
176
     1
 40
1.0
176
     1
 40
1.0
176
     1
  0
VISUALSTYLE
  5
41
102
{ACAD_REACTORS
330
2A
102
}
330
2A
100
AcDbVisualStyle
  2
Shaded with edges
 70
    26
177
     3
291
     0
 70
    58
 90
        2
176
     1
 90
        2
176
     1
 90
        1
176
     1
 90
        2
176
     1
 40
0.6
176
     1
 40
30.0
176
     1
 62
     7
420
 16777215
176
     1
 90
        1
176
     1
 90
       10
176
     1
 62
     7
176
     1
 62
   257
176
     1
 90
        2
176
     1
 90
        1
176
     1
 40
1.0
176
     1
 90
        8
176
     1
 62
   257
176
     1
 40
1.0
176
     1
 90
        1
176
     1
 90
        6
176
     1
 90
        2
176
     1
 62
     7
176
     1
 90
        3
176
     1
 90
        0
176
     1
 90
        0
176
     1
290
     0
176
     1
 90
        5
176
     1
 40
0.0
176
     1
 90
        0
176
     1
290
     0
176
     1
290
     1
176
     1
290
     1
176
     1
290
     0
176
     1
290
     0
176
     1
290
     0
176
     1
290
     0
176
     1
290
     0
176
     1
290
     0
176
     1
 90
       50
176
     1
 40
0.0
176
     1
 40
1.0
176
     1
 90
        0
176
     1
 62
    18
420
        0
176
     1
 90
       50
176
     1
 90
        3
176
     1
 62
     5
420
      255
176
     1
290
     0
176
     1
 90
       50
176
     1
 90
       50
176
     1
 90
       50
176
     1
290
     0
176
     1
 90
       50
176
     1
 62
   256
176
     0
 40
1.0
176
     0
 90
        2
176
     1
  1
strokes_ogs.tif
176
     1
290
     0
176
     1
 40
1.0
176
     1
 40
1.0
176
     1
  0
VISUALSTYLE
  5
3E
102
{ACAD_REACTORS
330
2A
102
}
330
2A
100
AcDbVisualStyle
  2
Shades of Gray
 70
    23
177
     3
291
     0
 70
    58
 90
        2
176
     1
 90
        2
176
     1
 90
        3
176
     1
 90
        0
176
     1
 40
0.6
176
     1
 40
30.0
176
     1
 62
     7
420
 16777215
176
     1
 90
        2
176
     1
 90
        2
176
     1
 62
     7
176
     1
 62
     7
176
     1
 90
        1
176
     1
 90
        1
176
     1
 40
40.0
176
     1
 90
        8
176
     1
 62
     7
176
     1
 40
1.0
176
     1
 90
        1
176
     1
 90
        6
176
     1
 90
        2
176
     1
 62
     7
176
     1
 90
        3
176
     1
 90
        0
176
     1
 90
        0
176
     1
290
     0
176
     1
 90
        1
176
     1
 40
0.0
176
     1
 90
        0
176
     1
290
     0
176
     1
290
     1
176
     1
290
     1
176
     1
290
     0
176
     1
290
     0
176
     1
290
     0
176
     1
290
     0
176
     1
290
     0
176
     1
290
     0
176
     1
 90
       50
176
     1
 40
0.0
176
     1
 40
1.0
176
     1
 90
        0
176
     1
 62
    18
420
        0
176
     1
 90
       50
176
     1
 90
        3
176
     1
 62
     5
420
      255
176
     1
290
     0
176
     1
 90
       50
176
     1
 90
       50
176
     1
 90
       50
176
     1
290
     0
176
     1
 90
       50
176
     1
 62
   256
176
     0
 40
1.0
176
     0
 90
        2
176
     1
  1
strokes_ogs.tif
176
     1
290
     0
176
     1
 40
1.0
176
     1
 40
1.0
176
     1
  0
VISUALSTYLE
  5
3F
102
{ACAD_REACTORS
330
2A
102
}
330
2A
100
AcDbVisualStyle
  2
Sketchy
 70
    24
177
     3
291
     0
 70
    58
 90
        1
176
     1
 90
        2
176
     1
 90
        2
176
     1
 90
        0
176
     1
 40
0.6
176
     1
 40
30.0
176
     1
 62
     7
420
 16777215
176
     1
 90
        2
176
     1
 90
        2
176
     1
 62
     7
176
     1
 62
     7
176
     1
 90
        1
176
     1
 90
        1
176
     1
 40
40.0
176
     1
 90
       11
176
     1
 62
     7
176
     1
 40
1.0
176
     1
 90
        1
176
     1
 90
        6
176
     1
 90
        2
176
     1
 62
     7
176
     1
 90
        6
176
     1
 90
        0
176
     1
 90
        0
176
     1
290
     0
176
     1
 90
        1
176
     1
 40
0.0
176
     1
 90
        0
176
     1
290
     0
176
     1
290
     1
176
     1
290
     1
176
     1
290
     0
176
     1
290
     0
176
     1
290
     0
176
     1
290
     0
176
     1
290
     0
176
     1
290
     0
176
     1
 90
       50
176
     1
 40
0.0
176
     1
 40
1.0
176
     1
 90
        0
176
     1
 62
    18
420
        0
176
     1
 90
       50
176
     1
 90
        3
176
     1
 62
     5
420
      255
176
     1
290
     0
176
     1
 90
       50
176
     1
 90
       50
176
     1
 90
       50
176
     1
290
     0
176
     1
 90
       50
176
     1
 62
   256
176
     0
 40
1.0
176
     0
 90
        2
176
     1
  1
strokes_ogs.tif
176
     1
290
     0
176
     1
 40
1.0
176
     1
 40
1.0
176
     1
  0
VISUALSTYLE
  5
37
102
{ACAD_REACTORS
330
2A
102
}
330
2A
100
AcDbVisualStyle
  2
Thicken
 70
    13
177
     3
291
     1
 70
    58
 90
        2
176
     1
 90
        2
176
     1
 90
        0
176
     1
 90
        0
176
     1
 40
0.6
176
     1
 40
30.0
176
     1
 62
     7
420
 16777215
176
     1
 90
        1
176
     1
 90
        4
176
     1
 62
     7
176
     1
 62
   257
176
     1
 90
        1
176
     1
 90
        1
176
     1
 40
1.0
176
     1
 90
       12
176
     1
 62
     7
176
     1
 40
1.0
176
     1
 90
        1
176
     1
 90
        6
176
     1
 90
        2
176
     1
 62
     7
176
     1
 90
        5
176
     1
 90
        0
176
     1
 90
        0
176
     1
290
     0
176
     1
 90
        1
176
     1
 40
0.0
176
     1
 90
        0
176
     1
290
     0
176
     1
290
     1
176
     1
290
     1
176
     1
290
     0
176
     1
290
     0
176
     1
290
     0
176
     1
290
     0
176
     1
290
     0
176
     1
290
     0
176
     1
 90
       50
176
     1
 40
0.0
176
     1
 40
1.0
176
     1
 90
        0
176
     1
 62
    18
420
        0
176
     1
 90
       50
176
     1
 90
        3
176
     1
 62
     5
420
      255
176
     1
290
     0
176
     1
 90
       50
176
     1
 90
       50
176
     1
 90
       50
176
     1
290
     0
176
     1
 90
       50
176
     1
 62
   256
176
     0
 40
1.0
176
     0
 90
        2
176
     1
  1
strokes_ogs.tif
176
     1
290
     0
176
     1
 40
1.0
176
     1
 40
1.0
176
     1
  0
VISUALSTYLE
  5
30
102
{ACAD_REACTORS
330
2A
102
}
330
2A
100
AcDbVisualStyle
  2
Wireframe
 70
     5
177
     3
291
     0
 70
    58
 90
        0
176
     1
 90
        2
176
     1
 90
        0
176
     1
 90
        0
176
     1
 40
0.6
176
     1
 40
30.0
176
     1
 62
     7
420
 16777215
176
     1
 90
        1
176
     1
 90
        4
176
     1
 62
     7
176
     1
 62
   257
176
     1
 90
        1
176
     1
 90
        1
176
     1
 40
1.0
176
     1
 90
        0
176
     1
 62
   257
176
     1
 40
1.0
176
     1
 90
        1
176
     1
 90
        6
176
     1
 90
        2
176
     1
 62
     7
176
     1
 90
        3
176
     1
 90
        0
176
     1
 90
        0
176
     1
290
     0
176
     1
 90
        1
176
     1
 40
0.0
176
     1
 90
        0
176
     1
290
     0
176
     1
290
     1
176
     1
290
     1
176
     1
290
     0
176
     1
290
     0
176
     1
290
     0
176
     1
290
     0
176
     1
290
     0
176
     1
290
     0
176
     1
 90
       50
176
     1
 40
0.0
176
     1
 40
1.0
176
     1
 90
        0
176
     1
 62
    18
420
        0
176
     1
 90
       50
176
     1
 90
        3
176
     1
 62
     5
420
      255
176
     1
290
     0
176
     1
 90
       50
176
     1
 90
       50
176
     1
 90
       50
176
     1
290
     0
176
     1
 90
       50
176
     1
 62
   256
176
     0
 40
1.0
176
     0
 90
        2
176
     1
  1
strokes_ogs.tif
176
     1
290
     0
176
     1
 40
1.0
176
     1
 40
1.0
176
     1
  0
VISUALSTYLE
  5
40
102
{ACAD_REACTORS
330
2A
102
}
330
2A
100
AcDbVisualStyle
  2
X-Ray
 70
    25
177
     3
291
     0
 70
    58
 90
        2
176
     1
 90
        2
176
     1
 90
        1
176
     1
 90
        1
176
     1
 40
0.5
176
     1
 40
30.0
176
     1
 62
     7
420
 16777215
176
     1
 90
        1
176
     1
 90
        0
176
     1
 62
     7
176
     1
 62
   257
176
     1
 90
        1
176
     1
 90
        1
176
     1
 40
1.0
176
     1
 90
        8
176
     1
 62
     7
176
     1
 40
1.0
176
     1
 90
        1
176
     1
 90
        6
176
     1
 90
        2
176
     1
 62
     7
176
     1
 90
        3
176
     1
 90
        0
176
     1
 90
        0
176
     1
290
     0
176
     1
 90
       13
176
     1
 40
0.0
176
     1
 90
        0
176
     1
290
     0
176
     1
290
     1
176
     1
290
     1
176
     1
290
     0
176
     1
290
     0
176
     1
290
     0
176
     1
290
     0
176
     1
290
     0
176
     1
290
     0
176
     1
 90
       50
176
     1
 40
0.0
176
     1
 40
1.0
176
     1
 90
        0
176
     1
 62
    18
420
        0
176
     1
 90
       50
176
     1
 90
        3
176
     1
 62
     5
420
      255
176
     1
290
     0
176
     1
 90
       50
176
     1
 90
       50
176
     1
 90
       50
176
     1
290
     0
176
     1
 90
       50
176
     1
 62
   256
176
     0
 40
1.0
176
     0
 90
        2
176
     1
  1
strokes_ogs.tif
176
     1
290
     0
176
     1
 40
1.0
176
     1
 40
1.0
176
     1
  0
DICTIONARYVAR
  5
1A8
102
{ACAD_REACTORS
330
1A7
102
}
330
1A7
100
DictionaryVariables
280
     0
  1
1:1
  0
DICTIONARYVAR
  5
1AD
102
{ACAD_REACTORS
330
1A7
102
}
330
1A7
100
DictionaryVariables
280
     0
  1
Standard
  0
DICTIONARYVAR
  5
1AC
102
{ACAD_REACTORS
330
1A7
102
}
330
1A7
100
DictionaryVariables
280
     0
  1
Standard
  0
DICTIONARY
  5
1A9
330
6A
100
AcDbDictionary
280
     1
281
     1
  3
ACAD_ROUNDTRIP_2008_TABLESTYLE_CELLSTYLEMAP
360
1AA
  0
CELLSTYLEMAP
  5
1AA
102
{ACAD_REACTORS
330
1A9
102
}
330
1A9
100
AcDbCellStyleMap
 90
        3
300
CELLSTYLE
  1
TABLEFORMAT_BEGIN
 90
        5
170
     1
 91
        0
 92
    32768
 62
   257
 93
        1
300
CONTENTFORMAT
  1
CONTENTFORMAT_BEGIN
 90
        0
 91
        0
 92
        4
 93
        0
300

 40
0.0
140
1.0
 94
        5
 62
     0
340
11
144
0.25
309
CONTENTFORMAT_END
171
     1
301
MARGIN
  1
CELLMARGIN_BEGIN
 40
0.06
 40
0.06
 40
0.06
 40
0.06
 40
0.06
 40
0.06
309
CELLMARGIN_END
 94
        6
 95
        1
302
GRIDFORMAT
  1
GRIDFORMAT_BEGIN
 90
        0
 91
        1
 62
     0
 92
       -2
340
14
 93
        0
 40
0.045
309
GRIDFORMAT_END
 95
        2
302
GRIDFORMAT
  1
GRIDFORMAT_BEGIN
 90
        0
 91
        1
 62
     0
 92
       -2
340
14
 93
        0
 40
0.045
309
GRIDFORMAT_END
 95
        4
302
GRIDFORMAT
  1
GRIDFORMAT_BEGIN
 90
        0
 91
        1
 62
     0
 92
       -2
340
14
 93
        0
 40
0.045
309
GRIDFORMAT_END
 95
        8
302
GRIDFORMAT
  1
GRIDFORMAT_BEGIN
 90
        0
 91
        1
 62
     0
 92
       -2
340
14
 93
        0
 40
0.045
309
GRIDFORMAT_END
 95
       16
302
GRIDFORMAT
  1
GRIDFORMAT_BEGIN
 90
        0
 91
        1
 62
     0
 92
       -2
340
14
 93
        0
 40
0.045
309
GRIDFORMAT_END
 95
       32
302
GRIDFORMAT
  1
GRIDFORMAT_BEGIN
 90
        0
 91
        1
 62
     0
 92
       -2
340
14
 93
        0
 40
0.045
309
GRIDFORMAT_END
309
TABLEFORMAT_END
  1
CELLSTYLE_BEGIN
 90
        1
 91
        1
300
_TITLE
309
CELLSTYLE_END
300
CELLSTYLE
  1
TABLEFORMAT_BEGIN
 90
        5
170
     1
 91
        0
 92
        0
 62
   257
 93
        1
300
CONTENTFORMAT
  1
CONTENTFORMAT_BEGIN
 90
        0
 91
        0
 92
        4
 93
        0
300

 40
0.0
140
1.0
 94
        5
 62
     0
340
11
144
0.18
309
CONTENTFORMAT_END
171
     1
301
MARGIN
  1
CELLMARGIN_BEGIN
 40
0.06
 40
0.06
 40
0.06
 40
0.06
 40
0.06
 40
0.06
309
CELLMARGIN_END
 94
        6
 95
        1
302
GRIDFORMAT
  1
GRIDFORMAT_BEGIN
 90
        0
 91
        1
 62
     0
 92
       -2
340
14
 93
        0
 40
0.045
309
GRIDFORMAT_END
 95
        2
302
GRIDFORMAT
  1
GRIDFORMAT_BEGIN
 90
        0
 91
        1
 62
     0
 92
       -2
340
14
 93
        0
 40
0.045
309
GRIDFORMAT_END
 95
        4
302
GRIDFORMAT
  1
GRIDFORMAT_BEGIN
 90
        0
 91
        1
 62
     0
 92
       -2
340
14
 93
        0
 40
0.045
309
GRIDFORMAT_END
 95
        8
302
GRIDFORMAT
  1
GRIDFORMAT_BEGIN
 90
        0
 91
        1
 62
     0
 92
       -2
340
14
 93
        0
 40
0.045
309
GRIDFORMAT_END
 95
       16
302
GRIDFORMAT
  1
GRIDFORMAT_BEGIN
 90
        0
 91
        1
 62
     0
 92
       -2
340
14
 93
        0
 40
0.045
309
GRIDFORMAT_END
 95
       32
302
GRIDFORMAT
  1
GRIDFORMAT_BEGIN
 90
        0
 91
        1
 62
     0
 92
       -2
340
14
 93
        0
 40
0.045
309
GRIDFORMAT_END
309
TABLEFORMAT_END
  1
CELLSTYLE_BEGIN
 90
        2
 91
        1
300
_HEADER
309
CELLSTYLE_END
300
CELLSTYLE
  1
TABLEFORMAT_BEGIN
 90
        5
170
     1
 91
        0
 92
        0
 62
   257
 93
        1
300
CONTENTFORMAT
  1
CONTENTFORMAT_BEGIN
 90
        0
 91
        0
 92
        4
 93
        0
300

 40
0.0
140
1.0
 94
        2
 62
     0
340
11
144
0.18
309
CONTENTFORMAT_END
171
     1
301
MARGIN
  1
CELLMARGIN_BEGIN
 40
0.06
 40
0.06
 40
0.06
 40
0.06
 40
0.06
 40
0.06
309
CELLMARGIN_END
 94
        6
 95
        1
302
GRIDFORMAT
  1
GRIDFORMAT_BEGIN
 90
        0
 91
        1
 62
     0
 92
       -2
340
14
 93
        0
 40
0.045
309
GRIDFORMAT_END
 95
        2
302
GRIDFORMAT
  1
GRIDFORMAT_BEGIN
 90
        0
 91
        1
 62
     0
 92
       -2
340
14
 93
        0
 40
0.045
309
GRIDFORMAT_END
 95
        4
302
GRIDFORMAT
  1
GRIDFORMAT_BEGIN
 90
        0
 91
        1
 62
     0
 92
       -2
340
14
 93
        0
 40
0.045
309
GRIDFORMAT_END
 95
        8
302
GRIDFORMAT
  1
GRIDFORMAT_BEGIN
 90
        0
 91
        1
 62
     0
 92
       -2
340
14
 93
        0
 40
0.045
309
GRIDFORMAT_END
 95
       16
302
GRIDFORMAT
  1
GRIDFORMAT_BEGIN
 90
        0
 91
        1
 62
     0
 92
       -2
340
14
 93
        0
 40
0.045
309
GRIDFORMAT_END
 95
       32
302
GRIDFORMAT
  1
GRIDFORMAT_BEGIN
 90
        0
 91
        1
 62
     0
 92
       -2
340
14
 93
        0
 40
0.045
309
GRIDFORMAT_END
309
TABLEFORMAT_END
  1
CELLSTYLE_BEGIN
 90
        3
 91
        2
300
_DATA
309
CELLSTYLE_END
  0
ENDSEC
  0
EOF