0
SECTION
  2
HEADER
  9
$ACADVER
  1
AC1027
  9
$ACADMAINTVER
 70
     8
  9
$DWGCODEPAGE
  3
ANSI_1252
  9
$REQUIREDVERSIONS
160
                 0
  9
$COMMENTS
  1
File was created by Cadenas
  9
$CUSTOMPROPERTYTAG
  1
NN
  9
$CUSTOMPROPERTY
  1
Double-Interlock D Units Gray Iron - Inch
  9
$CUSTOMPROPERTYTAG
  1
NT
  9
$CUSTOMPROPERTY
  1
Double-Interlock Bearings
  9
$CUSTOMPROPERTYTAG
  1
NB
  9
$CUSTOMPROPERTY
  1
023503
  9
$CUSTOMPROPERTYTAG
  1
NBSYN
  9
$CUSTOMPROPERTY
  1
$PN.
  9
$CUSTOMPROPERTYTAG
  1
LINA
  9
$CUSTOMPROPERTY
  1
023503
  9
$CUSTOMPROPERTYTAG
  1
SS
  9
$CUSTOMPROPERTY
  1
4-7/16
  9
$CUSTOMPROPERTYTAG
  1
PN
  9
$CUSTOMPROPERTY
  1
023503
  9
$CUSTOMPROPERTYTAG
  1
DESCRIPTION
  9
$CUSTOMPROPERTY
  1
DU-DI-407R
  9
$CUSTOMPROPERTYTAG
  1
A
  9
$CUSTOMPROPERTY
  1
6-3/4
  9
$CUSTOMPROPERTYTAG
  1
B
  9
$CUSTOMPROPERTY
  1
4-5/8
  9
$CUSTOMPROPERTYTAG
  1
H
  9
$CUSTOMPROPERTY
  1
15/16
  9
$CUSTOMPROPERTYTAG
  1
L
  9
$CUSTOMPROPERTY
  1
6-29/64
  9
$CUSTOMPROPERTYTAG
  1
N
  9
$CUSTOMPROPERTY
  1
5-1/2
  9
$CUSTOMPROPERTYTAG
  1
P
  9
$CUSTOMPROPERTY
  1
8-7/8
  9
$CUSTOMPROPERTYTAG
  1
S
  9
$CUSTOMPROPERTY
  1
9.125
  9
$CUSTOMPROPERTYTAG
  1
COMPANY
  9
$CUSTOMPROPERTY
  1
baldor
  9
$INSBASE
 10
0.0
 20
0.0
 30
0.0
  9
$EXTMIN
 10
1.000000000000000E+20
 20
1.000000000000000E+20
 30
1.000000000000000E+20
  9
$EXTMAX
 10
-1.000000000000000E+20
 20
-1.000000000000000E+20
 30
-1.000000000000000E+20
  9
$LIMMIN
 10
0.0
 20
0.0
  9
$LIMMAX
 10
12.0
 20
9.0
  9
$ORTHOMODE
 70
     0
  9
$REGENMODE
 70
     1
  9
$FILLMODE
 70
     1
  9
$QTEXTMODE
 70
     0
  9
$MIRRTEXT
 70
     1
  9
$LTSCALE
 40
1.0
  9
$ATTMODE
 70
     1
  9
$TEXTSIZE
 40
0.2
  9
$TRACEWID
 40
0.05
  9
$TEXTSTYLE
  7
Standard
  9
$CLAYER
  8
0
  9
$CELTYPE
  6
ByLayer
  9
$CECOLOR
 62
   256
  9
$CELTSCALE
 40
1.0
  9
$DISPSILH
 70
     0
  9
$DIMSCALE
 40
1.0
  9
$DIMASZ
 40
0.18
  9
$DIMEXO
 40
0.0625
  9
$DIMDLI
 40
0.38
  9
$DIMRND
 40
0.0
  9
$DIMDLE
 40
0.0
  9
$DIMEXE
 40
0.18
  9
$DIMTP
 40
0.0
  9
$DIMTM
 40
0.0
  9
$DIMTXT
 40
0.18
  9
$DIMCEN
 40
0.09
  9
$DIMTSZ
 40
0.0
  9
$DIMTOL
 70
     0
  9
$DIMLIM
 70
     0
  9
$DIMTIH
 70
     1
  9
$DIMTOH
 70
     1
  9
$DIMSE1
 70
     0
  9
$DIMSE2
 70
     0
  9
$DIMTAD
 70
     0
  9
$DIMZIN
 70
     0
  9
$DIMBLK
  1

  9
$DIMASO
 70
     1
  9
$DIMSHO
 70
     1
  9
$DIMPOST
  1

  9
$DIMAPOST
  1

  9
$DIMALT
 70
     0
  9
$DIMALTD
 70
     2
  9
$DIMALTF
 40
25.4
  9
$DIMLFAC
 40
1.0
  9
$DIMTOFL
 70
     0
  9
$DIMTVP
 40
0.0
  9
$DIMTIX
 70
     0
  9
$DIMSOXD
 70
     0
  9
$DIMSAH
 70
     0
  9
$DIMBLK1
  1

  9
$DIMBLK2
  1

  9
$DIMSTYLE
  2
Standard
  9
$DIMCLRD
 70
     0
  9
$DIMCLRE
 70
     0
  9
$DIMCLRT
 70
     0
  9
$DIMTFAC
 40
1.0
  9
$DIMGAP
 40
0.09
  9
$DIMJUST
 70
     0
  9
$DIMSD1
 70
     0
  9
$DIMSD2
 70
     0
  9
$DIMTOLJ
 70
     1
  9
$DIMTZIN
 70
     0
  9
$DIMALTZ
 70
     0
  9
$DIMALTTZ
 70
     0
  9
$DIMUPT
 70
     0
  9
$DIMDEC
 70
     4
  9
$DIMTDEC
 70
     4
  9
$DIMALTU
 70
     2
  9
$DIMALTTD
 70
     2
  9
$DIMTXSTY
  7
Standard
  9
$DIMAUNIT
 70
     0
  9
$DIMADEC
 70
     0
  9
$DIMALTRND
 40
0.0
  9
$DIMAZIN
 70
     0
  9
$DIMDSEP
 70
    46
  9
$DIMATFIT
 70
     3
  9
$DIMFRAC
 70
     0
  9
$DIMLDRBLK
  1

  9
$DIMLUNIT
 70
     2
  9
$DIMLWD
 70
    -2
  9
$DIMLWE
 70
    -2
  9
$DIMTMOVE
 70
     0
  9
$DIMFXL
 40
1.0
  9
$DIMFXLON
 70
     0
  9
$DIMJOGANG
 40
0.7853981633974483
  9
$DIMTFILL
 70
     0
  9
$DIMTFILLCLR
 70
     0
  9
$DIMARCSYM
 70
     0
  9
$DIMLTYPE
  6

  9
$DIMLTEX1
  6

  9
$DIMLTEX2
  6

  9
$DIMTXTDIRECTION
 70
     0
  9
$LUNITS
 70
     2
  9
$LUPREC
 70
     4
  9
$SKETCHINC
 40
0.1
  9
$FILLETRAD
 40
0.5
  9
$AUNITS
 70
     0
  9
$AUPREC
 70
     0
  9
$MENU
  1
.
  9
$ELEVATION
 40
0.0
  9
$PELEVATION
 40
0.0
  9
$THICKNESS
 40
0.0
  9
$LIMCHECK
 70
     0
  9
$CHAMFERA
 40
0.0
  9
$CHAMFERB
 40
0.0
  9
$CHAMFERC
 40
0.0
  9
$CHAMFERD
 40
0.0
  9
$SKPOLY
 70
     0
  9
$TDCREATE
 40
2458168.979373032
  9
$TDUCREATE
 40
2458168.937706366
  9
$TDUPDATE
 40
2458168.979373218
  9
$TDUUPDATE
 40
2458168.937706551
  9
$TDINDWG
 40
0.0000000116
  9
$TDUSRTIMER
 40
0.0000000116
  9
$USRTIMER
 70
     1
  9
$ANGBASE
 50
0.0
  9
$ANGDIR
 70
     0
  9
$PDMODE
 70
     0
  9
$PDSIZE
 40
0.0
  9
$PLINEWID
 40
0.0
  9
$SPLFRAME
 70
     0
  9
$SPLINETYPE
 70
     6
  9
$SPLINESEGS
 70
     8
  9
$HANDSEED
  5
1AB
  9
$SURFTAB1
 70
     6
  9
$SURFTAB2
 70
     6
  9
$SURFTYPE
 70
     6
  9
$SURFU
 70
     6
  9
$SURFV
 70
     6
  9
$UCSBASE
  2

  9
$UCSNAME
  2

  9
$UCSORG
 10
0.0
 20
0.0
 30
0.0
  9
$UCSXDIR
 10
1.0
 20
0.0
 30
0.0
  9
$UCSYDIR
 10
0.0
 20
1.0
 30
0.0
  9
$UCSORTHOREF
  2

  9
$UCSORTHOVIEW
 70
     0
  9
$UCSORGTOP
 10
0.0
 20
0.0
 30
0.0
  9
$UCSORGBOTTOM
 10
0.0
 20
0.0
 30
0.0
  9
$UCSORGLEFT
 10
0.0
 20
0.0
 30
0.0
  9
$UCSORGRIGHT
 10
0.0
 20
0.0
 30
0.0
  9
$UCSORGFRONT
 10
0.0
 20
0.0
 30
0.0
  9
$UCSORGBACK
 10
0.0
 20
0.0
 30
0.0
  9
$PUCSBASE
  2

  9
$PUCSNAME
  2

  9
$PUCSORG
 10
0.0
 20
0.0
 30
0.0
  9
$PUCSXDIR
 10
1.0
 20
0.0
 30
0.0
  9
$PUCSYDIR
 10
0.0
 20
1.0
 30
0.0
  9
$PUCSORTHOREF
  2

  9
$PUCSORTHOVIEW
 70
     0
  9
$PUCSORGTOP
 10
0.0
 20
0.0
 30
0.0
  9
$PUCSORGBOTTOM
 10
0.0
 20
0.0
 30
0.0
  9
$PUCSORGLEFT
 10
0.0
 20
0.0
 30
0.0
  9
$PUCSORGRIGHT
 10
0.0
 20
0.0
 30
0.0
  9
$PUCSORGFRONT
 10
0.0
 20
0.0
 30
0.0
  9
$PUCSORGBACK
 10
0.0
 20
0.0
 30
0.0
  9
$USERI1
 70
     0
  9
$USERI2
 70
     0
  9
$USERI3
 70
     0
  9
$USERI4
 70
     0
  9
$USERI5
 70
     0
  9
$USERR1
 40
0.0
  9
$USERR2
 40
0.0
  9
$USERR3
 40
0.0
  9
$USERR4
 40
0.0
  9
$USERR5
 40
0.0
  9
$WORLDVIEW
 70
     1
  9
$SHADEDGE
 70
     3
  9
$SHADEDIF
 70
    70
  9
$TILEMODE
 70
     1
  9
$MAXACTVP
 70
    64
  9
$PINSBASE
 10
0.0
 20
0.0
 30
0.0
  9
$PLIMCHECK
 70
     0
  9
$PEXTMIN
 10
1.000000000000000E+20
 20
1.000000000000000E+20
 30
1.000000000000000E+20
  9
$PEXTMAX
 10
-1.000000000000000E+20
 20
-1.000000000000000E+20
 30
-1.000000000000000E+20
  9
$PLIMMIN
 10
0.0
 20
0.0
  9
$PLIMMAX
 10
12.0
 20
9.0
  9
$UNITMODE
 70
     0
  9
$VISRETAIN
 70
     1
  9
$PLINEGEN
 70
     0
  9
$PSLTSCALE
 70
     1
  9
$TREEDEPTH
 70
  3020
  9
$CMLSTYLE
  2
Standard
  9
$CMLJUST
 70
     0
  9
$CMLSCALE
 40
1.0
  9
$PROXYGRAPHICS
 70
     1
  9
$MEASUREMENT
 70
     0
  9
$CELWEIGHT
370
    -1
  9
$ENDCAPS
280
     0
  9
$JOINSTYLE
280
     0
  9
$LWDISPLAY
290
     0
  9
$INSUNITS
 70
     1
  9
$HYPERLINKBASE
  1

  9
$STYLESHEET
  1

  9
$XEDIT
290
     1
  9
$CEPSNTYPE
380
     0
  9
$PSTYLEMODE
290
     1
  9
$FINGERPRINTGUID
  2
{8086616E-3EDC-4DC0-9236-23163B0BACBF}
  9
$VERSIONGUID
  2
{FAEB1C32-E019-11D5-929B-00C0DF256EC4}
  9
$EXTNAMES
290
     1
  9
$PSVPSCALE
 40
0.0
  9
$OLESTARTUP
290
     0
  9
$SORTENTS
280
   127
  9
$INDEXCTL
280
     0
  9
$HIDETEXT
280
     1
  9
$XCLIPFRAME
280
     2
  9
$HALOGAP
280
     0
  9
$OBSCOLOR
 70
   257
  9
$OBSLTYPE
280
     0
  9
$INTERSECTIONDISPLAY
280
     0
  9
$INTERSECTIONCOLOR
 70
   257
  9
$DIMASSOC
280
     2
  9
$PROJECTNAME
  1

  9
$CAMERADISPLAY
290
     0
  9
$LENSLENGTH
 40
50.0
  9
$CAMERAHEIGHT
 40
0.0
  9
$STEPSPERSEC
 40
2.0
  9
$STEPSIZE
 40
6.0
  9
$3DDWFPREC
 40
2.0
  9
$PSOLWIDTH
 40
0.25
  9
$PSOLHEIGHT
 40
4.0
  9
$LOFTANG1
 40
1.570796326794897
  9
$LOFTANG2
 40
1.570796326794897
  9
$LOFTMAG1
 40
0.0
  9
$LOFTMAG2
 40
0.0
  9
$LOFTPARAM
 70
     7
  9
$LOFTNORMALS
280
     1
  9
$LATITUDE
 40
37.795
  9
$LONGITUDE
 40
-122.394
  9
$NORTHDIRECTION
 40
0.0
  9
$TIMEZONE
 70
 -8000
  9
$LIGHTGLYPHDISPLAY
280
     1
  9
$TILEMODELIGHTSYNCH
280
     1
  9
$CMATERIAL
347
44
  9
$SOLIDHIST
280
     0
  9
$SHOWHIST
280
     1
  9
$DWFFRAME
280
     2
  9
$DGNFRAME
280
     2
  9
$REALWORLDSCALE
290
     1
  9
$INTERFERECOLOR
 62
   256
  9
$CSHADOW
280
     0
  9
$SHADOWPLANELOCATION
 40
0.0
  0
ENDSEC
  0
SECTION
  2
CLASSES
  0
CLASS
  1
ACDBDICTIONARYWDFLT
  2
AcDbDictionaryWithDefault
  3
ObjectDBX Classes
 90
        0
 91
        4
280
     0
281
     0
  0
CLASS
  1
VISUALSTYLE
  2
AcDbVisualStyle
  3
ObjectDBX Classes
 90
     4095
 91
        4
280
     0
281
     0
  0
CLASS
  1
MATERIAL
  2
AcDbMaterial
  3
ObjectDBX Classes
 90
     1153
 91
        4
280
     0
281
     0
  0
CLASS
  1
SCALE
  2
AcDbScale
  3
ObjectDBX Classes
 90
     1153
 91
        4
280
     0
281
     0
  0
CLASS
  1
TABLESTYLE
  2
AcDbTableStyle
  3
ObjectDBX Classes
 90
     4095
 91
        4
280
     0
281
     0
  0
CLASS
  1
MLEADERSTYLE
  2
AcDbMLeaderStyle
  3
ACDB_MLEADERSTYLE_CLASS
 90
     4095
 91
        4
280
     0
281
     0
  0
CLASS
  1
SUN
  2
AcDbSun
  3
SCENEOE
 90
     1153
 91
        4
280
     0
281
     0
  0
CLASS
  1
DICTIONARYVAR
  2
AcDbDictionaryVar
  3
ObjectDBX Classes
 90
        0
 91
        4
280
     0
281
     0
  0
CLASS
  1
CELLSTYLEMAP
  2
AcDbCellStyleMap
  3
ObjectDBX Classes
 90
     1152
 91
        4
280
     0
281
     0
  0
ENDSEC
  0
SECTION
  2
TABLES
  0
TABLE
  2
VPORT
  5
8
330
0
100
AcDbSymbolTable
 70
     1
  0
VPORT
  5
29
330
8
100
AcDbSymbolTableRecord
100
AcDbViewportTableRecord
  2
*Active
 70
     0
 10
0.0
 20
0.0
 11
1.0
 21
1.0
 12
0.0
 22
0.3253750000000002
 13
0.0
 23
0.0
 14
0.5
 24
0.5
 15
0.5
 25
0.5
 16
0.0
 26
0.0
 36
1.0
 17
0.0
 27
0.0
 37
0.0
 40
10.621515
 41
0.7130338751110364
 42
50.0
 43
0.0
 44
0.0
 50
0.0
 51
0.0
 71
     0
 72
   100
 73
     1
 74
     3
 75
     0
 76
     0
 77
     0
 78
     0
281
     0
 65
     1
110
0.0
120
0.0
130
0.0
111
1.0
121
0.0
131
0.0
112
0.0
122
1.0
132
0.0
 79
     0
146
0.0
348
2F
 60
     3
 61
     5
292
     1
282
     1
141
0.0
142
0.0
 63
   250
361
6D
  0
ENDTAB
  0
TABLE
  2
LTYPE
  5
5
330
0
100
AcDbSymbolTable
 70
     3
  0
LTYPE
  5
14
330
5
100
AcDbSymbolTableRecord
100
AcDbLinetypeTableRecord
  2
ByBlock
 70
     0
  3

 72
    65
 73
     0
 40
0.0
  0
LTYPE
  5
15
330
5
100
AcDbSymbolTableRecord
100
AcDbLinetypeTableRecord
  2
ByLayer
 70
     0
  3

 72
    65
 73
     0
 40
0.0
  0
LTYPE
  5
16
330
5
100
AcDbSymbolTableRecord
100
AcDbLinetypeTableRecord
  2
Continuous
 70
     0
  3
Solid line
 72
    65
 73
     0
 40
0.0
  0
LTYPE
  5
98
330
5
100
AcDbSymbolTableRecord
100
AcDbLinetypeTableRecord
  2
Dashed
 70
     0
  3

 72
    65
 73
     2
 40
2.0
 49
1.0
 74
     0
 49
-1.0
 74
     0
  0
LTYPE
  5
17F
330
5
100
AcDbSymbolTableRecord
100
AcDbLinetypeTableRecord
  2
Center
 70
     0
  3

 72
    65
 73
     4
 40
1.5
 49
0.45
 74
     0
 49
-0.5
 74
     0
 49
0.05
 74
     0
 49
-0.5
 74
     0
  0
ENDTAB
  0
TABLE
  2
LAYER
  5
2
330
0
100
AcDbSymbolTable
 70
     7
  0
LAYER
  5
10
330
2
100
AcDbSymbolTableRecord
100
AcDbLayerTableRecord
  2
0
 70
     0
 62
     7
  6
Continuous
370
    -3
390
F
347
46
348
0
  0
LAYER
  5
72
330
2
100
AcDbSymbolTableRecord
100
AcDbLayerTableRecord
  2
AM_6
 70
     0
 62
    -2
  6
Continuous
370
    35
390
F
347
46
348
0
  0
LAYER
  5
99
330
2
100
AcDbSymbolTableRecord
100
AcDbLayerTableRecord
  2
AM_9
 70
     0
 62
     6
  6
Dashed
370
    25
390
F
347
46
348
0
  0
LAYER
  5
AE
330
2
100
AcDbSymbolTableRecord
100
AcDbLayerTableRecord
  2
AM_5
 70
     0
 62
     3
  6
Continuous
370
    25
390
F
347
46
348
0
  0
LAYER
  5
B1
330
2
100
AcDbSymbolTableRecord
100
AcDbLayerTableRecord
  2
AM_4
 70
     0
 62
     7
  6
Continuous
370
    50
390
F
347
46
348
0
  0
LAYER
  5
180
330
2
100
AcDbSymbolTableRecord
100
AcDbLayerTableRecord
  2
AM_7
 70
     0
 62
     7
  6
Center
370
    25
390
F
347
46
348
0
  0
LAYER
  5
19A
330
2
100
AcDbSymbolTableRecord
100
AcDbLayerTableRecord
  2
ConnectionPoints
 70
     0
 62
     7
  6
Continuous
370
    50
390
F
347
46
348
0
  0
ENDTAB
  0
TABLE
  2
STYLE
  5
3
330
0
100
AcDbSymbolTable
 70
     1
  0
STYLE
  5
11
330
3
100
AcDbSymbolTableRecord
100
AcDbTextStyleTableRecord
  2
Standard
 70
     0
 40
0.0
 41
1.0
 50
0.0
 71
     0
 42
0.2
  3
txt
  4

  0
ENDTAB
  0
TABLE
  2
VIEW
  5
6
330
0
100
AcDbSymbolTable
 70
     0
  0
ENDTAB
  0
TABLE
  2
UCS
  5
7
330
0
100
AcDbSymbolTable
 70
     0
  0
ENDTAB
  0
TABLE
  2
APPID
  5
9
330
0
100
AcDbSymbolTable
 70
     1
  0
APPID
  5
12
330
9
100
AcDbSymbolTableRecord
100
AcDbRegAppTableRecord
  2
ACAD
 70
     0
  0
ENDTAB
  0
TABLE
  2
DIMSTYLE
  5
A
330
0
100
AcDbSymbolTable
 70
     1
100
AcDbDimStyleTable
  0
DIMSTYLE
105
27
330
A
100
AcDbSymbolTableRecord
100
AcDbDimStyleTableRecord
  2
Standard
 70
     0
178
     0
340
11
  0
ENDTAB
  0
TABLE
  2
BLOCK_RECORD
  5
1
330
0
100
AcDbSymbolTable
 70
     6
  0
BLOCK_RECORD
  5
1F
330
1
100
AcDbSymbolTableRecord
100
AcDbBlockTableRecord
  2
*Model_Space
340
22
 70
     0
280
     1
281
     0
  0
BLOCK_RECORD
  5
1B
330
1
100
AcDbSymbolTableRecord
100
AcDbBlockTableRecord
  2
*Paper_Space
340
1E
 70
     0
280
     1
281
     0
  0
BLOCK_RECORD
  5
23
330
1
100
AcDbSymbolTableRecord
100
AcDbBlockTableRecord
  2
*Paper_Space0
340
26
 70
     0
280
     1
281
     0
  0
BLOCK_RECORD
  5
6E
330
1
100
AcDbSymbolTableRecord
100
AcDbBlockTableRecord
  2
1_023503_2
340
0
102
{BLKREFS
331
6F
102
}
 70
     0
280
     1
281
     0
  0
BLOCK_RECORD
  5
83
330
1
100
AcDbSymbolTableRecord
100
AcDbBlockTableRecord
  2
2_4_7_16C_1_0_in_023503_2
340
0
102
{BLKREFS
331
84
102
}
 70
     0
280
     1
281
     0
  0
BLOCK_RECORD
  5
BD
330
1
100
AcDbSymbolTableRecord
100
AcDbBlockTableRecord
  2
3_4_7_16C_2_0_in_023503_2
340
0
102
{BLKREFS
331
BE
102
}
 70
     0
280
     1
281
     0
  0
BLOCK_RECORD
  5
F6
330
1
100
AcDbSymbolTableRecord
100
AcDbBlockTableRecord
  2
4_405015E_Inch_0_in_023503_2
340
0
102
{BLKREFS
331
F7
102
}
 70
     0
280
     1
281
     0
  0
BLOCK_RECORD
  5
134
330
1
100
AcDbSymbolTableRecord
100
AcDbBlockTableRecord
  2
5_023503_Insert_0_in_023503_2
340
0
102
{BLKREFS
331
135
102
}
 70
     0
280
     1
281
     0
  0
ENDTAB
  0
ENDSEC
  0
SECTION
  2
BLOCKS
  0
BLOCK
  5
20
330
1F
100
AcDbEntity
  8
0
100
AcDbBlockBegin
  2
*Model_Space
 70
     0
 10
0.0
 20
0.0
 30
0.0
  3
*Model_Space
  1

  0
ENDBLK
  5
21
330
1F
100
AcDbEntity
  8
0
100
AcDbBlockEnd
  0
BLOCK
  5
1C
330
1B
100
AcDbEntity
 67
     1
  8
0
100
AcDbBlockBegin
  2
*Paper_Space
 70
     0
 10
0.0
 20
0.0
 30
0.0
  3
*Paper_Space
  1

  0
ENDBLK
  5
1D
330
1B
100
AcDbEntity
 67
     1
  8
0
100
AcDbBlockEnd
  0
BLOCK
  5
24
330
23
100
AcDbEntity
  8
0
100
AcDbBlockBegin
  2
*Paper_Space0
 70
     0
 10
0.0
 20
0.0
 30
0.0
  3
*Paper_Space0
  1

  0
ENDBLK
  5
25
330
23
100
AcDbEntity
  8
0
100
AcDbBlockEnd
  0
BLOCK
  5
70
330
6E
100
AcDbEntity
  8
0
100
AcDbBlockBegin
  2
1_023503_2
 70
     2
 10
0.0
 20
0.0
 30
0.0
  3
1_023503_2
  1

  0
ATTDEF
  5
73
330
6E
100
AcDbEntity
  8
AM_6
100
AcDbText
 10
8.7125
 20
5.532
 30
0.0
 40
0.5
  1
Double-Interlock D Units Gray Iron - Inch
100
AcDbAttributeDefinition
  3

  2
NN
 70
     8
280
     0
  0
ATTDEF
  5
74
330
6E
100
AcDbEntity
  8
AM_6
100
AcDbText
 10
8.7125
 20
5.032
 30
0.0
 40
0.5
  1
Double-Interlock Bearings
100
AcDbAttributeDefinition
  3

  2
NT
 70
     8
280
     0
  0
ATTDEF
  5
75
330
6E
100
AcDbEntity
  8
AM_6
100
AcDbText
 10
8.7125
 20
4.532
 30
0.0
 40
0.5
  1
023503
100
AcDbAttributeDefinition
  3

  2
NB
 70
     8
280
     0
  0
ATTDEF
  5
76
330
6E
100
AcDbEntity
  8
AM_6
100
AcDbText
 10
8.7125
 20
4.032
 30
0.0
 40
0.5
  1
$PN.
100
AcDbAttributeDefinition
  3

  2
NBSYN
 70
     8
280
     0
  0
ATTDEF
  5
77
330
6E
100
AcDbEntity
  8
AM_6
100
AcDbText
 10
8.7125
 20
3.532
 30
0.0
 40
0.5
  1
023503
100
AcDbAttributeDefinition
  3

  2
LINA
 70
     8
280
     0
  0
ATTDEF
  5
78
330
6E
100
AcDbEntity
  8
AM_6
100
AcDbText
 10
8.7125
 20
3.032
 30
0.0
 40
0.5
  1
4-7/16
100
AcDbAttributeDefinition
  3

  2
SS
 70
     8
280
     0
  0
ATTDEF
  5
79
330
6E
100
AcDbEntity
  8
AM_6
100
AcDbText
 10
8.7125
 20
2.532
 30
0.0
 40
0.5
  1
023503
100
AcDbAttributeDefinition
  3

  2
PN
 70
     8
280
     0
  0
ATTDEF
  5
7A
330
6E
100
AcDbEntity
  8
AM_6
100
AcDbText
 10
8.7125
 20
2.032
 30
0.0
 40
0.5
  1
DU-DI-407R
100
AcDbAttributeDefinition
  3

  2
DESCRIPTION
 70
     8
280
     0
  0
ATTDEF
  5
7B
330
6E
100
AcDbEntity
  8
AM_6
100
AcDbText
 10
8.7125
 20
1.532
 30
0.0
 40
0.5
  1
6-3/4
100
AcDbAttributeDefinition
  3

  2
A
 70
     8
280
     0
  0
ATTDEF
  5
7C
330
6E
100
AcDbEntity
  8
AM_6
100
AcDbText
 10
8.7125
 20
1.032
 30
0.0
 40
0.5
  1
4-5/8
100
AcDbAttributeDefinition
  3

  2
B
 70
     8
280
     0
  0
ATTDEF
  5
7D
330
6E
100
AcDbEntity
  8
AM_6
100
AcDbText
 10
8.7125
 20
0.532
 30
0.0
 40
0.5
  1
15/16
100
AcDbAttributeDefinition
  3

  2
H
 70
     8
280
     0
  0
ATTDEF
  5
7E
330
6E
100
AcDbEntity
  8
AM_6
100
AcDbText
 10
8.7125
 20
0.032
 30
0.0
 40
0.5
  1
6-29/64
100
AcDbAttributeDefinition
  3

  2
L
 70
     8
280
     0
  0
ATTDEF
  5
7F
330
6E
100
AcDbEntity
  8
AM_6
100
AcDbText
 10
8.7125
 20
-0.468
 30
0.0
 40
0.5
  1
5-1/2
100
AcDbAttributeDefinition
  3

  2
N
 70
     8
280
     0
  0
ATTDEF
  5
80
330
6E
100
AcDbEntity
  8
AM_6
100
AcDbText
 10
8.7125
 20
-0.968
 30
0.0
 40
0.5
  1
8-7/8
100
AcDbAttributeDefinition
  3

  2
P
 70
     8
280
     0
  0
ATTDEF
  5
81
330
6E
100
AcDbEntity
  8
AM_6
100
AcDbText
 10
8.7125
 20
-1.468
 30
0.0
 40
0.5
  1
9.125
100
AcDbAttributeDefinition
  3

  2
S
 70
     8
280
     0
  0
ATTDEF
  5
82
330
6E
100
AcDbEntity
  8
AM_6
100
AcDbText
 10
8.7125
 20
-1.968
 30
0.0
 40
0.5
  1
baldor
100
AcDbAttributeDefinition
  3

  2
COMPANY
 70
     8
280
     0
  0
INSERT
  5
84
330
6E
100
AcDbEntity
  8
0
100
AcDbBlockReference
  2
2_4_7_16C_1_0_in_023503_2
 10
0.0
 20
0.0
 30
0.0
  0
INSERT
  5
BE
330
6E
100
AcDbEntity
  8
0
100
AcDbBlockReference
  2
3_4_7_16C_2_0_in_023503_2
 10
0.0
 20
0.0
 30
0.0
  0
INSERT
  5
F7
330
6E
100
AcDbEntity
  8
0
100
AcDbBlockReference
  2
4_405015E_Inch_0_in_023503_2
 10
0.0
 20
0.0
 30
0.0
  0
INSERT
  5
135
330
6E
100
AcDbEntity
  8
0
100
AcDbBlockReference
  2
5_023503_Insert_0_in_023503_2
 10
0.0
 20
0.0
 30
0.0
  0
ENDBLK
  5
71
330
6E
100
AcDbEntity
  8
0
100
AcDbBlockEnd
  0
BLOCK
  5
85
330
83
100
AcDbEntity
  8
0
100
AcDbBlockBegin
  2
2_4_7_16C_1_0_in_023503_2
 70
     2
 10
0.0
 20
0.0
 30
0.0
  3
2_4_7_16C_1_0_in_023503_2
  1

  0
ATTDEF
  5
87
330
83
100
AcDbEntity
  8
AM_6
100
AcDbText
 10
8.375
 20
3.218750000000001
 30
0.0
 40
0.5
  1
E-Type Collar -Inch
100
AcDbAttributeDefinition
  3

  2
NN
 70
     8
280
     0
  0
ATTDEF
  5
88
330
83
100
AcDbEntity
  8
AM_6
100
AcDbText
 10
8.375
 20
2.718750000000001
 30
0.0
 40
0.5
  1
E-Type Bearings
100
AcDbAttributeDefinition
  3

  2
NT
 70
     8
280
     0
  0
ATTDEF
  5
89
330
83
100
AcDbEntity
  8
AM_6
100
AcDbText
 10
8.375
 20
2.218750000000001
 30
0.0
 40
0.5
  1
4-7/16C
100
AcDbAttributeDefinition
  3

  2
NB
 70
     8
280
     0
  0
ATTDEF
  5
8A
330
83
100
AcDbEntity
  8
AM_6
100
AcDbText
 10
8.375
 20
1.718750000000001
 30
0.0
 40
0.5
  1
$BORE.C
100
AcDbAttributeDefinition
  3

  2
NBSYN
 70
     8
280
     0
  0
ATTDEF
  5
8B
330
83
100
AcDbEntity
  8
AM_6
100
AcDbText
 10
8.375
 20
1.218750000000001
 30
0.0
 40
0.5
  1
4-7/16C
100
AcDbAttributeDefinition
  3

  2
LINA
 70
     8
280
     0
  0
ATTDEF
  5
8C
330
83
100
AcDbEntity
  8
AM_6
100
AcDbText
 10
8.375
 20
0.7187500000000009
 30
0.0
 40
0.5
  1
4-7/16
100
AcDbAttributeDefinition
  3

  2
BORE
 70
     8
280
     0
  0
ATTDEF
  5
8D
330
83
100
AcDbEntity
  8
AM_6
100
AcDbText
 10
8.375
 20
0.2187500000000009
 30
0.0
 40
0.5
  1
6.43750
100
AcDbAttributeDefinition
  3

  2
L
 70
     8
280
     0
  0
ATTDEF
  5
8E
330
83
100
AcDbEntity
  8
AM_6
100
AcDbText
 10
8.375
 20
-0.2812499999999991
 30
0.0
 40
0.5
  1
6.75
100
AcDbAttributeDefinition
  3

  2
A
 70
     8
280
     0
  0
ATTDEF
  5
8F
330
83
100
AcDbEntity
  8
AM_6
100
AcDbText
 10
8.375
 20
-0.7812499999999991
 30
0.0
 40
0.5
  1
3.25
100
AcDbAttributeDefinition
  3

  2
B
 70
     8
280
     0
  0
ATTDEF
  5
90
330
83
100
AcDbEntity
  8
AM_6
100
AcDbText
 10
8.375
 20
-1.281249999999999
 30
0.0
 40
0.5
  1
5.00
100
AcDbAttributeDefinition
  3

  2
C
 70
     8
280
     0
  0
ATTDEF
  5
91
330
83
100
AcDbEntity
  8
AM_6
100
AcDbText
 10
8.375
 20
-1.781249999999999
 30
0.0
 40
0.5
  1
7.00
100
AcDbAttributeDefinition
  3

  2
D
 70
     8
280
     0
  0
ATTDEF
  5
92
330
83
100
AcDbEntity
  8
AM_6
100
AcDbText
 10
8.375
 20
-2.281249999999999
 30
0.0
 40
0.5
  1
0.78
100
AcDbAttributeDefinition
  3

  2
E
 70
     8
280
     0
  0
ATTDEF
  5
93
330
83
100
AcDbEntity
  8
AM_6
100
AcDbText
 10
8.375
 20
-2.781249999999999
 30
0.0
 40
0.5
  1
0.62
100
AcDbAttributeDefinition
  3

  2
F
 70
     8
280
     0
  0
ATTDEF
  5
94
330
83
100
AcDbEntity
  8
AM_6
100
AcDbText
 10
8.375
 20
-3.281249999999999
 30
0.0
 40
0.5
  1
5/8-11
100
AcDbAttributeDefinition
  3

  2
CS
 70
     8
280
     0
  0
ATTDEF
  5
95
330
83
100
AcDbEntity
  8
AM_6
100
AcDbText
 10
8.375
 20
-3.781249999999999
 30
0.0
 40
0.5
  1
0.6250
100
AcDbAttributeDefinition
  3

  2
NDM
 70
     8
280
     0
  0
ATTDEF
  5
96
330
83
100
AcDbEntity
  8
AM_6
100
AcDbText
 10
8.375
 20
-4.281249999999999
 30
0.0
 40
0.5
  1
0.5270
100
AcDbAttributeDefinition
  3

  2
KDM
 70
     8
280
     0
  0
ATTDEF
  5
97
330
83
100
AcDbEntity
  8
AM_6
100
AcDbText
 10
8.375
 20
-4.781249999999999
 30
0.0
 40
0.5
  1
baldor
100
AcDbAttributeDefinition
  3

  2
COMPANY
 70
     8
280
     0
  0
LINE
  5
9A
330
83
100
AcDbEntity
  8
AM_9
100
AcDbLine
 10
2.4917
 20
2.507533333333333
 30
0.0
 11
2.48462708486627
 21
2.500460418199603
 31
0.0
  0
LINE
  5
9B
330
83
100
AcDbEntity
  8
AM_9
100
AcDbLine
 10
3.025534987389645
 20
2.500298345943688
 30
0.0
 11
3.0183
 21
2.507533333333333
 31
0.0
  0
LINE
  5
9C
330
83
100
AcDbEntity
  8
AM_9
100
AcDbLine
 10
3.0183
 20
3.16955
 30
0.0
 11
3.066944836207504
 21
3.218194836207504
 31
0.0
  0
LINE
  5
9D
330
83
100
AcDbEntity
  8
AM_9
100
AcDbLine
 10
2.442669418401081
 20
3.218580581598919
 30
0.0
 11
2.4917
 21
3.16955
 31
0.0
  0
LINE
  5
9E
330
83
100
AcDbEntity
  8
AM_9
100
AcDbLine
 10
2.4917
 20
3.16955
 30
0.0
 11
3.0183
 21
3.16955
 31
0.0
  0
LINE
  5
9F
330
83
100
AcDbEntity
  8
AM_9
100
AcDbLine
 10
2.4917
 20
2.507533333333333
 30
0.0
 11
3.0183
 21
2.507533333333333
 31
0.0
  0
LINE
  5
A0
330
83
100
AcDbEntity
  8
AM_9
100
AcDbLine
 10
3.0183
 20
2.507533333333333
 30
0.0
 11
3.0183
 21
3.16955
 31
0.0
  0
LINE
  5
A1
330
83
100
AcDbEntity
  8
AM_9
100
AcDbLine
 10
2.4917
 20
3.16955
 30
0.0
 11
2.4917
 21
2.507533333333333
 31
0.0
  0
ELLIPSE
  5
A2
330
83
100
AcDbEntity
  8
AM_9
100
AcDbEllipse
 10
2.755
 20
1.059729378590193
 30
0.0
 11
0.2632999999999996
 21
0.0
 31
0.0
210
0.0
220
0.0
230
1.0
 40
0.9063077870366526
 41
2.515207549017515
 42
3.141592653589793
  0
ELLIPSE
  5
A3
330
83
100
AcDbEntity
  8
AM_9
100
AcDbEllipse
 10
2.754999999999995
 20
1.059729378590191
 30
0.0
 11
0.2633000000000045
 21
0.0
 31
0.0
210
0.0
220
0.0
230
1.0
 40
0.9063077870366526
 41
3.141592653589793
 42
6.909570411751862
  0
LINE
  5
A4
330
83
100
AcDbEntity
  8
AM_9
100
AcDbLine
 10
3.0183
 20
1.059729378590195
 30
0.0
 11
3.0183
 21
1.339509711500234
 31
0.0
  0
LINE
  5
A5
330
83
100
AcDbEntity
  8
AM_9
100
AcDbLine
 10
2.4917
 20
1.339509711500234
 30
0.0
 11
2.4917
 21
1.059729378590195
 31
0.0
  0
LWPOLYLINE
  5
A6
330
83
100
AcDbEntity
  8
AM_9
100
AcDbPolyline
 90
       39
 70
     0
 43
0.0
 10
2.561137936045281
 20
0.8714411925917834
 10
2.590922609266
 20
0.8450441474896344
 10
2.625361504859067
 20
0.8225626441473488
 10
2.666625966359503
 20
0.8041226560240486
 10
2.712130709932782
 20
0.7925335056963378
 10
2.75512197943964
 20
0.7890593814043309
 10
2.799419076317277
 20
0.7927908788247183
 10
2.840041295323744
 20
0.8029800591345854
 10
2.879417343416289
 20
0.8197610070056027
 10
2.915293618628422
 20
0.8422001952591063
 10
2.947769979336691
 20
0.8703293707194026
 10
2.975910349000717
 20
0.9037279793061954
 10
2.998620850913376
 20
0.9416105804883013
 10
3.015015383147731
 20
0.9832561780347251
 10
3.024161448187613
 20
1.02762085533604
 10
3.025312141157323
 20
1.072637759458468
 10
3.018046082574479
 20
1.118043958558642
 10
3.002762789840523
 20
1.160428014493026
 10
2.978913561748869
 20
1.200667587066355
 10
2.949002720358839
 20
1.23471069890199
 10
2.911551847804663
 20
1.264299655709329
 10
2.871869168484763
 20
1.285742523254504
 10
2.826927023532754
 20
1.301128000018056
 10
2.78386465533129
 20
1.308611932191808
 10
2.7385418707431
 20
1.309564179180462
 10
2.696858426679573
 20
1.304249040561246
 10
2.655647191448046
 20
1.292742280128255
 10
2.617952192259089
 20
1.275894130334342
 10
2.582975868315247
 20
1.253399129971431
 10
2.551899882855931
 20
1.225610237175742
 10
2.525600058956835
 20
1.192834056199438
 10
2.504915004906295
 20
1.155331832817003
 10
2.490931137430506
 20
1.11394195345393
 10
2.484532626553726
 20
1.070035555104558
 10
2.486269453099534
 20
1.024107979628675
 10
2.496232437588119
 20
0.9792027140001409
 10
2.514835484649316
 20
0.9348526719806418
 10
2.535324939864303
 20
0.9020148447062324
 10
2.561137936045281
 20
0.8714411925917839
  0
LINE
  5
A7
330
83
100
AcDbEntity
  8
AM_9
100
AcDbLine
 10
3.375
 20
2.5
 30
0.0
 11
3.02515017014315
 21
2.5
 31
0.0
  0
LINE
  5
A8
330
83
100
AcDbEntity
  8
AM_9
100
AcDbLine
 10
2.485216930718486
 20
2.5
 30
0.0
 11
2.135
 21
2.5
 31
0.0
  0
LINE
  5
A9
330
83
100
AcDbEntity
  8
AM_9
100
AcDbLine
 10
2.135
 20
-2.5
 30
0.0
 11
3.375
 21
-2.5
 31
0.0
  0
LWPOLYLINE
  5
AA
330
83
100
AcDbEntity
  8
AM_9
100
AcDbPolyline
 90
       21
 70
     0
 43
0.0
 10
2.484166666666688
 20
2.499999999999998
 10
2.485041035469064
 20
2.499890225076382
 10
2.49293669058013
 20
2.498951241250801
 10
2.509214792725996
 20
2.497091291498658
 10
2.53338463061327
 20
2.494550268040473
 10
2.564385682101254
 20
2.491667152423883
 10
2.601723027356619
 20
2.488760482026858
 10
2.642389175647177
 20
2.486313244820757
 10
2.686765161661826
 20
2.484483842185861
 10
2.730540671172997
 20
2.483567329579826
 10
2.77506226263029
 20
2.483515891196557
 10
2.817198673292772
 20
2.484309888614082
 10
2.857611573709104
 20
2.485818969123251
 10
2.895546927761883
 20
2.487915258717799
 10
2.929763357779447
 20
2.490356382367662
 10
2.960833788954143
 20
2.493028809908521
 10
2.986353949484821
 20
2.495544129930834
 10
3.006716445901869
 20
2.497754883907251
 10
3.019902687899305
 20
2.499287115484823
 10
3.025640851840677
 20
2.499972989821472
 10
3.025833333332923
 20
2.49999999999995
  0
LINE
  5
AB
330
83
100
AcDbEntity
  8
AM_9
100
AcDbLine
 10
2.135
 20
-3.218750000000001
 30
0.0
 11
2.135
 21
3.218750000000001
 31
0.0
  0
LINE
  5
AC
330
83
100
AcDbEntity
  8
AM_9
100
AcDbLine
 10
2.3125
 20
3.218750000000001
 30
0.0
 11
2.135
 21
3.218750000000001
 31
0.0
  0
LINE
  5
AD
330
83
100
AcDbEntity
  8
AM_9
100
AcDbLine
 10
2.135
 20
-3.218750000000001
 30
0.0
 11
2.3125
 21
-3.218750000000001
 31
0.0
  0
LINE
  5
AF
330
83
100
AcDbEntity
  8
AM_5
100
AcDbLine
 10
3.0675
 20
3.218750000000001
 30
0.0
 11
3.0675
 21
2.5
 31
0.0
  0
LINE
  5
B0
330
83
100
AcDbEntity
  8
AM_5
100
AcDbLine
 10
2.4425
 20
3.218750000000001
 30
0.0
 11
2.4425
 21
2.5
 31
0.0
  0
ELLIPSE
  5
B2
330
83
100
AcDbEntity
  8
AM_4
100
AcDbEllipse
 10
2.755
 20
1.059729378590194
 30
0.0
 11
0.2633000000000005
 21
0.0
 31
0.0
210
0.0
220
0.0
230
1.0
 40
0.9063077870366495
 41
0.6263851045722761
 42
2.515207549017518
  0
LWPOLYLINE
  5
B3
330
83
100
AcDbEntity
  8
AM_4
100
AcDbPolyline
 90
       39
 70
     0
 43
0.0
 10
2.538831962341532
 20
1.161890088036543
 10
2.50811418883871
 20
1.192276288106898
 10
2.482045981979182
 20
1.227228527175793
 10
2.460590610831067
 20
1.268970389942334
 10
2.446956354360316
 20
1.314633826704085
 10
2.442509306147417
 20
1.358215400980602
 10
2.446419790126591
 20
1.402851138460955
 10
2.458014242124147
 20
1.44388362784103
 10
2.477516391718403
 20
1.483457167858532
 10
2.503701723863878
 20
1.519015885550453
 10
2.536879608252919
 20
1.551023856285206
 10
2.576001564102114
 20
1.578143722038008
 10
2.620764293666816
 20
1.599880250146726
 10
2.669745940020434
 20
1.615230282971252
 10
2.722366395024814
 20
1.623657427762663
 10
2.775906312735755
 20
1.624494509500943
 10
2.83037132527321
 20
1.61741468573186
 10
2.88157522201905
 20
1.602810691063528
 10
2.930571851413196
 20
1.580116955826555
 10
2.972409702809991
 20
1.551603557886752
 10
3.009022793275615
 20
1.515856315622752
 10
3.036026080539084
 20
1.47746728983683
 10
3.055588057226363
 20
1.433815110999258
 10
3.065478078096044
 20
1.39093706696637
 10
3.067031823357097
 20
1.34548923460717
 10
3.060417711836527
 20
1.302797339843122
 10
3.045686231618825
 20
1.260249349187092
 10
3.024029312793966
 20
1.221181851821775
 10
2.995045861172562
 20
1.184710691671545
 10
2.959833521331547
 20
1.152646900545207
 10
2.918486792027881
 20
1.125453567250782
 10
2.872197832402547
 20
1.104409104565808
 10
2.821546523411298
 20
1.090281293371728
 10
2.768767337972357
 20
1.08407059778027
 10
2.714126400063965
 20
1.086225765659512
 10
2.661382708820507
 20
1.096774869240712
 10
2.609825302248244
 20
1.116089133758043
 10
2.572975981038991
 20
1.136509312547076
 10
2.5388319623012
 20
1.16189008789595
  0
LINE
  5
B4
330
83
100
AcDbEntity
  8
AM_4
100
AcDbLine
 10
3.168333333333333
 20
3.218750000000001
 30
0.0
 11
3.066480596558622
 21
3.218750000000001
 31
0.0
  0
LINE
  5
B5
330
83
100
AcDbEntity
  8
AM_4
100
AcDbLine
 10
2.442810022642544
 20
3.218750000000001
 30
0.0
 11
2.3125
 21
3.218750000000001
 31
0.0
  0
LINE
  5
B6
330
83
100
AcDbEntity
  8
AM_4
100
AcDbLine
 10
2.3125
 20
-3.218750000000001
 30
0.0
 11
3.168333333333333
 21
-3.218750000000001
 31
0.0
  0
LWPOLYLINE
  5
B7
330
83
100
AcDbEntity
  8
AM_4
100
AcDbPolyline
 90
       21
 70
     0
 43
0.0
 10
3.067499999999979
 20
3.218749999999998
 10
3.066110940617107
 20
3.218625111438958
 10
3.05737502217339
 20
3.217868279528833
 10
3.040941366600955
 20
3.216497207853265
 10
3.017431357345547
 20
3.214669386123754
 10
2.986676194903271
 20
3.212512444053352
 10
2.950201699607331
 20
3.210297549122537
 10
2.907078031636618
 20
3.208168908083251
 10
2.860058193747882
 20
3.206442463456571
 10
2.808322157706709
 20
3.20527902898421
 10
2.755148362223601
 20
3.204867996740868
 10
2.700784048664941
 20
3.20529322824663
 10
2.647948017056843
 20
3.206502762819818
 10
2.598159141481853
 20
3.208379311484708
 10
2.552931250455905
 20
3.21068564060281
 10
2.514586683809148
 20
3.213098486166419
 10
2.483297265825307
 20
3.215372060858381
 10
2.461122396009956
 20
3.217148735051713
 10
2.447306501545387
 20
3.218327866562543
 10
2.442555437871874
 20
3.218742686840133
 10
2.442500000000062
 20
3.218749999999995
  0
LINE
  5
B8
330
83
100
AcDbEntity
  8
AM_4
100
AcDbLine
 10
3.375
 20
-3.012083333333334
 30
0.0
 11
3.375
 21
3.012083333333334
 31
0.0
  0
LINE
  5
B9
330
83
100
AcDbEntity
  8
AM_4
100
AcDbLine
 10
3.168333333333333
 20
-3.21875
 30
0.0
 11
3.168333333333333
 21
3.21875
 31
0.0
  0
ARC
  5
BA
330
83
100
AcDbEntity
  8
AM_4
100
AcDbCircle
 10
3.168333333333333
 20
3.012083333333333
 30
0.0
 40
0.2066666666666674
100
AcDbArc
 50
0.0000008537736463
 51
90.0
  0
ARC
  5
BB
330
83
100
AcDbEntity
  8
AM_4
100
AcDbCircle
 10
3.168333333333333
 20
-3.012083333333333
 30
0.0
 40
0.2066666666666674
100
AcDbArc
 50
270.0
 51
0.0000008537736463
  0
ELLIPSE
  5
BC
330
83
100
AcDbEntity
  8
AM_4
100
AcDbEllipse
 10
2.755
 20
1.339509711500234
 30
0.0
 11
0.2632999999999996
 21
0.0
 31
0.0
210
0.0
220
0.0
230
1.0
 40
0.90630778703665
 41
0.0
 42
6.283185307179586
  0
ENDBLK
  5
86
330
83
100
AcDbEntity
  8
0
100
AcDbBlockEnd
  0
BLOCK
  5
BF
330
BD
100
AcDbEntity
  8
0
100
AcDbBlockBegin
  2
3_4_7_16C_2_0_in_023503_2
 70
     2
 10
0.0
 20
0.0
 30
0.0
  3
3_4_7_16C_2_0_in_023503_2
  1

  0
ATTDEF
  5
C1
330
BD
100
AcDbEntity
  8
AM_6
100
AcDbText
 10
2.865
 20
3.21875
 30
0.0
 40
0.5
  1
E-Type Collar -Inch
100
AcDbAttributeDefinition
  3

  2
NN
 70
     8
280
     0
  0
ATTDEF
  5
C2
330
BD
100
AcDbEntity
  8
AM_6
100
AcDbText
 10
2.865
 20
2.71875
 30
0.0
 40
0.5
  1
E-Type Bearings
100
AcDbAttributeDefinition
  3

  2
NT
 70
     8
280
     0
  0
ATTDEF
  5
C3
330
BD
100
AcDbEntity
  8
AM_6
100
AcDbText
 10
2.865
 20
2.21875
 30
0.0
 40
0.5
  1
4-7/16C
100
AcDbAttributeDefinition
  3

  2
NB
 70
     8
280
     0
  0
ATTDEF
  5
C4
330
BD
100
AcDbEntity
  8
AM_6
100
AcDbText
 10
2.865
 20
1.71875
 30
0.0
 40
0.5
  1
$BORE.C
100
AcDbAttributeDefinition
  3

  2
NBSYN
 70
     8
280
     0
  0
ATTDEF
  5
C5
330
BD
100
AcDbEntity
  8
AM_6
100
AcDbText
 10
2.865
 20
1.21875
 30
0.0
 40
0.5
  1
4-7/16C
100
AcDbAttributeDefinition
  3

  2
LINA
 70
     8
280
     0
  0
ATTDEF
  5
C6
330
BD
100
AcDbEntity
  8
AM_6
100
AcDbText
 10
2.865
 20
0.71875
 30
0.0
 40
0.5
  1
4-7/16
100
AcDbAttributeDefinition
  3

  2
BORE
 70
     8
280
     0
  0
ATTDEF
  5
C7
330
BD
100
AcDbEntity
  8
AM_6
100
AcDbText
 10
2.865
 20
0.21875
 30
0.0
 40
0.5
  1
6.43750
100
AcDbAttributeDefinition
  3

  2
L
 70
     8
280
     0
  0
ATTDEF
  5
C8
330
BD
100
AcDbEntity
  8
AM_6
100
AcDbText
 10
2.865
 20
-0.28125
 30
0.0
 40
0.5
  1
6.75
100
AcDbAttributeDefinition
  3

  2
A
 70
     8
280
     0
  0
ATTDEF
  5
C9
330
BD
100
AcDbEntity
  8
AM_6
100
AcDbText
 10
2.865
 20
-0.78125
 30
0.0
 40
0.5
  1
3.25
100
AcDbAttributeDefinition
  3

  2
B
 70
     8
280
     0
  0
ATTDEF
  5
CA
330
BD
100
AcDbEntity
  8
AM_6
100
AcDbText
 10
2.865
 20
-1.28125
 30
0.0
 40
0.5
  1
5.00
100
AcDbAttributeDefinition
  3

  2
C
 70
     8
280
     0
  0
ATTDEF
  5
CB
330
BD
100
AcDbEntity
  8
AM_6
100
AcDbText
 10
2.865
 20
-1.78125
 30
0.0
 40
0.5
  1
7.00
100
AcDbAttributeDefinition
  3

  2
D
 70
     8
280
     0
  0
ATTDEF
  5
CC
330
BD
100
AcDbEntity
  8
AM_6
100
AcDbText
 10
2.865
 20
-2.28125
 30
0.0
 40
0.5
  1
0.78
100
AcDbAttributeDefinition
  3

  2
E
 70
     8
280
     0
  0
ATTDEF
  5
CD
330
BD
100
AcDbEntity
  8
AM_6
100
AcDbText
 10
2.865
 20
-2.78125
 30
0.0
 40
0.5
  1
0.62
100
AcDbAttributeDefinition
  3

  2
F
 70
     8
280
     0
  0
ATTDEF
  5
CE
330
BD
100
AcDbEntity
  8
AM_6
100
AcDbText
 10
2.865
 20
-3.28125
 30
0.0
 40
0.5
  1
5/8-11
100
AcDbAttributeDefinition
  3

  2
CS
 70
     8
280
     0
  0
ATTDEF
  5
CF
330
BD
100
AcDbEntity
  8
AM_6
100
AcDbText
 10
2.865
 20
-3.78125
 30
0.0
 40
0.5
  1
0.6250
100
AcDbAttributeDefinition
  3

  2
NDM
 70
     8
280
     0
  0
ATTDEF
  5
D0
330
BD
100
AcDbEntity
  8
AM_6
100
AcDbText
 10
2.865
 20
-4.28125
 30
0.0
 40
0.5
  1
0.5270
100
AcDbAttributeDefinition
  3

  2
KDM
 70
     8
280
     0
  0
ATTDEF
  5
D1
330
BD
100
AcDbEntity
  8
AM_6
100
AcDbText
 10
2.865
 20
-4.78125
 30
0.0
 40
0.5
  1
baldor
100
AcDbAttributeDefinition
  3

  2
COMPANY
 70
     8
280
     0
  0
LINE
  5
D2
330
BD
100
AcDbEntity
  8
AM_9
100
AcDbLine
 10
-2.4917
 20
2.507533333333333
 30
0.0
 11
-2.4917
 21
3.16955
 31
0.0
  0
LINE
  5
D3
330
BD
100
AcDbEntity
  8
AM_9
100
AcDbLine
 10
-3.0183
 20
3.16955
 30
0.0
 11
-3.0183
 21
2.507533333333333
 31
0.0
  0
LINE
  5
D4
330
BD
100
AcDbEntity
  8
AM_9
100
AcDbLine
 10
-3.0183
 20
2.507533333333333
 30
0.0
 11
-2.4917
 21
2.507533333333333
 31
0.0
  0
LINE
  5
D5
330
BD
100
AcDbEntity
  8
AM_9
100
AcDbLine
 10
-3.0183
 20
2.507533333333333
 30
0.0
 11
-3.025423191731003
 21
2.500410141602331
 31
0.0
  0
LINE
  5
D6
330
BD
100
AcDbEntity
  8
AM_9
100
AcDbLine
 10
-2.484552109793289
 20
2.500385443126623
 30
0.0
 11
-2.4917
 21
2.507533333333333
 31
0.0
  0
LINE
  5
D7
330
BD
100
AcDbEntity
  8
AM_9
100
AcDbLine
 10
-3.0183
 20
3.16955
 30
0.0
 11
-2.4917
 21
3.16955
 31
0.0
  0
LINE
  5
D8
330
BD
100
AcDbEntity
  8
AM_9
100
AcDbLine
 10
-2.4917
 20
3.16955
 30
0.0
 11
-2.4425
 21
3.21875
 31
0.0
  0
LINE
  5
D9
330
BD
100
AcDbEntity
  8
AM_9
100
AcDbLine
 10
-3.0675
 20
3.21875
 30
0.0
 11
-3.0183
 21
3.16955
 31
0.0
  0
LWPOLYLINE
  5
DA
330
BD
100
AcDbEntity
  8
AM_9
100
AcDbPolyline
 90
       38
 70
     0
 43
0.0
 10
-2.553397228143254
 20
0.8796976386189223
 10
-2.529161317480328
 20
0.9108760832207322
 10
-2.509856192188114
 20
0.9447451521887853
 10
-2.493826728359923
 20
0.9873287498458891
 10
-2.485431741069183
 20
1.031385159095642
 10
-2.485041035469064
 20
1.077048790596561
 10
-2.49293669058013
 20
1.121724958276814
 10
-2.509214792725996
 20
1.164471069337817
 10
-2.53338463061327
 20
1.203766694468155
 10
-2.564385682101253
 20
1.23783355718745
 10
-2.601723027356619
 20
1.266403615936104
 10
-2.642389175647177
 20
1.28753580245996
 10
-2.686765161661826
 20
1.302033135557266
 10
-2.730540671172997
 20
1.308982115841959
 10
-2.775062262630289
 20
1.30934161873782
 10
-2.817198673292772
 20
1.303380028925858
 10
-2.857611573709103
 20
1.291541850219381
 10
-2.895546927761883
 20
1.273950588804173
 10
-2.929763357779447
 20
1.251290732745154
 10
-2.960833788954143
 20
1.22265777432602
 10
-2.986353949484821
 20
1.189880168172137
 10
-3.006716445901869
 20
1.151492892820482
 10
-3.019902687899305
 20
1.110349618095997
 10
-3.025640851840677
 20
1.065651039438149
 10
-3.023205932498212
 20
1.020289950101287
 10
-3.012312059995627
 20
0.9748299302928256
 10
-2.993272110291938
 20
0.9313398975396543
 10
-2.966670114938439
 20
0.8915866203324727
 10
-2.93309348390803
 20
0.8565160227943488
 10
-2.894870011748754
 20
0.8285280408215425
 10
-2.851990272575162
 20
0.8073050474413176
 10
-2.808567052970326
 20
0.7945379947133643
 10
-2.763458310322243
 20
0.7891938322363397
 10
-2.720439385781249
 20
0.7913421554150547
 10
-2.678405773149243
 20
0.800299261127195
 10
-2.638853881258933
 20
0.8156400317324527
 10
-2.602398153368128
 20
0.8367226134527725
 10
-2.553397228143254
 20
0.8796976386189224
  0
LINE
  5
DB
330
BD
100
AcDbEntity
  8
AM_9
100
AcDbLine
 10
-3.375
 20
-2.5
 30
0.0
 11
-2.135
 21
-2.5
 31
0.0
  0
LINE
  5
DC
330
BD
100
AcDbEntity
  8
AM_9
100
AcDbLine
 10
-2.135
 20
2.5
 30
0.0
 11
-2.485044453692819
 21
2.5
 31
0.0
  0
LINE
  5
DD
330
BD
100
AcDbEntity
  8
AM_9
100
AcDbLine
 10
-3.024899589791885
 20
2.5
 30
0.0
 11
-3.375
 21
2.5
 31
0.0
  0
LWPOLYLINE
  5
DE
330
BD
100
AcDbEntity
  8
AM_9
100
AcDbPolyline
 90
       21
 70
     0
 43
0.0
 10
-3.025833333333166
 20
2.499999999999979
 10
-3.025312141157323
 20
2.49993673671958
 10
-3.018046082574479
 20
2.499067096784265
 10
-3.002762789840523
 20
2.497313181517308
 10
-2.978913561748869
 20
2.494781034802652
 10
-2.949002720358839
 20
2.491960469448797
 10
-2.911551847804663
 20
2.488990361644827
 10
-2.871869168484763
 20
2.486529676758447
 10
-2.826927023532754
 20
2.484601550150497
 10
-2.78386465533129
 20
2.483613936689644
 10
-2.7385418707431
 20
2.483485924378374
 10
-2.696858426679573
 20
2.484193659962536
 10
-2.655647191448046
 20
2.48566943308255
 10
-2.617952192259088
 20
2.487692362908545
 10
-2.582975868315247
 20
2.490141433594235
 10
-2.551899882855931
 20
2.492776359139798
 10
-2.525600058956835
 20
2.495341360597533
 10
-2.504915004906295
 20
2.497573090964855
 10
-2.490931137430506
 20
2.499188116207189
 10
-2.484532626553726
 20
2.499955566737762
 10
-2.48416666666699
 20
2.499999999999961
  0
LINE
  5
DF
330
BD
100
AcDbEntity
  8
AM_9
100
AcDbLine
 10
-2.555503981017944
 20
2.492448730573159
 30
0.0
 11
-2.561137936045281
 21
2.491948143689627
 31
0.0
  0
LINE
  5
E0
330
BD
100
AcDbEntity
  8
AM_9
100
AcDbLine
 10
-2.48416666666699
 20
2.499999999999961
 30
0.0
 11
-2.498677046086618
 21
2.498282960555408
 31
0.0
  0
ELLIPSE
  5
E1
330
BD
100
AcDbEntity
  8
AM_9
100
AcDbEllipse
 10
-2.754999999999999
 20
1.059729378590196
 30
0.0
 11
0.2633000000000005
 21
0.0
 31
0.0
210
0.0
220
0.0
230
1.0
 40
0.9063077870366487
 41
2.515207549017519
 42
3.141592653589793
  0
LINE
  5
E2
330
BD
100
AcDbEntity
  8
AM_9
100
AcDbLine
 10
-2.4917
 20
1.059729378590195
 30
0.0
 11
-2.4917
 21
1.339509711500234
 31
0.0
  0
LINE
  5
E3
330
BD
100
AcDbEntity
  8
AM_9
100
AcDbLine
 10
-3.0183
 20
1.339509711500234
 30
0.0
 11
-3.0183
 21
1.059729378590195
 31
0.0
  0
ELLIPSE
  5
E4
330
BD
100
AcDbEntity
  8
AM_9
100
AcDbEllipse
 10
-2.755
 20
1.059729378590195
 30
0.0
 11
0.2632999999999996
 21
0.0
 31
0.0
210
0.0
220
0.0
230
1.0
 40
0.90630778703665
 41
3.141592653589793
 42
6.909570411751862
  0
LINE
  5
E5
330
BD
100
AcDbEntity
  8
AM_9
100
AcDbLine
 10
-2.3125
 20
-3.21875
 30
0.0
 11
-2.135
 21
-3.21875
 31
0.0
  0
LINE
  5
E6
330
BD
100
AcDbEntity
  8
AM_9
100
AcDbLine
 10
-2.135
 20
3.21875
 30
0.0
 11
-2.3125
 21
3.21875
 31
0.0
  0
LINE
  5
E7
330
BD
100
AcDbEntity
  8
AM_9
100
AcDbLine
 10
-2.135
 20
3.21875
 30
0.0
 11
-2.135
 21
-3.21875
 31
0.0
  0
LINE
  5
E8
330
BD
100
AcDbEntity
  8
AM_5
100
AcDbLine
 10
-3.0675
 20
3.21875
 30
0.0
 11
-3.0675
 21
2.5
 31
0.0
  0
LINE
  5
E9
330
BD
100
AcDbEntity
  8
AM_5
100
AcDbLine
 10
-2.4425
 20
3.21875
 30
0.0
 11
-2.4425
 21
2.5
 31
0.0
  0
ELLIPSE
  5
EA
330
BD
100
AcDbEntity
  8
AM_4
100
AcDbEllipse
 10
-2.755000000000002
 20
1.059729378590199
 30
0.0
 11
0.2632999999999965
 21
0.0
 31
0.0
210
0.0
220
0.0
230
1.0
 40
0.9063077870366464
 41
1.570796326794897
 42
2.515207549017524
  0
ELLIPSE
  5
EB
330
BD
100
AcDbEntity
  8
AM_4
100
AcDbEllipse
 10
-2.754999999999999
 20
1.059729378590198
 30
0.0
 11
0.2632999999999974
 21
0.0
 31
0.0
210
0.0
220
0.0
230
1.0
 40
0.9063077870366467
 41
0.6263851045722708
 42
1.570796326794897
  0
LWPOLYLINE
  5
EC
330
BD
100
AcDbEntity
  8
AM_4
100
AcDbPolyline
 90
       38
 70
     0
 43
0.0
 10
-2.516737989010689
 20
1.182822258049288
 10
-2.549401647574749
 20
1.153263931518121
 10
-2.586344947468284
 20
1.128367916126274
 10
-2.632830457146164
 20
1.106295780160425
 10
-2.682508933550436
 20
1.091507848963011
 10
-2.735826722532211
 20
1.08435696295023
 10
-2.78966955104754
 20
1.085542095572746
 10
-2.843367253834601
 20
1.095362570709953
 10
-2.894544969929136
 20
1.11349436358115
 10
-2.941348760415385
 20
1.139379242414732
 10
-2.982699930660611
 20
1.172283708305322
 10
-3.016216295743006
 20
1.210138887994517
 10
-3.042105152413026
 20
1.252603279200089
 10
-3.058667126998933
 20
1.296273417523991
 10
-3.066754731771814
 20
1.341611144017374
 10
-3.066110940617107
 20
1.385416256880908
 10
-3.05737502217339
 20
1.42820621022959
 10
-3.040941366600954
 20
1.468392194773782
 10
-3.017431357345546
 20
1.505423066014236
 10
-2.986676194903271
 20
1.539171444900737
 10
-2.950201699607331
 20
1.568001598612654
 10
-2.907078031636618
 20
1.592184809491149
 10
-2.860058193747882
 20
1.609962707329089
 10
-2.808322157706708
 20
1.621248149046856
 10
-2.755148362223601
 20
1.625075524284252
 10
-2.700784048664941
 20
1.621116344568557
 10
-2.647948017056843
 20
1.609364284827718
 10
-2.598159141481852
 20
1.589917717083706
 10
-2.552931250455905
 20
1.563264627324186
 10
-2.514586683809148
 20
1.530674066339552
 10
-2.483297265825306
 20
1.492487198821668
 10
-2.461122396009956
 20
1.451488152899757
 10
-2.447306501545387
 20
1.407367944736357
 10
-2.442555437871873
 20
1.363457933682233
 10
-2.446116501087451
 20
1.319148758062724
 10
-2.457652773126838
 20
1.276645370270493
 10
-2.476631553720964
 20
1.236193040796848
 10
-2.51673798895315
 20
1.18282225796344
  0
LINE
  5
ED
330
BD
100
AcDbEntity
  8
AM_4
100
AcDbLine
 10
-3.168333333333333
 20
-3.21875
 30
0.0
 11
-2.3125
 21
-3.21875
 31
0.0
  0
LINE
  5
EE
330
BD
100
AcDbEntity
  8
AM_4
100
AcDbLine
 10
-2.3125
 20
3.21875
 30
0.0
 11
-2.4425
 21
3.21875
 31
0.0
  0
LINE
  5
EF
330
BD
100
AcDbEntity
  8
AM_4
100
AcDbLine
 10
-3.0675
 20
3.21875
 30
0.0
 11
-3.168333333333333
 21
3.21875
 31
0.0
  0
LWPOLYLINE
  5
F0
330
BD
100
AcDbEntity
  8
AM_4
100
AcDbPolyline
 90
       20
 70
     0
 43
0.0
 10
-2.442500000000024
 20
3.218749999999998
 10
-2.446419790126591
 20
3.218405257802641
 10
-2.458014242124146
 20
3.217410630450905
 10
-2.477516391718403
 20
3.215822390948738
 10
-2.503701723863878
 20
3.213857497405411
 10
-2.536879608252919
 20
3.211644766244596
 10
-2.576001564102114
 20
3.209434692409612
 10
-2.620764293666815
 20
3.207437722422199
 10
-2.669745940020434
 20
3.205904975637701
 10
-2.722366395024813
 20
3.205019971655504
 10
-2.775906312735755
 20
3.204930369492029
 10
-2.83037132527321
 20
3.205678546674601
 10
-2.881575222019049
 20
3.207152981259018
 10
-2.930571851413196
 20
3.209261741011169
 10
-2.972409702809991
 20
3.211600761863941
 10
-3.009022793275615
 20
3.214052967117558
 10
-3.036026080539084
 20
3.216102976208603
 10
-3.055588057226362
 20
3.21771563402778
 10
-3.065478078096044
 20
3.218571638704808
 10
-3.067499999999903
 20
3.218749999999992
  0
LINE
  5
F1
330
BD
100
AcDbEntity
  8
AM_4
100
AcDbLine
 10
-3.375
 20
3.012083333333333
 30
0.0
 11
-3.375
 21
-3.012083333333333
 31
0.0
  0
ARC
  5
F2
330
BD
100
AcDbEntity
  8
AM_4
100
AcDbCircle
 10
-3.168333333333333
 20
-3.012083333333333
 30
0.0
 40
0.2066666666666674
100
AcDbArc
 50
179.9999991462263
 51
270.0
  0
ARC
  5
F3
330
BD
100
AcDbEntity
  8
AM_4
100
AcDbCircle
 10
-3.168333333333333
 20
3.012083333333333
 30
0.0
 40
0.2066666666666674
100
AcDbArc
 50
90.0
 51
179.9999991462263
  0
LINE
  5
F4
330
BD
100
AcDbEntity
  8
AM_4
100
AcDbLine
 10
-3.168333333333333
 20
3.21875
 30
0.0
 11
-3.168333333333333
 21
-3.21875
 31
0.0
  0
ELLIPSE
  5
F5
330
BD
100
AcDbEntity
  8
AM_4
100
AcDbEllipse
 10
-2.754999999999999
 20
1.339509711500233
 30
0.0
 11
0.263300000000001
 21
0.0
 31
0.0
210
0.0
220
0.0
230
1.0
 40
0.9063077870366496
 41
0.0
 42
6.283185307179586
  0
ENDBLK
  5
C0
330
BD
100
AcDbEntity
  8
0
100
AcDbBlockEnd
  0
BLOCK
  5
F8
330
F6
100
AcDbEntity
  8
0
100
AcDbBlockBegin
  2
4_405015E_Inch_0_in_023503_2
 70
     2
 10
0.0
 20
0.0
 30
0.0
  3
4_405015E_Inch_0_in_023503_2
  1

  0
ATTDEF
  5
FA
330
F6
100
AcDbEntity
  8
AM_6
100
AcDbText
 10
5.252590742770462
 20
5.5
 30
0.0
 40
0.5
  1
405015E -Inch
100
AcDbAttributeDefinition
  3

  2
NN
 70
     8
280
     0
  0
ATTDEF
  5
FB
330
F6
100
AcDbEntity
  8
AM_6
100
AcDbText
 10
5.252590742770462
 20
5.0
 30
0.0
 40
0.5
  1
Grease Fitting
100
AcDbAttributeDefinition
  3

  2
NT
 70
     8
280
     0
  0
ATTDEF
  5
FC
330
F6
100
AcDbEntity
  8
AM_6
100
AcDbText
 10
5.252590742770462
 20
4.5
 30
0.0
 40
0.5
  1
405015E-Inch
100
AcDbAttributeDefinition
  3

  2
NB
 70
     8
280
     0
  0
ATTDEF
  5
FD
330
F6
100
AcDbEntity
  8
AM_6
100
AcDbText
 10
5.252590742770462
 20
4.0
 30
0.0
 40
0.5
  1
$MN.-Inch
100
AcDbAttributeDefinition
  3

  2
NBSYN
 70
     8
280
     0
  0
ATTDEF
  5
FE
330
F6
100
AcDbEntity
  8
AM_6
100
AcDbText
 10
5.252590742770462
 20
3.5
 30
0.0
 40
0.5
  1
405015E
100
AcDbAttributeDefinition
  3

  2
LINA
 70
     8
280
     0
  0
ATTDEF
  5
FF
330
F6
100
AcDbEntity
  8
AM_6
100
AcDbText
 10
5.252590742770462
 20
3.0
 30
0.0
 40
0.5
  1
405015E
100
AcDbAttributeDefinition
  3

  2
MN
 70
     8
280
     0
  0
ATTDEF
  5
100
330
F6
100
AcDbEntity
  8
AM_6
100
AcDbText
 10
5.252590742770462
 20
2.5
 30
0.0
 40
0.5
  1
1/8 x 27PTF
100
AcDbAttributeDefinition
  3

  2
T
 70
     8
280
     0
  0
ATTDEF
  5
101
330
F6
100
AcDbEntity
  8
AM_6
100
AcDbText
 10
5.252590742770462
 20
2.0
 30
0.0
 40
0.5
  1
baldor
100
AcDbAttributeDefinition
  3

  2
COMPANY
 70
     8
280
     0
  0
LINE
  5
102
330
F6
100
AcDbEntity
  8
AM_9
100
AcDbLine
 10
-0.161902872472269
 20
4.859999999999999
 30
0.0
 11
0.161902872472269
 21
4.859999999999999
 31
0.0
  0
LINE
  5
103
330
F6
100
AcDbEntity
  8
AM_9
100
AcDbLine
 10
0.161902872472269
 20
4.859999999999999
 30
0.0
 11
0.1986176267812154
 21
4.896714754308946
 31
0.0
  0
LINE
  5
104
330
F6
100
AcDbEntity
  8
AM_9
100
AcDbLine
 10
-0.1986176267812154
 20
4.896714754308946
 30
0.0
 11
-0.161902872472269
 21
4.859999999999999
 31
0.0
  0
LINE
  5
105
330
F6
100
AcDbEntity
  8
AM_9
100
AcDbLine
 10
-0.1986176267812154
 20
4.896714754308946
 30
0.0
 11
0.1986176267812154
 21
4.896714754308946
 31
0.0
  0
LINE
  5
106
330
F6
100
AcDbEntity
  8
AM_9
100
AcDbLine
 10
0.1986176267812154
 20
4.896714754308946
 30
0.0
 11
0.2057518972230696
 21
5.125
 31
0.0
  0
LINE
  5
107
330
F6
100
AcDbEntity
  8
AM_9
100
AcDbLine
 10
-0.2057518972230696
 20
5.125
 30
0.0
 11
-0.1986176267812154
 21
4.896714754308946
 31
0.0
  0
LINE
  5
108
330
F6
100
AcDbEntity
  8
AM_5
100
AcDbLine
 10
0.1681491248523479
 20
5.059870087748463
 30
0.0
 11
0.161902872472269
 21
4.859999999999999
 31
0.0
  0
LINE
  5
109
330
F6
100
AcDbEntity
  8
AM_5
100
AcDbLine
 10
0.2057518972230696
 20
5.125
 30
0.0
 11
0.1681491248523479
 21
5.059870087748463
 31
0.0
  0
LINE
  5
10A
330
F6
100
AcDbEntity
  8
AM_5
100
AcDbLine
 10
-0.2037164857515568
 20
5.059870087748463
 30
0.0
 11
0.2037164857515568
 21
5.059870087748463
 31
0.0
  0
LINE
  5
10B
330
F6
100
AcDbEntity
  8
AM_5
100
AcDbLine
 10
-0.1681491248523479
 20
5.059870087748463
 30
0.0
 11
-0.161902872472269
 21
4.859999999999999
 31
0.0
  0
LINE
  5
10C
330
F6
100
AcDbEntity
  8
AM_5
100
AcDbLine
 10
-0.2057518972230696
 20
5.125
 30
0.0
 11
-0.1681491248523479
 21
5.059870087748463
 31
0.0
  0
LINE
  5
10D
330
F6
100
AcDbEntity
  8
AM_4
100
AcDbLine
 10
0.105
 20
5.329999999999999
 30
0.0
 11
0.105
 21
5.359999999999999
 31
0.0
  0
LINE
  5
10E
330
F6
100
AcDbEntity
  8
AM_4
100
AcDbLine
 10
-0.105
 20
5.359999999999999
 30
0.0
 11
-0.105
 21
5.329999999999999
 31
0.0
  0
LINE
  5
10F
330
F6
100
AcDbEntity
  8
AM_4
100
AcDbLine
 10
-0.21875
 20
5.224999999999999
 30
0.0
 11
0.21875
 21
5.224999999999999
 31
0.0
  0
LINE
  5
110
330
F6
100
AcDbEntity
  8
AM_4
100
AcDbLine
 10
0.2525907427704612
 20
5.215932400303386
 30
0.0
 11
0.21875
 21
5.224999999999999
 31
0.0
  0
LINE
  5
111
330
F6
100
AcDbEntity
  8
AM_4
100
AcDbLine
 10
-0.21875
 20
5.224999999999999
 30
0.0
 11
-0.2525907427704612
 21
5.215932400303386
 31
0.0
  0
LINE
  5
112
330
F6
100
AcDbEntity
  8
AM_4
100
AcDbLine
 10
0.21875
 20
5.125
 30
0.0
 11
0.2525907427704612
 21
5.134067599696614
 31
0.0
  0
LINE
  5
113
330
F6
100
AcDbEntity
  8
AM_4
100
AcDbLine
 10
-0.2525907427704612
 20
5.134067599696614
 30
0.0
 11
-0.21875
 21
5.125
 31
0.0
  0
LINE
  5
114
330
F6
100
AcDbEntity
  8
AM_4
100
AcDbLine
 10
-0.105
 20
5.329999999999999
 30
0.0
 11
0.105
 21
5.329999999999999
 31
0.0
  0
LINE
  5
115
330
F6
100
AcDbEntity
  8
AM_4
100
AcDbLine
 10
-0.105
 20
5.329999999999999
 30
0.0
 11
-0.1188200907348975
 21
5.297753121618572
 31
0.0
  0
LINE
  5
116
330
F6
100
AcDbEntity
  8
AM_4
100
AcDbLine
 10
0.1188200907348975
 20
5.297753121618572
 30
0.0
 11
0.105
 21
5.329999999999999
 31
0.0
  0
LINE
  5
117
330
F6
100
AcDbEntity
  8
AM_4
100
AcDbLine
 10
-0.105
 20
5.359999999999999
 30
0.0
 11
0.105
 21
5.359999999999999
 31
0.0
  0
LINE
  5
118
330
F6
100
AcDbEntity
  8
AM_4
100
AcDbLine
 10
0.105
 20
5.359999999999999
 30
0.0
 11
0.135
 21
5.42
 31
0.0
  0
LINE
  5
119
330
F6
100
AcDbEntity
  8
AM_4
100
AcDbLine
 10
-0.135
 20
5.42
 30
0.0
 11
-0.105
 21
5.359999999999999
 31
0.0
  0
LINE
  5
11A
330
F6
100
AcDbEntity
  8
AM_4
100
AcDbLine
 10
-0.1026779019331875
 20
5.5
 30
0.0
 11
0.1026779019331875
 21
5.5
 31
0.0
  0
LINE
  5
11B
330
F6
100
AcDbEntity
  8
AM_4
100
AcDbLine
 10
-0.135
 20
5.42
 30
0.0
 11
0.135
 21
5.42
 31
0.0
  0
LINE
  5
11C
330
F6
100
AcDbEntity
  8
AM_4
100
AcDbLine
 10
-0.1026779019331875
 20
5.5
 30
0.0
 11
-0.135
 21
5.42
 31
0.0
  0
LINE
  5
11D
330
F6
100
AcDbEntity
  8
AM_4
100
AcDbLine
 10
0.135
 20
5.42
 30
0.0
 11
0.1026779019331875
 21
5.5
 31
0.0
  0
LINE
  5
11E
330
F6
100
AcDbEntity
  8
AM_4
100
AcDbLine
 10
-0.1188200907348975
 20
5.297753121618572
 30
0.0
 11
0.1188200907348975
 21
5.297753121618572
 31
0.0
  0
LINE
  5
11F
330
F6
100
AcDbEntity
  8
AM_4
100
AcDbLine
 10
-0.1188200907348975
 20
5.297753121618572
 30
0.0
 11
-0.1725340532830154
 21
5.243318198540881
 31
0.0
  0
LINE
  5
120
330
F6
100
AcDbEntity
  8
AM_4
100
AcDbLine
 10
0.1725340532830154
 20
5.243318198540881
 30
0.0
 11
0.1188200907348975
 21
5.297753121618572
 31
0.0
  0
LINE
  5
121
330
F6
100
AcDbEntity
  8
AM_4
100
AcDbLine
 10
-0.1725340532830154
 20
5.243318198540881
 30
0.0
 11
0.1725340532830154
 21
5.243318198540881
 31
0.0
  0
LINE
  5
122
330
F6
100
AcDbEntity
  8
AM_4
100
AcDbLine
 10
-0.1725340532830154
 20
5.243318198540881
 30
0.0
 11
-0.21375
 21
5.224999999999999
 31
0.0
  0
LINE
  5
123
330
F6
100
AcDbEntity
  8
AM_4
100
AcDbLine
 10
0.21375
 20
5.224999999999999
 30
0.0
 11
0.1725340532830154
 21
5.243318198540881
 31
0.0
  0
LINE
  5
124
330
F6
100
AcDbEntity
  8
AM_4
100
AcDbLine
 10
0.2525907427704612
 20
5.215932400303386
 30
0.0
 11
0.2525907427704612
 21
5.134067599696614
 31
0.0
  0
LWPOLYLINE
  5
125
330
F6
100
AcDbEntity
  8
AM_4
100
AcDbPolyline
 90
        3
 70
     0
 43
0.0
 10
0.1894430570778459
 20
5.224999999999999
 10
0.2210168999241536
 20
5.222606619214965
 10
0.2525907427704612
 20
5.215932400303386
  0
LWPOLYLINE
  5
126
330
F6
100
AcDbEntity
  8
AM_4
100
AcDbPolyline
 90
        3
 70
     0
 43
0.0
 10
0.2525907427704612
 20
5.134067599696614
 10
0.2211588644235643
 20
5.12741452494962
 10
0.1894430570778459
 20
5.125
  0
LWPOLYLINE
  5
127
330
F6
100
AcDbEntity
  8
AM_4
100
AcDbPolyline
 90
        3
 70
     0
 43
0.0
 10
-0.1894430570778459
 20
5.224999999999999
 10
-0.1578692142315383
 20
5.222606619214965
 10
-0.1262953713852306
 20
5.215932400303386
  0
LWPOLYLINE
  5
128
330
F6
100
AcDbEntity
  8
AM_4
100
AcDbPolyline
 90
        3
 70
     0
 43
0.0
 10
-0.2525907427704612
 20
5.215932400303386
 10
-0.2211588644235643
 20
5.22258547505038
 10
-0.1894430570778459
 20
5.224999999999999
  0
LINE
  5
129
330
F6
100
AcDbEntity
  8
AM_4
100
AcDbLine
 10
-0.2525907427704612
 20
5.215932400303386
 30
0.0
 11
-0.2525907427704612
 21
5.134067599696614
 31
0.0
  0
LWPOLYLINE
  5
12A
330
F6
100
AcDbEntity
  8
AM_4
100
AcDbPolyline
 90
        3
 70
     0
 43
0.0
 10
-0.1894430570778459
 20
5.125
 10
-0.2210168999241536
 20
5.127393380785034
 10
-0.2525907427704612
 20
5.134067599696614
  0
LINE
  5
12B
330
F6
100
AcDbEntity
  8
AM_4
100
AcDbLine
 10
0.1262953713852306
 20
5.215932400303386
 30
0.0
 11
0.1262953713852306
 21
5.134067599696614
 31
0.0
  0
LWPOLYLINE
  5
12C
330
F6
100
AcDbEntity
  8
AM_4
100
AcDbPolyline
 90
        3
 70
     0
 43
0.0
 10
-0.1262953713852306
 20
5.215932400303386
 10
-0.0634316146914367
 20
5.22258547505038
 10
0.0
 20
5.224999999999999
  0
LINE
  5
12D
330
F6
100
AcDbEntity
  8
AM_4
100
AcDbLine
 10
-0.1262953713852306
 20
5.215932400303386
 30
0.0
 11
-0.1262953713852306
 21
5.134067599696614
 31
0.0
  0
LWPOLYLINE
  5
12E
330
F6
100
AcDbEntity
  8
AM_4
100
AcDbPolyline
 90
        3
 70
     0
 43
0.0
 10
0.1894430570778459
 20
5.125
 10
0.1578692142315383
 20
5.127393380785034
 10
0.1262953713852306
 20
5.134067599696614
  0
LWPOLYLINE
  5
12F
330
F6
100
AcDbEntity
  8
AM_4
100
AcDbPolyline
 90
        4
 70
     0
 43
0.0
 10
0.1262953713852306
 20
5.134067599696614
 10
0.0967996321117978
 20
5.130482412517843
 10
0.0485424412477544
 20
5.126425828243072
 10
0.0
 20
5.125
  0
LWPOLYLINE
  5
130
330
F6
100
AcDbEntity
  8
AM_4
100
AcDbPolyline
 90
        4
 70
     0
 43
0.0
 10
0.0
 20
5.224999999999999
 10
0.0483998160558989
 20
5.223582439282863
 10
0.0967996321117978
 20
5.219517587482156
 10
0.1262953713852306
 20
5.215932400303386
  0
LWPOLYLINE
  5
131
330
F6
100
AcDbEntity
  8
AM_4
100
AcDbPolyline
 90
        3
 70
     0
 43
0.0
 10
0.1262953713852306
 20
5.215932400303386
 10
0.1577272497321276
 20
5.22258547505038
 10
0.1894430570778459
 20
5.224999999999999
  0
LWPOLYLINE
  5
132
330
F6
100
AcDbEntity
  8
AM_4
100
AcDbPolyline
 90
        3
 70
     0
 43
0.0
 10
0.0
 20
5.125
 10
-0.0631476856926153
 20
5.127393380785034
 10
-0.1262953713852306
 20
5.134067599696614
  0
LWPOLYLINE
  5
133
330
F6
100
AcDbEntity
  8
AM_4
100
AcDbPolyline
 90
        3
 70
     0
 43
0.0
 10
-0.1262953713852306
 20
5.134067599696614
 10
-0.1577272497321276
 20
5.12741452494962
 10
-0.1894430570778459
 20
5.125
  0
ENDBLK
  5
F9
330
F6
100
AcDbEntity
  8
0
100
AcDbBlockEnd
  0
BLOCK
  5
136
330
134
100
AcDbEntity
  8
0
100
AcDbBlockBegin
  2
5_023503_Insert_0_in_023503_2
 70
     2
 10
0.0
 20
0.0
 30
0.0
  3
5_023503_Insert_0_in_023503_2
  1

  0
ATTDEF
  5
138
330
134
100
AcDbEntity
  8
AM_6
100
AcDbText
 10
8.7125
 20
5.532
 30
0.0
 40
0.5
  1
D Unit -Insert -Inch
100
AcDbAttributeDefinition
  3

  2
NN
 70
     8
280
     0
  0
ATTDEF
  5
139
330
134
100
AcDbEntity
  8
AM_6
100
AcDbText
 10
8.7125
 20
5.032
 30
0.0
 40
0.5
  1
Double-Interlock Bearings
100
AcDbAttributeDefinition
  3

  2
NT
 70
     8
280
     0
  0
ATTDEF
  5
13A
330
134
100
AcDbEntity
  8
AM_6
100
AcDbText
 10
8.7125
 20
4.532
 30
0.0
 40
0.5
  1
023503-Insert
100
AcDbAttributeDefinition
  3

  2
NB
 70
     8
280
     0
  0
ATTDEF
  5
13B
330
134
100
AcDbEntity
  8
AM_6
100
AcDbText
 10
8.7125
 20
4.032
 30
0.0
 40
0.5
  1
$PN.-Insert
100
AcDbAttributeDefinition
  3

  2
NBSYN
 70
     8
280
     0
  0
ATTDEF
  5
13C
330
134
100
AcDbEntity
  8
AM_6
100
AcDbText
 10
8.7125
 20
3.532
 30
0.0
 40
0.5
  1
023503-Insert
100
AcDbAttributeDefinition
  3

  2
LINA
 70
     8
280
     0
  0
ATTDEF
  5
13D
330
134
100
AcDbEntity
  8
AM_6
100
AcDbText
 10
8.7125
 20
3.032
 30
0.0
 40
0.5
  1
4-7/16
100
AcDbAttributeDefinition
  3

  2
SS
 70
     8
280
     0
  0
ATTDEF
  5
13E
330
134
100
AcDbEntity
  8
AM_6
100
AcDbText
 10
8.7125
 20
2.532
 30
0.0
 40
0.5
  1
023503
100
AcDbAttributeDefinition
  3

  2
PN
 70
     8
280
     0
  0
ATTDEF
  5
13F
330
134
100
AcDbEntity
  8
AM_6
100
AcDbText
 10
8.7125
 20
2.032
 30
0.0
 40
0.5
  1
DU-DI-407R
100
AcDbAttributeDefinition
  3

  2
DESCRIPTION
 70
     8
280
     0
  0
ATTDEF
  5
140
330
134
100
AcDbEntity
  8
AM_6
100
AcDbText
 10
8.7125
 20
1.532
 30
0.0
 40
0.5
  1
6-3/4
100
AcDbAttributeDefinition
  3

  2
A
 70
     8
280
     0
  0
ATTDEF
  5
141
330
134
100
AcDbEntity
  8
AM_6
100
AcDbText
 10
8.7125
 20
1.032
 30
0.0
 40
0.5
  1
4-5/8
100
AcDbAttributeDefinition
  3

  2
B
 70
     8
280
     0
  0
ATTDEF
  5
142
330
134
100
AcDbEntity
  8
AM_6
100
AcDbText
 10
8.7125
 20
0.532
 30
0.0
 40
0.5
  1
15/16
100
AcDbAttributeDefinition
  3

  2
H
 70
     8
280
     0
  0
ATTDEF
  5
143
330
134
100
AcDbEntity
  8
AM_6
100
AcDbText
 10
8.7125
 20
0.032
 30
0.0
 40
0.5
  1
6-29/64
100
AcDbAttributeDefinition
  3

  2
L
 70
     8
280
     0
  0
ATTDEF
  5
144
330
134
100
AcDbEntity
  8
AM_6
100
AcDbText
 10
8.7125
 20
-0.468
 30
0.0
 40
0.5
  1
5-1/2
100
AcDbAttributeDefinition
  3

  2
N
 70
     8
280
     0
  0
ATTDEF
  5
145
330
134
100
AcDbEntity
  8
AM_6
100
AcDbText
 10
8.7125
 20
-0.968
 30
0.0
 40
0.5
  1
8-7/8
100
AcDbAttributeDefinition
  3

  2
P
 70
     8
280
     0
  0
ATTDEF
  5
146
330
134
100
AcDbEntity
  8
AM_6
100
AcDbText
 10
8.7125
 20
-1.468
 30
0.0
 40
0.5
  1
9.125
100
AcDbAttributeDefinition
  3

  2
S
 70
     8
280
     0
  0
ATTDEF
  5
147
330
134
100
AcDbEntity
  8
AM_6
100
AcDbText
 10
8.7125
 20
-1.968
 30
0.0
 40
0.5
  1
baldor
100
AcDbAttributeDefinition
  3

  2
COMPANY
 70
     8
280
     0
  0
LINE
  5
148
330
134
100
AcDbEntity
  8
AM_9
100
AcDbLine
 10
2.365
 20
2.5
 30
0.0
 11
2.365
 21
2.21875
 31
0.0
  0
LINE
  5
149
330
134
100
AcDbEntity
  8
AM_9
100
AcDbLine
 10
3.145
 20
2.21875
 30
0.0
 11
3.145
 21
2.5
 31
0.0
  0
LINE
  5
14A
330
134
100
AcDbEntity
  8
AM_9
100
AcDbLine
 10
-3.145
 20
2.5
 30
0.0
 11
-3.145
 21
2.21875
 31
0.0
  0
LINE
  5
14B
330
134
100
AcDbEntity
  8
AM_9
100
AcDbLine
 10
-2.365
 20
2.21875
 30
0.0
 11
-2.365
 21
2.5
 31
0.0
  0
LINE
  5
14C
330
134
100
AcDbEntity
  8
AM_9
100
AcDbLine
 10
-3.134641290617506
 20
2.216952654442969
 30
0.0
 11
-3.144999999998091
 21
2.218749999999664
 31
0.0
  0
LINE
  5
14D
330
134
100
AcDbEntity
  8
AM_9
100
AcDbLine
 10
-3.375
 20
-2.21875
 30
0.0
 11
3.375
 21
-2.21875
 31
0.0
  0
LINE
  5
14E
330
134
100
AcDbEntity
  8
AM_9
100
AcDbLine
 10
3.375
 20
2.21875
 30
0.0
 11
3.145
 21
2.21875
 31
0.0
  0
LINE
  5
14F
330
134
100
AcDbEntity
  8
AM_9
100
AcDbLine
 10
2.366047184443564
 20
2.21875
 30
0.0
 11
-2.365000000000002
 21
2.21875
 31
0.0
  0
LINE
  5
150
330
134
100
AcDbEntity
  8
AM_9
100
AcDbLine
 10
-3.143952815556437
 20
2.21875
 30
0.0
 11
-3.375
 21
2.21875
 31
0.0
  0
LWPOLYLINE
  5
151
330
134
100
AcDbEntity
  8
AM_9
100
AcDbPolyline
 90
       21
 70
     0
 43
0.0
 10
2.365000000001908
 20
2.218749999999664
 10
2.365388436875844
 20
2.218681755597239
 10
2.373930066850396
 20
2.217197748612118
 10
2.392549598531951
 20
2.214073588665099
 10
2.421762243971211
 20
2.209479342411488
 10
2.459555734149211
 20
2.204095931833302
 10
2.50675700930861
 20
2.198266622802477
 10
2.560145362272418
 20
2.192879361101277
 10
2.620801351644771
 20
2.18832375112102
 10
2.683307042560038
 20
2.185381303719442
 10
2.749790833754523
 20
2.184211230149907
 10
2.813638559386251
 20
2.184992000705471
 10
2.877637039776622
 20
2.187645173702804
 10
2.936365483403995
 20
2.191721926036778
 10
2.991618531186096
 20
2.196984272087687
 10
3.039502759106562
 20
2.202655983679532
 10
3.080625600744133
 20
2.208344084231435
 10
3.111772699589364
 20
2.213151219793235
 10
3.133484076412012
 20
2.216754780889725
 10
3.142064718855976
 20
2.218235934043774
 10
3.145
 20
2.21875
  0
LWPOLYLINE
  5
152
330
134
100
AcDbEntity
  8
AM_9
100
AcDbPolyline
 90
       21
 70
     0
 43
0.0
 10
-3.144999999998091
 20
2.218749999999664
 10
-3.144611563124156
 20
2.218681755597239
 10
-3.136069933149604
 20
2.217197748612118
 10
-3.117450401468049
 20
2.214073588665099
 10
-3.088237756028788
 20
2.209479342411488
 10
-3.050444265850789
 20
2.204095931833302
 10
-3.00324299069139
 20
2.198266622802477
 10
-2.949854637727582
 20
2.192879361101277
 10
-2.889198648355229
 20
2.188323751121019
 10
-2.826692957439962
 20
2.185381303719442
 10
-2.760209166245476
 20
2.184211230149907
 10
-2.696361440613748
 20
2.184992000705471
 10
-2.632362960223377
 20
2.187645173702804
 10
-2.573634516596005
 20
2.191721926036778
 10
-2.518381468813904
 20
2.196984272087687
 10
-2.470497240893438
 20
2.202655983679532
 10
-2.429374399255867
 20
2.208344084231435
 10
-2.398227300410636
 20
2.213151219793235
 10
-2.376515923587988
 20
2.216754780889725
 10
-2.367935281144024
 20
2.218235934043774
 10
-2.365
 20
2.21875
  0
LWPOLYLINE
  5
153
330
134
100
AcDbEntity
  8
AM_9
100
AcDbPolyline
 90
       11
 70
     0
 43
0.0
 10
2.755
 20
0.5696248912265393
 10
2.818978784379362
 20
0.5748093677290398
 10
2.882957568758725
 20
0.5907735786123416
 10
2.941541220361487
 20
0.6160399921537507
 10
2.996471959714527
 20
0.6511487649321616
 10
3.043694688958421
 20
0.6934679260590656
 10
3.084011807838305
 20
0.7437115643981671
 10
3.114242716348418
 20
0.7979051741856222
 10
3.134938602312188
 20
0.8571774283120137
 10
3.144250743296876
 20
0.9157293908623291
 10
3.144999998791815
 20
0.9376564460622928
  0
LINE
  5
154
330
134
100
AcDbEntity
  8
AM_9
100
AcDbLine
 10
2.365
 20
1.056460310998439
 30
0.0
 11
2.365
 21
0.9376551109290007
 31
0.0
  0
LINE
  5
155
330
134
100
AcDbEntity
  8
AM_9
100
AcDbLine
 10
3.145
 20
0.9375870180619443
 30
0.0
 11
3.145
 21
1.056528564642282
 31
0.0
  0
LWPOLYLINE
  5
156
330
134
100
AcDbEntity
  8
AM_9
100
AcDbPolyline
 90
        3
 70
     0
 43
0.0
 10
2.371128871698914
 20
0.9996490774701693
 10
2.365035292849706
 20
0.942436712617277
 10
2.365000000946961
 20
0.9377088995624351
  0
LWPOLYLINE
  5
157
330
134
100
AcDbEntity
  8
AM_9
100
AcDbPolyline
 90
        7
 70
     0
 43
0.0
 10
2.530425243770627
 20
1.216928734681314
 10
2.50044359504786
 20
1.197117192871346
 10
2.45422947931446
 20
1.156802982575311
 10
2.417178458517698
 20
1.110677974703697
 10
2.388820950329588
 20
1.057604709320501
 10
2.371650667996254
 20
1.002191736723516
 10
2.371128871698914
 20
0.9996490774701693
  0
LWPOLYLINE
  5
158
330
134
100
AcDbEntity
  8
AM_9
100
AcDbPolyline
 90
        3
 70
     0
 43
0.0
 10
2.593253808939461
 20
1.247240879959226
 10
2.552416700430995
 20
1.229079919867426
 10
2.530425243770627
 20
1.216928734681314
  0
LWPOLYLINE
  5
159
330
134
100
AcDbEntity
  8
AM_9
100
AcDbPolyline
 90
        3
 70
     0
 43
0.0
 10
2.980375172485621
 20
1.216451095440592
 10
2.927819289453875
 20
1.242832315363773
 10
2.916649140614765
 20
1.247277926655232
  0
LWPOLYLINE
  5
15A
330
134
100
AcDbEntity
  8
AM_9
100
AcDbPolyline
 90
        7
 70
     0
 43
0.0
 10
3.139746699112254
 20
0.9951157237693927
 10
3.130612194742177
 20
1.03175580859975
 10
3.107710836839201
 20
1.085869169727892
 10
3.07573257510038
 20
1.134075194378112
 10
3.033884850784742
 20
1.177659205194924
 10
2.984889380343772
 20
1.213707862713985
 10
2.980375172485621
 20
1.216451095440592
  0
LWPOLYLINE
  5
15B
330
134
100
AcDbEntity
  8
AM_9
100
AcDbPolyline
 90
        3
 70
     0
 43
0.0
 10
3.144999998791815
 20
0.9376564460622928
 10
3.142701460187932
 20
0.9758324796990246
 10
3.139746699112254
 20
0.9951157237693927
  0
LWPOLYLINE
  5
15C
330
134
100
AcDbEntity
  8
AM_9
100
AcDbPolyline
 90
       11
 70
     0
 43
0.0
 10
2.365000000946961
 20
0.9377088995624351
 10
2.369430528179051
 20
0.8842301368914464
 10
2.384783407621372
 20
0.8251045448647395
 10
2.409747468912758
 20
0.770154555608932
 10
2.445010416289977
 20
0.7178511387713191
 10
2.488273303682576
 20
0.6720711068581793
 10
2.540386965091127
 20
0.6324003025284807
 10
2.597500948148805
 20
0.602126513786588
 10
2.660951023882611
 20
0.5809116885051415
 10
2.707253413837569
 20
0.5725043181174582
 10
2.755
 20
0.5696248912265393
  0
LWPOLYLINE
  5
15D
330
134
100
AcDbEntity
  8
AM_9
100
AcDbPolyline
 90
        7
 70
     0
 43
0.0
 10
3.014634907560864
 20
1.313112091911002
 10
3.057140952837801
 20
1.274887321555765
 10
3.094311366846313
 20
1.227599313243012
 10
3.121880796168568
 20
1.174953630794842
 10
3.13884969753079
 20
1.118455936776534
 10
3.144986445149262
 20
1.059491668928759
 10
3.144999999502792
 20
1.056563502428645
  0
LWPOLYLINE
  5
15E
330
134
100
AcDbEntity
  8
AM_9
100
AcDbPolyline
 90
       11
 70
     0
 43
0.0
 10
2.495094561320278
 20
1.312905101983101
 10
2.527008316437076
 20
1.334779859685508
 10
2.583405038212915
 20
1.363535585486801
 10
2.644836956083066
 20
1.383680450545657
 10
2.709448771419976
 20
1.394828808621985
 10
2.774708854447165
 20
1.396620922344611
 10
2.83940827812604
 20
1.389302180850104
 10
2.901346153931686
 20
1.373039653997011
 10
2.959210327151314
 20
1.348304608047806
 10
3.011754636571493
 20
1.315248528208305
 10
3.014634907560864
 20
1.313112091911002
  0
LWPOLYLINE
  5
15F
330
134
100
AcDbEntity
  8
AM_9
100
AcDbPolyline
 90
        7
 70
     0
 43
0.0
 10
2.36500000135454
 20
1.056516195197752
 10
2.367365232864152
 20
1.095258922854475
 10
2.379893699057691
 20
1.152200277626733
 10
2.402728232997124
 20
1.205842707722542
 10
2.435497311679949
 20
1.254944262780037
 10
2.47707905070519
 20
1.298169913114366
 10
2.495094561320278
 20
1.312905101983101
  0
LWPOLYLINE
  5
160
330
134
100
AcDbEntity
  8
AM_9
100
AcDbPolyline
 90
       11
 70
     0
 43
0.0
 10
3.144999999502792
 20
1.056563502428645
 10
3.140055758216104
 20
1.000340362217186
 10
3.124484847233463
 20
0.9420992131841793
 10
3.09861645570849
 20
0.8865527516562884
 10
3.063318809010775
 20
0.8352604147007594
 10
3.01896373273641
 20
0.7894076433717081
 10
2.967201460704579
 20
0.7508978395820485
 10
2.90901471634766
 20
0.7209509785693238
 10
2.846394023199816
 20
0.7007074193566397
 10
2.801024649156564
 20
0.6928118967409485
 10
2.755
 20
0.6901503872304683
  0
LWPOLYLINE
  5
161
330
134
100
AcDbEntity
  8
AM_9
100
AcDbPolyline
 90
       11
 70
     0
 43
0.0
 10
-2.755
 20
0.5696248912265393
 10
-2.691021215620637
 20
0.5748093677290398
 10
-2.627042431241275
 20
0.5907735786123416
 10
-2.568458779638513
 20
0.6160399921537507
 10
-2.513528040285474
 20
0.6511487649321616
 10
-2.466305311041579
 20
0.6934679260590656
 10
-2.425988192161695
 20
0.7437115643981671
 10
-2.395757283651582
 20
0.7979051741856221
 10
-2.375061397687813
 20
0.8571774283120138
 10
-2.365749256703123
 20
0.9157293908623291
 10
-2.365000001208185
 20
0.9376564460622926
  0
LINE
  5
162
330
134
100
AcDbEntity
  8
AM_9
100
AcDbLine
 10
-3.145
 20
1.056460310998439
 30
0.0
 11
-3.145
 21
0.9376551109290006
 31
0.0
  0
LINE
  5
163
330
134
100
AcDbEntity
  8
AM_9
100
AcDbLine
 10
-2.365
 20
0.9375870180619443
 30
0.0
 11
-2.365
 21
1.056528564642282
 31
0.0
  0
LWPOLYLINE
  5
164
330
134
100
AcDbEntity
  8
AM_9
100
AcDbPolyline
 90
        3
 70
     0
 43
0.0
 10
-3.138871128301086
 20
0.9996490774701684
 10
-3.144964707150294
 20
0.942436712617277
 10
-3.144999999053039
 20
0.9377088995624346
  0
LWPOLYLINE
  5
165
330
134
100
AcDbEntity
  8
AM_9
100
AcDbPolyline
 90
        7
 70
     0
 43
0.0
 10
-2.978473944088189
 20
1.217581383977771
 10
-3.00955640495214
 20
1.197117192871346
 10
-3.05577052068554
 20
1.15680298257531
 10
-3.092821541482302
 20
1.110677974703697
 10
-3.121179049670411
 20
1.057604709320501
 10
-3.138349332003747
 20
1.002191736723516
 10
-3.138871128301086
 20
0.9996490774701684
  0
LWPOLYLINE
  5
166
330
134
100
AcDbEntity
  8
AM_9
100
AcDbPolyline
 90
        3
 70
     0
 43
0.0
 10
-2.914794093484184
 20
1.247980824172052
 10
-2.957583299569005
 20
1.229079919867426
 10
-2.978473944088189
 20
1.217581383977771
  0
LWPOLYLINE
  5
167
330
134
100
AcDbEntity
  8
AM_9
100
AcDbPolyline
 90
        3
 70
     0
 43
0.0
 10
-2.531670534195921
 20
1.217666678794561
 10
-2.582180710546125
 20
1.242832315363773
 10
-2.596352843154109
 20
1.248410466142922
  0
LWPOLYLINE
  5
168
330
134
100
AcDbEntity
  8
AM_9
100
AcDbPolyline
 90
        7
 70
     0
 43
0.0
 10
-2.370253300887746
 20
0.9951157237693937
 10
-2.379387805257823
 20
1.03175580859975
 10
-2.402289163160799
 20
1.085869169727892
 10
-2.43426742489962
 20
1.134075194378112
 10
-2.476115149215258
 20
1.177659205194924
 10
-2.525110619656227
 20
1.213707862713985
 10
-2.531670534195921
 20
1.217666678794561
  0
LWPOLYLINE
  5
169
330
134
100
AcDbEntity
  8
AM_9
100
AcDbPolyline
 90
        3
 70
     0
 43
0.0
 10
-2.365000001208185
 20
0.9376564460622926
 10
-2.367298539812068
 20
0.9758324796990246
 10
-2.370253300887746
 20
0.9951157237693937
  0
LWPOLYLINE
  5
16A
330
134
100
AcDbEntity
  8
AM_9
100
AcDbPolyline
 90
       11
 70
     0
 43
0.0
 10
-3.144999999053039
 20
0.9377088995624346
 10
-3.140569471820949
 20
0.8842301368914464
 10
-3.125216592378628
 20
0.8251045448647393
 10
-3.100252531087242
 20
0.7701545556089319
 10
-3.064989583710024
 20
0.7178511387713191
 10
-3.021726696317424
 20
0.6720711068581793
 10
-2.969613034908873
 20
0.6324003025284807
 10
-2.912499051851194
 20
0.602126513786588
 10
-2.849048976117389
 20
0.5809116885051415
 10
-2.802746586162431
 20
0.5725043181174582
 10
-2.755
 20
0.5696248912265393
  0
LWPOLYLINE
  5
16B
330
134
100
AcDbEntity
  8
AM_9
100
AcDbPolyline
 90
        7
 70
     0
 43
0.0
 10
-2.493467435790731
 20
1.311651715567063
 10
-2.452859047162199
 20
1.274887321555765
 10
-2.415688633153687
 20
1.227599313243012
 10
-2.388119203831432
 20
1.174953630794841
 10
-2.371150302469211
 20
1.118455936776534
 10
-2.365013554850737
 20
1.059491668928759
 10
-2.365000000497208
 20
1.056563502428645
  0
LWPOLYLINE
  5
16C
330
134
100
AcDbEntity
  8
AM_9
100
AcDbPolyline
 90
       11
 70
     0
 43
0.0
 10
-3.01627714785025
 20
1.311849426530381
 10
-2.982991683562923
 20
1.334779859685508
 10
-2.926594961787085
 20
1.363535585486801
 10
-2.865163043916934
 20
1.383680450545657
 10
-2.800551228580025
 20
1.394828808621985
 10
-2.735291145552835
 20
1.396620922344611
 10
-2.67059172187396
 20
1.389302180850104
 10
-2.608653846068314
 20
1.373039653997011
 10
-2.550789672848685
 20
1.348304608047805
 10
-2.498245363428507
 20
1.315248528208305
 10
-2.493467435790731
 20
1.311651715567063
  0
LWPOLYLINE
  5
16D
330
134
100
AcDbEntity
  8
AM_9
100
AcDbPolyline
 90
        7
 70
     0
 43
0.0
 10
-3.14499999864546
 20
1.056516195197752
 10
-3.142634767135848
 20
1.095258922854475
 10
-3.130106300942309
 20
1.152200277626733
 10
-3.107271767002876
 20
1.205842707722542
 10
-3.074502688320051
 20
1.254944262780037
 10
-3.03292094929481
 20
1.298169913114366
 10
-3.01627714785025
 20
1.311849426530381
  0
LWPOLYLINE
  5
16E
330
134
100
AcDbEntity
  8
AM_9
100
AcDbPolyline
 90
       11
 70
     0
 43
0.0
 10
-2.365000000497208
 20
1.056563502428645
 10
-2.369944241783896
 20
1.000340362217186
 10
-2.385515152766537
 20
0.9420992131841793
 10
-2.411383544291509
 20
0.8865527516562884
 10
-2.446681190989225
 20
0.8352604147007595
 10
-2.491036267263591
 20
0.789407643371708
 10
-2.542798539295422
 20
0.750897839582048
 10
-2.600985283652341
 20
0.7209509785693237
 10
-2.663605976800184
 20
0.7007074193566397
 10
-2.708975350843436
 20
0.6928118967409483
 10
-2.755
 20
0.6901503872304683
  0
LWPOLYLINE
  5
16F
330
134
100
AcDbEntity
  8
AM_9
100
AcDbPolyline
 90
       20
 70
     0
 43
0.0
 10
-2.365
 20
2.5
 10
-2.370304654527073
 20
2.499177966617931
 10
-2.386676724446935
 20
2.496710242562028
 10
-2.41271008454583
 20
2.493002684760211
 10
-2.449127107491588
 20
2.488264098999835
 10
-2.49326988155538
 20
2.483224245794374
 10
-2.546174660666339
 20
2.478206614136081
 10
-2.60377430252972
 20
2.474018838160974
 10
-2.667511016904879
 20
2.470941990853492
 10
-2.731426908969409
 20
2.46950515096056
 10
-2.797907737863714
 20
2.469765388446559
 10
-2.86073506531267
 20
2.471655296362475
 10
-2.92233228199744
 20
2.475055573638392
 10
-2.977837735428975
 20
2.479426678958487
 10
-3.028585276814202
 20
2.48450174153481
 10
-3.070837035102638
 20
2.489508592622734
 10
-3.105216732217274
 20
2.494103397921776
 10
-3.128835473639687
 20
2.497529371469214
 10
-3.142328100083512
 20
2.499584576907592
 10
-3.144999999998916
 20
2.499999999999831
  0
LWPOLYLINE
  5
170
330
134
100
AcDbEntity
  8
AM_9
100
AcDbPolyline
 90
       11
 70
     0
 43
0.0
 10
-2.755
 20
0.6901503872304683
 10
-2.820021506400927
 20
0.6955005503762476
 10
-2.883199353951454
 20
0.7111980396825672
 10
-2.942686620187096
 20
0.7368246315835306
 10
-2.996932398030444
 20
0.7713765380466076
 10
-3.0447135940163
 20
0.8141953688395416
 10
-3.084374438616161
 20
0.8635832127418469
 10
-3.11481710996393
 20
0.9183807028504886
 10
-3.135056915059462
 20
0.9765938044794267
 10
-3.144302052014112
 20
1.035985605563901
 10
-3.14499999864546
 20
1.056516195197752
  0
LINE
  5
171
330
134
100
AcDbEntity
  8
AM_9
100
AcDbLine
 10
-3.375
 20
-2.5
 30
0.0
 11
-2.073
 21
-2.5
 31
0.0
  0
LINE
  5
172
330
134
100
AcDbEntity
  8
AM_9
100
AcDbLine
 10
-2.073
 20
2.5
 30
0.0
 11
-2.364999999999999
 21
2.5
 31
0.0
  0
LINE
  5
173
330
134
100
AcDbEntity
  8
AM_9
100
AcDbLine
 10
-3.143901846170462
 20
2.5
 30
0.0
 11
-3.375
 21
2.5
 31
0.0
  0
LWPOLYLINE
  5
174
330
134
100
AcDbEntity
  8
AM_9
100
AcDbPolyline
 90
       20
 70
     0
 43
0.0
 10
3.145
 20
2.5
 10
3.139695345472927
 20
2.499177966617931
 10
3.123323275553064
 20
2.496710242562028
 10
3.09728991545417
 20
2.493002684760211
 10
3.060872892508412
 20
2.488264098999835
 10
3.016730118444619
 20
2.483224245794374
 10
2.963825339333662
 20
2.478206614136081
 10
2.906225697470281
 20
2.474018838160974
 10
2.842488983095122
 20
2.470941990853492
 10
2.77857309103059
 20
2.46950515096056
 10
2.712092262136286
 20
2.469765388446559
 10
2.649264934687331
 20
2.471655296362475
 10
2.58766771800256
 20
2.475055573638392
 10
2.532162264571026
 20
2.479426678958487
 10
2.481414723185798
 20
2.48450174153481
 10
2.439162964897362
 20
2.489508592622733
 10
2.404783267782726
 20
2.494103397921775
 10
2.381164526360314
 20
2.497529371469214
 10
2.367671899916488
 20
2.499584576907592
 10
2.365000000001084
 20
2.499999999999831
  0
LWPOLYLINE
  5
175
330
134
100
AcDbEntity
  8
AM_9
100
AcDbPolyline
 90
       11
 70
     0
 43
0.0
 10
2.755
 20
0.6901503872304683
 10
2.689978493599073
 20
0.6955005503762476
 10
2.626800646048546
 20
0.7111980396825672
 10
2.567313379812904
 20
0.7368246315835306
 10
2.513067601969556
 20
0.7713765380466076
 10
2.4652864059837
 20
0.8141953688395414
 10
2.42562556138384
 20
0.8635832127418466
 10
2.39518289003607
 20
0.9183807028504883
 10
2.374943084940539
 20
0.9765938044794265
 10
2.365697947985888
 20
1.035985605563901
 10
2.36500000135454
 20
1.056516195197752
  0
LINE
  5
176
330
134
100
AcDbEntity
  8
AM_9
100
AcDbLine
 10
2.073
 20
-2.5
 30
0.0
 11
3.375
 21
-2.5
 31
0.0
  0
LINE
  5
177
330
134
100
AcDbEntity
  8
AM_9
100
AcDbLine
 10
3.375
 20
2.5
 30
0.0
 11
3.145
 21
2.5
 31
0.0
  0
LINE
  5
178
330
134
100
AcDbEntity
  8
AM_9
100
AcDbLine
 10
2.366098153829538
 20
2.5
 30
0.0
 11
2.073
 21
2.5
 31
0.0
  0
LINE
  5
179
330
134
100
AcDbEntity
  8
AM_9
100
AcDbLine
 10
2.073
 20
-3.309294871794872
 30
0.0
 11
2.073
 21
3.309294871794872
 31
0.0
  0
LINE
  5
17A
330
134
100
AcDbEntity
  8
AM_9
100
AcDbLine
 10
2.073
 20
-3.309294871794872
 30
0.0
 11
2.3125
 21
-3.35152518367455
 31
0.0
  0
LINE
  5
17B
330
134
100
AcDbEntity
  8
AM_9
100
AcDbLine
 10
2.3125
 20
3.351525183674549
 30
0.0
 11
2.073
 21
3.309294871794872
 31
0.0
  0
LINE
  5
17C
330
134
100
AcDbEntity
  8
AM_9
100
AcDbLine
 10
-2.073
 20
3.309294871794872
 30
0.0
 11
-2.3125
 21
3.351525183674549
 31
0.0
  0
LINE
  5
17D
330
134
100
AcDbEntity
  8
AM_9
100
AcDbLine
 10
-2.3125
 20
-3.351525183674549
 30
0.0
 11
-2.073
 21
-3.309294871794872
 31
0.0
  0
LINE
  5
17E
330
134
100
AcDbEntity
  8
AM_9
100
AcDbLine
 10
-2.073
 20
3.309294871794872
 30
0.0
 11
-2.073
 21
-3.309294871794872
 31
0.0
  0
LINE
  5
181
330
134
100
AcDbEntity
  8
AM_7
100
AcDbLine
 10
-3.7125
 20
0.0
 30
0.0
 11
3.7125
 21
0.0
 31
0.0
  0
LINE
  5
182
330
134
100
AcDbEntity
  8
AM_7
100
AcDbLine
 10
-2.755
 20
-0.161328125
 30
0.0
 11
-2.755
 21
3.387890625
 31
0.0
  0
LINE
  5
183
330
134
100
AcDbEntity
  8
AM_7
100
AcDbLine
 10
2.755
 20
-0.161328125
 30
0.0
 11
2.755
 21
3.387890625
 31
0.0
  0
LINE
  5
184
330
134
100
AcDbEntity
  8
AM_7
100
AcDbLine
 10
0.0000000000000003
 20
-4.88125
 30
0.0
 11
0.0
 21
5.532
 31
0.0
  0
LINE
  5
185
330
134
100
AcDbEntity
  8
AM_4
100
AcDbLine
 10
-0.4687500000000001
 20
5.047
 30
0.0
 11
-0.4687500000000001
 21
4.4375
 31
0.0
  0
LINE
  5
186
330
134
100
AcDbEntity
  8
AM_4
100
AcDbLine
 10
0.4687500000000001
 20
4.4375
 30
0.0
 11
0.4687500000000001
 21
5.047
 31
0.0
  0
LINE
  5
187
330
134
100
AcDbEntity
  8
AM_4
100
AcDbLine
 10
0.3907499999999999
 20
5.125
 30
0.0
 11
-0.3907499989751342
 21
5.125
 31
0.0
  0
LINE
  5
188
330
134
100
AcDbEntity
  8
AM_4
100
AcDbLine
 10
0.4687500000000002
 20
5.047
 30
0.0
 11
-0.4687500000000002
 21
5.047
 31
0.0
  0
ARC
  5
189
330
134
100
AcDbEntity
  8
AM_4
100
AcDbCircle
 10
-0.3907499999999995
 20
5.047
 30
0.0
 40
0.0780000000000003
100
AcDbArc
 50
90.0
 51
180.0
  0
ARC
  5
18A
330
134
100
AcDbEntity
  8
AM_4
100
AcDbCircle
 10
0.3907499999999995
 20
5.047
 30
0.0
 40
0.0780000000000007
100
AcDbArc
 50
0.0
 51
90.0
  0
LWPOLYLINE
  5
18B
330
134
100
AcDbEntity
  8
AM_4
100
AcDbPolyline
 90
        7
 70
     0
 43
0.0
 10
2.916649140614765
 20
1.247277926655232
 10
2.867359796576655
 20
1.262778720267191
 10
2.801773751407042
 20
1.274205330377467
 10
2.737568274194968
 20
1.276221114442781
 10
2.671995983194444
 20
1.269113160695397
 10
2.61102585134714
 20
1.25358118206559
 10
2.593253808939461
 20
1.247240879959226
  0
LWPOLYLINE
  5
18C
330
134
100
AcDbEntity
  8
AM_4
100
AcDbPolyline
 90
        7
 70
     0
 43
0.0
 10
-2.596352843154109
 20
1.248410466142922
 10
-2.642640203423344
 20
1.262778720267191
 10
-2.708226248592958
 20
1.274205330377467
 10
-2.772431725805032
 20
1.276221114442781
 10
-2.838004016805556
 20
1.269113160695397
 10
-2.89897414865286
 20
1.25358118206559
 10
-2.914794093484184
 20
1.247980824172052
  0
ARC
  5
18D
330
134
100
AcDbEntity
  8
AM_4
100
AcDbCircle
 10
0.0000000000000226
 20
0.0000000000000471
 30
0.0
 40
4.562499999999948
100
AcDbArc
 50
59.54580885589402
 51
76.55726132126122
  0
ARC
  5
18E
330
134
100
AcDbEntity
  8
AM_4
100
AcDbCircle
 10
0.0000000000008233
 20
-0.0000000000020597
 30
0.0
 40
4.56249999999783
100
AcDbArc
 50
283.4427386787348
 51
300.4541911441099
  0
LINE
  5
18F
330
134
100
AcDbEntity
  8
AM_4
100
AcDbLine
 10
2.3125
 20
3.933033180638069
 30
0.0
 11
2.3125
 21
-3.933033180638095
 31
0.0
  0
ARC
  5
190
330
134
100
AcDbEntity
  8
AM_4
100
AcDbCircle
 10
0.0000000000000291
 20
-0.0000000000000737
 30
0.0
 40
4.562500000000078
100
AcDbArc
 50
103.442738678739
 51
120.4541911441058
  0
ARC
  5
191
330
134
100
AcDbEntity
  8
AM_4
100
AcDbCircle
 10
-0.0000000000009646
 20
-0.0000000000024176
 30
0.0
 40
4.562499999997454
100
AcDbArc
 50
239.5458088558893
 51
256.5572613212659
  0
LINE
  5
192
330
134
100
AcDbEntity
  8
AM_4
100
AcDbLine
 10
-2.3125
 20
3.933033180638069
 30
0.0
 11
-2.3125
 21
-3.933033180638099
 31
0.0
  0
LWPOLYLINE
  5
193
330
134
100
AcDbEntity
  8
AM_4
100
AcDbPolyline
 90
       20
 70
     0
 43
0.0
 10
0.4687500000000001
 20
4.4375
 10
0.4623265203121469
 20
4.436826061373596
 10
0.4424969582220332
 20
4.43480363100056
 10
0.4109437003458775
 20
4.43176651148884
 10
0.3667734152930679
 20
4.427889161402501
 10
0.3134692845723392
 20
4.423792793505398
 10
0.2496285182561789
 20
4.419727829247721
 10
0.1804094351104354
 20
4.416359049236924
 10
0.1039352629987624
 20
4.41389649022206
 10
0.0269633348291144
 20
4.412755002141531
 10
-0.0530253858522974
 20
4.412991205412128
 10
-0.1289708469235497
 20
4.414556961559809
 10
-0.2033927826898881
 20
4.41735761644338
 10
-0.270218355080768
 20
4.420938548195683
 10
-0.3312214057988765
 20
4.425086135563848
 10
-0.3815651681204875
 20
4.429138930426863
 10
-0.4223747425794532
 20
4.432841087910671
 10
-0.4502191798440432
 20
4.435580795949888
 10
-0.4658803354381625
 20
4.437197784012786
 10
-0.4687499999997915
 20
4.437499999999978
  0
LWPOLYLINE
  5
194
330
134
100
AcDbEntity
  8
AM_4
100
AcDbPolyline
 90
       62
 70
     0
 43
0.0
 10
-0.6736167800214976
 20
0.0
 10
-0.6702426332746689
 20
0.1877501577029874
 10
-0.6592006832435363
 20
0.3755395410225732
 10
-0.6391116652421317
 20
0.5619538454906655
 10
-0.6085963145844864
 20
0.7455787666391718
 10
-0.5662753665846321
 20
0.9250000000000002
 10
-0.5326689386128859
 20
1.035156889749645
 10
-0.4918972021937159
 20
1.142739783654459
 10
-0.4425045322392498
 20
1.245898305641231
 10
-0.3830353036616163
 20
1.34278207963675
 10
-0.3352465227607724
 20
1.404662452909354
 10
-0.2808181155639404
 20
1.461024466971286
 10
-0.2182988536004301
 20
1.51031803990814
 10
-0.1481412470910051
 20
1.548993169785094
 10
-0.0928780050706584
 20
1.568311465120338
 10
-0.0350424503150212
 20
1.578932991042576
 10
0.0241314657115512
 20
1.579786742986194
 10
0.0825697350257235
 20
1.570955162662617
 10
0.1357514776540062
 20
1.554121643378421
 10
0.1858536814894242
 20
1.530277246373812
 10
0.2571090841041517
 20
1.481509144237349
 10
0.3194548301707764
 20
1.422434170352499
 10
0.379435275591517
 20
1.348021735378188
 10
0.4306721144332151
 20
1.267033422747217
 10
0.4742604399411506
 20
1.181712345993486
 10
0.5274371988033434
 20
1.050536283205019
 10
0.5696275529992654
 20
0.9141883150873413
 10
0.6025480961319337
 20
0.7742798700105576
 10
0.6279154218043654
 20
0.6324223763447735
 10
0.6537702852398403
 20
0.4301783313066714
 10
0.6691712906073337
 20
0.2252988616993255
 10
0.6745442237481682
 20
0.0191562196062177
 10
0.6703148705036658
 20
-0.1868773428891701
 10
0.6569090167151487
 20
-0.3914295737033558
 10
0.6341106625672807
 20
-0.5923144054607562
 10
0.5991739657437307
 20
-0.7904917343091
 10
0.5492420310248218
 20
-0.9834751190320172
 10
0.5132854521134862
 20
-1.08876804054151
 10
0.4700371486473804
 20
-1.190928222636545
 10
0.4181860503786506
 20
-1.28835960297629
 10
0.3560646241544856
 20
-1.379308352964761
 10
0.2814332724713342
 20
-1.460461544159732
 10
0.223931660354284
 20
-1.506495239056319
 10
0.1598429084122512
 20
-1.543678959180376
 10
0.1039992073196913
 20
-1.565156694632289
 10
0.0452152558238029
 20
-1.577772252950632
 10
-0.0153471793485911
 20
-1.580271690659597
 10
-0.0754180163867781
 20
-1.572573600840041
 10
-0.1288400148328882
 20
-1.556788530216627
 10
-0.1792940239753119
 20
-1.533867350652351
 10
-0.2498282285380812
 20
-1.48735024471119
 10
-0.3118070498625584
 20
-1.430611862563331
 10
-0.3711123415090851
 20
-1.359539963475493
 10
-0.4220339920802567
 20
-1.281981818875496
 10
-0.4655676187846004
 20
-1.200115507529545
 10
-0.5187111864131156
 20
-1.074732652965374
 10
-0.5612658465958029
 20
-0.944224613219495
 10
-0.5948638081435286
 20
-0.8101594080435912
 10
-0.6211372798671594
 20
-0.6741050571893465
 10
-0.6513518835874061
 20
-0.4516395426300104
 10
-0.6683153873771555
 20
-0.2262640186505124
 10
-0.6736167800214968
 20
0.0
  0
LINE
  5
195
330
134
100
AcDbEntity
  8
AM_4
100
AcDbLine
 10
-1.060660171779821
 20
-4.4375
 30
0.0
 11
1.060660171779821
 21
-4.4375
 31
0.0
  0
LINE
  5
196
330
134
100
AcDbEntity
  8
AM_4
100
AcDbLine
 10
1.060660171779821
 20
4.4375
 30
0.0
 11
0.4687500000000003
 21
4.4375
 31
0.0
  0
LINE
  5
197
330
134
100
AcDbEntity
  8
AM_4
100
AcDbLine
 10
-0.4673218030279785
 20
4.4375
 30
0.0
 11
-1.060660171779821
 21
4.4375
 31
0.0
  0
LINE
  5
198
330
134
100
AcDbEntity
  8
AM_4
100
AcDbLine
 10
-1.060660171779821
 20
4.4375
 30
0.0
 11
-1.060660171779821
 21
-4.4375
 31
0.0
  0
LINE
  5
199
330
134
100
AcDbEntity
  8
AM_4
100
AcDbLine
 10
1.060660171779821
 20
4.4375
 30
0.0
 11
1.060660171779821
 21
-4.4375
 31
0.0
  0
ENDBLK
  5
137
330
134
100
AcDbEntity
  8
0
100
AcDbBlockEnd
  0
ENDSEC
  0
SECTION
  2
ENTITIES
  0
INSERT
  5
6F
330
1F
100
AcDbEntity
  8
0
100
AcDbBlockReference
  2
1_023503_2
 10
0.0
 20
0.0
 30
0.0
  0
POINT
  5
19B
330
1F
100
AcDbEntity
  8
ConnectionPoints
100
AcDbPoint
 10
-3.375
 20
0.0
 30
0.0000000000000002
  0
POINT
  5
19C
330
1F
100
AcDbEntity
  8
ConnectionPoints
100
AcDbPoint
 10
0.0
 20
5.125
 30
0.0
  0
POINT
  5
19D
330
1F
100
AcDbEntity
  8
ConnectionPoints
100
AcDbPoint
 10
0.0
 20
0.0
 30
0.0
  0
POINT
  5
19E
330
1F
100
AcDbEntity
  8
ConnectionPoints
100
AcDbPoint
 10
-3.375
 20
0.0
 30
0.0000000000000002
  0
POINT
  5
19F
330
1F
100
AcDbEntity
  8
ConnectionPoints
100
AcDbPoint
 10
3.375
 20
0.0
 30
-0.0000000000000002
  0
POINT
  5
1A0
330
1F
100
AcDbEntity
  8
ConnectionPoints
100
AcDbPoint
 10
0.0
 20
5.125
 30
0.0
  0
POINT
  5
1A1
330
1F
100
AcDbEntity
  8
ConnectionPoints
100
AcDbPoint
 10
0.0
 20
5.125
 30
0.0
  0
ENDSEC
  0
SECTION
  2
OBJECTS
  0
DICTIONARY
  5
C
330
0
100
AcDbDictionary
281
     1
  3
ACAD_DETAILVIEWSTYLE
350
1A9
  3
ACAD_GROUP
350
D
  3
ACAD_LAYOUT
350
1A
  3
ACAD_MATERIAL
350
43
  3
ACAD_MLEADERSTYLE
350
6B
  3
ACAD_MLINESTYLE
350
17
  3
ACAD_PLOTSETTINGS
350
19
  3
ACAD_PLOTSTYLENAME
350
E
  3
ACAD_SCALELIST
350
47
  3
ACAD_SECTIONVIEWSTYLE
350
1AA
  3
ACAD_TABLESTYLE
350
69
  3
ACAD_VISUALSTYLE
350
2A
  3
ACDB_RECOMPOSE_DATA
350
1A6
  3
AcDbVariableDictionary
350
1A2
  0
SUN
  5
6D
330
29
100
AcDbSun
 90
        1
290
     0
 63
     7
421
 16777215
 40
1.0
291
     1
 91
  2455826
 92
 54000000
292
     0
 70
     2
 71
   256
280
     1
  0
DICTIONARY
  5
1A9
102
{ACAD_REACTORS
330
C
102
}
330
C
100
AcDbDictionary
281
     1
  0
DICTIONARY
  5
D
102
{ACAD_REACTORS
330
C
102
}
330
C
100
AcDbDictionary
281
     1
  0
DICTIONARY
  5
1A
102
{ACAD_REACTORS
330
C
102
}
330
C
100
AcDbDictionary
281
     1
  3
Layout1
350
1E
  3
Layout2
350
26
  3
Model
350
22
  0
DICTIONARY
  5
43
102
{ACAD_REACTORS
330
C
102
}
330
C
100
AcDbDictionary
281
     1
  3
ByBlock
350
45
  3
ByLayer
350
44
  3
Global
350
46
  0
DICTIONARY
  5
6B
102
{ACAD_REACTORS
330
C
102
}
330
C
100
AcDbDictionary
281
     1
  3
Standard
350
6C
  0
DICTIONARY
  5
17
102
{ACAD_REACTORS
330
C
102
}
330
C
100
AcDbDictionary
281
     1
  3
Standard
350
18
  0
DICTIONARY
  5
19
102
{ACAD_REACTORS
330
C
102
}
330
C
100
AcDbDictionary
281
     1
  0
ACDBDICTIONARYWDFLT
  5
E
102
{ACAD_REACTORS
330
C
102
}
330
C
100
AcDbDictionary
281
     1
  3
Normal
350
F
100
AcDbDictionaryWithDefault
340
F
  0
DICTIONARY
  5
47
102
{ACAD_REACTORS
330
C
102
}
330
C
100
AcDbDictionary
281
     1
  3
A0
350
48
  3
A1
350
49
  3
A2
350
4A
  3
A3
350
4B
  3
A4
350
4C
  3
A5
350
4D
  3
A6
350
4E
  3
A7
350
4F
  3
A8
350
50
  3
A9
350
51
  3
B0
350
52
  3
B1
350
53
  3
B2
350
54
  3
B3
350
55
  3
B4
350
56
  3
B5
350
57
  3
B6
350
58
  3
B7
350
59
  3
B8
350
5A
  3
B9
350
5B
  3
C0
350
5C
  3
C1
350
5D
  3
C2
350
5E
  3
C3
350
5F
  3
C4
350
60
  3
C5
350
61
  3
C6
350
62
  3
C7
350
63
  3
C8
350
64
  3
C9
350
65
  3
D0
350
66
  3
D1
350
67
  3
D2
350
68
  0
DICTIONARY
  5
1AA
102
{ACAD_REACTORS
330
C
102
}
330
C
100
AcDbDictionary
281
     1
  0
DICTIONARY
  5
69
102
{ACAD_REACTORS
330
C
102
}
330
C
100
AcDbDictionary
281
     1
  3
Standard
350
6A
  0
DICTIONARY
  5
2A
102
{ACAD_REACTORS
330
C
102
}
330
C
100
AcDbDictionary
281
     1
  3
2dWireframe
350
2F
  3
Basic
350
32
  3
Brighten
350
36
  3
ColorChange
350
3A
  3
Conceptual
350
34
  3
Dim
350
35
  3
EdgeColorOff
350
3D
  3
Facepattern
350
39
  3
Flat
350
2B
  3
FlatWithEdges
350
2C
  3
Gouraud
350
2D
  3
GouraudWithEdges
350
2E
  3
Hidden
350
31
  3
JitterOff
350
3B
  3
Linepattern
350
38
  3
OverhangOff
350
3C
  3
Realistic
350
33
  3
Shaded
350
42
  3
Shaded with edges
350
41
  3
Shades of Gray
350
3E
  3
Sketchy
350
3F
  3
Thicken
350
37
  3
Wireframe
350
30
  3
X-Ray
350
40
  0
XRECORD
  5
1A6
102
{ACAD_REACTORS
330
C
102
}
330
C
100
AcDbXrecord
280
     1
 90
        1
330
6A
  0
DICTIONARY
  5
1A2
102
{ACAD_REACTORS
330
C
102
}
330
C
100
AcDbDictionary
281
     1
  3
CANNOSCALE
350
1A3
  3
CMLEADERSTYLE
350
1A8
  3
CTABLESTYLE
350
1A7
  0
LAYOUT
  5
1E
102
{ACAD_REACTORS
330
1A
102
}
330
1A
100
AcDbPlotSettings
  1

  2
none_device
  4

  6

 40
0.0
 41
0.0
 42
0.0
 43
0.0
 44
0.0
 45
0.0
 46
0.0
 47
0.0
 48
0.0
 49
0.0
140
0.0
141
0.0
142
1.0
143
1.0
 70
   688
 72
     0
 73
     0
 74
     5
  7

 75
    16
 76
     0
 77
     2
 78
   300
147
1.0
148
0.0
149
0.0
100
AcDbLayout
  1
Layout1
 70
     1
 71
     1
 10
0.0
 20
0.0
 11
12.0
 21
9.0
 12
0.0
 22
0.0
 32
0.0
 14
1.000000000000000E+20
 24
1.000000000000000E+20
 34
1.000000000000000E+20
 15
-1.000000000000000E+20
 25
-1.000000000000000E+20
 35
-1.000000000000000E+20
146
0.0
 13
0.0
 23
0.0
 33
0.0
 16
1.0
 26
0.0
 36
0.0
 17
0.0
 27
1.0
 37
0.0
 76
     0
330
1B
  0
LAYOUT
  5
26
102
{ACAD_REACTORS
330
1A
102
}
330
1A
100
AcDbPlotSettings
  1

  2
none_device
  4

  6

 40
0.0
 41
0.0
 42
0.0
 43
0.0
 44
0.0
 45
0.0
 46
0.0
 47
0.0
 48
0.0
 49
0.0
140
0.0
141
0.0
142
1.0
143
1.0
 70
   688
 72
     0
 73
     0
 74
     5
  7

 75
    16
 76
     0
 77
     2
 78
   300
147
1.0
148
0.0
149
0.0
100
AcDbLayout
  1
Layout2
 70
     1
 71
     2
 10
0.0
 20
0.0
 11
0.0
 21
0.0
 12
0.0
 22
0.0
 32
0.0
 14
0.0
 24
0.0
 34
0.0
 15
0.0
 25
0.0
 35
0.0
146
0.0
 13
0.0
 23
0.0
 33
0.0
 16
1.0
 26
0.0
 36
0.0
 17
0.0
 27
1.0
 37
0.0
 76
     0
330
23
  0
LAYOUT
  5
22
102
{ACAD_REACTORS
330
1A
102
}
330
1A
100
AcDbPlotSettings
  1

  2
none_device
  4
Letter_(8.50_x_11.00_Inches)
  6

 40
6.35
 41
6.35
 42
6.35000508
 43
6.35000508
 44
215.9
 45
279.4
 46
0.0
 47
0.0
 48
0.0
 49
0.0
140
0.0
141
0.0
142
1.0
143
1.0
 70
  1712
 72
     0
 73
     0
 74
     0
  7

 75
     0
 76
     0
 77
     2
 78
   300
147
1.0
148
0.0
149
0.0
100
AcDbLayout
  1
Model
 70
     1
 71
     0
 10
0.0
 20
0.0
 11
12.0
 21
9.0
 12
0.0
 22
0.0
 32
0.0
 14
1.000000000000000E+20
 24
1.000000000000000E+20
 34
1.000000000000000E+20
 15
-1.000000000000000E+20
 25
-1.000000000000000E+20
 35
-1.000000000000000E+20
146
0.0
 13
0.0
 23
0.0
 33
0.0
 16
1.0
 26
0.0
 36
0.0
 17
0.0
 27
1.0
 37
0.0
 76
     0
330
1F
331
29
  0
MATERIAL
  5
45
102
{ACAD_REACTORS
330
43
102
}
330
43
100
AcDbMaterial
  1
ByBlock
 72
     1
 94
      127
  0
MATERIAL
  5
44
102
{ACAD_REACTORS
330
43
102
}
330
43
100
AcDbMaterial
  1
ByLayer
 72
     1
 94
      127
  0
MATERIAL
  5
46
102
{ACAD_REACTORS
330
43
102
}
330
43
100
AcDbMaterial
  1
Global
 72
     1
 94
      127
  0
MLEADERSTYLE
  5
6C
102
{ACAD_REACTORS
330
6B
102
}
330
6B
100
AcDbMLeaderStyle
179
     2
170
     2
171
     1
172
     0
 90
        2
 40
0.0
 41
0.0
173
     1
 91
-1056964608
340
14
 92
       -2
290
     1
 42
0.09
291
     1
 43
0.36
  3
Standard
341
0
 44
0.18
300

342
11
174
     1
178
     6
175
     1
176
     0
 93
-1056964608
 45
0.18
292
     0
297
     0
 46
0.18
343
0
 94
-1056964608
 47
1.0
 49
1.0
140
1.0
293
     1
141
0.0
294
     1
177
     0
142
1.0
295
     0
296
     0
143
0.125
271
     0
272
     9
273
     9
298
     0
  0
MLINESTYLE
  5
18
102
{ACAD_REACTORS
330
17
102
}
330
17
100
AcDbMlineStyle
  2
Standard
 70
     0
  3

 62
   256
 51
90.0
 52
90.0
 71
     2
 49
0.5
 62
   256
  6
BYLAYER
 49
-0.5
 62
   256
  6
BYLAYER
  0
ACDBPLACEHOLDER
  5
F
102
{ACAD_REACTORS
330
E
102
}
330
E
  0
SCALE
  5
48
102
{ACAD_REACTORS
330
47
102
}
330
47
100
AcDbScale
 70
     0
300
1:1
140
1.0
141
1.0
290
     1
  0
SCALE
  5
49
102
{ACAD_REACTORS
330
47
102
}
330
47
100
AcDbScale
 70
     0
300
1:2
140
1.0
141
2.0
290
     0
  0
SCALE
  5
4A
102
{ACAD_REACTORS
330
47
102
}
330
47
100
AcDbScale
 70
     0
300
1:4
140
1.0
141
4.0
290
     0
  0
SCALE
  5
4B
102
{ACAD_REACTORS
330
47
102
}
330
47
100
AcDbScale
 70
     0
300
1:5
140
1.0
141
5.0
290
     0
  0
SCALE
  5
4C
102
{ACAD_REACTORS
330
47
102
}
330
47
100
AcDbScale
 70
     0
300
1:8
140
1.0
141
8.0
290
     0
  0
SCALE
  5
4D
102
{ACAD_REACTORS
330
47
102
}
330
47
100
AcDbScale
 70
     0
300
1:10
140
1.0
141
10.0
290
     0
  0
SCALE
  5
4E
102
{ACAD_REACTORS
330
47
102
}
330
47
100
AcDbScale
 70
     0
300
1:16
140
1.0
141
16.0
290
     0
  0
SCALE
  5
4F
102
{ACAD_REACTORS
330
47
102
}
330
47
100
AcDbScale
 70
     0
300
1:20
140
1.0
141
20.0
290
     0
  0
SCALE
  5
50
102
{ACAD_REACTORS
330
47
102
}
330
47
100
AcDbScale
 70
     0
300
1:30
140
1.0
141
30.0
290
     0
  0
SCALE
  5
51
102
{ACAD_REACTORS
330
47
102
}
330
47
100
AcDbScale
 70
     0
300
1:40
140
1.0
141
40.0
290
     0
  0
SCALE
  5
52
102
{ACAD_REACTORS
330
47
102
}
330
47
100
AcDbScale
 70
     0
300
1:50
140
1.0
141
50.0
290
     0
  0
SCALE
  5
53
102
{ACAD_REACTORS
330
47
102
}
330
47
100
AcDbScale
 70
     0
300
1:100
140
1.0
141
100.0
290
     0
  0
SCALE
  5
54
102
{ACAD_REACTORS
330
47
102
}
330
47
100
AcDbScale
 70
     0
300
2:1
140
2.0
141
1.0
290
     0
  0
SCALE
  5
55
102
{ACAD_REACTORS
330
47
102
}
330
47
100
AcDbScale
 70
     0
300
4:1
140
4.0
141
1.0
290
     0
  0
SCALE
  5
56
102
{ACAD_REACTORS
330
47
102
}
330
47
100
AcDbScale
 70
     0
300
8:1
140
8.0
141
1.0
290
     0
  0
SCALE
  5
57
102
{ACAD_REACTORS
330
47
102
}
330
47
100
AcDbScale
 70
     0
300
10:1
140
10.0
141
1.0
290
     0
  0
SCALE
  5
58
102
{ACAD_REACTORS
330
47
102
}
330
47
100
AcDbScale
 70
     0
300
100:1
140
100.0
141
1.0
290
     0
  0
SCALE
  5
59
102
{ACAD_REACTORS
330
47
102
}
330
47
100
AcDbScale
 70
     0
300
1/128" = 1'-0"
140
0.0078125
141
12.0
290
     0
  0
SCALE
  5
5A
102
{ACAD_REACTORS
330
47
102
}
330
47
100
AcDbScale
 70
     0
300
1/64" = 1'-0"
140
0.015625
141
12.0
290
     0
  0
SCALE
  5
5B
102
{ACAD_REACTORS
330
47
102
}
330
47
100
AcDbScale
 70
     0
300
1/32" = 1'-0"
140
0.03125
141
12.0
290
     0
  0
SCALE
  5
5C
102
{ACAD_REACTORS
330
47
102
}
330
47
100
AcDbScale
 70
     0
300
1/16" = 1'-0"
140
0.0625
141
12.0
290
     0
  0
SCALE
  5
5D
102
{ACAD_REACTORS
330
47
102
}
330
47
100
AcDbScale
 70
     0
300
3/32" = 1'-0"
140
0.09375
141
12.0
290
     0
  0
SCALE
  5
5E
102
{ACAD_REACTORS
330
47
102
}
330
47
100
AcDbScale
 70
     0
300
1/8" = 1'-0"
140
0.125
141
12.0
290
     0
  0
SCALE
  5
5F
102
{ACAD_REACTORS
330
47
102
}
330
47
100
AcDbScale
 70
     0
300
3/16" = 1'-0"
140
0.1875
141
12.0
290
     0
  0
SCALE
  5
60
102
{ACAD_REACTORS
330
47
102
}
330
47
100
AcDbScale
 70
     0
300
1/4" = 1'-0"
140
0.25
141
12.0
290
     0
  0
SCALE
  5
61
102
{ACAD_REACTORS
330
47
102
}
330
47
100
AcDbScale
 70
     0
300
3/8" = 1'-0"
140
0.375
141
12.0
290
     0
  0
SCALE
  5
62
102
{ACAD_REACTORS
330
47
102
}
330
47
100
AcDbScale
 70
     0
300
1/2" = 1'-0"
140
0.5
141
12.0
290
     0
  0
SCALE
  5
63
102
{ACAD_REACTORS
330
47
102
}
330
47
100
AcDbScale
 70
     0
300
3/4" = 1'-0"
140
0.75
141
12.0
290
     0
  0
SCALE
  5
64
102
{ACAD_REACTORS
330
47
102
}
330
47
100
AcDbScale
 70
     0
300
1" = 1'-0"
140
1.0
141
12.0
290
     0
  0
SCALE
  5
65
102
{ACAD_REACTORS
330
47
102
}
330
47
100
AcDbScale
 70
     0
300
1-1/2" = 1'-0"
140
1.5
141
12.0
290
     0
  0
SCALE
  5
66
102
{ACAD_REACTORS
330
47
102
}
330
47
100
AcDbScale
 70
     0
300
3" = 1'-0"
140
3.0
141
12.0
290
     0
  0
SCALE
  5
67
102
{ACAD_REACTORS
330
47
102
}
330
47
100
AcDbScale
 70
     0
300
6" = 1'-0"
140
6.0
141
12.0
290
     0
  0
SCALE
  5
68
102
{ACAD_REACTORS
330
47
102
}
330
47
100
AcDbScale
 70
     0
300
1'-0" = 1'-0"
140
12.0
141
12.0
290
     0
  0
TABLESTYLE
  5
6A
102
{ACAD_REACTORS
330
69
102
}
102
{ACAD_XDICTIONARY
360
1A4
102
}
330
69
100
AcDbTableStyle
  3
Standard
 70
     0
 71
     0
 40
0.06
 41
0.06
280
     0
281
     0
  7
Standard
140
0.18
170
     2
 62
     0
 63
   257
283
     0
 90
        4
 91
        0
  1

274
    -2
284
     1
 64
     0
275
    -2
285
     1
 65
     0
276
    -2
286
     1
 66
     0
277
    -2
287
     1
 67
     0
278
    -2
288
     1
 68
     0
279
    -2
289
     1
 69
     0
  7
Standard
140
0.25
170
     5
 62
     0
 63
   257
283
     0
 90
        4
 91
        0
  1

274
    -2
284
     1
 64
     0
275
    -2
285
     1
 65
     0
276
    -2
286
     1
 66
     0
277
    -2
287
     1
 67
     0
278
    -2
288
     1
 68
     0
279
    -2
289
     1
 69
     0
  7
Standard
140
0.18
170
     5
 62
     0
 63
   257
283
     0
 90
        4
 91
        0
  1

274
    -2
284
     1
 64
     0
275
    -2
285
     1
 65
     0
276
    -2
286
     1
 66
     0
277
    -2
287
     1
 67
     0
278
    -2
288
     1
 68
     0
279
    -2
289
     1
 69
     0
  0
VISUALSTYLE
  5
2F
102
{ACAD_REACTORS
330
2A
102
}
330
2A
100
AcDbVisualStyle
  2
2dWireframe
 70
     4
177
     3
291
     0
 70
    58
 90
        0
176
     1
 90
        2
176
     1
 90
        0
176
     1
 90
        0
176
     1
 40
0.6
176
     1
 40
30.0
176
     1
 62
     7
420
 16777215
176
     1
 90
        1
176
     1
 90
        4
176
     1
 62
     7
176
     1
 62
   257
176
     1
 90
        1
176
     1
 90
        1
176
     1
 40
1.0
176
     1
 90
        0
176
     1
 62
   257
176
     1
 40
1.0
176
     1
 90
        1
176
     1
 90
        6
176
     1
 90
        2
176
     1
 62
     7
176
     1
 90
        5
176
     1
 90
        0
176
     1
 90
        0
176
     1
290
     0
176
     1
 90
        1
176
     1
 40
0.0
176
     1
 90
        0
176
     1
290
     1
176
     1
290
     1
176
     1
290
     0
176
     1
290
     0
176
     1
290
     0
176
     1
290
     0
176
     1
290
     0
176
     1
290
     0
176
     1
290
     0
176
     1
 90
       50
176
     1
 40
0.0
176
     1
 40
1.0
176
     1
 90
        0
176
     1
 62
    18
420
        0
176
     1
 90
       50
176
     1
 90
        3
176
     1
 62
     5
420
      255
176
     1
290
     0
176
     1
 90
       50
176
     1
 90
       50
176
     1
 90
       50
176
     1
290
     0
176
     1
 90
       50
176
     1
 62
   256
176
     0
 40
1.0
176
     0
 90
        2
176
     1
  1
strokes_ogs.tif
176
     1
290
     0
176
     1
 40
1.0
176
     1
 40
1.0
176
     1
  0
VISUALSTYLE
  5
32
102
{ACAD_REACTORS
330
2A
102
}
330
2A
100
AcDbVisualStyle
  2
Basic
 70
     7
177
     3
291
     1
 70
    58
 90
        1
176
     1
 90
        0
176
     1
 90
        1
176
     1
 90
        0
176
     1
 40
0.6
176
     1
 40
30.0
176
     1
 62
     7
420
 16777215
176
     1
 90
        0
176
     1
 90
        4
176
     1
 62
     7
176
     1
 62
   257
176
     1
 90
        1
176
     1
 90
        1
176
     1
 40
1.0
176
     1
 90
        8
176
     1
 62
     7
176
     1
 40
1.0
176
     1
 90
        1
176
     1
 90
        6
176
     1
 90
        2
176
     1
 62
     7
176
     1
 90
        5
176
     1
 90
        0
176
     1
 90
        0
176
     1
290
     0
176
     1
 90
        1
176
     1
 40
0.0
176
     1
 90
        0
176
     1
290
     0
176
     1
290
     1
176
     1
290
     1
176
     1
290
     0
176
     1
290
     0
176
     1
290
     0
176
     1
290
     0
176
     1
290
     0
176
     1
290
     0
176
     1
 90
       50
176
     1
 40
0.0
176
     1
 40
1.0
176
     1
 90
        0
176
     1
 62
    18
420
        0
176
     1
 90
       50
176
     1
 90
        3
176
     1
 62
     5
420
      255
176
     1
290
     0
176
     1
 90
       50
176
     1
 90
       50
176
     1
 90
       50
176
     1
290
     0
176
     1
 90
       50
176
     1
 62
   256
176
     0
 40
1.0
176
     0
 90
        2
176
     1
  1
strokes_ogs.tif
176
     1
290
     0
176
     1
 40
1.0
176
     1
 40
1.0
176
     1
  0
VISUALSTYLE
  5
36
102
{ACAD_REACTORS
330
2A
102
}
330
2A
100
AcDbVisualStyle
  2
Brighten
 70
    12
177
     3
291
     1
 70
    58
 90
        2
176
     1
 90
        2
176
     1
 90
        0
176
     1
 90
        0
176
     1
 40
0.6
176
     1
 40
30.0
176
     1
 62
     7
420
 16777215
176
     1
 90
        1
176
     1
 90
        4
176
     1
 62
     7
176
     1
 62
   257
176
     1
 90
        1
176
     1
 90
        1
176
     1
 40
1.0
176
     1
 90
        8
176
     1
 62
     7
176
     1
 40
1.0
176
     1
 90
        1
176
     1
 90
        6
176
     1
 90
        2
176
     1
 62
     7
176
     1
 90
        5
176
     1
 90
        0
176
     1
 90
        0
176
     1
290
     0
176
     1
 90
        1
176
     1
 40
50.0
176
     1
 90
        0
176
     1
290
     0
176
     1
290
     1
176
     1
290
     1
176
     1
290
     0
176
     1
290
     0
176
     1
290
     0
176
     1
290
     0
176
     1
290
     0
176
     1
290
     0
176
     1
 90
       50
176
     1
 40
0.0
176
     1
 40
1.0
176
     1
 90
        0
176
     1
 62
    18
420
        0
176
     1
 90
       50
176
     1
 90
        3
176
     1
 62
     5
420
      255
176
     1
290
     0
176
     1
 90
       50
176
     1
 90
       50
176
     1
 90
       50
176
     1
290
     0
176
     1
 90
       50
176
     1
 62
   256
176
     0
 40
1.0
176
     0
 90
        2
176
     1
  1
strokes_ogs.tif
176
     1
290
     0
176
     1
 40
1.0
176
     1
 40
1.0
176
     1
  0
VISUALSTYLE
  5
3A
102
{ACAD_REACTORS
330
2A
102
}
330
2A
100
AcDbVisualStyle
  2
ColorChange
 70
    16
177
     3
291
     1
 70
    58
 90
        2
176
     1
 90
        2
176
     1
 90
        3
176
     1
 90
        0
176
     1
 40
0.6
176
     1
 40
30.0
176
     1
 62
     8
420
  8421504
176
     1
 90
        1
176
     1
 90
        4
176
     1
 62
     7
176
     1
 62
   257
176
     1
 90
        1
176
     1
 90
        1
176
     1
 40
1.0
176
     1
 90
        8
176
     1
 62
     8
420
  8421504
176
     1
 40
1.0
176
     1
 90
        1
176
     1
 90
        6
176
     1
 90
        2
176
     1
 62
     7
176
     1
 90
        5
176
     1
 90
        0
176
     1
 90
        0
176
     1
290
     0
176
     1
 90
        1
176
     1
 40
0.0
176
     1
 90
        0
176
     1
290
     0
176
     1
290
     1
176
     1
290
     1
176
     1
290
     0
176
     1
290
     0
176
     1
290
     0
176
     1
290
     0
176
     1
290
     0
176
     1
290
     0
176
     1
 90
       50
176
     1
 40
0.0
176
     1
 40
1.0
176
     1
 90
        0
176
     1
 62
    18
420
        0
176
     1
 90
       50
176
     1
 90
        3
176
     1
 62
     5
420
      255
176
     1
290
     0
176
     1
 90
       50
176
     1
 90
       50
176
     1
 90
       50
176
     1
290
     0
176
     1
 90
       50
176
     1
 62
   256
176
     0
 40
1.0
176
     0
 90
        2
176
     1
  1
strokes_ogs.tif
176
     1
290
     0
176
     1
 40
1.0
176
     1
 40
1.0
176
     1
  0
VISUALSTYLE
  5
34
102
{ACAD_REACTORS
330
2A
102
}
330
2A
100
AcDbVisualStyle
  2
Conceptual
 70
     9
177
     3
291
     0
 70
    58
 90
        3
176
     1
 90
        2
176
     1
 90
        0
176
     1
 90
        0
176
     1
 40
0.6
176
     1
 40
30.0
176
     1
 62
     7
420
 16777215
176
     1
 90
        2
176
     1
 90
        2
176
     1
 62
     7
176
     1
 62
   257
176
     1
 90
        1
176
     1
 90
        1
176
     1
 40
179.0
176
     1
 90
        8
176
     1
 62
     7
176
     1
 40
1.0
176
     1
 90
        1
176
     1
 90
        6
176
     1
 90
        2
176
     1
 62
     7
176
     1
 90
        3
176
     1
 90
        0
176
     1
 90
        0
176
     1
290
     0
176
     1
 90
        1
176
     1
 40
0.0
176
     1
 90
        0
176
     1
290
     0
176
     1
290
     1
176
     1
290
     1
176
     1
290
     0
176
     1
290
     0
176
     1
290
     0
176
     1
290
     0
176
     1
290
     0
176
     1
290
     0
176
     1
 90
       50
176
     1
 40
0.0
176
     1
 40
1.0
176
     1
 90
        0
176
     1
 62
    18
420
        0
176
     1
 90
       50
176
     1
 90
        3
176
     1
 62
     5
420
      255
176
     1
290
     0
176
     1
 90
       50
176
     1
 90
       50
176
     1
 90
       50
176
     1
290
     0
176
     1
 90
       50
176
     1
 62
   256
176
     0
 40
1.0
176
     0
 90
        2
176
     1
  1
strokes_ogs.tif
176
     1
290
     0
176
     1
 40
1.0
176
     1
 40
1.0
176
     1
  0
VISUALSTYLE
  5
35
102
{ACAD_REACTORS
330
2A
102
}
330
2A
100
AcDbVisualStyle
  2
Dim
 70
    11
177
     3
291
     1
 70
    58
 90
        2
176
     1
 90
        2
176
     1
 90
        0
176
     1
 90
        0
176
     1
 40
0.6
176
     1
 40
30.0
176
     1
 62
     7
420
 16777215
176
     1
 90
        1
176
     1
 90
        4
176
     1
 62
     7
176
     1
 62
   257
176
     1
 90
        1
176
     1
 90
        1
176
     1
 40
1.0
176
     1
 90
        8
176
     1
 62
     7
176
     1
 40
1.0
176
     1
 90
        1
176
     1
 90
        6
176
     1
 90
        2
176
     1
 62
     7
176
     1
 90
        5
176
     1
 90
        0
176
     1
 90
        0
176
     1
290
     0
176
     1
 90
        1
176
     1
 40
-50.0
176
     1
 90
        0
176
     1
290
     0
176
     1
290
     1
176
     1
290
     1
176
     1
290
     0
176
     1
290
     0
176
     1
290
     0
176
     1
290
     0
176
     1
290
     0
176
     1
290
     0
176
     1
 90
       50
176
     1
 40
0.0
176
     1
 40
1.0
176
     1
 90
        0
176
     1
 62
    18
420
        0
176
     1
 90
       50
176
     1
 90
        3
176
     1
 62
     5
420
      255
176
     1
290
     0
176
     1
 90
       50
176
     1
 90
       50
176
     1
 90
       50
176
     1
290
     0
176
     1
 90
       50
176
     1
 62
   256
176
     0
 40
1.0
176
     0
 90
        2
176
     1
  1
strokes_ogs.tif
176
     1
290
     0
176
     1
 40
1.0
176
     1
 40
1.0
176
     1
  0
VISUALSTYLE
  5
3D
102
{ACAD_REACTORS
330
2A
102
}
330
2A
100
AcDbVisualStyle
  2
EdgeColorOff
 70
    22
177
     3
291
     1
 70
    58
 90
        2
176
     0
 90
        2
176
     0
 90
        0
176
     0
 90
        0
176
     0
 40
0.6
176
     0
 40
30.0
176
     0
 62
     7
420
 16777215
176
     0
 90
        1
176
     0
 90
        4
176
     0
 62
     7
176
     0
 62
   257
176
     0
 90
        1
176
     0
 90
        1
176
     0
 40
1.0
176
     0
 90
        8
176
     2
 62
     7
176
     0
 40
1.0
176
     0
 90
        1
176
     0
 90
        6
176
     0
 90
        2
176
     0
 62
     7
176
     0
 90
        5
176
     0
 90
        0
176
     0
 90
        0
176
     0
290
     0
176
     0
 90
        1
176
     0
 40
0.0
176
     0
 90
        0
176
     0
290
     0
176
     0
290
     1
176
     0
290
     1
176
     0
290
     0
176
     0
290
     0
176
     0
290
     0
176
     0
290
     0
176
     0
290
     0
176
     0
290
     0
176
     0
 90
       50
176
     0
 40
0.0
176
     0
 40
1.0
176
     0
 90
        0
176
     0
 62
    18
420
        0
176
     0
 90
       50
176
     0
 90
        3
176
     0
 62
     5
420
      255
176
     0
290
     0
176
     0
 90
       50
176
     0
 90
       50
176
     0
 90
       50
176
     0
290
     0
176
     0
 90
       50
176
     0
 62
   256
176
     0
 40
1.0
176
     0
 90
        2
176
     0
  1
strokes_ogs.tif
176
     0
290
     0
176
     0
 40
1.0
176
     0
 40
1.0
176
     0
  0
VISUALSTYLE
  5
39
102
{ACAD_REACTORS
330
2A
102
}
330
2A
100
AcDbVisualStyle
  2
Facepattern
 70
    15
177
     3
291
     1
 70
    58
 90
        2
176
     1
 90
        2
176
     1
 90
        0
176
     1
 90
        0
176
     1
 40
0.6
176
     1
 40
30.0
176
     1
 62
     7
420
 16777215
176
     1
 90
        1
176
     1
 90
        4
176
     1
 62
     7
176
     1
 62
   257
176
     1
 90
        1
176
     1
 90
        1
176
     1
 40
1.0
176
     1
 90
        8
176
     1
 62
     7
176
     1
 40
1.0
176
     1
 90
        1
176
     1
 90
        6
176
     1
 90
        2
176
     1
 62
     7
176
     1
 90
        5
176
     1
 90
        0
176
     1
 90
        0
176
     1
290
     0
176
     1
 90
        1
176
     1
 40
0.0
176
     1
 90
        0
176
     1
290
     0
176
     1
290
     1
176
     1
290
     1
176
     1
290
     0
176
     1
290
     0
176
     1
290
     0
176
     1
290
     0
176
     1
290
     0
176
     1
290
     0
176
     1
 90
       50
176
     1
 40
0.0
176
     1
 40
1.0
176
     1
 90
        0
176
     1
 62
    18
420
        0
176
     1
 90
       50
176
     1
 90
        3
176
     1
 62
     5
420
      255
176
     1
290
     0
176
     1
 90
       50
176
     1
 90
       50
176
     1
 90
       50
176
     1
290
     0
176
     1
 90
       50
176
     1
 62
   256
176
     0
 40
1.0
176
     0
 90
        2
176
     1
  1
strokes_ogs.tif
176
     1
290
     0
176
     1
 40
1.0
176
     1
 40
1.0
176
     1
  0
VISUALSTYLE
  5
2B
102
{ACAD_REACTORS
330
2A
102
}
330
2A
100
AcDbVisualStyle
  2
Flat
 70
     0
177
     3
291
     1
 70
    58
 90
        2
176
     1
 90
        1
176
     1
 90
        1
176
     1
 90
        2
176
     1
 40
0.6
176
     1
 40
30.0
176
     1
 62
     7
420
 16777215
176
     1
 90
        0
176
     1
 90
        0
176
     1
 62
     7
176
     1
 62
   257
176
     1
 90
        1
176
     1
 90
        1
176
     1
 40
1.0
176
     1
 90
        8
176
     1
 62
     7
176
     1
 40
1.0
176
     1
 90
        1
176
     1
 90
        6
176
     1
 90
        2
176
     1
 62
     7
176
     1
 90
        5
176
     1
 90
        0
176
     1
 90
        0
176
     1
290
     0
176
     1
 90
       13
176
     1
 40
0.0
176
     1
 90
        0
176
     1
290
     0
176
     1
290
     1
176
     1
290
     1
176
     1
290
     0
176
     1
290
     0
176
     1
290
     0
176
     1
290
     0
176
     1
290
     0
176
     1
290
     0
176
     1
 90
       50
176
     1
 40
0.0
176
     1
 40
1.0
176
     1
 90
        0
176
     1
 62
    18
420
        0
176
     1
 90
       50
176
     1
 90
        3
176
     1
 62
     5
420
      255
176
     1
290
     0
176
     1
 90
       50
176
     1
 90
       50
176
     1
 90
       50
176
     1
290
     0
176
     1
 90
       50
176
     1
 62
   256
176
     0
 40
1.0
176
     0
 90
        2
176
     1
  1
strokes_ogs.tif
176
     1
290
     0
176
     1
 40
1.0
176
     1
 40
1.0
176
     1
  0
VISUALSTYLE
  5
2C
102
{ACAD_REACTORS
330
2A
102
}
330
2A
100
AcDbVisualStyle
  2
FlatWithEdges
 70
     1
177
     3
291
     1
 70
    58
 90
        2
176
     1
 90
        1
176
     1
 90
        1
176
     1
 90
        2
176
     1
 40
0.6
176
     1
 40
30.0
176
     1
 62
     7
420
 16777215
176
     1
 90
        1
176
     1
 90
        0
176
     1
 62
     7
176
     1
 62
   257
176
     1
 90
        1
176
     1
 90
        1
176
     1
 40
1.0
176
     1
 90
        0
176
     1
 62
   257
176
     1
 40
1.0
176
     1
 90
        1
176
     1
 90
        6
176
     1
 90
        2
176
     1
 62
     7
176
     1
 90
        5
176
     1
 90
        0
176
     1
 90
        0
176
     1
290
     0
176
     1
 90
       13
176
     1
 40
0.0
176
     1
 90
        0
176
     1
290
     0
176
     1
290
     1
176
     1
290
     1
176
     1
290
     0
176
     1
290
     0
176
     1
290
     0
176
     1
290
     0
176
     1
290
     0
176
     1
290
     0
176
     1
 90
       50
176
     1
 40
0.0
176
     1
 40
1.0
176
     1
 90
        0
176
     1
 62
    18
420
        0
176
     1
 90
       50
176
     1
 90
        3
176
     1
 62
     5
420
      255
176
     1
290
     0
176
     1
 90
       50
176
     1
 90
       50
176
     1
 90
       50
176
     1
290
     0
176
     1
 90
       50
176
     1
 62
   256
176
     0
 40
1.0
176
     0
 90
        2
176
     1
  1
strokes_ogs.tif
176
     1
290
     0
176
     1
 40
1.0
176
     1
 40
1.0
176
     1
  0
VISUALSTYLE
  5
2D
102
{ACAD_REACTORS
330
2A
102
}
330
2A
100
AcDbVisualStyle
  2
Gouraud
 70
     2
177
     3
291
     1
 70
    58
 90
        2
176
     1
 90
        2
176
     1
 90
        1
176
     1
 90
        2
176
     1
 40
0.6
176
     1
 40
30.0
176
     1
 62
     7
420
 16777215
176
     1
 90
        0
176
     1
 90
        0
176
     1
 62
     7
176
     1
 62
   257
176
     1
 90
        1
176
     1
 90
        1
176
     1
 40
1.0
176
     1
 90
        0
176
     1
 62
     7
176
     1
 40
1.0
176
     1
 90
        1
176
     1
 90
        6
176
     1
 90
        2
176
     1
 62
     7
176
     1
 90
        5
176
     1
 90
        0
176
     1
 90
        0
176
     1
290
     0
176
     1
 90
       13
176
     1
 40
0.0
176
     1
 90
        0
176
     1
290
     0
176
     1
290
     1
176
     1
290
     1
176
     1
290
     0
176
     1
290
     0
176
     1
290
     0
176
     1
290
     0
176
     1
290
     0
176
     1
290
     0
176
     1
 90
       50
176
     1
 40
0.0
176
     1
 40
1.0
176
     1
 90
        0
176
     1
 62
    18
420
        0
176
     1
 90
       50
176
     1
 90
        3
176
     1
 62
     5
420
      255
176
     1
290
     0
176
     1
 90
       50
176
     1
 90
       50
176
     1
 90
       50
176
     1
290
     0
176
     1
 90
       50
176
     1
 62
   256
176
     0
 40
1.0
176
     0
 90
        2
176
     1
  1
strokes_ogs.tif
176
     1
290
     0
176
     1
 40
1.0
176
     1
 40
1.0
176
     1
  0
VISUALSTYLE
  5
2E
102
{ACAD_REACTORS
330
2A
102
}
330
2A
100
AcDbVisualStyle
  2
GouraudWithEdges
 70
     3
177
     3
291
     1
 70
    58
 90
        2
176
     1
 90
        2
176
     1
 90
        1
176
     1
 90
        2
176
     1
 40
0.6
176
     1
 40
30.0
176
     1
 62
     7
420
 16777215
176
     1
 90
        1
176
     1
 90
        0
176
     1
 62
     7
176
     1
 62
   257
176
     1
 90
        1
176
     1
 90
        1
176
     1
 40
1.0
176
     1
 90
        0
176
     1
 62
   257
176
     1
 40
1.0
176
     1
 90
        1
176
     1
 90
        6
176
     1
 90
        2
176
     1
 62
     7
176
     1
 90
        5
176
     1
 90
        0
176
     1
 90
        0
176
     1
290
     0
176
     1
 90
       13
176
     1
 40
0.0
176
     1
 90
        0
176
     1
290
     0
176
     1
290
     1
176
     1
290
     1
176
     1
290
     0
176
     1
290
     0
176
     1
290
     0
176
     1
290
     0
176
     1
290
     0
176
     1
290
     0
176
     1
 90
       50
176
     1
 40
0.0
176
     1
 40
1.0
176
     1
 90
        0
176
     1
 62
    18
420
        0
176
     1
 90
       50
176
     1
 90
        3
176
     1
 62
     5
420
      255
176
     1
290
     0
176
     1
 90
       50
176
     1
 90
       50
176
     1
 90
       50
176
     1
290
     0
176
     1
 90
       50
176
     1
 62
   256
176
     0
 40
1.0
176
     0
 90
        2
176
     1
  1
strokes_ogs.tif
176
     1
290
     0
176
     1
 40
1.0
176
     1
 40
1.0
176
     1
  0
VISUALSTYLE
  5
31
102
{ACAD_REACTORS
330
2A
102
}
330
2A
100
AcDbVisualStyle
  2
Hidden
 70
     6
177
     3
291
     0
 70
    58
 90
        1
176
     1
 90
        2
176
     1
 90
        2
176
     1
 90
        0
176
     1
 40
0.6
176
     1
 40
30.0
176
     1
 62
     7
420
 16777215
176
     1
 90
        2
176
     1
 90
        2
176
     1
 62
     7
176
     1
 62
   257
176
     1
 90
        2
176
     1
 90
        1
176
     1
 40
40.0
176
     1
 90
        0
176
     1
 62
   257
176
     1
 40
1.0
176
     1
 90
        1
176
     1
 90
        6
176
     1
 90
        2
176
     1
 62
     7
176
     1
 90
        3
176
     1
 90
        0
176
     1
 90
        0
176
     1
290
     0
176
     1
 90
        1
176
     1
 40
0.0
176
     1
 90
        0
176
     1
290
     0
176
     1
290
     1
176
     1
290
     1
176
     1
290
     0
176
     1
290
     0
176
     1
290
     0
176
     1
290
     0
176
     1
290
     0
176
     1
290
     0
176
     1
 90
       50
176
     1
 40
0.0
176
     1
 40
1.0
176
     1
 90
        0
176
     1
 62
    18
420
        0
176
     1
 90
       50
176
     1
 90
        3
176
     1
 62
     5
420
      255
176
     1
290
     0
176
     1
 90
       50
176
     1
 90
       50
176
     1
 90
       50
176
     1
290
     0
176
     1
 90
       50
176
     1
 62
   256
176
     0
 40
1.0
176
     0
 90
        2
176
     1
  1
strokes_ogs.tif
176
     1
290
     0
176
     1
 40
1.0
176
     1
 40
1.0
176
     1
  0
VISUALSTYLE
  5
3B
102
{ACAD_REACTORS
330
2A
102
}
330
2A
100
AcDbVisualStyle
  2
JitterOff
 70
    20
177
     3
291
     1
 70
    58
 90
        2
176
     0
 90
        2
176
     0
 90
        0
176
     0
 90
        0
176
     0
 40
0.6
176
     0
 40
30.0
176
     0
 62
     7
420
 16777215
176
     0
 90
        1
176
     0
 90
        4
176
     0
 62
     7
176
     0
 62
   257
176
     0
 90
        1
176
     0
 90
        1
176
     0
 40
1.0
176
     0
 90
       10
176
     2
 62
     7
176
     0
 40
1.0
176
     0
 90
        1
176
     0
 90
        6
176
     0
 90
        2
176
     0
 62
     7
176
     0
 90
        5
176
     0
 90
        0
176
     0
 90
        0
176
     0
290
     0
176
     0
 90
        1
176
     0
 40
0.0
176
     0
 90
        0
176
     0
290
     0
176
     0
290
     1
176
     0
290
     1
176
     0
290
     0
176
     0
290
     0
176
     0
290
     0
176
     0
290
     0
176
     0
290
     0
176
     0
290
     0
176
     0
 90
       50
176
     0
 40
0.0
176
     0
 40
1.0
176
     0
 90
        0
176
     0
 62
    18
420
        0
176
     0
 90
       50
176
     0
 90
        3
176
     0
 62
     5
420
      255
176
     0
290
     0
176
     0
 90
       50
176
     0
 90
       50
176
     0
 90
       50
176
     0
290
     0
176
     0
 90
       50
176
     0
 62
   256
176
     0
 40
1.0
176
     0
 90
        2
176
     0
  1
strokes_ogs.tif
176
     0
290
     0
176
     0
 40
1.0
176
     0
 40
1.0
176
     0
  0
VISUALSTYLE
  5
38
102
{ACAD_REACTORS
330
2A
102
}
330
2A
100
AcDbVisualStyle
  2
Linepattern
 70
    14
177
     3
291
     1
 70
    58
 90
        2
176
     1
 90
        2
176
     1
 90
        0
176
     1
 90
        0
176
     1
 40
0.6
176
     1
 40
30.0
176
     1
 62
     7
420
 16777215
176
     1
 90
        1
176
     1
 90
        4
176
     1
 62
     7
176
     1
 62
   257
176
     1
 90
        7
176
     1
 90
        7
176
     1
 40
1.0
176
     1
 90
        8
176
     1
 62
     7
176
     1
 40
1.0
176
     1
 90
        1
176
     1
 90
        6
176
     1
 90
        2
176
     1
 62
     7
176
     1
 90
        5
176
     1
 90
        0
176
     1
 90
        0
176
     1
290
     0
176
     1
 90
        1
176
     1
 40
0.0
176
     1
 90
        0
176
     1
290
     0
176
     1
290
     1
176
     1
290
     1
176
     1
290
     0
176
     1
290
     0
176
     1
290
     0
176
     1
290
     0
176
     1
290
     0
176
     1
290
     0
176
     1
 90
       50
176
     1
 40
0.0
176
     1
 40
1.0
176
     1
 90
        0
176
     1
 62
    18
420
        0
176
     1
 90
       50
176
     1
 90
        3
176
     1
 62
     5
420
      255
176
     1
290
     0
176
     1
 90
       50
176
     1
 90
       50
176
     1
 90
       50
176
     1
290
     0
176
     1
 90
       50
176
     1
 62
   256
176
     0
 40
1.0
176
     0
 90
        2
176
     1
  1
strokes_ogs.tif
176
     1
290
     0
176
     1
 40
1.0
176
     1
 40
1.0
176
     1
  0
VISUALSTYLE
  5
3C
102
{ACAD_REACTORS
330
2A
102
}
330
2A
100
AcDbVisualStyle
  2
OverhangOff
 70
    21
177
     3
291
     1
 70
    58
 90
        2
176
     0
 90
        2
176
     0
 90
        0
176
     0
 90
        0
176
     0
 40
0.6
176
     0
 40
30.0
176
     0
 62
     7
420
 16777215
176
     0
 90
        1
176
     0
 90
        4
176
     0
 62
     7
176
     0
 62
   257
176
     0
 90
        1
176
     0
 90
        1
176
     0
 40
1.0
176
     0
 90
        9
176
     2
 62
     7
176
     0
 40
1.0
176
     0
 90
        1
176
     0
 90
        6
176
     0
 90
        2
176
     0
 62
     7
176
     0
 90
        5
176
     0
 90
        0
176
     0
 90
        0
176
     0
290
     0
176
     0
 90
        1
176
     0
 40
0.0
176
     0
 90
        0
176
     0
290
     0
176
     0
290
     1
176
     0
290
     1
176
     0
290
     0
176
     0
290
     0
176
     0
290
     0
176
     0
290
     0
176
     0
290
     0
176
     0
290
     0
176
     0
 90
       50
176
     0
 40
0.0
176
     0
 40
1.0
176
     0
 90
        0
176
     0
 62
    18
420
        0
176
     0
 90
       50
176
     0
 90
        3
176
     0
 62
     5
420
      255
176
     0
290
     0
176
     0
 90
       50
176
     0
 90
       50
176
     0
 90
       50
176
     0
290
     0
176
     0
 90
       50
176
     0
 62
   256
176
     0
 40
1.0
176
     0
 90
        2
176
     0
  1
strokes_ogs.tif
176
     0
290
     0
176
     0
 40
1.0
176
     0
 40
1.0
176
     0
  0
VISUALSTYLE
  5
33
102
{ACAD_REACTORS
330
2A
102
}
330
2A
100
AcDbVisualStyle
  2
Realistic
 70
     8
177
     3
291
     0
 70
    58
 90
        2
176
     1
 90
        3
176
     1
 90
        0
176
     1
 90
        2
176
     1
 40
0.6
176
     1
 40
30.0
176
     1
 62
     7
420
 16777215
176
     1
 90
        0
176
     1
 90
        0
176
     1
 62
     7
176
     1
 62
   257
176
     1
 90
        1
176
     1
 90
        1
176
     1
 40
1.0
176
     1
 90
        8
176
     1
 62
   257
176
     1
 40
1.0
176
     1
 90
        1
176
     1
 90
        6
176
     1
 90
        2
176
     1
 62
     7
176
     1
 90
        3
176
     1
 90
        0
176
     1
 90
        0
176
     1
290
     0
176
     1
 90
       13
176
     1
 40
0.0
176
     1
 90
        0
176
     1
290
     0
176
     1
290
     1
176
     1
290
     1
176
     1
290
     0
176
     1
290
     0
176
     1
290
     0
176
     1
290
     0
176
     1
290
     0
176
     1
290
     0
176
     1
 90
       50
176
     1
 40
0.0
176
     1
 40
1.0
176
     1
 90
        0
176
     1
 62
    18
420
        0
176
     1
 90
       50
176
     1
 90
        3
176
     1
 62
     5
420
      255
176
     1
290
     0
176
     1
 90
       50
176
     1
 90
       50
176
     1
 90
       50
176
     1
290
     0
176
     1
 90
       50
176
     1
 62
   256
176
     0
 40
1.0
176
     0
 90
        2
176
     1
  1
strokes_ogs.tif
176
     1
290
     0
176
     1
 40
1.0
176
     1
 40
1.0
176
     1
  0
VISUALSTYLE
  5
42
102
{ACAD_REACTORS
330
2A
102
}
330
2A
100
AcDbVisualStyle
  2
Shaded
 70
    27
177
     3
291
     0
 70
    58
 90
        2
176
     1
 90
        2
176
     1
 90
        1
176
     1
 90
        2
176
     1
 40
0.6
176
     1
 40
30.0
176
     1
 62
     7
420
 16777215
176
     1
 90
        0
176
     1
 90
        4
176
     1
 62
     7
176
     1
 62
   257
176
     1
 90
        1
176
     1
 90
        1
176
     1
 40
1.0
176
     1
 90
        8
176
     1
 62
   257
176
     1
 40
1.0
176
     1
 90
        1
176
     1
 90
        6
176
     1
 90
        2
176
     1
 62
     8
420
  7895160
176
     1
 90
        3
176
     1
 90
        0
176
     1
 90
        0
176
     1
290
     0
176
     1
 90
        5
176
     1
 40
0.0
176
     1
 90
        0
176
     1
290
     0
176
     1
290
     1
176
     1
290
     1
176
     1
290
     0
176
     1
290
     0
176
     1
290
     0
176
     1
290
     0
176
     1
290
     0
176
     1
290
     0
176
     1
 90
       50
176
     1
 40
0.0
176
     1
 40
1.0
176
     1
 90
        0
176
     1
 62
    18
420
        0
176
     1
 90
       50
176
     1
 90
        3
176
     1
 62
     5
420
      255
176
     1
290
     0
176
     1
 90
       50
176
     1
 90
       50
176
     1
 90
       50
176
     1
290
     0
176
     1
 90
       50
176
     1
 62
   256
176
     0
 40
1.0
176
     0
 90
        2
176
     1
  1
strokes_ogs.tif
176
     1
290
     0
176
     1
 40
1.0
176
     1
 40
1.0
176
     1
  0
VISUALSTYLE
  5
41
102
{ACAD_REACTORS
330
2A
102
}
330
2A
100
AcDbVisualStyle
  2
Shaded with edges
 70
    26
177
     3
291
     0
 70
    58
 90
        2
176
     1
 90
        2
176
     1
 90
        1
176
     1
 90
        2
176
     1
 40
0.6
176
     1
 40
30.0
176
     1
 62
     7
420
 16777215
176
     1
 90
        1
176
     1
 90
       10
176
     1
 62
     7
176
     1
 62
   257
176
     1
 90
        2
176
     1
 90
        1
176
     1
 40
1.0
176
     1
 90
        8
176
     1
 62
   257
176
     1
 40
1.0
176
     1
 90
        1
176
     1
 90
        6
176
     1
 90
        2
176
     1
 62
     7
176
     1
 90
        3
176
     1
 90
        0
176
     1
 90
        0
176
     1
290
     0
176
     1
 90
        5
176
     1
 40
0.0
176
     1
 90
        0
176
     1
290
     0
176
     1
290
     1
176
     1
290
     1
176
     1
290
     0
176
     1
290
     0
176
     1
290
     0
176
     1
290
     0
176
     1
290
     0
176
     1
290
     0
176
     1
 90
       50
176
     1
 40
0.0
176
     1
 40
1.0
176
     1
 90
        0
176
     1
 62
    18
420
        0
176
     1
 90
       50
176
     1
 90
        3
176
     1
 62
     5
420
      255
176
     1
290
     0
176
     1
 90
       50
176
     1
 90
       50
176
     1
 90
       50
176
     1
290
     0
176
     1
 90
       50
176
     1
 62
   256
176
     0
 40
1.0
176
     0
 90
        2
176
     1
  1
strokes_ogs.tif
176
     1
290
     0
176
     1
 40
1.0
176
     1
 40
1.0
176
     1
  0
VISUALSTYLE
  5
3E
102
{ACAD_REACTORS
330
2A
102
}
330
2A
100
AcDbVisualStyle
  2
Shades of Gray
 70
    23
177
     3
291
     0
 70
    58
 90
        2
176
     1
 90
        2
176
     1
 90
        3
176
     1
 90
        0
176
     1
 40
0.6
176
     1
 40
30.0
176
     1
 62
     7
420
 16777215
176
     1
 90
        2
176
     1
 90
        2
176
     1
 62
     7
176
     1
 62
     7
176
     1
 90
        1
176
     1
 90
        1
176
     1
 40
40.0
176
     1
 90
        8
176
     1
 62
     7
176
     1
 40
1.0
176
     1
 90
        1
176
     1
 90
        6
176
     1
 90
        2
176
     1
 62
     7
176
     1
 90
        3
176
     1
 90
        0
176
     1
 90
        0
176
     1
290
     0
176
     1
 90
        1
176
     1
 40
0.0
176
     1
 90
        0
176
     1
290
     0
176
     1
290
     1
176
     1
290
     1
176
     1
290
     0
176
     1
290
     0
176
     1
290
     0
176
     1
290
     0
176
     1
290
     0
176
     1
290
     0
176
     1
 90
       50
176
     1
 40
0.0
176
     1
 40
1.0
176
     1
 90
        0
176
     1
 62
    18
420
        0
176
     1
 90
       50
176
     1
 90
        3
176
     1
 62
     5
420
      255
176
     1
290
     0
176
     1
 90
       50
176
     1
 90
       50
176
     1
 90
       50
176
     1
290
     0
176
     1
 90
       50
176
     1
 62
   256
176
     0
 40
1.0
176
     0
 90
        2
176
     1
  1
strokes_ogs.tif
176
     1
290
     0
176
     1
 40
1.0
176
     1
 40
1.0
176
     1
  0
VISUALSTYLE
  5
3F
102
{ACAD_REACTORS
330
2A
102
}
330
2A
100
AcDbVisualStyle
  2
Sketchy
 70
    24
177
     3
291
     0
 70
    58
 90
        1
176
     1
 90
        2
176
     1
 90
        2
176
     1
 90
        0
176
     1
 40
0.6
176
     1
 40
30.0
176
     1
 62
     7
420
 16777215
176
     1
 90
        2
176
     1
 90
        2
176
     1
 62
     7
176
     1
 62
     7
176
     1
 90
        1
176
     1
 90
        1
176
     1
 40
40.0
176
     1
 90
       11
176
     1
 62
     7
176
     1
 40
1.0
176
     1
 90
        1
176
     1
 90
        6
176
     1
 90
        2
176
     1
 62
     7
176
     1
 90
        6
176
     1
 90
        0
176
     1
 90
        0
176
     1
290
     0
176
     1
 90
        1
176
     1
 40
0.0
176
     1
 90
        0
176
     1
290
     0
176
     1
290
     1
176
     1
290
     1
176
     1
290
     0
176
     1
290
     0
176
     1
290
     0
176
     1
290
     0
176
     1
290
     0
176
     1
290
     0
176
     1
 90
       50
176
     1
 40
0.0
176
     1
 40
1.0
176
     1
 90
        0
176
     1
 62
    18
420
        0
176
     1
 90
       50
176
     1
 90
        3
176
     1
 62
     5
420
      255
176
     1
290
     0
176
     1
 90
       50
176
     1
 90
       50
176
     1
 90
       50
176
     1
290
     0
176
     1
 90
       50
176
     1
 62
   256
176
     0
 40
1.0
176
     0
 90
        2
176
     1
  1
strokes_ogs.tif
176
     1
290
     0
176
     1
 40
1.0
176
     1
 40
1.0
176
     1
  0
VISUALSTYLE
  5
37
102
{ACAD_REACTORS
330
2A
102
}
330
2A
100
AcDbVisualStyle
  2
Thicken
 70
    13
177
     3
291
     1
 70
    58
 90
        2
176
     1
 90
        2
176
     1
 90
        0
176
     1
 90
        0
176
     1
 40
0.6
176
     1
 40
30.0
176
     1
 62
     7
420
 16777215
176
     1
 90
        1
176
     1
 90
        4
176
     1
 62
     7
176
     1
 62
   257
176
     1
 90
        1
176
     1
 90
        1
176
     1
 40
1.0
176
     1
 90
       12
176
     1
 62
     7
176
     1
 40
1.0
176
     1
 90
        1
176
     1
 90
        6
176
     1
 90
        2
176
     1
 62
     7
176
     1
 90
        5
176
     1
 90
        0
176
     1
 90
        0
176
     1
290
     0
176
     1
 90
        1
176
     1
 40
0.0
176
     1
 90
        0
176
     1
290
     0
176
     1
290
     1
176
     1
290
     1
176
     1
290
     0
176
     1
290
     0
176
     1
290
     0
176
     1
290
     0
176
     1
290
     0
176
     1
290
     0
176
     1
 90
       50
176
     1
 40
0.0
176
     1
 40
1.0
176
     1
 90
        0
176
     1
 62
    18
420
        0
176
     1
 90
       50
176
     1
 90
        3
176
     1
 62
     5
420
      255
176
     1
290
     0
176
     1
 90
       50
176
     1
 90
       50
176
     1
 90
       50
176
     1
290
     0
176
     1
 90
       50
176
     1
 62
   256
176
     0
 40
1.0
176
     0
 90
        2
176
     1
  1
strokes_ogs.tif
176
     1
290
     0
176
     1
 40
1.0
176
     1
 40
1.0
176
     1
  0
VISUALSTYLE
  5
30
102
{ACAD_REACTORS
330
2A
102
}
330
2A
100
AcDbVisualStyle
  2
Wireframe
 70
     5
177
     3
291
     0
 70
    58
 90
        0
176
     1
 90
        2
176
     1
 90
        0
176
     1
 90
        0
176
     1
 40
0.6
176
     1
 40
30.0
176
     1
 62
     7
420
 16777215
176
     1
 90
        1
176
     1
 90
        4
176
     1
 62
     7
176
     1
 62
   257
176
     1
 90
        1
176
     1
 90
        1
176
     1
 40
1.0
176
     1
 90
        0
176
     1
 62
   257
176
     1
 40
1.0
176
     1
 90
        1
176
     1
 90
        6
176
     1
 90
        2
176
     1
 62
     7
176
     1
 90
        3
176
     1
 90
        0
176
     1
 90
        0
176
     1
290
     0
176
     1
 90
        1
176
     1
 40
0.0
176
     1
 90
        0
176
     1
290
     0
176
     1
290
     1
176
     1
290
     1
176
     1
290
     0
176
     1
290
     0
176
     1
290
     0
176
     1
290
     0
176
     1
290
     0
176
     1
290
     0
176
     1
 90
       50
176
     1
 40
0.0
176
     1
 40
1.0
176
     1
 90
        0
176
     1
 62
    18
420
        0
176
     1
 90
       50
176
     1
 90
        3
176
     1
 62
     5
420
      255
176
     1
290
     0
176
     1
 90
       50
176
     1
 90
       50
176
     1
 90
       50
176
     1
290
     0
176
     1
 90
       50
176
     1
 62
   256
176
     0
 40
1.0
176
     0
 90
        2
176
     1
  1
strokes_ogs.tif
176
     1
290
     0
176
     1
 40
1.0
176
     1
 40
1.0
176
     1
  0
VISUALSTYLE
  5
40
102
{ACAD_REACTORS
330
2A
102
}
330
2A
100
AcDbVisualStyle
  2
X-Ray
 70
    25
177
     3
291
     0
 70
    58
 90
        2
176
     1
 90
        2
176
     1
 90
        1
176
     1
 90
        1
176
     1
 40
0.5
176
     1
 40
30.0
176
     1
 62
     7
420
 16777215
176
     1
 90
        1
176
     1
 90
        0
176
     1
 62
     7
176
     1
 62
   257
176
     1
 90
        1
176
     1
 90
        1
176
     1
 40
1.0
176
     1
 90
        8
176
     1
 62
     7
176
     1
 40
1.0
176
     1
 90
        1
176
     1
 90
        6
176
     1
 90
        2
176
     1
 62
     7
176
     1
 90
        3
176
     1
 90
        0
176
     1
 90
        0
176
     1
290
     0
176
     1
 90
       13
176
     1
 40
0.0
176
     1
 90
        0
176
     1
290
     0
176
     1
290
     1
176
     1
290
     1
176
     1
290
     0
176
     1
290
     0
176
     1
290
     0
176
     1
290
     0
176
     1
290
     0
176
     1
290
     0
176
     1
 90
       50
176
     1
 40
0.0
176
     1
 40
1.0
176
     1
 90
        0
176
     1
 62
    18
420
        0
176
     1
 90
       50
176
     1
 90
        3
176
     1
 62
     5
420
      255
176
     1
290
     0
176
     1
 90
       50
176
     1
 90
       50
176
     1
 90
       50
176
     1
290
     0
176
     1
 90
       50
176
     1
 62
   256
176
     0
 40
1.0
176
     0
 90
        2
176
     1
  1
strokes_ogs.tif
176
     1
290
     0
176
     1
 40
1.0
176
     1
 40
1.0
176
     1
  0
DICTIONARYVAR
  5
1A3
102
{ACAD_REACTORS
330
1A2
102
}
330
1A2
100
DictionaryVariables
280
     0
  1
1:1
  0
DICTIONARYVAR
  5
1A8
102
{ACAD_REACTORS
330
1A2
102
}
330
1A2
100
DictionaryVariables
280
     0
  1
Standard
  0
DICTIONARYVAR
  5
1A7
102
{ACAD_REACTORS
330
1A2
102
}
330
1A2
100
DictionaryVariables
280
     0
  1
Standard
  0
DICTIONARY
  5
1A4
330
6A
100
AcDbDictionary
280
     1
281
     1
  3
ACAD_ROUNDTRIP_2008_TABLESTYLE_CELLSTYLEMAP
360
1A5
  0
CELLSTYLEMAP
  5
1A5
102
{ACAD_REACTORS
330
1A4
102
}
330
1A4
100
AcDbCellStyleMap
 90
        3
300
CELLSTYLE
  1
TABLEFORMAT_BEGIN
 90
        5
170
     1
 91
        0
 92
    32768
 62
   257
 93
        1
300
CONTENTFORMAT
  1
CONTENTFORMAT_BEGIN
 90
        0
 91
        0
 92
        4
 93
        0
300

 40
0.0
140
1.0
 94
        5
 62
     0
340
11
144
0.25
309
CONTENTFORMAT_END
171
     1
301
MARGIN
  1
CELLMARGIN_BEGIN
 40
0.06
 40
0.06
 40
0.06
 40
0.06
 40
0.06
 40
0.06
309
CELLMARGIN_END
 94
        6
 95
        1
302
GRIDFORMAT
  1
GRIDFORMAT_BEGIN
 90
        0
 91
        1
 62
     0
 92
       -2
340
14
 93
        0
 40
0.045
309
GRIDFORMAT_END
 95
        2
302
GRIDFORMAT
  1
GRIDFORMAT_BEGIN
 90
        0
 91
        1
 62
     0
 92
       -2
340
14
 93
        0
 40
0.045
309
GRIDFORMAT_END
 95
        4
302
GRIDFORMAT
  1
GRIDFORMAT_BEGIN
 90
        0
 91
        1
 62
     0
 92
       -2
340
14
 93
        0
 40
0.045
309
GRIDFORMAT_END
 95
        8
302
GRIDFORMAT
  1
GRIDFORMAT_BEGIN
 90
        0
 91
        1
 62
     0
 92
       -2
340
14
 93
        0
 40
0.045
309
GRIDFORMAT_END
 95
       16
302
GRIDFORMAT
  1
GRIDFORMAT_BEGIN
 90
        0
 91
        1
 62
     0
 92
       -2
340
14
 93
        0
 40
0.045
309
GRIDFORMAT_END
 95
       32
302
GRIDFORMAT
  1
GRIDFORMAT_BEGIN
 90
        0
 91
        1
 62
     0
 92
       -2
340
14
 93
        0
 40
0.045
309
GRIDFORMAT_END
309
TABLEFORMAT_END
  1
CELLSTYLE_BEGIN
 90
        1
 91
        1
300
_TITLE
309
CELLSTYLE_END
300
CELLSTYLE
  1
TABLEFORMAT_BEGIN
 90
        5
170
     1
 91
        0
 92
        0
 62
   257
 93
        1
300
CONTENTFORMAT
  1
CONTENTFORMAT_BEGIN
 90
        0
 91
        0
 92
        4
 93
        0
300

 40
0.0
140
1.0
 94
        5
 62
     0
340
11
144
0.18
309
CONTENTFORMAT_END
171
     1
301
MARGIN
  1
CELLMARGIN_BEGIN
 40
0.06
 40
0.06
 40
0.06
 40
0.06
 40
0.06
 40
0.06
309
CELLMARGIN_END
 94
        6
 95
        1
302
GRIDFORMAT
  1
GRIDFORMAT_BEGIN
 90
        0
 91
        1
 62
     0
 92
       -2
340
14
 93
        0
 40
0.045
309
GRIDFORMAT_END
 95
        2
302
GRIDFORMAT
  1
GRIDFORMAT_BEGIN
 90
        0
 91
        1
 62
     0
 92
       -2
340
14
 93
        0
 40
0.045
309
GRIDFORMAT_END
 95
        4
302
GRIDFORMAT
  1
GRIDFORMAT_BEGIN
 90
        0
 91
        1
 62
     0
 92
       -2
340
14
 93
        0
 40
0.045
309
GRIDFORMAT_END
 95
        8
302
GRIDFORMAT
  1
GRIDFORMAT_BEGIN
 90
        0
 91
        1
 62
     0
 92
       -2
340
14
 93
        0
 40
0.045
309
GRIDFORMAT_END
 95
       16
302
GRIDFORMAT
  1
GRIDFORMAT_BEGIN
 90
        0
 91
        1
 62
     0
 92
       -2
340
14
 93
        0
 40
0.045
309
GRIDFORMAT_END
 95
       32
302
GRIDFORMAT
  1
GRIDFORMAT_BEGIN
 90
        0
 91
        1
 62
     0
 92
       -2
340
14
 93
        0
 40
0.045
309
GRIDFORMAT_END
309
TABLEFORMAT_END
  1
CELLSTYLE_BEGIN
 90
        2
 91
        1
300
_HEADER
309
CELLSTYLE_END
300
CELLSTYLE
  1
TABLEFORMAT_BEGIN
 90
        5
170
     1
 91
        0
 92
        0
 62
   257
 93
        1
300
CONTENTFORMAT
  1
CONTENTFORMAT_BEGIN
 90
        0
 91
        0
 92
        4
 93
        0
300

 40
0.0
140
1.0
 94
        2
 62
     0
340
11
144
0.18
309
CONTENTFORMAT_END
171
     1
301
MARGIN
  1
CELLMARGIN_BEGIN
 40
0.06
 40
0.06
 40
0.06
 40
0.06
 40
0.06
 40
0.06
309
CELLMARGIN_END
 94
        6
 95
        1
302
GRIDFORMAT
  1
GRIDFORMAT_BEGIN
 90
        0
 91
        1
 62
     0
 92
       -2
340
14
 93
        0
 40
0.045
309
GRIDFORMAT_END
 95
        2
302
GRIDFORMAT
  1
GRIDFORMAT_BEGIN
 90
        0
 91
        1
 62
     0
 92
       -2
340
14
 93
        0
 40
0.045
309
GRIDFORMAT_END
 95
        4
302
GRIDFORMAT
  1
GRIDFORMAT_BEGIN
 90
        0
 91
        1
 62
     0
 92
       -2
340
14
 93
        0
 40
0.045
309
GRIDFORMAT_END
 95
        8
302
GRIDFORMAT
  1
GRIDFORMAT_BEGIN
 90
        0
 91
        1
 62
     0
 92
       -2
340
14
 93
        0
 40
0.045
309
GRIDFORMAT_END
 95
       16
302
GRIDFORMAT
  1
GRIDFORMAT_BEGIN
 90
        0
 91
        1
 62
     0
 92
       -2
340
14
 93
        0
 40
0.045
309
GRIDFORMAT_END
 95
       32
302
GRIDFORMAT
  1
GRIDFORMAT_BEGIN
 90
        0
 91
        1
 62
     0
 92
       -2
340
14
 93
        0
 40
0.045
309
GRIDFORMAT_END
309
TABLEFORMAT_END
  1
CELLSTYLE_BEGIN
 90
        3
 91
        2
300
_DATA
309
CELLSTYLE_END
  0
ENDSEC
  0
EOF