0
SECTION
  2
HEADER
  9
$ACADVER
  1
AC1027
  9
$ACADMAINTVER
 70
     8
  9
$DWGCODEPAGE
  3
ANSI_1252
  9
$REQUIREDVERSIONS
160
                 0
  9
$COMMENTS
  1
File was created by Cadenas
  9
$CUSTOMPROPERTYTAG
  1
NN
  9
$CUSTOMPROPERTY
  1
Double-Interlock D Units Gray Iron - Inch
  9
$CUSTOMPROPERTYTAG
  1
NT
  9
$CUSTOMPROPERTY
  1
Double-Interlock Bearings
  9
$CUSTOMPROPERTYTAG
  1
NB
  9
$CUSTOMPROPERTY
  1
023487
  9
$CUSTOMPROPERTYTAG
  1
NBSYN
  9
$CUSTOMPROPERTY
  1
$PN.
  9
$CUSTOMPROPERTYTAG
  1
LINA
  9
$CUSTOMPROPERTY
  1
023487
  9
$CUSTOMPROPERTYTAG
  1
SS
  9
$CUSTOMPROPERTY
  1
1-15/16
  9
$CUSTOMPROPERTYTAG
  1
PN
  9
$CUSTOMPROPERTY
  1
023487
  9
$CUSTOMPROPERTYTAG
  1
DESCRIPTION
  9
$CUSTOMPROPERTY
  1
DU-DI-115R
  9
$CUSTOMPROPERTYTAG
  1
A
  9
$CUSTOMPROPERTY
  1
3-1/2
  9
$CUSTOMPROPERTYTAG
  1
B
  9
$CUSTOMPROPERTY
  1
2-7/16
  9
$CUSTOMPROPERTYTAG
  1
H
  9
$CUSTOMPROPERTY
  1
11/16
  9
$CUSTOMPROPERTYTAG
  1
L
  9
$CUSTOMPROPERTY
  1
3-7/16
  9
$CUSTOMPROPERTYTAG
  1
N
  9
$CUSTOMPROPERTY
  1
3-1/4
  9
$CUSTOMPROPERTYTAG
  1
P
  9
$CUSTOMPROPERTY
  1
4-7/16
  9
$CUSTOMPROPERTYTAG
  1
S
  9
$CUSTOMPROPERTY
  1
4.656
  9
$CUSTOMPROPERTYTAG
  1
COMPANY
  9
$CUSTOMPROPERTY
  1
baldor
  9
$INSBASE
 10
0.0
 20
0.0
 30
0.0
  9
$EXTMIN
 10
1.000000000000000E+20
 20
1.000000000000000E+20
 30
1.000000000000000E+20
  9
$EXTMAX
 10
-1.000000000000000E+20
 20
-1.000000000000000E+20
 30
-1.000000000000000E+20
  9
$LIMMIN
 10
0.0
 20
0.0
  9
$LIMMAX
 10
12.0
 20
9.0
  9
$ORTHOMODE
 70
     0
  9
$REGENMODE
 70
     1
  9
$FILLMODE
 70
     1
  9
$QTEXTMODE
 70
     0
  9
$MIRRTEXT
 70
     1
  9
$LTSCALE
 40
1.0
  9
$ATTMODE
 70
     1
  9
$TEXTSIZE
 40
0.2
  9
$TRACEWID
 40
0.05
  9
$TEXTSTYLE
  7
Standard
  9
$CLAYER
  8
0
  9
$CELTYPE
  6
ByLayer
  9
$CECOLOR
 62
   256
  9
$CELTSCALE
 40
1.0
  9
$DISPSILH
 70
     0
  9
$DIMSCALE
 40
1.0
  9
$DIMASZ
 40
0.18
  9
$DIMEXO
 40
0.0625
  9
$DIMDLI
 40
0.38
  9
$DIMRND
 40
0.0
  9
$DIMDLE
 40
0.0
  9
$DIMEXE
 40
0.18
  9
$DIMTP
 40
0.0
  9
$DIMTM
 40
0.0
  9
$DIMTXT
 40
0.18
  9
$DIMCEN
 40
0.09
  9
$DIMTSZ
 40
0.0
  9
$DIMTOL
 70
     0
  9
$DIMLIM
 70
     0
  9
$DIMTIH
 70
     1
  9
$DIMTOH
 70
     1
  9
$DIMSE1
 70
     0
  9
$DIMSE2
 70
     0
  9
$DIMTAD
 70
     0
  9
$DIMZIN
 70
     0
  9
$DIMBLK
  1

  9
$DIMASO
 70
     1
  9
$DIMSHO
 70
     1
  9
$DIMPOST
  1

  9
$DIMAPOST
  1

  9
$DIMALT
 70
     0
  9
$DIMALTD
 70
     2
  9
$DIMALTF
 40
25.4
  9
$DIMLFAC
 40
1.0
  9
$DIMTOFL
 70
     0
  9
$DIMTVP
 40
0.0
  9
$DIMTIX
 70
     0
  9
$DIMSOXD
 70
     0
  9
$DIMSAH
 70
     0
  9
$DIMBLK1
  1

  9
$DIMBLK2
  1

  9
$DIMSTYLE
  2
Standard
  9
$DIMCLRD
 70
     0
  9
$DIMCLRE
 70
     0
  9
$DIMCLRT
 70
     0
  9
$DIMTFAC
 40
1.0
  9
$DIMGAP
 40
0.09
  9
$DIMJUST
 70
     0
  9
$DIMSD1
 70
     0
  9
$DIMSD2
 70
     0
  9
$DIMTOLJ
 70
     1
  9
$DIMTZIN
 70
     0
  9
$DIMALTZ
 70
     0
  9
$DIMALTTZ
 70
     0
  9
$DIMUPT
 70
     0
  9
$DIMDEC
 70
     4
  9
$DIMTDEC
 70
     4
  9
$DIMALTU
 70
     2
  9
$DIMALTTD
 70
     2
  9
$DIMTXSTY
  7
Standard
  9
$DIMAUNIT
 70
     0
  9
$DIMADEC
 70
     0
  9
$DIMALTRND
 40
0.0
  9
$DIMAZIN
 70
     0
  9
$DIMDSEP
 70
    46
  9
$DIMATFIT
 70
     3
  9
$DIMFRAC
 70
     0
  9
$DIMLDRBLK
  1

  9
$DIMLUNIT
 70
     2
  9
$DIMLWD
 70
    -2
  9
$DIMLWE
 70
    -2
  9
$DIMTMOVE
 70
     0
  9
$DIMFXL
 40
1.0
  9
$DIMFXLON
 70
     0
  9
$DIMJOGANG
 40
0.7853981633974483
  9
$DIMTFILL
 70
     0
  9
$DIMTFILLCLR
 70
     0
  9
$DIMARCSYM
 70
     0
  9
$DIMLTYPE
  6

  9
$DIMLTEX1
  6

  9
$DIMLTEX2
  6

  9
$DIMTXTDIRECTION
 70
     0
  9
$LUNITS
 70
     2
  9
$LUPREC
 70
     4
  9
$SKETCHINC
 40
0.1
  9
$FILLETRAD
 40
0.5
  9
$AUNITS
 70
     0
  9
$AUPREC
 70
     0
  9
$MENU
  1
.
  9
$ELEVATION
 40
0.0
  9
$PELEVATION
 40
0.0
  9
$THICKNESS
 40
0.0
  9
$LIMCHECK
 70
     0
  9
$CHAMFERA
 40
0.0
  9
$CHAMFERB
 40
0.0
  9
$CHAMFERC
 40
0.0
  9
$CHAMFERD
 40
0.0
  9
$SKPOLY
 70
     0
  9
$TDCREATE
 40
2458169.015433982
  9
$TDUCREATE
 40
2458168.973767315
  9
$TDUPDATE
 40
2458169.015433982
  9
$TDUUPDATE
 40
2458168.973767315
  9
$TDINDWG
 40
0.0000000116
  9
$TDUSRTIMER
 40
0.0000000116
  9
$USRTIMER
 70
     1
  9
$ANGBASE
 50
0.0
  9
$ANGDIR
 70
     0
  9
$PDMODE
 70
     0
  9
$PDSIZE
 40
0.0
  9
$PLINEWID
 40
0.0
  9
$SPLFRAME
 70
     0
  9
$SPLINETYPE
 70
     6
  9
$SPLINESEGS
 70
     8
  9
$HANDSEED
  5
1AB
  9
$SURFTAB1
 70
     6
  9
$SURFTAB2
 70
     6
  9
$SURFTYPE
 70
     6
  9
$SURFU
 70
     6
  9
$SURFV
 70
     6
  9
$UCSBASE
  2

  9
$UCSNAME
  2

  9
$UCSORG
 10
0.0
 20
0.0
 30
0.0
  9
$UCSXDIR
 10
1.0
 20
0.0
 30
0.0
  9
$UCSYDIR
 10
0.0
 20
1.0
 30
0.0
  9
$UCSORTHOREF
  2

  9
$UCSORTHOVIEW
 70
     0
  9
$UCSORGTOP
 10
0.0
 20
0.0
 30
0.0
  9
$UCSORGBOTTOM
 10
0.0
 20
0.0
 30
0.0
  9
$UCSORGLEFT
 10
0.0
 20
0.0
 30
0.0
  9
$UCSORGRIGHT
 10
0.0
 20
0.0
 30
0.0
  9
$UCSORGFRONT
 10
0.0
 20
0.0
 30
0.0
  9
$UCSORGBACK
 10
0.0
 20
0.0
 30
0.0
  9
$PUCSBASE
  2

  9
$PUCSNAME
  2

  9
$PUCSORG
 10
0.0
 20
0.0
 30
0.0
  9
$PUCSXDIR
 10
1.0
 20
0.0
 30
0.0
  9
$PUCSYDIR
 10
0.0
 20
1.0
 30
0.0
  9
$PUCSORTHOREF
  2

  9
$PUCSORTHOVIEW
 70
     0
  9
$PUCSORGTOP
 10
0.0
 20
0.0
 30
0.0
  9
$PUCSORGBOTTOM
 10
0.0
 20
0.0
 30
0.0
  9
$PUCSORGLEFT
 10
0.0
 20
0.0
 30
0.0
  9
$PUCSORGRIGHT
 10
0.0
 20
0.0
 30
0.0
  9
$PUCSORGFRONT
 10
0.0
 20
0.0
 30
0.0
  9
$PUCSORGBACK
 10
0.0
 20
0.0
 30
0.0
  9
$USERI1
 70
     0
  9
$USERI2
 70
     0
  9
$USERI3
 70
     0
  9
$USERI4
 70
     0
  9
$USERI5
 70
     0
  9
$USERR1
 40
0.0
  9
$USERR2
 40
0.0
  9
$USERR3
 40
0.0
  9
$USERR4
 40
0.0
  9
$USERR5
 40
0.0
  9
$WORLDVIEW
 70
     1
  9
$SHADEDGE
 70
     3
  9
$SHADEDIF
 70
    70
  9
$TILEMODE
 70
     1
  9
$MAXACTVP
 70
    64
  9
$PINSBASE
 10
0.0
 20
0.0
 30
0.0
  9
$PLIMCHECK
 70
     0
  9
$PEXTMIN
 10
1.000000000000000E+20
 20
1.000000000000000E+20
 30
1.000000000000000E+20
  9
$PEXTMAX
 10
-1.000000000000000E+20
 20
-1.000000000000000E+20
 30
-1.000000000000000E+20
  9
$PLIMMIN
 10
0.0
 20
0.0
  9
$PLIMMAX
 10
12.0
 20
9.0
  9
$UNITMODE
 70
     0
  9
$VISRETAIN
 70
     1
  9
$PLINEGEN
 70
     0
  9
$PSLTSCALE
 70
     1
  9
$TREEDEPTH
 70
  3020
  9
$CMLSTYLE
  2
Standard
  9
$CMLJUST
 70
     0
  9
$CMLSCALE
 40
1.0
  9
$PROXYGRAPHICS
 70
     1
  9
$MEASUREMENT
 70
     0
  9
$CELWEIGHT
370
    -1
  9
$ENDCAPS
280
     0
  9
$JOINSTYLE
280
     0
  9
$LWDISPLAY
290
     0
  9
$INSUNITS
 70
     1
  9
$HYPERLINKBASE
  1

  9
$STYLESHEET
  1

  9
$XEDIT
290
     1
  9
$CEPSNTYPE
380
     0
  9
$PSTYLEMODE
290
     1
  9
$FINGERPRINTGUID
  2
{5E69A7A7-3B75-4A39-B75E-C1A917007BCD}
  9
$VERSIONGUID
  2
{FAEB1C32-E019-11D5-929B-00C0DF256EC4}
  9
$EXTNAMES
290
     1
  9
$PSVPSCALE
 40
0.0
  9
$OLESTARTUP
290
     0
  9
$SORTENTS
280
   127
  9
$INDEXCTL
280
     0
  9
$HIDETEXT
280
     1
  9
$XCLIPFRAME
280
     2
  9
$HALOGAP
280
     0
  9
$OBSCOLOR
 70
   257
  9
$OBSLTYPE
280
     0
  9
$INTERSECTIONDISPLAY
280
     0
  9
$INTERSECTIONCOLOR
 70
   257
  9
$DIMASSOC
280
     2
  9
$PROJECTNAME
  1

  9
$CAMERADISPLAY
290
     0
  9
$LENSLENGTH
 40
50.0
  9
$CAMERAHEIGHT
 40
0.0
  9
$STEPSPERSEC
 40
2.0
  9
$STEPSIZE
 40
6.0
  9
$3DDWFPREC
 40
2.0
  9
$PSOLWIDTH
 40
0.25
  9
$PSOLHEIGHT
 40
4.0
  9
$LOFTANG1
 40
1.570796326794897
  9
$LOFTANG2
 40
1.570796326794897
  9
$LOFTMAG1
 40
0.0
  9
$LOFTMAG2
 40
0.0
  9
$LOFTPARAM
 70
     7
  9
$LOFTNORMALS
280
     1
  9
$LATITUDE
 40
37.795
  9
$LONGITUDE
 40
-122.394
  9
$NORTHDIRECTION
 40
0.0
  9
$TIMEZONE
 70
 -8000
  9
$LIGHTGLYPHDISPLAY
280
     1
  9
$TILEMODELIGHTSYNCH
280
     1
  9
$CMATERIAL
347
44
  9
$SOLIDHIST
280
     0
  9
$SHOWHIST
280
     1
  9
$DWFFRAME
280
     2
  9
$DGNFRAME
280
     2
  9
$REALWORLDSCALE
290
     1
  9
$INTERFERECOLOR
 62
   256
  9
$CSHADOW
280
     0
  9
$SHADOWPLANELOCATION
 40
0.0
  0
ENDSEC
  0
SECTION
  2
CLASSES
  0
CLASS
  1
ACDBDICTIONARYWDFLT
  2
AcDbDictionaryWithDefault
  3
ObjectDBX Classes
 90
        0
 91
        4
280
     0
281
     0
  0
CLASS
  1
VISUALSTYLE
  2
AcDbVisualStyle
  3
ObjectDBX Classes
 90
     4095
 91
        4
280
     0
281
     0
  0
CLASS
  1
MATERIAL
  2
AcDbMaterial
  3
ObjectDBX Classes
 90
     1153
 91
        4
280
     0
281
     0
  0
CLASS
  1
SCALE
  2
AcDbScale
  3
ObjectDBX Classes
 90
     1153
 91
        4
280
     0
281
     0
  0
CLASS
  1
TABLESTYLE
  2
AcDbTableStyle
  3
ObjectDBX Classes
 90
     4095
 91
        4
280
     0
281
     0
  0
CLASS
  1
MLEADERSTYLE
  2
AcDbMLeaderStyle
  3
ACDB_MLEADERSTYLE_CLASS
 90
     4095
 91
        4
280
     0
281
     0
  0
CLASS
  1
SUN
  2
AcDbSun
  3
SCENEOE
 90
     1153
 91
        4
280
     0
281
     0
  0
CLASS
  1
DICTIONARYVAR
  2
AcDbDictionaryVar
  3
ObjectDBX Classes
 90
        0
 91
        4
280
     0
281
     0
  0
CLASS
  1
CELLSTYLEMAP
  2
AcDbCellStyleMap
  3
ObjectDBX Classes
 90
     1152
 91
        4
280
     0
281
     0
  0
ENDSEC
  0
SECTION
  2
TABLES
  0
TABLE
  2
VPORT
  5
8
330
0
100
AcDbSymbolTable
 70
     1
  0
VPORT
  5
29
330
8
100
AcDbSymbolTableRecord
100
AcDbViewportTableRecord
  2
*Active
 70
     0
 10
0.0
 20
0.0
 11
1.0
 21
1.0
 12
0.0
 22
0.5316249999999441
 13
0.0
 23
0.0
 14
0.5
 24
0.5
 15
0.5
 25
0.5
 16
0.0
 26
0.0
 36
1.0
 17
0.0
 27
0.0
 37
0.0
 40
5.610765000000114
 41
0.6999045584692857
 42
50.0
 43
0.0
 44
0.0
 50
0.0
 51
0.0
 71
     0
 72
   100
 73
     1
 74
     3
 75
     0
 76
     0
 77
     0
 78
     0
281
     0
 65
     1
110
0.0
120
0.0
130
0.0
111
1.0
121
0.0
131
0.0
112
0.0
122
1.0
132
0.0
 79
     0
146
0.0
348
2F
 60
     3
 61
     5
292
     1
282
     1
141
0.0
142
0.0
 63
   250
361
6D
  0
ENDTAB
  0
TABLE
  2
LTYPE
  5
5
330
0
100
AcDbSymbolTable
 70
     3
  0
LTYPE
  5
14
330
5
100
AcDbSymbolTableRecord
100
AcDbLinetypeTableRecord
  2
ByBlock
 70
     0
  3

 72
    65
 73
     0
 40
0.0
  0
LTYPE
  5
15
330
5
100
AcDbSymbolTableRecord
100
AcDbLinetypeTableRecord
  2
ByLayer
 70
     0
  3

 72
    65
 73
     0
 40
0.0
  0
LTYPE
  5
16
330
5
100
AcDbSymbolTableRecord
100
AcDbLinetypeTableRecord
  2
Continuous
 70
     0
  3
Solid line
 72
    65
 73
     0
 40
0.0
  0
LTYPE
  5
98
330
5
100
AcDbSymbolTableRecord
100
AcDbLinetypeTableRecord
  2
Dashed
 70
     0
  3

 72
    65
 73
     2
 40
2.0
 49
1.0
 74
     0
 49
-1.0
 74
     0
  0
LTYPE
  5
180
330
5
100
AcDbSymbolTableRecord
100
AcDbLinetypeTableRecord
  2
Center
 70
     0
  3

 72
    65
 73
     4
 40
1.5
 49
0.45
 74
     0
 49
-0.5
 74
     0
 49
0.05
 74
     0
 49
-0.5
 74
     0
  0
ENDTAB
  0
TABLE
  2
LAYER
  5
2
330
0
100
AcDbSymbolTable
 70
     7
  0
LAYER
  5
10
330
2
100
AcDbSymbolTableRecord
100
AcDbLayerTableRecord
  2
0
 70
     0
 62
     7
  6
Continuous
370
    -3
390
F
347
46
348
0
  0
LAYER
  5
72
330
2
100
AcDbSymbolTableRecord
100
AcDbLayerTableRecord
  2
AM_6
 70
     0
 62
    -2
  6
Continuous
370
    35
390
F
347
46
348
0
  0
LAYER
  5
99
330
2
100
AcDbSymbolTableRecord
100
AcDbLayerTableRecord
  2
AM_9
 70
     0
 62
     6
  6
Dashed
370
    25
390
F
347
46
348
0
  0
LAYER
  5
B0
330
2
100
AcDbSymbolTableRecord
100
AcDbLayerTableRecord
  2
AM_5
 70
     0
 62
     3
  6
Continuous
370
    25
390
F
347
46
348
0
  0
LAYER
  5
B3
330
2
100
AcDbSymbolTableRecord
100
AcDbLayerTableRecord
  2
AM_4
 70
     0
 62
     7
  6
Continuous
370
    50
390
F
347
46
348
0
  0
LAYER
  5
181
330
2
100
AcDbSymbolTableRecord
100
AcDbLayerTableRecord
  2
AM_7
 70
     0
 62
     7
  6
Center
370
    25
390
F
347
46
348
0
  0
LAYER
  5
19A
330
2
100
AcDbSymbolTableRecord
100
AcDbLayerTableRecord
  2
ConnectionPoints
 70
     0
 62
     7
  6
Continuous
370
    50
390
F
347
46
348
0
  0
ENDTAB
  0
TABLE
  2
STYLE
  5
3
330
0
100
AcDbSymbolTable
 70
     1
  0
STYLE
  5
11
330
3
100
AcDbSymbolTableRecord
100
AcDbTextStyleTableRecord
  2
Standard
 70
     0
 40
0.0
 41
1.0
 50
0.0
 71
     0
 42
0.2
  3
txt
  4

  0
ENDTAB
  0
TABLE
  2
VIEW
  5
6
330
0
100
AcDbSymbolTable
 70
     0
  0
ENDTAB
  0
TABLE
  2
UCS
  5
7
330
0
100
AcDbSymbolTable
 70
     0
  0
ENDTAB
  0
TABLE
  2
APPID
  5
9
330
0
100
AcDbSymbolTable
 70
     1
  0
APPID
  5
12
330
9
100
AcDbSymbolTableRecord
100
AcDbRegAppTableRecord
  2
ACAD
 70
     0
  0
ENDTAB
  0
TABLE
  2
DIMSTYLE
  5
A
330
0
100
AcDbSymbolTable
 70
     1
100
AcDbDimStyleTable
  0
DIMSTYLE
105
27
330
A
100
AcDbSymbolTableRecord
100
AcDbDimStyleTableRecord
  2
Standard
 70
     0
178
     0
340
11
  0
ENDTAB
  0
TABLE
  2
BLOCK_RECORD
  5
1
330
0
100
AcDbSymbolTable
 70
     6
  0
BLOCK_RECORD
  5
1F
330
1
100
AcDbSymbolTableRecord
100
AcDbBlockTableRecord
  2
*Model_Space
340
22
 70
     0
280
     1
281
     0
  0
BLOCK_RECORD
  5
1B
330
1
100
AcDbSymbolTableRecord
100
AcDbBlockTableRecord
  2
*Paper_Space
340
1E
 70
     0
280
     1
281
     0
  0
BLOCK_RECORD
  5
23
330
1
100
AcDbSymbolTableRecord
100
AcDbBlockTableRecord
  2
*Paper_Space0
340
26
 70
     0
280
     1
281
     0
  0
BLOCK_RECORD
  5
6E
330
1
100
AcDbSymbolTableRecord
100
AcDbBlockTableRecord
  2
1_023487_2
340
0
102
{BLKREFS
331
6F
102
}
 70
     0
280
     1
281
     0
  0
BLOCK_RECORD
  5
83
330
1
100
AcDbSymbolTableRecord
100
AcDbBlockTableRecord
  2
2_1_15_16C_1_0_in_023487_2
340
0
102
{BLKREFS
331
84
102
}
 70
     0
280
     1
281
     0
  0
BLOCK_RECORD
  5
C0
330
1
100
AcDbSymbolTableRecord
100
AcDbBlockTableRecord
  2
3_1_15_16C_2_0_in_023487_2
340
0
102
{BLKREFS
331
C1
102
}
 70
     0
280
     1
281
     0
  0
BLOCK_RECORD
  5
F8
330
1
100
AcDbSymbolTableRecord
100
AcDbBlockTableRecord
  2
4_405015E_Inch_0_in_023487_2
340
0
102
{BLKREFS
331
F9
102
}
 70
     0
280
     1
281
     0
  0
BLOCK_RECORD
  5
136
330
1
100
AcDbSymbolTableRecord
100
AcDbBlockTableRecord
  2
5_023487_Insert_0_in_023487_2
340
0
102
{BLKREFS
331
137
102
}
 70
     0
280
     1
281
     0
  0
ENDTAB
  0
ENDSEC
  0
SECTION
  2
BLOCKS
  0
BLOCK
  5
20
330
1F
100
AcDbEntity
  8
0
100
AcDbBlockBegin
  2
*Model_Space
 70
     0
 10
0.0
 20
0.0
 30
0.0
  3
*Model_Space
  1

  0
ENDBLK
  5
21
330
1F
100
AcDbEntity
  8
0
100
AcDbBlockEnd
  0
BLOCK
  5
1C
330
1B
100
AcDbEntity
 67
     1
  8
0
100
AcDbBlockBegin
  2
*Paper_Space
 70
     0
 10
0.0
 20
0.0
 30
0.0
  3
*Paper_Space
  1

  0
ENDBLK
  5
1D
330
1B
100
AcDbEntity
 67
     1
  8
0
100
AcDbBlockEnd
  0
BLOCK
  5
24
330
23
100
AcDbEntity
  8
0
100
AcDbBlockBegin
  2
*Paper_Space0
 70
     0
 10
0.0
 20
0.0
 30
0.0
  3
*Paper_Space0
  1

  0
ENDBLK
  5
25
330
23
100
AcDbEntity
  8
0
100
AcDbBlockEnd
  0
BLOCK
  5
70
330
6E
100
AcDbEntity
  8
0
100
AcDbBlockBegin
  2
1_023487_2
 70
     2
 10
0.0
 20
0.0
 30
0.0
  3
1_023487_2
  1

  0
ATTDEF
  5
73
330
6E
100
AcDbEntity
  8
AM_6
100
AcDbText
 10
6.925
 20
3.282
 30
0.0
 40
0.5
  1
Double-Interlock D Units Gray Iron - Inch
100
AcDbAttributeDefinition
  3

  2
NN
 70
     8
280
     0
  0
ATTDEF
  5
74
330
6E
100
AcDbEntity
  8
AM_6
100
AcDbText
 10
6.925
 20
2.782
 30
0.0
 40
0.5
  1
Double-Interlock Bearings
100
AcDbAttributeDefinition
  3

  2
NT
 70
     8
280
     0
  0
ATTDEF
  5
75
330
6E
100
AcDbEntity
  8
AM_6
100
AcDbText
 10
6.925
 20
2.282
 30
0.0
 40
0.5
  1
023487
100
AcDbAttributeDefinition
  3

  2
NB
 70
     8
280
     0
  0
ATTDEF
  5
76
330
6E
100
AcDbEntity
  8
AM_6
100
AcDbText
 10
6.925
 20
1.782
 30
0.0
 40
0.5
  1
$PN.
100
AcDbAttributeDefinition
  3

  2
NBSYN
 70
     8
280
     0
  0
ATTDEF
  5
77
330
6E
100
AcDbEntity
  8
AM_6
100
AcDbText
 10
6.925
 20
1.282
 30
0.0
 40
0.5
  1
023487
100
AcDbAttributeDefinition
  3

  2
LINA
 70
     8
280
     0
  0
ATTDEF
  5
78
330
6E
100
AcDbEntity
  8
AM_6
100
AcDbText
 10
6.925
 20
0.7819999999999996
 30
0.0
 40
0.5
  1
1-15/16
100
AcDbAttributeDefinition
  3

  2
SS
 70
     8
280
     0
  0
ATTDEF
  5
79
330
6E
100
AcDbEntity
  8
AM_6
100
AcDbText
 10
6.925
 20
0.2819999999999996
 30
0.0
 40
0.5
  1
023487
100
AcDbAttributeDefinition
  3

  2
PN
 70
     8
280
     0
  0
ATTDEF
  5
7A
330
6E
100
AcDbEntity
  8
AM_6
100
AcDbText
 10
6.925
 20
-0.2180000000000004
 30
0.0
 40
0.5
  1
DU-DI-115R
100
AcDbAttributeDefinition
  3

  2
DESCRIPTION
 70
     8
280
     0
  0
ATTDEF
  5
7B
330
6E
100
AcDbEntity
  8
AM_6
100
AcDbText
 10
6.925
 20
-0.7180000000000004
 30
0.0
 40
0.5
  1
3-1/2
100
AcDbAttributeDefinition
  3

  2
A
 70
     8
280
     0
  0
ATTDEF
  5
7C
330
6E
100
AcDbEntity
  8
AM_6
100
AcDbText
 10
6.925
 20
-1.218
 30
0.0
 40
0.5
  1
2-7/16
100
AcDbAttributeDefinition
  3

  2
B
 70
     8
280
     0
  0
ATTDEF
  5
7D
330
6E
100
AcDbEntity
  8
AM_6
100
AcDbText
 10
6.925
 20
-1.718
 30
0.0
 40
0.5
  1
11/16
100
AcDbAttributeDefinition
  3

  2
H
 70
     8
280
     0
  0
ATTDEF
  5
7E
330
6E
100
AcDbEntity
  8
AM_6
100
AcDbText
 10
6.925
 20
-2.218
 30
0.0
 40
0.5
  1
3-7/16
100
AcDbAttributeDefinition
  3

  2
L
 70
     8
280
     0
  0
ATTDEF
  5
7F
330
6E
100
AcDbEntity
  8
AM_6
100
AcDbText
 10
6.925
 20
-2.718
 30
0.0
 40
0.5
  1
3-1/4
100
AcDbAttributeDefinition
  3

  2
N
 70
     8
280
     0
  0
ATTDEF
  5
80
330
6E
100
AcDbEntity
  8
AM_6
100
AcDbText
 10
6.925
 20
-3.218
 30
0.0
 40
0.5
  1
4-7/16
100
AcDbAttributeDefinition
  3

  2
P
 70
     8
280
     0
  0
ATTDEF
  5
81
330
6E
100
AcDbEntity
  8
AM_6
100
AcDbText
 10
6.925
 20
-3.718
 30
0.0
 40
0.5
  1
4.656
100
AcDbAttributeDefinition
  3

  2
S
 70
     8
280
     0
  0
ATTDEF
  5
82
330
6E
100
AcDbEntity
  8
AM_6
100
AcDbText
 10
6.925
 20
-4.218
 30
0.0
 40
0.5
  1
baldor
100
AcDbAttributeDefinition
  3

  2
COMPANY
 70
     8
280
     0
  0
INSERT
  5
84
330
6E
100
AcDbEntity
  8
0
100
AcDbBlockReference
  2
2_1_15_16C_1_0_in_023487_2
 10
0.0
 20
0.0
 30
0.0
  0
INSERT
  5
C1
330
6E
100
AcDbEntity
  8
0
100
AcDbBlockReference
  2
3_1_15_16C_2_0_in_023487_2
 10
0.0
 20
0.0
 30
0.0
  0
INSERT
  5
F9
330
6E
100
AcDbEntity
  8
0
100
AcDbBlockReference
  2
4_405015E_Inch_0_in_023487_2
 10
0.0
 20
0.0
 30
0.0
  0
INSERT
  5
137
330
6E
100
AcDbEntity
  8
0
100
AcDbBlockReference
  2
5_023487_Insert_0_in_023487_2
 10
0.0
 20
0.0
 30
0.0
  0
ENDBLK
  5
71
330
6E
100
AcDbEntity
  8
0
100
AcDbBlockEnd
  0
BLOCK
  5
85
330
83
100
AcDbEntity
  8
0
100
AcDbBlockBegin
  2
2_1_15_16C_1_0_in_023487_2
 70
     2
 10
0.0
 20
0.0
 30
0.0
  3
2_1_15_16C_1_0_in_023487_2
  1

  0
ATTDEF
  5
87
330
83
100
AcDbEntity
  8
AM_6
100
AcDbText
 10
6.75
 20
1.718750000000004
 30
0.0
 40
0.5
  1
E-Type Collar -Inch
100
AcDbAttributeDefinition
  3

  2
NN
 70
     8
280
     0
  0
ATTDEF
  5
88
330
83
100
AcDbEntity
  8
AM_6
100
AcDbText
 10
6.75
 20
1.218750000000004
 30
0.0
 40
0.5
  1
E-Type Bearings
100
AcDbAttributeDefinition
  3

  2
NT
 70
     8
280
     0
  0
ATTDEF
  5
89
330
83
100
AcDbEntity
  8
AM_6
100
AcDbText
 10
6.75
 20
0.718750000000004
 30
0.0
 40
0.5
  1
1-15/16C
100
AcDbAttributeDefinition
  3

  2
NB
 70
     8
280
     0
  0
ATTDEF
  5
8A
330
83
100
AcDbEntity
  8
AM_6
100
AcDbText
 10
6.75
 20
0.218750000000004
 30
0.0
 40
0.5
  1
$BORE.C
100
AcDbAttributeDefinition
  3

  2
NBSYN
 70
     8
280
     0
  0
ATTDEF
  5
8B
330
83
100
AcDbEntity
  8
AM_6
100
AcDbText
 10
6.75
 20
-0.281249999999996
 30
0.0
 40
0.5
  1
1-15/16C
100
AcDbAttributeDefinition
  3

  2
LINA
 70
     8
280
     0
  0
ATTDEF
  5
8C
330
83
100
AcDbEntity
  8
AM_6
100
AcDbText
 10
6.75
 20
-0.781249999999996
 30
0.0
 40
0.5
  1
1-15/16
100
AcDbAttributeDefinition
  3

  2
BORE
 70
     8
280
     0
  0
ATTDEF
  5
8D
330
83
100
AcDbEntity
  8
AM_6
100
AcDbText
 10
6.75
 20
-1.281249999999996
 30
0.0
 40
0.5
  1
3.43750
100
AcDbAttributeDefinition
  3

  2
L
 70
     8
280
     0
  0
ATTDEF
  5
8E
330
83
100
AcDbEntity
  8
AM_6
100
AcDbText
 10
6.75
 20
-1.781249999999996
 30
0.0
 40
0.5
  1
3.50
100
AcDbAttributeDefinition
  3

  2
A
 70
     8
280
     0
  0
ATTDEF
  5
8F
330
83
100
AcDbEntity
  8
AM_6
100
AcDbText
 10
6.75
 20
-2.281249999999996
 30
0.0
 40
0.5
  1
1.62
100
AcDbAttributeDefinition
  3

  2
B
 70
     8
280
     0
  0
ATTDEF
  5
90
330
83
100
AcDbEntity
  8
AM_6
100
AcDbText
 10
6.75
 20
-2.781249999999996
 30
0.0
 40
0.5
  1
2.31
100
AcDbAttributeDefinition
  3

  2
C
 70
     8
280
     0
  0
ATTDEF
  5
91
330
83
100
AcDbEntity
  8
AM_6
100
AcDbText
 10
6.75
 20
-3.281249999999996
 30
0.0
 40
0.5
  1
3.50
100
AcDbAttributeDefinition
  3

  2
D
 70
     8
280
     0
  0
ATTDEF
  5
92
330
83
100
AcDbEntity
  8
AM_6
100
AcDbText
 10
6.75
 20
-3.781249999999996
 30
0.0
 40
0.5
  1
0.41
100
AcDbAttributeDefinition
  3

  2
E
 70
     8
280
     0
  0
ATTDEF
  5
93
330
83
100
AcDbEntity
  8
AM_6
100
AcDbText
 10
6.75
 20
-4.281249999999996
 30
0.0
 40
0.5
  1
0.31
100
AcDbAttributeDefinition
  3

  2
F
 70
     8
280
     0
  0
ATTDEF
  5
94
330
83
100
AcDbEntity
  8
AM_6
100
AcDbText
 10
6.75
 20
-4.781249999999996
 30
0.0
 40
0.5
  1
3/8-16
100
AcDbAttributeDefinition
  3

  2
CS
 70
     8
280
     0
  0
ATTDEF
  5
95
330
83
100
AcDbEntity
  8
AM_6
100
AcDbText
 10
6.75
 20
-5.281249999999996
 30
0.0
 40
0.5
  1
0.3750
100
AcDbAttributeDefinition
  3

  2
NDM
 70
     8
280
     0
  0
ATTDEF
  5
96
330
83
100
AcDbEntity
  8
AM_6
100
AcDbText
 10
6.75
 20
-5.781249999999996
 30
0.0
 40
0.5
  1
0.3070
100
AcDbAttributeDefinition
  3

  2
KDM
 70
     8
280
     0
  0
ATTDEF
  5
97
330
83
100
AcDbEntity
  8
AM_6
100
AcDbText
 10
6.75
 20
-6.281249999999996
 30
0.0
 40
0.5
  1
baldor
100
AcDbAttributeDefinition
  3

  2
COMPANY
 70
     8
280
     0
  0
LINE
  5
9A
330
83
100
AcDbEntity
  8
AM_9
100
AcDbLine
 10
1.28635
 20
1.16385
 30
0.0
 11
1.277760617000382
 21
1.155260617000382
 31
0.0
  0
LINE
  5
9B
330
83
100
AcDbEntity
  8
AM_9
100
AcDbLine
 10
1.602285733431799
 20
1.1552142665682
 30
0.0
 11
1.59365
 21
1.16385
 31
0.0
  0
LINE
  5
9C
330
83
100
AcDbEntity
  8
AM_9
100
AcDbLine
 10
1.59365
 20
1.6849
 30
0.0
 11
1.627173245798873
 21
1.718423245798873
 31
0.0
  0
LINE
  5
9D
330
83
100
AcDbEntity
  8
AM_9
100
AcDbLine
 10
1.252578655768017
 20
1.718671344231983
 30
0.0
 11
1.28635
 21
1.6849
 31
0.0
  0
LINE
  5
9E
330
83
100
AcDbEntity
  8
AM_9
100
AcDbLine
 10
1.28635
 20
1.6849
 30
0.0
 11
1.59365
 21
1.6849
 31
0.0
  0
LINE
  5
9F
330
83
100
AcDbEntity
  8
AM_9
100
AcDbLine
 10
1.28635
 20
1.16385
 30
0.0
 11
1.59365
 21
1.16385
 31
0.0
  0
LINE
  5
A0
330
83
100
AcDbEntity
  8
AM_9
100
AcDbLine
 10
1.59365
 20
1.16385
 30
0.0
 11
1.59365
 21
1.6849
 31
0.0
  0
LINE
  5
A1
330
83
100
AcDbEntity
  8
AM_9
100
AcDbLine
 10
1.28635
 20
1.6849
 30
0.0
 11
1.28635
 21
1.16385
 31
0.0
  0
LWPOLYLINE
  5
A2
330
83
100
AcDbEntity
  8
AM_9
100
AcDbPolyline
 90
       39
 70
     0
 43
0.0
 10
1.322988104473678
 20
0.3749511740468587
 10
1.340713367160157
 20
0.3584939211419254
 10
1.361296829177464
 20
0.3443637149507601
 10
1.386123368754636
 20
0.3326488221851256
 10
1.413676700585799
 20
0.3252016799316816
 10
1.43909755075259
 20
0.3229296420656221
 10
1.465344761521262
 20
0.3250347720234151
 10
1.489067654958651
 20
0.3309536301770636
 10
1.512086348440228
 20
0.3407257602526069
 10
1.53332277245758
 20
0.3539202904949933
 10
1.552629049811226
 20
0.3704285356413807
 10
1.569875588346395
 20
0.3904635028744867
 10
1.583972487909668
 20
0.4131782349156589
 10
1.594606359131619
 20
0.4386576569871656
 10
1.600907010899622
 20
0.4658214315193195
 10
1.602400986662972
 20
0.4936625531485578
 10
1.598757120128051
 20
0.5217762650915015
 10
1.590131994249788
 20
0.5481284107094867
 10
1.576198885410673
 20
0.5732013706818099
 10
1.558385052348585
 20
0.594499151206861
 10
1.535771329989637
 20
0.6130976508702546
 10
1.511815148278001
 20
0.6265153458013042
 10
1.484423654001466
 20
0.6362320913584266
 10
1.458763695572541
 20
0.6409239298336616
 10
1.431641036554751
 20
0.6417246593686734
 10
1.407239733160895
 20
0.6388566806906472
 10
1.383078803751198
 20
0.6324516492732202
 10
1.360897546785489
 20
0.62298268951254
 10
1.340242928870741
 20
0.6103088687472105
 10
1.321398942507807
 20
0.5942839217735157
 10
1.30528701758864
 20
0.5753151595208472
 10
1.292095250353039
 20
0.5530075425784006
 10
1.282858838042085
 20
0.5282330707675192
 10
1.278073151141623
 20
0.5014168314107063
 10
1.278218821511384
 20
0.4731469433425178
 10
1.283435477134436
 20
0.4451618597707853
 10
1.2939759471943
 20
0.4172813402254553
 10
1.306624464030878
 20
0.3954091986141979
 10
1.322988104473678
 20
0.3749511740468588
  0
LINE
  5
A3
330
83
100
AcDbEntity
  8
AM_9
100
AcDbLine
 10
1.75
 20
1.155
 30
0.0
 11
1.601984837517368
 21
1.155
 31
0.0
  0
LINE
  5
A4
330
83
100
AcDbEntity
  8
AM_9
100
AcDbLine
 10
1.278125351196577
 20
1.155
 30
0.0
 11
1.13
 21
1.155
 31
0.0
  0
LINE
  5
A5
330
83
100
AcDbEntity
  8
AM_9
100
AcDbLine
 10
1.13
 20
-1.155
 30
0.0
 11
1.75
 21
-1.155
 31
0.0
  0
LWPOLYLINE
  5
A6
330
83
100
AcDbEntity
  8
AM_9
100
AcDbPolyline
 90
       21
 70
     0
 43
0.0
 10
1.277500000000189
 20
1.154999999999969
 10
1.277922827735137
 20
1.154927775839699
 10
1.282506840884038
 20
1.154192211649515
 10
1.292264255474736
 20
1.152684893509513
 10
1.306916029846858
 20
1.150600189647072
 10
1.325828571350548
 20
1.148218191684252
 10
1.348740925088391
 20
1.14580753959554
 10
1.373509356111881
 20
1.14380255842948
 10
1.400615795223777
 20
1.142316433174313
 10
1.426671165229202
 20
1.141611636818777
 10
1.453147638067585
 20
1.141603360445361
 10
1.4776973154402
 20
1.142253088701593
 10
1.501212472618772
 20
1.143450341347159
 10
1.523400298022892
 20
1.145104275967015
 10
1.54343708596584
 20
1.147023031076418
 10
1.562064809653997
 20
1.149168989365262
 10
1.577445301954543
 20
1.151199533469865
 10
1.590080868890708
 20
1.153038661842084
 10
1.598404421512374
 20
1.154337447255613
 10
1.602292849706193
 20
1.154963121158799
 10
1.602499999999334
 20
1.154999999999891
  0
LINE
  5
A7
330
83
100
AcDbEntity
  8
AM_9
100
AcDbLine
 10
1.322029481057177
 20
1.148667808586113
 30
0.0
 11
1.320270700757611
 21
1.148881094757858
 31
0.0
  0
LINE
  5
A8
330
83
100
AcDbEntity
  8
AM_9
100
AcDbLine
 10
1.602499999999334
 20
1.154999999999891
 30
0.0
 11
1.598120444559887
 21
1.154292102140583
 31
0.0
  0
ELLIPSE
  5
A9
330
83
100
AcDbEntity
  8
AM_9
100
AcDbEllipse
 10
1.44
 20
0.4918642639269124
 30
0.0
 11
0.1536499999999998
 21
0.0
 31
0.0
210
0.0
220
0.0
230
1.0
 40
0.9063077870366526
 41
2.2297075544777
 42
3.141592653589793
  0
ELLIPSE
  5
AA
330
83
100
AcDbEntity
  8
AM_9
100
AcDbEllipse
 10
1.439999999999999
 20
0.4918642639269117
 30
0.0
 11
0.1536500000000012
 21
0.0
 31
0.0
210
0.0
220
0.0
230
1.0
 40
0.906307787036652
 41
3.141592653589793
 42
7.195070406291677
  0
LINE
  5
AB
330
83
100
AcDbEntity
  8
AM_9
100
AcDbLine
 10
1.59365
 20
0.4918642639269128
 30
0.0
 11
1.59365
 21
0.7120695092069043
 31
0.0
  0
LINE
  5
AC
330
83
100
AcDbEntity
  8
AM_9
100
AcDbLine
 10
1.28635
 20
0.7120695092069043
 30
0.0
 11
1.28635
 21
0.4918642639269128
 31
0.0
  0
LINE
  5
AD
330
83
100
AcDbEntity
  8
AM_9
100
AcDbLine
 10
1.13
 20
-1.71875
 30
0.0
 11
1.13
 21
1.71875
 31
0.0
  0
LINE
  5
AE
330
83
100
AcDbEntity
  8
AM_9
100
AcDbLine
 10
1.21875
 20
1.71875
 30
0.0
 11
1.13
 21
1.71875
 31
0.0
  0
LINE
  5
AF
330
83
100
AcDbEntity
  8
AM_9
100
AcDbLine
 10
1.13
 20
-1.71875
 30
0.0
 11
1.21875
 21
-1.71875
 31
0.0
  0
LINE
  5
B1
330
83
100
AcDbEntity
  8
AM_5
100
AcDbLine
 10
1.6275
 20
1.71875
 30
0.0
 11
1.6275
 21
1.155
 31
0.0
  0
LINE
  5
B2
330
83
100
AcDbEntity
  8
AM_5
100
AcDbLine
 10
1.2525
 20
1.71875
 30
0.0
 11
1.2525
 21
1.155
 31
0.0
  0
ELLIPSE
  5
B4
330
83
100
AcDbEntity
  8
AM_4
100
AcDbEllipse
 10
1.44
 20
0.4918642639269129
 30
0.0
 11
0.1536499999999998
 21
0.0
 31
0.0
210
0.0
220
0.0
230
1.0
 40
0.9063077870366507
 41
0.9118850991120926
 42
2.229707554477701
  0
ELLIPSE
  5
B5
330
83
100
AcDbEntity
  8
AM_4
100
AcDbEllipse
 10
1.44
 20
0.712069509206904
 30
0.0
 11
0.1536499999999998
 21
0.0
 31
0.0
210
0.0
220
0.0
230
1.0
 40
0.9063077870366497
 41
3.141592653589793
 42
6.283185307179586
  0
ELLIPSE
  5
B6
330
83
100
AcDbEntity
  8
AM_4
100
AcDbEllipse
 10
1.44
 20
0.7120695092069045
 30
0.0
 11
0.1536499999999998
 21
0.0
 31
0.0
210
0.0
220
0.0
230
1.0
 40
0.9063077870366512
 41
0.0
 42
3.141592653589793
  0
LINE
  5
B7
330
83
100
AcDbEntity
  8
AM_4
100
AcDbLine
 10
1.75
 20
-1.615416666666667
 30
0.0
 11
1.75
 21
1.615416666666667
 31
0.0
  0
ARC
  5
B8
330
83
100
AcDbEntity
  8
AM_4
100
AcDbCircle
 10
1.646666666666665
 20
1.615416666666665
 30
0.0
 40
0.1033333333333351
100
AcDbArc
 50
0.0
 51
90.0
  0
ARC
  5
B9
330
83
100
AcDbEntity
  8
AM_4
100
AcDbCircle
 10
1.646666666666665
 20
-1.615416666666665
 30
0.0
 40
0.1033333333333351
100
AcDbArc
 50
270.0
 51
0.0
  0
LINE
  5
BA
330
83
100
AcDbEntity
  8
AM_4
100
AcDbLine
 10
1.646666666666667
 20
-1.71875
 30
0.0
 11
1.646666666666667
 21
1.71875
 31
0.0
  0
LWPOLYLINE
  5
BB
330
83
100
AcDbEntity
  8
AM_4
100
AcDbPolyline
 90
       39
 70
     0
 43
0.0
 10
1.31068385290223
 20
0.607418752463639
 10
1.292203207971266
 20
0.6255628601080075
 10
1.276488379014762
 20
0.6464518461253407
 10
1.263523464908372
 20
0.6714119473295431
 10
1.255247113266768
 20
0.6987408352440844
 10
1.252510416616958
 20
0.7246738577947909
 10
1.254754850172967
 20
0.7512318217545599
 10
1.261557762316057
 20
0.7755586101166678
 10
1.273040450456119
 20
0.7990148381312848
 10
1.288508929883739
 20
0.8201358997961165
 10
1.308116984994908
 20
0.8391608988082857
 10
1.331371207655331
 20
0.8553924164780865
 10
1.357993906127274
 20
0.8684460525967359
 10
1.387302242362799
 20
0.8777796960859081
 10
1.418819167410728
 20
0.8830075393029944
 10
1.451025836554178
 20
0.8837270106908536
 10
1.483831687781893
 20
0.8797233703702485
 10
1.514752581646669
 20
0.8711999477378078
 10
1.5443890283441
 20
0.8578159389306582
 10
1.569722403196131
 20
0.8409115116664048
 10
1.591938761563095
 20
0.8196198792894774
 10
1.608299306696605
 20
0.7967621107334442
 10
1.62019335997593
 20
0.7706869530699211
 10
1.626214696784885
 20
0.7451831793061632
 10
1.627253751777905
 20
0.7180978129454441
 10
1.623423356923394
 20
0.6927413362247894
 10
1.614780154882027
 20
0.6674365746444094
 10
1.602026628267551
 20
0.6441611049311043
 10
1.584939301521433
 20
0.6223938278404728
 10
1.564069348991543
 20
0.6031232120919552
 10
1.539547566021341
 20
0.5867210630590328
 10
1.511918815838759
 20
0.5738823436767869
 10
1.481656258933318
 20
0.565164138140137
 10
1.449960096061155
 20
0.5611641391831983
 10
1.417102405960584
 20
0.5621948131524072
 10
1.385283178758049
 20
0.5683050990320093
 10
1.354128342489267
 20
0.5797185732857348
 10
1.331585683444245
 20
0.5920265662130332
 10
1.310683852846756
 20
0.6074187522696064
  0
LINE
  5
BC
330
83
100
AcDbEntity
  8
AM_4
100
AcDbLine
 10
1.646666666666667
 20
1.71875
 30
0.0
 11
1.626905374023519
 21
1.71875
 31
0.0
  0
LINE
  5
BD
330
83
100
AcDbEntity
  8
AM_4
100
AcDbLine
 10
1.252642250347084
 20
1.71875
 30
0.0
 11
1.21875
 21
1.71875
 31
0.0
  0
LINE
  5
BE
330
83
100
AcDbEntity
  8
AM_4
100
AcDbLine
 10
1.21875
 20
-1.71875
 30
0.0
 11
1.646666666666667
 21
-1.71875
 31
0.0
  0
LWPOLYLINE
  5
BF
330
83
100
AcDbEntity
  8
AM_4
100
AcDbPolyline
 90
       21
 70
     0
 43
0.0
 10
1.627500000000041
 20
1.718750000000004
 10
1.626604209972099
 20
1.718660648918381
 10
1.621299623303223
 20
1.718150021891785
 10
1.611447793556051
 20
1.717236912964924
 10
1.597422983049049
 20
1.716024988647428
 10
1.579059853466126
 20
1.714592490102403
 10
1.557316266457222
 20
1.713122067970519
 10
1.531497738300273
 20
1.711700702921953
 10
1.503357658603039
 20
1.710546286180405
 10
1.472271594632547
 20
1.709763003781414
 10
1.440318634536983
 20
1.709483671300415
 10
1.407583310751253
 20
1.709765845866362
 10
1.375761669974212
 20
1.710576015739573
 10
1.345765251530746
 20
1.711835645638334
 10
1.318516415794893
 20
1.713384606250794
 10
1.295463197498034
 20
1.715001645415694
 10
1.276671691984436
 20
1.716523106383967
 10
1.263450346773515
 20
1.717702695108029
 10
1.255259034383965
 20
1.718480578150946
 10
1.25252732013253
 20
1.718745736824434
 10
1.252500000000039
 20
1.718749999999996
  0
ENDBLK
  5
86
330
83
100
AcDbEntity
  8
0
100
AcDbBlockEnd
  0
BLOCK
  5
C2
330
C0
100
AcDbEntity
  8
0
100
AcDbBlockBegin
  2
3_1_15_16C_2_0_in_023487_2
 70
     2
 10
0.0
 20
0.0
 30
0.0
  3
3_1_15_16C_2_0_in_023487_2
  1

  0
ATTDEF
  5
C4
330
C0
100
AcDbEntity
  8
AM_6
100
AcDbText
 10
3.87
 20
1.71875
 30
0.0
 40
0.5
  1
E-Type Collar -Inch
100
AcDbAttributeDefinition
  3

  2
NN
 70
     8
280
     0
  0
ATTDEF
  5
C5
330
C0
100
AcDbEntity
  8
AM_6
100
AcDbText
 10
3.87
 20
1.21875
 30
0.0
 40
0.5
  1
E-Type Bearings
100
AcDbAttributeDefinition
  3

  2
NT
 70
     8
280
     0
  0
ATTDEF
  5
C6
330
C0
100
AcDbEntity
  8
AM_6
100
AcDbText
 10
3.87
 20
0.7187500000000004
 30
0.0
 40
0.5
  1
1-15/16C
100
AcDbAttributeDefinition
  3

  2
NB
 70
     8
280
     0
  0
ATTDEF
  5
C7
330
C0
100
AcDbEntity
  8
AM_6
100
AcDbText
 10
3.87
 20
0.2187500000000004
 30
0.0
 40
0.5
  1
$BORE.C
100
AcDbAttributeDefinition
  3

  2
NBSYN
 70
     8
280
     0
  0
ATTDEF
  5
C8
330
C0
100
AcDbEntity
  8
AM_6
100
AcDbText
 10
3.87
 20
-0.2812499999999996
 30
0.0
 40
0.5
  1
1-15/16C
100
AcDbAttributeDefinition
  3

  2
LINA
 70
     8
280
     0
  0
ATTDEF
  5
C9
330
C0
100
AcDbEntity
  8
AM_6
100
AcDbText
 10
3.87
 20
-0.7812499999999996
 30
0.0
 40
0.5
  1
1-15/16
100
AcDbAttributeDefinition
  3

  2
BORE
 70
     8
280
     0
  0
ATTDEF
  5
CA
330
C0
100
AcDbEntity
  8
AM_6
100
AcDbText
 10
3.87
 20
-1.28125
 30
0.0
 40
0.5
  1
3.43750
100
AcDbAttributeDefinition
  3

  2
L
 70
     8
280
     0
  0
ATTDEF
  5
CB
330
C0
100
AcDbEntity
  8
AM_6
100
AcDbText
 10
3.87
 20
-1.78125
 30
0.0
 40
0.5
  1
3.50
100
AcDbAttributeDefinition
  3

  2
A
 70
     8
280
     0
  0
ATTDEF
  5
CC
330
C0
100
AcDbEntity
  8
AM_6
100
AcDbText
 10
3.87
 20
-2.28125
 30
0.0
 40
0.5
  1
1.62
100
AcDbAttributeDefinition
  3

  2
B
 70
     8
280
     0
  0
ATTDEF
  5
CD
330
C0
100
AcDbEntity
  8
AM_6
100
AcDbText
 10
3.87
 20
-2.78125
 30
0.0
 40
0.5
  1
2.31
100
AcDbAttributeDefinition
  3

  2
C
 70
     8
280
     0
  0
ATTDEF
  5
CE
330
C0
100
AcDbEntity
  8
AM_6
100
AcDbText
 10
3.87
 20
-3.28125
 30
0.0
 40
0.5
  1
3.50
100
AcDbAttributeDefinition
  3

  2
D
 70
     8
280
     0
  0
ATTDEF
  5
CF
330
C0
100
AcDbEntity
  8
AM_6
100
AcDbText
 10
3.87
 20
-3.78125
 30
0.0
 40
0.5
  1
0.41
100
AcDbAttributeDefinition
  3

  2
E
 70
     8
280
     0
  0
ATTDEF
  5
D0
330
C0
100
AcDbEntity
  8
AM_6
100
AcDbText
 10
3.87
 20
-4.28125
 30
0.0
 40
0.5
  1
0.31
100
AcDbAttributeDefinition
  3

  2
F
 70
     8
280
     0
  0
ATTDEF
  5
D1
330
C0
100
AcDbEntity
  8
AM_6
100
AcDbText
 10
3.87
 20
-4.78125
 30
0.0
 40
0.5
  1
3/8-16
100
AcDbAttributeDefinition
  3

  2
CS
 70
     8
280
     0
  0
ATTDEF
  5
D2
330
C0
100
AcDbEntity
  8
AM_6
100
AcDbText
 10
3.87
 20
-5.28125
 30
0.0
 40
0.5
  1
0.3750
100
AcDbAttributeDefinition
  3

  2
NDM
 70
     8
280
     0
  0
ATTDEF
  5
D3
330
C0
100
AcDbEntity
  8
AM_6
100
AcDbText
 10
3.87
 20
-5.78125
 30
0.0
 40
0.5
  1
0.3070
100
AcDbAttributeDefinition
  3

  2
KDM
 70
     8
280
     0
  0
ATTDEF
  5
D4
330
C0
100
AcDbEntity
  8
AM_6
100
AcDbText
 10
3.87
 20
-6.28125
 30
0.0
 40
0.5
  1
baldor
100
AcDbAttributeDefinition
  3

  2
COMPANY
 70
     8
280
     0
  0
LINE
  5
D5
330
C0
100
AcDbEntity
  8
AM_9
100
AcDbLine
 10
-1.28635
 20
1.16385
 30
0.0
 11
-1.28635
 21
1.6849
 31
0.0
  0
LINE
  5
D6
330
C0
100
AcDbEntity
  8
AM_9
100
AcDbLine
 10
-1.59365
 20
1.6849
 30
0.0
 11
-1.59365
 21
1.16385
 31
0.0
  0
LINE
  5
D7
330
C0
100
AcDbEntity
  8
AM_9
100
AcDbLine
 10
-1.59365
 20
1.16385
 30
0.0
 11
-1.28635
 21
1.16385
 31
0.0
  0
LINE
  5
D8
330
C0
100
AcDbEntity
  8
AM_9
100
AcDbLine
 10
-1.59365
 20
1.16385
 30
0.0
 11
-1.602333859590502
 21
1.155166140409497
 31
0.0
  0
LINE
  5
D9
330
C0
100
AcDbEntity
  8
AM_9
100
AcDbLine
 10
-1.277768486589464
 20
1.155268486589464
 30
0.0
 11
-1.28635
 21
1.16385
 31
0.0
  0
LINE
  5
DA
330
C0
100
AcDbEntity
  8
AM_9
100
AcDbLine
 10
-1.59365
 20
1.6849
 30
0.0
 11
-1.28635
 21
1.6849
 31
0.0
  0
LINE
  5
DB
330
C0
100
AcDbEntity
  8
AM_9
100
AcDbLine
 10
-1.28635
 20
1.6849
 30
0.0
 11
-1.2525
 21
1.71875
 31
0.0
  0
LINE
  5
DC
330
C0
100
AcDbEntity
  8
AM_9
100
AcDbLine
 10
-1.6275
 20
1.71875
 30
0.0
 11
-1.59365
 21
1.6849
 31
0.0
  0
LWPOLYLINE
  5
DD
330
C0
100
AcDbEntity
  8
AM_9
100
AcDbPolyline
 90
       38
 70
     0
 43
0.0
 10
-1.320270700757611
 20
0.3779306153227041
 10
-1.305573278082183
 20
0.3969823851245571
 10
-1.293808271443681
 20
0.4176293360648106
 10
-1.283801432537046
 20
0.4439182519710256
 10
-1.278431658753936
 20
0.4710708270096689
 10
-1.277922827735137
 20
0.4993266874148434
 10
-1.282506840884038
 20
0.5269257457283391
 10
-1.292264255474736
 20
0.5533184649773232
 10
-1.306916029846857
 20
0.5775465560041892
 10
-1.325828571350548
 20
0.5985069496908871
 10
-1.348740925088391
 20
0.6160441469379795
 10
-1.373509356111881
 20
0.6288048404677834
 10
-1.400615795223777
 20
0.6374696658014961
 10
-1.426671165229201
 20
0.6414014566813423
 10
-1.453147638067585
 20
0.6414329664232039
 10
-1.4776973154402
 20
0.6378349976865151
 10
-1.501212472618772
 20
0.6309080904423755
 10
-1.523400298022892
 20
0.6206741931724533
 10
-1.54343708596584
 20
0.607567336934737
 10
-1.562064809653996
 20
0.5906952130942349
 10
-1.577445301954543
 20
0.5713661406842143
 10
-1.590080868890708
 20
0.5482122720450485
 10
-1.598404421512374
 20
0.5232951791991903
 10
-1.602292849706193
 20
0.4958213139565704
 10
-1.60117665001329
 20
0.4677970280308608
 10
-1.594858942332217
 20
0.4394979658413338
 10
-1.583504583658789
 20
0.412279727198437
 10
-1.56743230373832
 20
0.3872468336572869
 10
-1.546972829888136
 20
0.3650564070238982
 10
-1.523678283758053
 20
0.3473968064820103
 10
-1.497411069580452
 20
0.3340073621826994
 10
-1.471336514347769
 20
0.326183497435596
 10
-1.444224615848441
 20
0.3229852316942739
 10
-1.419021520915243
 20
0.3243871284980401
 10
-1.39441924203597
 20
0.3298323777881105
 10
-1.37135532203937
 20
0.3390024523154557
 10
-1.350078384257334
 20
0.3514964254536931
 10
-1.320270700757611
 20
0.3779306153227042
  0
LINE
  5
DE
330
C0
100
AcDbEntity
  8
AM_9
100
AcDbLine
 10
-1.75
 20
-1.155
 30
0.0
 11
-1.13
 21
-1.155
 31
0.0
  0
LINE
  5
DF
330
C0
100
AcDbEntity
  8
AM_9
100
AcDbLine
 10
-1.13
 20
1.155
 30
0.0
 11
-1.278141874627085
 21
1.155
 31
0.0
  0
LINE
  5
E0
330
C0
100
AcDbEntity
  8
AM_9
100
AcDbLine
 10
-1.602102342789093
 20
1.155
 30
0.0
 11
-1.75
 21
1.155
 31
0.0
  0
LWPOLYLINE
  5
E1
330
C0
100
AcDbEntity
  8
AM_9
100
AcDbPolyline
 90
       21
 70
     0
 43
0.0
 10
-1.602499999999293
 20
1.154999999999884
 10
-1.602400986662972
 20
1.15498379342257
 10
-1.598757120128051
 20
1.154393873255462
 10
-1.590131994249788
 20
1.153048235227184
 10
-1.576198885410673
 20
1.151026350938733
 10
-1.558385052348585
 20
1.148717802829725
 10
-1.535771329989636
 20
1.146240524342773
 10
-1.511815148278001
 20
1.144177281125706
 10
-1.484423654001466
 20
1.142534733138016
 10
-1.458763695572541
 20
1.141696141547657
 10
-1.431641036554751
 20
1.1415500348332
 10
-1.407239733160895
 20
1.14206930960979
 10
-1.383078803751198
 20
1.143188797776558
 10
-1.360897546785489
 20
1.144743350316933
 10
-1.340242928870741
 20
1.146640022566709
 10
-1.321398942507806
 20
1.148743921308349
 10
-1.30528701758864
 20
1.150821876167579
 10
-1.292095250353039
 20
1.152712392277049
 10
-1.282858838042085
 20
1.154136323883433
 10
-1.278073151141623
 20
1.154906315782236
 10
-1.277500000000017
 20
1.154999999999997
  0
ELLIPSE
  5
E2
330
C0
100
AcDbEntity
  8
AM_9
100
AcDbEllipse
 10
-1.44
 20
0.491864263926913
 30
0.0
 11
0.1536500000000001
 21
0.0
 31
0.0
210
0.0
220
0.0
230
1.0
 40
0.9063077870366502
 41
2.2297075544777
 42
6.283185307179586
  0
LINE
  5
E3
330
C0
100
AcDbEntity
  8
AM_9
100
AcDbLine
 10
-1.28635
 20
0.491864263926913
 30
0.0
 11
-1.28635
 21
0.7120695092069046
 31
0.0
  0
LINE
  5
E4
330
C0
100
AcDbEntity
  8
AM_9
100
AcDbLine
 10
-1.59365
 20
0.7120695092069046
 30
0.0
 11
-1.59365
 21
0.491864263926913
 31
0.0
  0
ELLIPSE
  5
E5
330
C0
100
AcDbEntity
  8
AM_9
100
AcDbEllipse
 10
-1.440000000000001
 20
0.4918642639269123
 30
0.0
 11
0.1536500000000012
 21
0.0
 31
0.0
210
0.0
220
0.0
230
1.0
 40
0.9063077870366502
 41
0.0
 42
0.911885099112092
  0
LINE
  5
E6
330
C0
100
AcDbEntity
  8
AM_9
100
AcDbLine
 10
-1.21875
 20
-1.71875
 30
0.0
 11
-1.13
 21
-1.71875
 31
0.0
  0
LINE
  5
E7
330
C0
100
AcDbEntity
  8
AM_9
100
AcDbLine
 10
-1.13
 20
1.71875
 30
0.0
 11
-1.21875
 21
1.71875
 31
0.0
  0
LINE
  5
E8
330
C0
100
AcDbEntity
  8
AM_9
100
AcDbLine
 10
-1.13
 20
1.71875
 30
0.0
 11
-1.13
 21
-1.71875
 31
0.0
  0
LINE
  5
E9
330
C0
100
AcDbEntity
  8
AM_5
100
AcDbLine
 10
-1.6275
 20
1.71875
 30
0.0
 11
-1.6275
 21
1.155
 31
0.0
  0
LINE
  5
EA
330
C0
100
AcDbEntity
  8
AM_5
100
AcDbLine
 10
-1.2525
 20
1.71875
 30
0.0
 11
-1.2525
 21
1.155
 31
0.0
  0
ELLIPSE
  5
EB
330
C0
100
AcDbEntity
  8
AM_4
100
AcDbEllipse
 10
-1.44
 20
0.4918642639269115
 30
0.0
 11
0.153650000000001
 21
0.0
 31
0.0
210
0.0
220
0.0
230
1.0
 40
0.9063077870366553
 41
1.570796326794897
 42
2.229707554477695
  0
ELLIPSE
  5
EC
330
C0
100
AcDbEntity
  8
AM_4
100
AcDbEllipse
 10
-1.44
 20
0.7120695092069045
 30
0.0
 11
0.1536499999999998
 21
0.0
 31
0.0
210
0.0
220
0.0
230
1.0
 40
0.9063077870366497
 41
3.141592653589793
 42
7.853981633974483
  0
ELLIPSE
  5
ED
330
C0
100
AcDbEntity
  8
AM_4
100
AcDbEllipse
 10
-1.44
 20
0.4918642639269114
 30
0.0
 11
0.153650000000001
 21
0.0
 31
0.0
210
0.0
220
0.0
230
1.0
 40
0.9063077870366547
 41
0.9118850991120979
 42
1.570796326794897
  0
ELLIPSE
  5
EE
330
C0
100
AcDbEntity
  8
AM_4
100
AcDbEllipse
 10
-1.44
 20
0.7120695092069054
 30
0.0
 11
0.1536499999999994
 21
0.0
 31
0.0
210
0.0
220
0.0
230
1.0
 40
0.9063077870366482
 41
1.570796326794897
 42
3.141592653589793
  0
LWPOLYLINE
  5
EF
330
C0
100
AcDbEntity
  8
AM_4
100
AcDbPolyline
 90
       38
 70
     0
 43
0.0
 10
-1.296930807006646
 20
0.620401127536357
 10
-1.316514390619005
 20
0.6026772403173434
 10
-1.338652563181371
 20
0.5877464461645956
 10
-1.36653292523478
 20
0.5744856075499754
 10
-1.396319497257078
 20
0.5655918426281173
 10
-1.428388967470955
 20
0.5612671253337135
 10
-1.46077568009637
 20
0.5619696181972664
 10
-1.493116697527709
 20
0.5678900374206147
 10
-1.523941721387244
 20
0.5788362043451798
 10
-1.552119366843909
 20
0.5944649060961977
 10
-1.577004661601931
 20
0.6143379728590015
 10
-1.597099450482889
 20
0.6371373069737768
 10
-1.612586246790908
 20
0.6627039385728177
 10
-1.622389013083795
 20
0.6888285276339489
 10
-1.627107159433268
 20
0.7159190693475173
 10
-1.626604209972099
 20
0.7419184397725251
 10
-1.621299623303223
 20
0.7672769790728751
 10
-1.611447793556051
 20
0.7910366203213197
 10
-1.597422983049049
 20
0.8129052086842058
 10
-1.579059853466126
 20
0.8328886625445291
 10
-1.557316266457222
 20
0.849951747685816
 10
-1.531497738300273
 20
0.8643395065520344
 10
-1.503357658603039
 20
0.8749220561279052
 10
-1.472271594632547
 20
0.8816808926539007
 10
-1.440318634536983
 20
0.8839933237186927
 10
-1.407583310751253
 20
0.8816586394749941
 10
-1.375761669974212
 20
0.8746595853048477
 10
-1.345765251530746
 20
0.8630451330807581
 10
-1.318516415794893
 20
0.8470944708211451
 10
-1.295463197498034
 20
0.8275917740042813
 10
-1.276671691984436
 20
0.8047035046119496
 10
-1.263450346773515
 20
0.7802161807407949
 10
-1.255259034383965
 20
0.7538414137987154
 10
-1.252527320132529
 20
0.7277339641470991
 10
-1.254745591100707
 20
0.7013834469947793
 10
-1.261682101193912
 20
0.6761688379620842
 10
-1.273013566975309
 20
0.6521659761147418
 10
-1.296930806951132
 20
0.6204011274540294
  0
LINE
  5
F0
330
C0
100
AcDbEntity
  8
AM_4
100
AcDbLine
 10
-1.646666666666667
 20
-1.71875
 30
0.0
 11
-1.21875
 21
-1.71875
 31
0.0
  0
LINE
  5
F1
330
C0
100
AcDbEntity
  8
AM_4
100
AcDbLine
 10
-1.21875
 20
1.71875
 30
0.0
 11
-1.2525
 21
1.71875
 31
0.0
  0
LINE
  5
F2
330
C0
100
AcDbEntity
  8
AM_4
100
AcDbLine
 10
-1.6275
 20
1.71875
 30
0.0
 11
-1.646666666666667
 21
1.71875
 31
0.0
  0
LWPOLYLINE
  5
F3
330
C0
100
AcDbEntity
  8
AM_4
100
AcDbPolyline
 90
       20
 70
     0
 43
0.0
 10
-1.252500000000037
 20
1.718749999999996
 10
-1.254754850172967
 20
1.718529519557033
 10
-1.261557762316057
 20
1.717880195165575
 10
-1.273040450456119
 20
1.716838375755907
 10
-1.288508929883739
 20
1.715542845283204
 10
-1.308116984994908
 20
1.714079377104359
 10
-1.331371207655331
 20
1.712604011323974
 10
-1.357993906127274
 20
1.71126321852817
 10
-1.387302242362799
 20
1.710218916693832
 10
-1.418819167410728
 20
1.709602465016823
 10
-1.451025836554177
 20
1.709515843880191
 10
-1.483831687781893
 20
1.709992380340885
 10
-1.514752581646669
 20
1.710962566616508
 10
-1.5443890283441
 20
1.712365553290242
 10
-1.569722403196131
 20
1.713930378857723
 10
-1.591938761563095
 20
1.715578595844378
 10
-1.608299306696605
 20
1.716956419087102
 10
-1.62019335997593
 20
1.718045056547901
 10
-1.626214696784885
 20
1.718624001717391
 10
-1.627499999999895
 20
1.71874999999999
  0
LINE
  5
F4
330
C0
100
AcDbEntity
  8
AM_4
100
AcDbLine
 10
-1.75
 20
1.615416666666667
 30
0.0
 11
-1.75
 21
-1.615416666666667
 31
0.0
  0
ARC
  5
F5
330
C0
100
AcDbEntity
  8
AM_4
100
AcDbCircle
 10
-1.646666666666666
 20
-1.615416666666666
 30
0.0
 40
0.1033333333333339
100
AcDbArc
 50
180.0
 51
270.0
  0
ARC
  5
F6
330
C0
100
AcDbEntity
  8
AM_4
100
AcDbCircle
 10
-1.646666666666666
 20
1.615416666666666
 30
0.0
 40
0.1033333333333339
100
AcDbArc
 50
90.0
 51
180.0
  0
LINE
  5
F7
330
C0
100
AcDbEntity
  8
AM_4
100
AcDbLine
 10
-1.646666666666667
 20
1.71875
 30
0.0
 11
-1.646666666666667
 21
-1.71875
 31
0.0
  0
ENDBLK
  5
C3
330
C0
100
AcDbEntity
  8
0
100
AcDbBlockEnd
  0
BLOCK
  5
FA
330
F8
100
AcDbEntity
  8
0
100
AcDbBlockBegin
  2
4_405015E_Inch_0_in_023487_2
 70
     2
 10
0.0
 20
0.0
 30
0.0
  3
4_405015E_Inch_0_in_023487_2
  1

  0
ATTDEF
  5
FC
330
F8
100
AcDbEntity
  8
AM_6
100
AcDbText
 10
5.252590742770462
 20
3.25
 30
0.0
 40
0.5
  1
405015E -Inch
100
AcDbAttributeDefinition
  3

  2
NN
 70
     8
280
     0
  0
ATTDEF
  5
FD
330
F8
100
AcDbEntity
  8
AM_6
100
AcDbText
 10
5.252590742770462
 20
2.75
 30
0.0
 40
0.5
  1
Grease Fitting
100
AcDbAttributeDefinition
  3

  2
NT
 70
     8
280
     0
  0
ATTDEF
  5
FE
330
F8
100
AcDbEntity
  8
AM_6
100
AcDbText
 10
5.252590742770462
 20
2.25
 30
0.0
 40
0.5
  1
405015E-Inch
100
AcDbAttributeDefinition
  3

  2
NB
 70
     8
280
     0
  0
ATTDEF
  5
FF
330
F8
100
AcDbEntity
  8
AM_6
100
AcDbText
 10
5.252590742770462
 20
1.75
 30
0.0
 40
0.5
  1
$MN.-Inch
100
AcDbAttributeDefinition
  3

  2
NBSYN
 70
     8
280
     0
  0
ATTDEF
  5
100
330
F8
100
AcDbEntity
  8
AM_6
100
AcDbText
 10
5.252590742770462
 20
1.25
 30
0.0
 40
0.5
  1
405015E
100
AcDbAttributeDefinition
  3

  2
LINA
 70
     8
280
     0
  0
ATTDEF
  5
101
330
F8
100
AcDbEntity
  8
AM_6
100
AcDbText
 10
5.252590742770462
 20
0.7499999999999996
 30
0.0
 40
0.5
  1
405015E
100
AcDbAttributeDefinition
  3

  2
MN
 70
     8
280
     0
  0
ATTDEF
  5
102
330
F8
100
AcDbEntity
  8
AM_6
100
AcDbText
 10
5.252590742770462
 20
0.2499999999999996
 30
0.0
 40
0.5
  1
1/8 x 27PTF
100
AcDbAttributeDefinition
  3

  2
T
 70
     8
280
     0
  0
ATTDEF
  5
103
330
F8
100
AcDbEntity
  8
AM_6
100
AcDbText
 10
5.252590742770462
 20
-0.2500000000000004
 30
0.0
 40
0.5
  1
baldor
100
AcDbAttributeDefinition
  3

  2
COMPANY
 70
     8
280
     0
  0
LINE
  5
104
330
F8
100
AcDbEntity
  8
AM_9
100
AcDbLine
 10
-0.161902872472269
 20
2.61
 30
0.0
 11
0.161902872472269
 21
2.61
 31
0.0
  0
LINE
  5
105
330
F8
100
AcDbEntity
  8
AM_9
100
AcDbLine
 10
0.161902872472269
 20
2.61
 30
0.0
 11
0.1986176267812154
 21
2.646714754308946
 31
0.0
  0
LINE
  5
106
330
F8
100
AcDbEntity
  8
AM_9
100
AcDbLine
 10
-0.1986176267812154
 20
2.646714754308946
 30
0.0
 11
-0.161902872472269
 21
2.61
 31
0.0
  0
LINE
  5
107
330
F8
100
AcDbEntity
  8
AM_9
100
AcDbLine
 10
-0.1986176267812154
 20
2.646714754308946
 30
0.0
 11
0.1986176267812154
 21
2.646714754308946
 31
0.0
  0
LINE
  5
108
330
F8
100
AcDbEntity
  8
AM_9
100
AcDbLine
 10
0.1986176267812154
 20
2.646714754308946
 30
0.0
 11
0.2057518972230696
 21
2.875
 31
0.0
  0
LINE
  5
109
330
F8
100
AcDbEntity
  8
AM_9
100
AcDbLine
 10
-0.2057518972230696
 20
2.875
 30
0.0
 11
-0.1986176267812154
 21
2.646714754308946
 31
0.0
  0
LINE
  5
10A
330
F8
100
AcDbEntity
  8
AM_5
100
AcDbLine
 10
0.1681491248523479
 20
2.809870087748463
 30
0.0
 11
0.161902872472269
 21
2.61
 31
0.0
  0
LINE
  5
10B
330
F8
100
AcDbEntity
  8
AM_5
100
AcDbLine
 10
0.2057518972230696
 20
2.875
 30
0.0
 11
0.1681491248523479
 21
2.809870087748463
 31
0.0
  0
LINE
  5
10C
330
F8
100
AcDbEntity
  8
AM_5
100
AcDbLine
 10
-0.2037164857515567
 20
2.809870087748463
 30
0.0
 11
0.2037164857515567
 21
2.809870087748463
 31
0.0
  0
LINE
  5
10D
330
F8
100
AcDbEntity
  8
AM_5
100
AcDbLine
 10
-0.1681491248523479
 20
2.809870087748463
 30
0.0
 11
-0.161902872472269
 21
2.61
 31
0.0
  0
LINE
  5
10E
330
F8
100
AcDbEntity
  8
AM_5
100
AcDbLine
 10
-0.2057518972230696
 20
2.875
 30
0.0
 11
-0.1681491248523479
 21
2.809870087748463
 31
0.0
  0
LINE
  5
10F
330
F8
100
AcDbEntity
  8
AM_4
100
AcDbLine
 10
0.105
 20
3.08
 30
0.0
 11
0.105
 21
3.11
 31
0.0
  0
LINE
  5
110
330
F8
100
AcDbEntity
  8
AM_4
100
AcDbLine
 10
-0.105
 20
3.11
 30
0.0
 11
-0.105
 21
3.08
 31
0.0
  0
LINE
  5
111
330
F8
100
AcDbEntity
  8
AM_4
100
AcDbLine
 10
-0.21875
 20
2.975
 30
0.0
 11
0.21875
 21
2.975
 31
0.0
  0
LINE
  5
112
330
F8
100
AcDbEntity
  8
AM_4
100
AcDbLine
 10
0.2525907427704612
 20
2.965932400303385
 30
0.0
 11
0.21875
 21
2.975
 31
0.0
  0
LINE
  5
113
330
F8
100
AcDbEntity
  8
AM_4
100
AcDbLine
 10
-0.21875
 20
2.975
 30
0.0
 11
-0.2525907427704612
 21
2.965932400303385
 31
0.0
  0
LINE
  5
114
330
F8
100
AcDbEntity
  8
AM_4
100
AcDbLine
 10
0.21875
 20
2.875
 30
0.0
 11
0.2525907427704612
 21
2.884067599696614
 31
0.0
  0
LINE
  5
115
330
F8
100
AcDbEntity
  8
AM_4
100
AcDbLine
 10
-0.2525907427704612
 20
2.884067599696614
 30
0.0
 11
-0.21875
 21
2.875
 31
0.0
  0
LINE
  5
116
330
F8
100
AcDbEntity
  8
AM_4
100
AcDbLine
 10
-0.105
 20
3.08
 30
0.0
 11
0.105
 21
3.08
 31
0.0
  0
LINE
  5
117
330
F8
100
AcDbEntity
  8
AM_4
100
AcDbLine
 10
-0.105
 20
3.08
 30
0.0
 11
-0.1188200907348975
 21
3.047753121618572
 31
0.0
  0
LINE
  5
118
330
F8
100
AcDbEntity
  8
AM_4
100
AcDbLine
 10
0.1188200907348975
 20
3.047753121618572
 30
0.0
 11
0.105
 21
3.08
 31
0.0
  0
LINE
  5
119
330
F8
100
AcDbEntity
  8
AM_4
100
AcDbLine
 10
-0.105
 20
3.11
 30
0.0
 11
0.105
 21
3.11
 31
0.0
  0
LINE
  5
11A
330
F8
100
AcDbEntity
  8
AM_4
100
AcDbLine
 10
0.105
 20
3.11
 30
0.0
 11
0.135
 21
3.17
 31
0.0
  0
LINE
  5
11B
330
F8
100
AcDbEntity
  8
AM_4
100
AcDbLine
 10
-0.135
 20
3.17
 30
0.0
 11
-0.105
 21
3.11
 31
0.0
  0
LINE
  5
11C
330
F8
100
AcDbEntity
  8
AM_4
100
AcDbLine
 10
-0.1026779019331875
 20
3.25
 30
0.0
 11
0.1026779019331875
 21
3.25
 31
0.0
  0
LINE
  5
11D
330
F8
100
AcDbEntity
  8
AM_4
100
AcDbLine
 10
-0.135
 20
3.17
 30
0.0
 11
0.135
 21
3.17
 31
0.0
  0
LINE
  5
11E
330
F8
100
AcDbEntity
  8
AM_4
100
AcDbLine
 10
-0.1026779019331875
 20
3.25
 30
0.0
 11
-0.135
 21
3.17
 31
0.0
  0
LINE
  5
11F
330
F8
100
AcDbEntity
  8
AM_4
100
AcDbLine
 10
0.135
 20
3.17
 30
0.0
 11
0.1026779019331875
 21
3.25
 31
0.0
  0
LINE
  5
120
330
F8
100
AcDbEntity
  8
AM_4
100
AcDbLine
 10
-0.1188200907348975
 20
3.047753121618572
 30
0.0
 11
0.1188200907348975
 21
3.047753121618572
 31
0.0
  0
LINE
  5
121
330
F8
100
AcDbEntity
  8
AM_4
100
AcDbLine
 10
-0.1188200907348975
 20
3.047753121618572
 30
0.0
 11
-0.1725340532830154
 21
2.993318198540882
 31
0.0
  0
LINE
  5
122
330
F8
100
AcDbEntity
  8
AM_4
100
AcDbLine
 10
0.1725340532830154
 20
2.993318198540882
 30
0.0
 11
0.1188200907348975
 21
3.047753121618572
 31
0.0
  0
LINE
  5
123
330
F8
100
AcDbEntity
  8
AM_4
100
AcDbLine
 10
-0.1725340532830154
 20
2.993318198540882
 30
0.0
 11
0.1725340532830154
 21
2.993318198540882
 31
0.0
  0
LINE
  5
124
330
F8
100
AcDbEntity
  8
AM_4
100
AcDbLine
 10
-0.1725340532830154
 20
2.993318198540882
 30
0.0
 11
-0.21375
 21
2.975
 31
0.0
  0
LINE
  5
125
330
F8
100
AcDbEntity
  8
AM_4
100
AcDbLine
 10
0.21375
 20
2.975
 30
0.0
 11
0.1725340532830154
 21
2.993318198540882
 31
0.0
  0
LINE
  5
126
330
F8
100
AcDbEntity
  8
AM_4
100
AcDbLine
 10
0.2525907427704612
 20
2.965932400303385
 30
0.0
 11
0.2525907427704612
 21
2.884067599696614
 31
0.0
  0
LWPOLYLINE
  5
127
330
F8
100
AcDbEntity
  8
AM_4
100
AcDbPolyline
 90
        4
 70
     0
 43
0.0
 10
0.1894430570778459
 20
2.975
 10
0.2052299785009998
 20
2.974392585996001
 10
0.2210359031098993
 20
2.972603793958984
 10
0.2525907427704612
 20
2.965932400303385
  0
LWPOLYLINE
  5
128
330
F8
100
AcDbEntity
  8
AM_4
100
AcDbPolyline
 90
        4
 70
     0
 43
0.0
 10
0.2525907427704612
 20
2.884067599696614
 10
0.2211429167713368
 20
2.877412145345961
 10
0.205323075602153
 20
2.875614561814227
 10
0.1894430570778459
 20
2.875
  0
LWPOLYLINE
  5
129
330
F8
100
AcDbEntity
  8
AM_4
100
AcDbPolyline
 90
        4
 70
     0
 43
0.0
 10
0.1262953713852306
 20
2.965932400303385
 10
0.157743197384355
 20
2.972587854654039
 10
0.1735630385535388
 20
2.974385438185772
 10
0.1894430570778459
 20
2.975
  0
LWPOLYLINE
  5
12A
330
F8
100
AcDbEntity
  8
AM_4
100
AcDbPolyline
 90
        4
 70
     0
 43
0.0
 10
-0.1894430570778459
 20
2.975
 10
-0.1736561356546922
 20
2.974392585996001
 10
-0.1578502110457927
 20
2.972603793958984
 10
-0.1262953713852306
 20
2.965932400303385
  0
LWPOLYLINE
  5
12B
330
F8
100
AcDbEntity
  8
AM_4
100
AcDbPolyline
 90
        4
 70
     0
 43
0.0
 10
-0.2525907427704612
 20
2.965932400303385
 10
-0.2290319127168271
 20
2.971278587191168
 10
-0.2053230756021531
 20
2.974385438185772
 10
-0.1894430570778459
 20
2.975
  0
LINE
  5
12C
330
F8
100
AcDbEntity
  8
AM_4
100
AcDbLine
 10
-0.2525907427704612
 20
2.965932400303385
 30
0.0
 11
-0.2525907427704612
 21
2.884067599696614
 31
0.0
  0
LWPOLYLINE
  5
12D
330
F8
100
AcDbEntity
  8
AM_4
100
AcDbPolyline
 90
        4
 70
     0
 43
0.0
 10
-0.1894430570778459
 20
2.875
 10
-0.2052299785009998
 20
2.875607414003999
 10
-0.2210359031098993
 20
2.877396206041015
 10
-0.2525907427704612
 20
2.884067599696614
  0
LWPOLYLINE
  5
12E
330
F8
100
AcDbEntity
  8
AM_4
100
AcDbPolyline
 90
        4
 70
     0
 43
0.0
 10
-0.1262953713852306
 20
2.884067599696614
 10
-0.1498542014388649
 20
2.878721412808832
 10
-0.1735630385535388
 20
2.875614561814227
 10
-0.1894430570778459
 20
2.875
  0
LWPOLYLINE
  5
12F
330
F8
100
AcDbEntity
  8
AM_4
100
AcDbPolyline
 90
        4
 70
     0
 43
0.0
 10
0.1894430570778459
 20
2.875
 10
0.1736561356546921
 20
2.875607414003999
 10
0.1578502110457926
 20
2.877396206041015
 10
0.1262953713852306
 20
2.884067599696614
  0
LINE
  5
130
330
F8
100
AcDbEntity
  8
AM_4
100
AcDbLine
 10
0.1262953713852306
 20
2.965932400303385
 30
0.0
 11
0.1262953713852306
 21
2.884067599696614
 31
0.0
  0
LWPOLYLINE
  5
131
330
F8
100
AcDbEntity
  8
AM_4
100
AcDbPolyline
 90
        4
 70
     0
 43
0.0
 10
0.0
 20
2.975
 10
0.0483998160558989
 20
2.973582439282862
 10
0.0967996321117978
 20
2.969517587482156
 10
0.1262953713852306
 20
2.965932400303385
  0
LWPOLYLINE
  5
132
330
F8
100
AcDbEntity
  8
AM_4
100
AcDbPolyline
 90
        5
 70
     0
 43
0.0
 10
-0.1262953713852306
 20
2.965932400303385
 10
-0.0949251544150459
 20
2.969719184458392
 10
-0.0634316146914367
 20
2.97258547505038
 10
-0.0317600370486143
 20
2.974385438185772
 10
0.0
 20
2.975
  0
LINE
  5
133
330
F8
100
AcDbEntity
  8
AM_4
100
AcDbLine
 10
-0.1262953713852306
 20
2.965932400303385
 30
0.0
 11
-0.1262953713852306
 21
2.884067599696614
 31
0.0
  0
LWPOLYLINE
  5
134
330
F8
100
AcDbEntity
  8
AM_4
100
AcDbPolyline
 90
        5
 70
     0
 43
0.0
 10
0.0
 20
2.875
 10
-0.0315738428463077
 20
2.875607414003999
 10
-0.0631476856926153
 20
2.877393380785035
 10
-0.094756284056983
 20
2.880262816495164
 10
-0.1262953713852306
 20
2.884067599696614
  0
LWPOLYLINE
  5
135
330
F8
100
AcDbEntity
  8
AM_4
100
AcDbPolyline
 90
        4
 70
     0
 43
0.0
 10
0.1262953713852306
 20
2.884067599696614
 10
0.0967996321117978
 20
2.880482412517844
 10
0.0485424412477544
 20
2.876425828243072
 10
0.0
 20
2.875
  0
ENDBLK
  5
FB
330
F8
100
AcDbEntity
  8
0
100
AcDbBlockEnd
  0
BLOCK
  5
138
330
136
100
AcDbEntity
  8
0
100
AcDbBlockBegin
  2
5_023487_Insert_0_in_023487_2
 70
     2
 10
0.0
 20
0.0
 30
0.0
  3
5_023487_Insert_0_in_023487_2
  1

  0
ATTDEF
  5
13A
330
136
100
AcDbEntity
  8
AM_6
100
AcDbText
 10
6.925
 20
3.282
 30
0.0
 40
0.5
  1
D Unit -Insert -Inch
100
AcDbAttributeDefinition
  3

  2
NN
 70
     8
280
     0
  0
ATTDEF
  5
13B
330
136
100
AcDbEntity
  8
AM_6
100
AcDbText
 10
6.925
 20
2.782
 30
0.0
 40
0.5
  1
Double-Interlock Bearings
100
AcDbAttributeDefinition
  3

  2
NT
 70
     8
280
     0
  0
ATTDEF
  5
13C
330
136
100
AcDbEntity
  8
AM_6
100
AcDbText
 10
6.925
 20
2.282
 30
0.0
 40
0.5
  1
023487-Insert
100
AcDbAttributeDefinition
  3

  2
NB
 70
     8
280
     0
  0
ATTDEF
  5
13D
330
136
100
AcDbEntity
  8
AM_6
100
AcDbText
 10
6.925
 20
1.782
 30
0.0
 40
0.5
  1
$PN.-Insert
100
AcDbAttributeDefinition
  3

  2
NBSYN
 70
     8
280
     0
  0
ATTDEF
  5
13E
330
136
100
AcDbEntity
  8
AM_6
100
AcDbText
 10
6.925
 20
1.282
 30
0.0
 40
0.5
  1
023487-Insert
100
AcDbAttributeDefinition
  3

  2
LINA
 70
     8
280
     0
  0
ATTDEF
  5
13F
330
136
100
AcDbEntity
  8
AM_6
100
AcDbText
 10
6.925
 20
0.7819999999999996
 30
0.0
 40
0.5
  1
1-15/16
100
AcDbAttributeDefinition
  3

  2
SS
 70
     8
280
     0
  0
ATTDEF
  5
140
330
136
100
AcDbEntity
  8
AM_6
100
AcDbText
 10
6.925
 20
0.2819999999999996
 30
0.0
 40
0.5
  1
023487
100
AcDbAttributeDefinition
  3

  2
PN
 70
     8
280
     0
  0
ATTDEF
  5
141
330
136
100
AcDbEntity
  8
AM_6
100
AcDbText
 10
6.925
 20
-0.2180000000000004
 30
0.0
 40
0.5
  1
DU-DI-115R
100
AcDbAttributeDefinition
  3

  2
DESCRIPTION
 70
     8
280
     0
  0
ATTDEF
  5
142
330
136
100
AcDbEntity
  8
AM_6
100
AcDbText
 10
6.925
 20
-0.7180000000000004
 30
0.0
 40
0.5
  1
3-1/2
100
AcDbAttributeDefinition
  3

  2
A
 70
     8
280
     0
  0
ATTDEF
  5
143
330
136
100
AcDbEntity
  8
AM_6
100
AcDbText
 10
6.925
 20
-1.218
 30
0.0
 40
0.5
  1
2-7/16
100
AcDbAttributeDefinition
  3

  2
B
 70
     8
280
     0
  0
ATTDEF
  5
144
330
136
100
AcDbEntity
  8
AM_6
100
AcDbText
 10
6.925
 20
-1.718
 30
0.0
 40
0.5
  1
11/16
100
AcDbAttributeDefinition
  3

  2
H
 70
     8
280
     0
  0
ATTDEF
  5
145
330
136
100
AcDbEntity
  8
AM_6
100
AcDbText
 10
6.925
 20
-2.218
 30
0.0
 40
0.5
  1
3-7/16
100
AcDbAttributeDefinition
  3

  2
L
 70
     8
280
     0
  0
ATTDEF
  5
146
330
136
100
AcDbEntity
  8
AM_6
100
AcDbText
 10
6.925
 20
-2.718
 30
0.0
 40
0.5
  1
3-1/4
100
AcDbAttributeDefinition
  3

  2
N
 70
     8
280
     0
  0
ATTDEF
  5
147
330
136
100
AcDbEntity
  8
AM_6
100
AcDbText
 10
6.925
 20
-3.218
 30
0.0
 40
0.5
  1
4-7/16
100
AcDbAttributeDefinition
  3

  2
P
 70
     8
280
     0
  0
ATTDEF
  5
148
330
136
100
AcDbEntity
  8
AM_6
100
AcDbText
 10
6.925
 20
-3.718
 30
0.0
 40
0.5
  1
4.656
100
AcDbAttributeDefinition
  3

  2
S
 70
     8
280
     0
  0
ATTDEF
  5
149
330
136
100
AcDbEntity
  8
AM_6
100
AcDbText
 10
6.925
 20
-4.218
 30
0.0
 40
0.5
  1
baldor
100
AcDbAttributeDefinition
  3

  2
COMPANY
 70
     8
280
     0
  0
LINE
  5
14A
330
136
100
AcDbEntity
  8
AM_9
100
AcDbLine
 10
1.235
 20
1.155
 30
0.0
 11
1.235
 21
0.9687499999999999
 31
0.0
  0
LINE
  5
14B
330
136
100
AcDbEntity
  8
AM_9
100
AcDbLine
 10
1.645
 20
0.9687499999999999
 30
0.0
 11
1.645
 21
1.155
 31
0.0
  0
LINE
  5
14C
330
136
100
AcDbEntity
  8
AM_9
100
AcDbLine
 10
-1.645
 20
1.155
 30
0.0
 11
-1.645
 21
0.9687499999999999
 31
0.0
  0
LINE
  5
14D
330
136
100
AcDbEntity
  8
AM_9
100
AcDbLine
 10
-1.235
 20
0.9687499999999999
 30
0.0
 11
-1.235
 21
1.155
 31
0.0
  0
LINE
  5
14E
330
136
100
AcDbEntity
  8
AM_9
100
AcDbLine
 10
-1.75
 20
-0.9687499999999999
 30
0.0
 11
1.75
 21
-0.9687499999999999
 31
0.0
  0
LINE
  5
14F
330
136
100
AcDbEntity
  8
AM_9
100
AcDbLine
 10
1.75
 20
0.9687499999999999
 30
0.0
 11
1.645
 21
0.9687499999999999
 31
0.0
  0
LINE
  5
150
330
136
100
AcDbEntity
  8
AM_9
100
AcDbLine
 10
1.235
 20
0.96875
 30
0.0
 11
-1.235
 21
0.9687499999999999
 31
0.0
  0
LINE
  5
151
330
136
100
AcDbEntity
  8
AM_9
100
AcDbLine
 10
-1.645
 20
0.9687499999999999
 30
0.0
 11
-1.75
 21
0.9687499999999999
 31
0.0
  0
LWPOLYLINE
  5
152
330
136
100
AcDbEntity
  8
AM_9
100
AcDbPolyline
 90
       21
 70
     0
 43
0.0
 10
1.235000000002312
 20
0.9687499999995107
 10
1.235143100360222
 20
0.9687197282134921
 10
1.239360855355573
 20
0.9678365713609127
 10
1.248815923712042
 20
0.9659207594446242
 10
1.26376375465983
 20
0.9630736091657792
 10
1.283262367643625
 20
0.9596969562818681
 10
1.307685987496721
 20
0.9560117993020367
 10
1.335554653643011
 20
0.9525546666074506
 10
1.367320001326978
 20
0.9495967274096464
 10
1.40010433347857
 20
0.947651426795311
 10
1.4350734512146
 20
0.9468240773147537
 10
1.468492420099968
 20
0.9472398748485796
 10
1.502054527154821
 20
0.9488426249070012
 10
1.532871243514031
 20
0.9513551546987289
 10
1.561941353605076
 20
0.9546314766542312
 10
1.58739020668486
 20
0.9582147126435732
 10
1.60936963717418
 20
0.9618407542293647
 10
1.626239284555543
 20
0.9649542132203788
 10
1.638187719708861
 20
0.967331346924826
 10
1.643258673544317
 20
0.9683830083551631
 10
1.645
 20
0.9687499999999999
  0
LWPOLYLINE
  5
153
330
136
100
AcDbEntity
  8
AM_9
100
AcDbPolyline
 90
       21
 70
     0
 43
0.0
 10
-1.644999999997688
 20
0.9687499999995107
 10
-1.644856899639778
 20
0.9687197282134921
 10
-1.640639144644427
 20
0.9678365713609127
 10
-1.631184076287958
 20
0.9659207594446242
 10
-1.61623624534017
 20
0.9630736091657792
 10
-1.596737632356375
 20
0.9596969562818681
 10
-1.572314012503279
 20
0.9560117993020367
 10
-1.544445346356988
 20
0.9525546666074506
 10
-1.512679998673021
 20
0.9495967274096464
 10
-1.479895666521429
 20
0.947651426795311
 10
-1.4449265487854
 20
0.9468240773147537
 10
-1.411507579900032
 20
0.9472398748485796
 10
-1.377945472845179
 20
0.9488426249070012
 10
-1.347128756485968
 20
0.9513551546987289
 10
-1.318058646394924
 20
0.9546314766542312
 10
-1.29260979331514
 20
0.9582147126435732
 10
-1.27063036282582
 20
0.9618407542293647
 10
-1.253760715444457
 20
0.9649542132203788
 10
-1.241812280291139
 20
0.967331346924826
 10
-1.236741326455683
 20
0.9683830083551631
 10
-1.235
 20
0.9687499999999999
  0
LWPOLYLINE
  5
154
330
136
100
AcDbEntity
  8
AM_9
100
AcDbPolyline
 90
       11
 70
     0
 43
0.0
 10
1.44
 20
0.2143466326527851
 10
1.473494996372592
 20
0.2170937197507779
 10
1.506989992745184
 20
0.2255469264103231
 10
1.537654351141878
 20
0.2389040527100372
 10
1.566413373555142
 20
0.2574272711717
 10
1.591276159801426
 20
0.2798278656269667
 10
1.612534952037787
 20
0.3063918783944214
 10
1.628564074210124
 20
0.3351059266729828
 10
1.63957800602962
 20
0.3664847618072958
 10
1.644565611782372
 20
0.39728401945758
 10
1.644999999509888
 20
0.4093985936169403
  0
LINE
  5
155
330
136
100
AcDbEntity
  8
AM_9
100
AcDbLine
 10
1.235
 20
0.4880725092054527
 30
0.0
 11
1.235
 21
0.4093806894140368
 31
0.0
  0
LINE
  5
156
330
136
100
AcDbEntity
  8
AM_9
100
AcDbLine
 10
1.645
 20
0.4093487560270378
 30
0.0
 11
1.645
 21
0.4881076412112375
 31
0.0
  0
LWPOLYLINE
  5
157
330
136
100
AcDbEntity
  8
AM_9
100
AcDbPolyline
 90
        4
 70
     0
 43
0.0
 10
1.23964630592789
 20
0.4483324764860719
 10
1.238924651137571
 20
0.4452445814253653
 10
1.235060192954161
 20
0.4139080907666524
 10
1.235000000968184
 20
0.4094294980147634
  0
LWPOLYLINE
  5
158
330
136
100
AcDbEntity
  8
AM_9
100
AcDbPolyline
 90
        5
 70
     0
 43
0.0
 10
1.295118771745398
 20
0.5362413887484481
 10
1.283441711468094
 20
0.525516006102268
 10
1.263616166694132
 20
0.5017048572675392
 10
1.248321714051615
 20
0.4741403882134658
 10
1.23964630592789
 20
0.4483324764860719
  0
LWPOLYLINE
  5
159
330
136
100
AcDbEntity
  8
AM_9
100
AcDbPolyline
 90
        5
 70
     0
 43
0.0
 10
1.391625025382089
 20
0.581207775159919
 10
1.366019331877006
 20
0.5746321895356642
 10
1.335315933283813
 20
0.562320433771385
 10
1.307900013699755
 20
0.546090934937423
 10
1.295118771745398
 20
0.5362413887484481
  0
LWPOLYLINE
  5
15A
330
136
100
AcDbEntity
  8
AM_9
100
AcDbPolyline
 90
        5
 70
     0
 43
0.0
 10
1.584990758534179
 20
0.5361491535175119
 10
1.562067355357661
 20
0.5527161856972496
 10
1.532201565056518
 20
0.5679731851036357
 10
1.500456854990158
 20
0.5784844978160056
 10
1.487389803764756
 20
0.5814012291546746
  0
LWPOLYLINE
  5
15B
330
136
100
AcDbEntity
  8
AM_9
100
AcDbPolyline
 90
        6
 70
     0
 43
0.0
 10
1.640271384995424
 20
0.4486681011289177
 10
1.637674645156966
 20
0.4579904210900909
 10
1.625878007602432
 20
0.4861321433266659
 10
1.60933190232676
 20
0.5112121494547663
 10
1.587652741881966
 20
0.5338620959593247
 10
1.584990758534179
 20
0.5361491535175119
  0
LWPOLYLINE
  5
15C
330
136
100
AcDbEntity
  8
AM_9
100
AcDbPolyline
 90
        3
 70
     0
 43
0.0
 10
1.644999999509888
 20
0.4093985936169403
 10
1.643863935940505
 20
0.4288430010579505
 10
1.640271384995424
 20
0.4486681011289177
  0
LWPOLYLINE
  5
15D
330
136
100
AcDbEntity
  8
AM_9
100
AcDbPolyline
 90
       11
 70
     0
 43
0.0
 10
1.235000000968184
 20
0.4094294980147634
 10
1.236986545864899
 20
0.3834320763155552
 10
1.244616773588007
 20
0.3523329055112973
 10
1.257254137732613
 20
0.3233360294981632
 10
1.275242671122402
 20
0.2955979838589717
 10
1.297548935851744
 20
0.2710352079022256
 10
1.324530318482741
 20
0.2495882433293515
 10
1.354352044623322
 20
0.232972830910425
 10
1.387617013315771
 20
0.221126527520521
 10
1.413349663731104
 20
0.2160817938886561
 10
1.44
 20
0.2143466326527851
  0
LWPOLYLINE
  5
15E
330
136
100
AcDbEntity
  8
AM_9
100
AcDbPolyline
 90
        8
 70
     0
 43
0.0
 10
1.564428998922766
 20
0.6308979828940611
 10
1.574081440060773
 20
0.6242252158873672
 10
1.598030595214283
 20
0.6033408369111425
 10
1.617754664564531
 20
0.5787257344100867
 10
1.632444375082898
 20
0.5512328414947232
 10
1.641558092901368
 20
0.5216613630812379
 10
1.644980125315636
 20
0.490709665939839
 10
1.644999999423271
 20
0.4881380287629355
  0
LWPOLYLINE
  5
15F
330
136
100
AcDbEntity
  8
AM_9
100
AcDbPolyline
 90
       10
 70
     0
 43
0.0
 10
1.315519389291602
 20
0.6308646199075679
 10
1.319518647608122
 20
0.6333634238699369
 10
1.349099696855717
 20
0.648436972693003
 10
1.38137499672068
 20
0.6590286972977397
 10
1.415354574168082
 20
0.6649324833827778
 10
1.449595417938756
 20
0.6659645037566182
 10
1.483562444580927
 20
0.6622764730365414
 10
1.516039424056023
 20
0.6539702262409812
 10
1.546407254635479
 20
0.6412787325986631
 10
1.564428998922766
 20
0.6308979828940611
  0
LWPOLYLINE
  5
160
330
136
100
AcDbEntity
  8
AM_9
100
AcDbPolyline
 90
        7
 70
     0
 43
0.0
 10
1.235000000636228
 20
0.4881094545278524
 10
1.236205001884483
 20
0.5081490698992478
 10
1.242701787334798
 20
0.537937138922821
 10
1.254579556773278
 20
0.5659633614361719
 10
1.27166348572899
 20
0.5916166019356104
 10
1.293360100644548
 20
0.6141873703698316
 10
1.315519389291602
 20
0.6308646199075679
  0
LWPOLYLINE
  5
161
330
136
100
AcDbEntity
  8
AM_9
100
AcDbPolyline
 90
       11
 70
     0
 43
0.0
 10
1.644999999423271
 20
0.4881380287629355
 10
1.642592238706021
 20
0.459674065792011
 10
1.634636046210831
 20
0.4290386003036939
 10
1.621297428565379
 20
0.3997597701124795
 10
1.603023639873217
 20
0.372643524411945
 10
1.579933803014486
 20
0.3482500085262513
 10
1.552926110808756
 20
0.3276763021680447
 10
1.522439040654303
 20
0.3115511382649416
 10
1.489564735109267
 20
0.300549654389962
 10
1.464973010319945
 20
0.296086952188345
 10
1.44
 20
0.2945809289154055
  0
LWPOLYLINE
  5
162
330
136
100
AcDbEntity
  8
AM_9
100
AcDbPolyline
 90
       11
 70
     0
 43
0.0
 10
-1.44
 20
0.2143466326527851
 10
-1.406505003627408
 20
0.2170937197507779
 10
-1.373010007254815
 20
0.2255469264103231
 10
-1.342345648858122
 20
0.2389040527100372
 10
-1.313586626444858
 20
0.2574272711717
 10
-1.288723840198574
 20
0.2798278656269667
 10
-1.267465047962213
 20
0.3063918783944214
 10
-1.251435925789876
 20
0.3351059266729828
 10
-1.24042199397038
 20
0.3664847618072958
 10
-1.235434388217628
 20
0.39728401945758
 10
-1.235000000490112
 20
0.4093985936169403
  0
LINE
  5
163
330
136
100
AcDbEntity
  8
AM_9
100
AcDbLine
 10
-1.645
 20
0.4880725092054528
 30
0.0
 11
-1.645
 21
0.4093806894140368
 31
0.0
  0
LINE
  5
164
330
136
100
AcDbEntity
  8
AM_9
100
AcDbLine
 10
-1.235
 20
0.4093487560270378
 30
0.0
 11
-1.235
 21
0.4881076412112376
 31
0.0
  0
LWPOLYLINE
  5
165
330
136
100
AcDbEntity
  8
AM_9
100
AcDbPolyline
 90
        4
 70
     0
 43
0.0
 10
-1.64035369407211
 20
0.4483324764860719
 10
-1.641075348862429
 20
0.4452445814253653
 10
-1.644939807045839
 20
0.4139080907666524
 10
-1.644999999031816
 20
0.4094294980147634
  0
LWPOLYLINE
  5
166
330
136
100
AcDbEntity
  8
AM_9
100
AcDbPolyline
 90
        5
 70
     0
 43
0.0
 10
-1.584955888292757
 20
0.5361785333897956
 10
-1.596558288531906
 20
0.525516006102268
 10
-1.616383833305868
 20
0.5017048572675392
 10
-1.631678285948385
 20
0.4741403882134658
 10
-1.64035369407211
 20
0.4483324764860719
  0
LWPOLYLINE
  5
167
330
136
100
AcDbEntity
  8
AM_9
100
AcDbPolyline
 90
        5
 70
     0
 43
0.0
 10
-1.487778675951538
 20
0.5813253738640651
 10
-1.513980668122994
 20
0.5746321895356642
 10
-1.544684066716187
 20
0.562320433771385
 10
-1.572099986300245
 20
0.546090934937423
 10
-1.584955888292757
 20
0.5361785333897956
  0
LWPOLYLINE
  5
168
330
136
100
AcDbEntity
  8
AM_9
100
AcDbPolyline
 90
        5
 70
     0
 43
0.0
 10
-1.295513541930516
 20
0.5365726265144065
 10
-1.317932644642339
 20
0.5527161856972496
 10
-1.347798434943482
 20
0.5679731851036357
 10
-1.379543145009841
 20
0.5784844978160056
 10
-1.39163094810946
 20
0.5812089508467249
  0
LWPOLYLINE
  5
169
330
136
100
AcDbEntity
  8
AM_9
100
AcDbPolyline
 90
        6
 70
     0
 43
0.0
 10
-1.239728615004576
 20
0.4486681011289176
 10
-1.242325354843034
 20
0.4579904210900909
 10
-1.254121992397568
 20
0.4861321433266659
 10
-1.27066809767324
 20
0.5112121494547663
 10
-1.292347258118034
 20
0.5338620959593247
 10
-1.295513541930516
 20
0.5365726265144065
  0
LWPOLYLINE
  5
16A
330
136
100
AcDbEntity
  8
AM_9
100
AcDbPolyline
 90
        3
 70
     0
 43
0.0
 10
-1.235000000490112
 20
0.4093985936169403
 10
-1.236136064059495
 20
0.4288430010579505
 10
-1.239728615004576
 20
0.4486681011289176
  0
LWPOLYLINE
  5
16B
330
136
100
AcDbEntity
  8
AM_9
100
AcDbPolyline
 90
       11
 70
     0
 43
0.0
 10
-1.644999999031816
 20
0.4094294980147634
 10
-1.643013454135101
 20
0.3834320763155552
 10
-1.635383226411993
 20
0.3523329055112973
 10
-1.622745862267386
 20
0.3233360294981632
 10
-1.604757328877598
 20
0.2955979838589717
 10
-1.582451064148255
 20
0.2710352079022256
 10
-1.555469681517259
 20
0.2495882433293515
 10
-1.525647955376678
 20
0.232972830910425
 10
-1.492382986684229
 20
0.221126527520521
 10
-1.466650336268896
 20
0.2160817938886561
 10
-1.44
 20
0.2143466326527851
  0
LWPOLYLINE
  5
16C
330
136
100
AcDbEntity
  8
AM_9
100
AcDbPolyline
 90
        8
 70
     0
 43
0.0
 10
-1.315739334282715
 20
0.6310066409559822
 10
-1.305918559939227
 20
0.6242252158873671
 10
-1.281969404785717
 20
0.6033408369111424
 10
-1.262245335435469
 20
0.5787257344100867
 10
-1.247555624917102
 20
0.5512328414947232
 10
-1.238441907098632
 20
0.5216613630812379
 10
-1.235019874684364
 20
0.4907096659398389
 10
-1.235000000576729
 20
0.4881380287629355
  0
LWPOLYLINE
  5
16D
330
136
100
AcDbEntity
  8
AM_9
100
AcDbPolyline
 90
       10
 70
     0
 43
0.0
 10
-1.564195041775168
 20
0.631048936128381
 10
-1.560481352391878
 20
0.6333634238699372
 10
-1.530900303144283
 20
0.6484369726930032
 10
-1.49862500327932
 20
0.6590286972977397
 10
-1.464645425831918
 20
0.6649324833827779
 10
-1.430404582061243
 20
0.6659645037566183
 10
-1.396437555419072
 20
0.6622764730365414
 10
-1.363960575943977
 20
0.653970226240981
 10
-1.333592745364521
 20
0.641278732598663
 10
-1.315739334282715
 20
0.6310066409559822
  0
LWPOLYLINE
  5
16E
330
136
100
AcDbEntity
  8
AM_9
100
AcDbPolyline
 90
        7
 70
     0
 43
0.0
 10
-1.644999999363772
 20
0.4881094545278525
 10
-1.643794998115517
 20
0.5081490698992479
 10
-1.637298212665202
 20
0.537937138922821
 10
-1.625420443226721
 20
0.5659633614361719
 10
-1.60833651427101
 20
0.5916166019356105
 10
-1.586639899355452
 20
0.614187370369832
 10
-1.564195041775168
 20
0.631048936128381
  0
LWPOLYLINE
  5
16F
330
136
100
AcDbEntity
  8
AM_9
100
AcDbPolyline
 90
       11
 70
     0
 43
0.0
 10
-1.235000000576729
 20
0.4881380287629355
 10
-1.237407761293978
 20
0.4596740657920109
 10
-1.245363953789169
 20
0.4290386003036939
 10
-1.258702571434621
 20
0.3997597701124795
 10
-1.276976360126783
 20
0.3726435244119451
 10
-1.300066196985514
 20
0.3482500085262514
 10
-1.327073889191244
 20
0.3276763021680447
 10
-1.357560959345697
 20
0.3115511382649416
 10
-1.390435264890733
 20
0.300549654389962
 10
-1.415026989680055
 20
0.2960869521883451
 10
-1.44
 20
0.2945809289154055
  0
LWPOLYLINE
  5
170
330
136
100
AcDbEntity
  8
AM_9
100
AcDbPolyline
 90
       20
 70
     0
 43
0.0
 10
-1.235
 20
1.155
 10
-1.237777119788291
 20
1.154510326190771
 10
-1.246347287329928
 20
1.153040057033787
 10
-1.259969615537917
 20
1.150830543272799
 10
-1.279017922972842
 20
1.148004890723022
 10
-1.302161547285693
 20
1.144988837957241
 10
-1.329908827889746
 20
1.14198076436366
 10
-1.360188332360155
 20
1.139460355734877
 10
-1.393722788509431
 20
1.137603437188611
 10
-1.427285682869657
 20
1.136732885888365
 10
-1.46221292004132
 20
1.136878803486441
 10
-1.495134380919184
 20
1.137998154637933
 10
-1.527419738123158
 20
1.140018513276658
 10
-1.556566209883854
 20
1.142623158038855
 10
-1.583236199664742
 20
1.145651172431817
 10
-1.60554842260906
 20
1.148654116881295
 10
-1.623740440207128
 20
1.151416757463391
 10
-1.636285567067709
 20
1.153485164117464
 10
-1.643510801119605
 20
1.15473661333325
 10
-1.64499999999895
 20
1.154999999999814
  0
LWPOLYLINE
  5
171
330
136
100
AcDbEntity
  8
AM_9
100
AcDbPolyline
 90
       11
 70
     0
 43
0.0
 10
-1.44
 20
0.2945809289154055
 10
-1.47410843538501
 20
0.2974090635686094
 10
-1.507248002252064
 20
0.3057019191665715
 10
-1.538447523479572
 20
0.3192274373077653
 10
-1.566905193923415
 20
0.3374457705877584
 10
-1.59204195531181
 20
0.3600553481938412
 10
-1.612924449120014
 20
0.3861162654203097
 10
-1.628999307750009
 20
0.4150579676835031
 10
-1.639705549264894
 20
0.4457796282625969
 10
-1.644613652474626
 20
0.4770156832445993
 10
-1.644999999363772
 20
0.4881094545278525
  0
LINE
  5
172
330
136
100
AcDbEntity
  8
AM_9
100
AcDbLine
 10
-1.75
 20
-1.155
 30
0.0
 11
-1.099
 21
-1.155
 31
0.0
  0
LINE
  5
173
330
136
100
AcDbEntity
  8
AM_9
100
AcDbLine
 10
-1.099
 20
1.155
 30
0.0
 11
-1.235
 21
1.155
 31
0.0
  0
LINE
  5
174
330
136
100
AcDbEntity
  8
AM_9
100
AcDbLine
 10
-1.645
 20
1.155
 30
0.0
 11
-1.75
 21
1.155
 31
0.0
  0
LWPOLYLINE
  5
175
330
136
100
AcDbEntity
  8
AM_9
100
AcDbPolyline
 90
       20
 70
     0
 43
0.0
 10
1.645
 20
1.155
 10
1.642222880211709
 20
1.154510326190771
 10
1.633652712670072
 20
1.153040057033786
 10
1.620030384462083
 20
1.150830543272799
 10
1.600982077027158
 20
1.148004890723022
 10
1.577838452714307
 20
1.144988837957241
 10
1.550091172110254
 20
1.14198076436366
 10
1.519811667639845
 20
1.139460355734877
 10
1.486277211490569
 20
1.137603437188611
 10
1.452714317130343
 20
1.136732885888365
 10
1.41778707995868
 20
1.136878803486441
 10
1.384865619080816
 20
1.137998154637933
 10
1.352580261876842
 20
1.140018513276658
 10
1.323433790116146
 20
1.142623158038855
 10
1.296763800335258
 20
1.145651172431817
 10
1.27445157739094
 20
1.148654116881295
 10
1.256259559792872
 20
1.151416757463391
 10
1.243714432932291
 20
1.153485164117463
 10
1.236489198880395
 20
1.15473661333325
 10
1.23500000000105
 20
1.154999999999814
  0
LWPOLYLINE
  5
176
330
136
100
AcDbEntity
  8
AM_9
100
AcDbPolyline
 90
       11
 70
     0
 43
0.0
 10
1.44
 20
0.2945809289154055
 10
1.40589156461499
 20
0.2974090635686094
 10
1.372751997747935
 20
0.3057019191665715
 10
1.341552476520428
 20
0.3192274373077653
 10
1.313094806076585
 20
0.3374457705877584
 10
1.28795804468819
 20
0.3600553481938412
 10
1.267075550879986
 20
0.3861162654203096
 10
1.251000692249991
 20
0.4150579676835031
 10
1.240294450735106
 20
0.4457796282625969
 10
1.235386347525375
 20
0.4770156832445993
 10
1.235000000636228
 20
0.4881094545278524
  0
LINE
  5
177
330
136
100
AcDbEntity
  8
AM_9
100
AcDbLine
 10
1.099
 20
-1.155
 30
0.0
 11
1.75
 21
-1.155
 31
0.0
  0
LINE
  5
178
330
136
100
AcDbEntity
  8
AM_9
100
AcDbLine
 10
1.75
 20
1.155
 30
0.0
 11
1.645
 21
1.155
 31
0.0
  0
LINE
  5
179
330
136
100
AcDbEntity
  8
AM_9
100
AcDbLine
 10
1.235
 20
1.155
 30
0.0
 11
1.099
 21
1.155
 31
0.0
  0
LINE
  5
17A
330
136
100
AcDbEntity
  8
AM_9
100
AcDbLine
 10
1.099
 20
-1.762820512820513
 30
0.0
 11
1.099
 21
1.762820512820513
 31
0.0
  0
LINE
  5
17B
330
136
100
AcDbEntity
  8
AM_9
100
AcDbLine
 10
1.099
 20
-1.762820512820513
 30
0.0
 11
1.21875
 21
-1.783935668760352
 31
0.0
  0
LINE
  5
17C
330
136
100
AcDbEntity
  8
AM_9
100
AcDbLine
 10
1.21875
 20
1.783935668760352
 30
0.0
 11
1.099
 21
1.762820512820513
 31
0.0
  0
LINE
  5
17D
330
136
100
AcDbEntity
  8
AM_9
100
AcDbLine
 10
-1.099
 20
1.762820512820513
 30
0.0
 11
-1.21875
 21
1.783935668760351
 31
0.0
  0
LINE
  5
17E
330
136
100
AcDbEntity
  8
AM_9
100
AcDbLine
 10
-1.21875
 20
-1.783935668760351
 30
0.0
 11
-1.099
 21
-1.762820512820513
 31
0.0
  0
LINE
  5
17F
330
136
100
AcDbEntity
  8
AM_9
100
AcDbLine
 10
-1.099
 20
1.762820512820513
 30
0.0
 11
-1.099
 21
-1.762820512820513
 31
0.0
  0
LINE
  5
182
330
136
100
AcDbEntity
  8
AM_7
100
AcDbLine
 10
-1.925
 20
0.0
 30
0.0
 11
1.925
 21
0.0
 31
0.0
  0
LINE
  5
183
330
136
100
AcDbEntity
  8
AM_7
100
AcDbLine
 10
-1.44
 20
-0.0859375
 30
0.0
 11
-1.44
 21
1.8046875
 31
0.0
  0
LINE
  5
184
330
136
100
AcDbEntity
  8
AM_7
100
AcDbLine
 10
1.44
 20
-0.0859375
 30
0.0
 11
1.44
 21
1.8046875
 31
0.0
  0
LINE
  5
185
330
136
100
AcDbEntity
  8
AM_7
100
AcDbLine
 10
0.0
 20
3.282
 30
0.0
 11
0.0
 21
1.671875
 31
0.0
  0
LINE
  5
186
330
136
100
AcDbEntity
  8
AM_4
100
AcDbLine
 10
0.30275
 20
2.875
 30
0.0
 11
-0.3027499996909502
 21
2.875
 31
0.0
  0
ARC
  5
187
330
136
100
AcDbEntity
  8
AM_4
100
AcDbCircle
 10
-0.3027499999999999
 20
2.834
 30
0.0
 40
0.0409999999999999
100
AcDbArc
 50
90.0
 51
180.0
  0
ARC
  5
188
330
136
100
AcDbEntity
  8
AM_4
100
AcDbCircle
 10
0.3027499999999999
 20
2.834
 30
0.0
 40
0.0409999999999998
100
AcDbArc
 50
0.0
 51
90.0
  0
LINE
  5
189
330
136
100
AcDbEntity
  8
AM_4
100
AcDbLine
 10
0.3437499999999997
 20
2.834
 30
0.0
 11
-0.3437499999999998
 21
2.834
 31
0.0
  0
LINE
  5
18A
330
136
100
AcDbEntity
  8
AM_4
100
AcDbLine
 10
-0.3437499999999998
 20
2.834
 30
0.0
 11
-0.3437499999999998
 21
2.21875
 31
0.0
  0
LINE
  5
18B
330
136
100
AcDbEntity
  8
AM_4
100
AcDbLine
 10
0.3437499999999998
 20
2.21875
 30
0.0
 11
0.3437499999999998
 21
2.834
 31
0.0
  0
LWPOLYLINE
  5
18C
330
136
100
AcDbEntity
  8
AM_4
100
AcDbPolyline
 90
        5
 70
     0
 43
0.0
 10
1.487389803764756
 20
0.5814012291546746
 10
1.465939614199797
 20
0.5845895954659749
 10
1.432308764249139
 20
0.5858152185286436
 10
1.397913923223561
 20
0.5823704532999636
 10
1.391625025382089
 20
0.581207775159919
  0
LWPOLYLINE
  5
18D
330
136
100
AcDbEntity
  8
AM_4
100
AcDbPolyline
 90
        5
 70
     0
 43
0.0
 10
-1.39163094810946
 20
0.5812089508467249
 10
-1.414060385800203
 20
0.5845895954659749
 10
-1.447691235750861
 20
0.5858152185286436
 10
-1.482086076776439
 20
0.5823704532999636
 10
-1.487778675951538
 20
0.5813253738640651
  0
ARC
  5
18E
330
136
100
AcDbEntity
  8
AM_4
100
AcDbCircle
 10
-0.000000000000036
 20
-0.0000000000000795
 30
0.0
 40
2.328000000000086
100
AcDbArc
 50
58.43146800560812
 51
72.3773962737985
  0
ARC
  5
18F
330
136
100
AcDbEntity
  8
AM_4
100
AcDbCircle
 10
0.0000000000031859
 20
-0.0000000000070224
 30
0.0
 40
2.327999999992403
100
AcDbArc
 50
287.6226037261783
 51
301.568531994415
  0
LINE
  5
190
330
136
100
AcDbEntity
  8
AM_4
100
AcDbLine
 10
1.21875
 20
1.983489964053259
 30
0.0
 11
1.21875
 21
-1.983489964053323
 31
0.0
  0
LWPOLYLINE
  5
191
330
136
100
AcDbEntity
  8
AM_4
100
AcDbPolyline
 90
       20
 70
     0
 43
0.0
 10
0.3437499999999998
 20
2.21875
 10
0.339073545600345
 20
2.218030290443751
 10
0.3246402467408456
 20
2.215869759215094
 10
0.3016893372352917
 20
2.212623771950728
 10
0.2695836494611434
 20
2.208475230573526
 10
0.230671130939414
 20
2.204063672094994
 10
0.1840355555093979
 20
2.199671926831738
 10
0.1332668539752314
 20
2.196007184498369
 10
0.0770911300562072
 20
2.19331496651378
 10
0.0207523153325912
 20
2.192057973364679
 10
-0.037846018237273
 20
2.192286436827181
 10
-0.0932306900682715
 20
2.193941535586262
 10
-0.1475303063541182
 20
2.196918908674815
 10
-0.1964555983301386
 20
2.200745851322968
 10
-0.2411853052942584
 20
2.205188847126224
 10
-0.2784183736668301
 20
2.20957106488913
 10
-0.3087115620112988
 20
2.213592177552012
 10
-0.3295192531626265
 20
2.216589821821993
 10
-0.3414014597759742
 20
2.218387354980452
 10
-0.3437499999990752
 20
2.218749999999857
  0
LINE
  5
192
330
136
100
AcDbEntity
  8
AM_4
100
AcDbLine
 10
-0.7047924783225198
 20
-2.21875
 30
0.0
 11
0.7047924783225198
 21
-2.21875
 31
0.0
  0
LINE
  5
193
330
136
100
AcDbEntity
  8
AM_4
100
AcDbLine
 10
0.7047924783225198
 20
2.21875
 30
0.0
 11
0.3437499999999998
 21
2.21875
 31
0.0
  0
LINE
  5
194
330
136
100
AcDbEntity
  8
AM_4
100
AcDbLine
 10
-0.3437499999999998
 20
2.21875
 30
0.0
 11
-0.7047924783225198
 21
2.21875
 31
0.0
  0
LINE
  5
195
330
136
100
AcDbEntity
  8
AM_4
100
AcDbLine
 10
0.7047924783225198
 20
2.21875
 30
0.0
 11
0.7047924783225198
 21
-2.21875
 31
0.0
  0
ARC
  5
196
330
136
100
AcDbEntity
  8
AM_4
100
AcDbCircle
 10
0.0000000000000421
 20
-0.000000000000091
 30
0.0
 40
2.328000000000099
100
AcDbArc
 50
107.6226037262015
 51
121.5685319943918
  0
ARC
  5
197
330
136
100
AcDbEntity
  8
AM_4
100
AcDbCircle
 10
-0.0000000000056803
 20
-0.000000000012522
 30
0.0
 40
2.327999999986452
100
AcDbArc
 50
238.431468005567
 51
252.3773962738395
  0
LINE
  5
198
330
136
100
AcDbEntity
  8
AM_4
100
AcDbLine
 10
-1.21875
 20
1.983489964053259
 30
0.0
 11
-1.21875
 21
-1.983489964053371
 31
0.0
  0
LINE
  5
199
330
136
100
AcDbEntity
  8
AM_4
100
AcDbLine
 10
-0.7047924783225198
 20
2.21875
 30
0.0
 11
-0.7047924783225198
 21
-2.218750000000111
 31
0.0
  0
ENDBLK
  5
139
330
136
100
AcDbEntity
  8
0
100
AcDbBlockEnd
  0
ENDSEC
  0
SECTION
  2
ENTITIES
  0
INSERT
  5
6F
330
1F
100
AcDbEntity
  8
0
100
AcDbBlockReference
  2
1_023487_2
 10
0.0
 20
0.0
 30
0.0
  0
POINT
  5
19B
330
1F
100
AcDbEntity
  8
ConnectionPoints
100
AcDbPoint
 10
-1.75
 20
0.0
 30
0.0000000000000001
  0
POINT
  5
19C
330
1F
100
AcDbEntity
  8
ConnectionPoints
100
AcDbPoint
 10
0.0
 20
2.875
 30
0.0
  0
POINT
  5
19D
330
1F
100
AcDbEntity
  8
ConnectionPoints
100
AcDbPoint
 10
0.0
 20
0.0
 30
0.0
  0
POINT
  5
19E
330
1F
100
AcDbEntity
  8
ConnectionPoints
100
AcDbPoint
 10
-1.75
 20
0.0
 30
0.0000000000000001
  0
POINT
  5
19F
330
1F
100
AcDbEntity
  8
ConnectionPoints
100
AcDbPoint
 10
1.75
 20
0.0
 30
-0.0000000000000001
  0
POINT
  5
1A0
330
1F
100
AcDbEntity
  8
ConnectionPoints
100
AcDbPoint
 10
0.0
 20
2.875
 30
0.0
  0
POINT
  5
1A1
330
1F
100
AcDbEntity
  8
ConnectionPoints
100
AcDbPoint
 10
0.0
 20
2.875
 30
0.0
  0
ENDSEC
  0
SECTION
  2
OBJECTS
  0
DICTIONARY
  5
C
330
0
100
AcDbDictionary
281
     1
  3
ACAD_DETAILVIEWSTYLE
350
1A9
  3
ACAD_GROUP
350
D
  3
ACAD_LAYOUT
350
1A
  3
ACAD_MATERIAL
350
43
  3
ACAD_MLEADERSTYLE
350
6B
  3
ACAD_MLINESTYLE
350
17
  3
ACAD_PLOTSETTINGS
350
19
  3
ACAD_PLOTSTYLENAME
350
E
  3
ACAD_SCALELIST
350
47
  3
ACAD_SECTIONVIEWSTYLE
350
1AA
  3
ACAD_TABLESTYLE
350
69
  3
ACAD_VISUALSTYLE
350
2A
  3
ACDB_RECOMPOSE_DATA
350
1A6
  3
AcDbVariableDictionary
350
1A2
  0
SUN
  5
6D
330
29
100
AcDbSun
 90
        1
290
     0
 63
     7
421
 16777215
 40
1.0
291
     1
 91
  2455826
 92
 54000000
292
     0
 70
     2
 71
   256
280
     1
  0
DICTIONARY
  5
1A9
102
{ACAD_REACTORS
330
C
102
}
330
C
100
AcDbDictionary
281
     1
  0
DICTIONARY
  5
D
102
{ACAD_REACTORS
330
C
102
}
330
C
100
AcDbDictionary
281
     1
  0
DICTIONARY
  5
1A
102
{ACAD_REACTORS
330
C
102
}
330
C
100
AcDbDictionary
281
     1
  3
Layout1
350
1E
  3
Layout2
350
26
  3
Model
350
22
  0
DICTIONARY
  5
43
102
{ACAD_REACTORS
330
C
102
}
330
C
100
AcDbDictionary
281
     1
  3
ByBlock
350
45
  3
ByLayer
350
44
  3
Global
350
46
  0
DICTIONARY
  5
6B
102
{ACAD_REACTORS
330
C
102
}
330
C
100
AcDbDictionary
281
     1
  3
Standard
350
6C
  0
DICTIONARY
  5
17
102
{ACAD_REACTORS
330
C
102
}
330
C
100
AcDbDictionary
281
     1
  3
Standard
350
18
  0
DICTIONARY
  5
19
102
{ACAD_REACTORS
330
C
102
}
330
C
100
AcDbDictionary
281
     1
  0
ACDBDICTIONARYWDFLT
  5
E
102
{ACAD_REACTORS
330
C
102
}
330
C
100
AcDbDictionary
281
     1
  3
Normal
350
F
100
AcDbDictionaryWithDefault
340
F
  0
DICTIONARY
  5
47
102
{ACAD_REACTORS
330
C
102
}
330
C
100
AcDbDictionary
281
     1
  3
A0
350
48
  3
A1
350
49
  3
A2
350
4A
  3
A3
350
4B
  3
A4
350
4C
  3
A5
350
4D
  3
A6
350
4E
  3
A7
350
4F
  3
A8
350
50
  3
A9
350
51
  3
B0
350
52
  3
B1
350
53
  3
B2
350
54
  3
B3
350
55
  3
B4
350
56
  3
B5
350
57
  3
B6
350
58
  3
B7
350
59
  3
B8
350
5A
  3
B9
350
5B
  3
C0
350
5C
  3
C1
350
5D
  3
C2
350
5E
  3
C3
350
5F
  3
C4
350
60
  3
C5
350
61
  3
C6
350
62
  3
C7
350
63
  3
C8
350
64
  3
C9
350
65
  3
D0
350
66
  3
D1
350
67
  3
D2
350
68
  0
DICTIONARY
  5
1AA
102
{ACAD_REACTORS
330
C
102
}
330
C
100
AcDbDictionary
281
     1
  0
DICTIONARY
  5
69
102
{ACAD_REACTORS
330
C
102
}
330
C
100
AcDbDictionary
281
     1
  3
Standard
350
6A
  0
DICTIONARY
  5
2A
102
{ACAD_REACTORS
330
C
102
}
330
C
100
AcDbDictionary
281
     1
  3
2dWireframe
350
2F
  3
Basic
350
32
  3
Brighten
350
36
  3
ColorChange
350
3A
  3
Conceptual
350
34
  3
Dim
350
35
  3
EdgeColorOff
350
3D
  3
Facepattern
350
39
  3
Flat
350
2B
  3
FlatWithEdges
350
2C
  3
Gouraud
350
2D
  3
GouraudWithEdges
350
2E
  3
Hidden
350
31
  3
JitterOff
350
3B
  3
Linepattern
350
38
  3
OverhangOff
350
3C
  3
Realistic
350
33
  3
Shaded
350
42
  3
Shaded with edges
350
41
  3
Shades of Gray
350
3E
  3
Sketchy
350
3F
  3
Thicken
350
37
  3
Wireframe
350
30
  3
X-Ray
350
40
  0
XRECORD
  5
1A6
102
{ACAD_REACTORS
330
C
102
}
330
C
100
AcDbXrecord
280
     1
 90
        1
330
6A
  0
DICTIONARY
  5
1A2
102
{ACAD_REACTORS
330
C
102
}
330
C
100
AcDbDictionary
281
     1
  3
CANNOSCALE
350
1A3
  3
CMLEADERSTYLE
350
1A8
  3
CTABLESTYLE
350
1A7
  0
LAYOUT
  5
1E
102
{ACAD_REACTORS
330
1A
102
}
330
1A
100
AcDbPlotSettings
  1

  2
none_device
  4

  6

 40
0.0
 41
0.0
 42
0.0
 43
0.0
 44
0.0
 45
0.0
 46
0.0
 47
0.0
 48
0.0
 49
0.0
140
0.0
141
0.0
142
1.0
143
1.0
 70
   688
 72
     0
 73
     0
 74
     5
  7

 75
    16
 76
     0
 77
     2
 78
   300
147
1.0
148
0.0
149
0.0
100
AcDbLayout
  1
Layout1
 70
     1
 71
     1
 10
0.0
 20
0.0
 11
12.0
 21
9.0
 12
0.0
 22
0.0
 32
0.0
 14
1.000000000000000E+20
 24
1.000000000000000E+20
 34
1.000000000000000E+20
 15
-1.000000000000000E+20
 25
-1.000000000000000E+20
 35
-1.000000000000000E+20
146
0.0
 13
0.0
 23
0.0
 33
0.0
 16
1.0
 26
0.0
 36
0.0
 17
0.0
 27
1.0
 37
0.0
 76
     0
330
1B
  0
LAYOUT
  5
26
102
{ACAD_REACTORS
330
1A
102
}
330
1A
100
AcDbPlotSettings
  1

  2
none_device
  4

  6

 40
0.0
 41
0.0
 42
0.0
 43
0.0
 44
0.0
 45
0.0
 46
0.0
 47
0.0
 48
0.0
 49
0.0
140
0.0
141
0.0
142
1.0
143
1.0
 70
   688
 72
     0
 73
     0
 74
     5
  7

 75
    16
 76
     0
 77
     2
 78
   300
147
1.0
148
0.0
149
0.0
100
AcDbLayout
  1
Layout2
 70
     1
 71
     2
 10
0.0
 20
0.0
 11
0.0
 21
0.0
 12
0.0
 22
0.0
 32
0.0
 14
0.0
 24
0.0
 34
0.0
 15
0.0
 25
0.0
 35
0.0
146
0.0
 13
0.0
 23
0.0
 33
0.0
 16
1.0
 26
0.0
 36
0.0
 17
0.0
 27
1.0
 37
0.0
 76
     0
330
23
  0
LAYOUT
  5
22
102
{ACAD_REACTORS
330
1A
102
}
330
1A
100
AcDbPlotSettings
  1

  2
none_device
  4
Letter_(8.50_x_11.00_Inches)
  6

 40
6.35
 41
6.35
 42
6.35000508
 43
6.35000508
 44
215.9
 45
279.4
 46
0.0
 47
0.0
 48
0.0
 49
0.0
140
0.0
141
0.0
142
1.0
143
1.0
 70
  1712
 72
     0
 73
     0
 74
     0
  7

 75
     0
 76
     0
 77
     2
 78
   300
147
1.0
148
0.0
149
0.0
100
AcDbLayout
  1
Model
 70
     1
 71
     0
 10
0.0
 20
0.0
 11
12.0
 21
9.0
 12
0.0
 22
0.0
 32
0.0
 14
1.000000000000000E+20
 24
1.000000000000000E+20
 34
1.000000000000000E+20
 15
-1.000000000000000E+20
 25
-1.000000000000000E+20
 35
-1.000000000000000E+20
146
0.0
 13
0.0
 23
0.0
 33
0.0
 16
1.0
 26
0.0
 36
0.0
 17
0.0
 27
1.0
 37
0.0
 76
     0
330
1F
331
29
  0
MATERIAL
  5
45
102
{ACAD_REACTORS
330
43
102
}
330
43
100
AcDbMaterial
  1
ByBlock
 72
     1
 94
      127
  0
MATERIAL
  5
44
102
{ACAD_REACTORS
330
43
102
}
330
43
100
AcDbMaterial
  1
ByLayer
 72
     1
 94
      127
  0
MATERIAL
  5
46
102
{ACAD_REACTORS
330
43
102
}
330
43
100
AcDbMaterial
  1
Global
 72
     1
 94
      127
  0
MLEADERSTYLE
  5
6C
102
{ACAD_REACTORS
330
6B
102
}
330
6B
100
AcDbMLeaderStyle
179
     2
170
     2
171
     1
172
     0
 90
        2
 40
0.0
 41
0.0
173
     1
 91
-1056964608
340
14
 92
       -2
290
     1
 42
0.09
291
     1
 43
0.36
  3
Standard
341
0
 44
0.18
300

342
11
174
     1
178
     6
175
     1
176
     0
 93
-1056964608
 45
0.18
292
     0
297
     0
 46
0.18
343
0
 94
-1056964608
 47
1.0
 49
1.0
140
1.0
293
     1
141
0.0
294
     1
177
     0
142
1.0
295
     0
296
     0
143
0.125
271
     0
272
     9
273
     9
298
     0
  0
MLINESTYLE
  5
18
102
{ACAD_REACTORS
330
17
102
}
330
17
100
AcDbMlineStyle
  2
Standard
 70
     0
  3

 62
   256
 51
90.0
 52
90.0
 71
     2
 49
0.5
 62
   256
  6
BYLAYER
 49
-0.5
 62
   256
  6
BYLAYER
  0
ACDBPLACEHOLDER
  5
F
102
{ACAD_REACTORS
330
E
102
}
330
E
  0
SCALE
  5
48
102
{ACAD_REACTORS
330
47
102
}
330
47
100
AcDbScale
 70
     0
300
1:1
140
1.0
141
1.0
290
     1
  0
SCALE
  5
49
102
{ACAD_REACTORS
330
47
102
}
330
47
100
AcDbScale
 70
     0
300
1:2
140
1.0
141
2.0
290
     0
  0
SCALE
  5
4A
102
{ACAD_REACTORS
330
47
102
}
330
47
100
AcDbScale
 70
     0
300
1:4
140
1.0
141
4.0
290
     0
  0
SCALE
  5
4B
102
{ACAD_REACTORS
330
47
102
}
330
47
100
AcDbScale
 70
     0
300
1:5
140
1.0
141
5.0
290
     0
  0
SCALE
  5
4C
102
{ACAD_REACTORS
330
47
102
}
330
47
100
AcDbScale
 70
     0
300
1:8
140
1.0
141
8.0
290
     0
  0
SCALE
  5
4D
102
{ACAD_REACTORS
330
47
102
}
330
47
100
AcDbScale
 70
     0
300
1:10
140
1.0
141
10.0
290
     0
  0
SCALE
  5
4E
102
{ACAD_REACTORS
330
47
102
}
330
47
100
AcDbScale
 70
     0
300
1:16
140
1.0
141
16.0
290
     0
  0
SCALE
  5
4F
102
{ACAD_REACTORS
330
47
102
}
330
47
100
AcDbScale
 70
     0
300
1:20
140
1.0
141
20.0
290
     0
  0
SCALE
  5
50
102
{ACAD_REACTORS
330
47
102
}
330
47
100
AcDbScale
 70
     0
300
1:30
140
1.0
141
30.0
290
     0
  0
SCALE
  5
51
102
{ACAD_REACTORS
330
47
102
}
330
47
100
AcDbScale
 70
     0
300
1:40
140
1.0
141
40.0
290
     0
  0
SCALE
  5
52
102
{ACAD_REACTORS
330
47
102
}
330
47
100
AcDbScale
 70
     0
300
1:50
140
1.0
141
50.0
290
     0
  0
SCALE
  5
53
102
{ACAD_REACTORS
330
47
102
}
330
47
100
AcDbScale
 70
     0
300
1:100
140
1.0
141
100.0
290
     0
  0
SCALE
  5
54
102
{ACAD_REACTORS
330
47
102
}
330
47
100
AcDbScale
 70
     0
300
2:1
140
2.0
141
1.0
290
     0
  0
SCALE
  5
55
102
{ACAD_REACTORS
330
47
102
}
330
47
100
AcDbScale
 70
     0
300
4:1
140
4.0
141
1.0
290
     0
  0
SCALE
  5
56
102
{ACAD_REACTORS
330
47
102
}
330
47
100
AcDbScale
 70
     0
300
8:1
140
8.0
141
1.0
290
     0
  0
SCALE
  5
57
102
{ACAD_REACTORS
330
47
102
}
330
47
100
AcDbScale
 70
     0
300
10:1
140
10.0
141
1.0
290
     0
  0
SCALE
  5
58
102
{ACAD_REACTORS
330
47
102
}
330
47
100
AcDbScale
 70
     0
300
100:1
140
100.0
141
1.0
290
     0
  0
SCALE
  5
59
102
{ACAD_REACTORS
330
47
102
}
330
47
100
AcDbScale
 70
     0
300
1/128" = 1'-0"
140
0.0078125
141
12.0
290
     0
  0
SCALE
  5
5A
102
{ACAD_REACTORS
330
47
102
}
330
47
100
AcDbScale
 70
     0
300
1/64" = 1'-0"
140
0.015625
141
12.0
290
     0
  0
SCALE
  5
5B
102
{ACAD_REACTORS
330
47
102
}
330
47
100
AcDbScale
 70
     0
300
1/32" = 1'-0"
140
0.03125
141
12.0
290
     0
  0
SCALE
  5
5C
102
{ACAD_REACTORS
330
47
102
}
330
47
100
AcDbScale
 70
     0
300
1/16" = 1'-0"
140
0.0625
141
12.0
290
     0
  0
SCALE
  5
5D
102
{ACAD_REACTORS
330
47
102
}
330
47
100
AcDbScale
 70
     0
300
3/32" = 1'-0"
140
0.09375
141
12.0
290
     0
  0
SCALE
  5
5E
102
{ACAD_REACTORS
330
47
102
}
330
47
100
AcDbScale
 70
     0
300
1/8" = 1'-0"
140
0.125
141
12.0
290
     0
  0
SCALE
  5
5F
102
{ACAD_REACTORS
330
47
102
}
330
47
100
AcDbScale
 70
     0
300
3/16" = 1'-0"
140
0.1875
141
12.0
290
     0
  0
SCALE
  5
60
102
{ACAD_REACTORS
330
47
102
}
330
47
100
AcDbScale
 70
     0
300
1/4" = 1'-0"
140
0.25
141
12.0
290
     0
  0
SCALE
  5
61
102
{ACAD_REACTORS
330
47
102
}
330
47
100
AcDbScale
 70
     0
300
3/8" = 1'-0"
140
0.375
141
12.0
290
     0
  0
SCALE
  5
62
102
{ACAD_REACTORS
330
47
102
}
330
47
100
AcDbScale
 70
     0
300
1/2" = 1'-0"
140
0.5
141
12.0
290
     0
  0
SCALE
  5
63
102
{ACAD_REACTORS
330
47
102
}
330
47
100
AcDbScale
 70
     0
300
3/4" = 1'-0"
140
0.75
141
12.0
290
     0
  0
SCALE
  5
64
102
{ACAD_REACTORS
330
47
102
}
330
47
100
AcDbScale
 70
     0
300
1" = 1'-0"
140
1.0
141
12.0
290
     0
  0
SCALE
  5
65
102
{ACAD_REACTORS
330
47
102
}
330
47
100
AcDbScale
 70
     0
300
1-1/2" = 1'-0"
140
1.5
141
12.0
290
     0
  0
SCALE
  5
66
102
{ACAD_REACTORS
330
47
102
}
330
47
100
AcDbScale
 70
     0
300
3" = 1'-0"
140
3.0
141
12.0
290
     0
  0
SCALE
  5
67
102
{ACAD_REACTORS
330
47
102
}
330
47
100
AcDbScale
 70
     0
300
6" = 1'-0"
140
6.0
141
12.0
290
     0
  0
SCALE
  5
68
102
{ACAD_REACTORS
330
47
102
}
330
47
100
AcDbScale
 70
     0
300
1'-0" = 1'-0"
140
12.0
141
12.0
290
     0
  0
TABLESTYLE
  5
6A
102
{ACAD_REACTORS
330
69
102
}
102
{ACAD_XDICTIONARY
360
1A4
102
}
330
69
100
AcDbTableStyle
  3
Standard
 70
     0
 71
     0
 40
0.06
 41
0.06
280
     0
281
     0
  7
Standard
140
0.18
170
     2
 62
     0
 63
   257
283
     0
 90
        4
 91
        0
  1

274
    -2
284
     1
 64
     0
275
    -2
285
     1
 65
     0
276
    -2
286
     1
 66
     0
277
    -2
287
     1
 67
     0
278
    -2
288
     1
 68
     0
279
    -2
289
     1
 69
     0
  7
Standard
140
0.25
170
     5
 62
     0
 63
   257
283
     0
 90
        4
 91
        0
  1

274
    -2
284
     1
 64
     0
275
    -2
285
     1
 65
     0
276
    -2
286
     1
 66
     0
277
    -2
287
     1
 67
     0
278
    -2
288
     1
 68
     0
279
    -2
289
     1
 69
     0
  7
Standard
140
0.18
170
     5
 62
     0
 63
   257
283
     0
 90
        4
 91
        0
  1

274
    -2
284
     1
 64
     0
275
    -2
285
     1
 65
     0
276
    -2
286
     1
 66
     0
277
    -2
287
     1
 67
     0
278
    -2
288
     1
 68
     0
279
    -2
289
     1
 69
     0
  0
VISUALSTYLE
  5
2F
102
{ACAD_REACTORS
330
2A
102
}
330
2A
100
AcDbVisualStyle
  2
2dWireframe
 70
     4
177
     3
291
     0
 70
    58
 90
        0
176
     1
 90
        2
176
     1
 90
        0
176
     1
 90
        0
176
     1
 40
0.6
176
     1
 40
30.0
176
     1
 62
     7
420
 16777215
176
     1
 90
        1
176
     1
 90
        4
176
     1
 62
     7
176
     1
 62
   257
176
     1
 90
        1
176
     1
 90
        1
176
     1
 40
1.0
176
     1
 90
        0
176
     1
 62
   257
176
     1
 40
1.0
176
     1
 90
        1
176
     1
 90
        6
176
     1
 90
        2
176
     1
 62
     7
176
     1
 90
        5
176
     1
 90
        0
176
     1
 90
        0
176
     1
290
     0
176
     1
 90
        1
176
     1
 40
0.0
176
     1
 90
        0
176
     1
290
     1
176
     1
290
     1
176
     1
290
     0
176
     1
290
     0
176
     1
290
     0
176
     1
290
     0
176
     1
290
     0
176
     1
290
     0
176
     1
290
     0
176
     1
 90
       50
176
     1
 40
0.0
176
     1
 40
1.0
176
     1
 90
        0
176
     1
 62
    18
420
        0
176
     1
 90
       50
176
     1
 90
        3
176
     1
 62
     5
420
      255
176
     1
290
     0
176
     1
 90
       50
176
     1
 90
       50
176
     1
 90
       50
176
     1
290
     0
176
     1
 90
       50
176
     1
 62
   256
176
     0
 40
1.0
176
     0
 90
        2
176
     1
  1
strokes_ogs.tif
176
     1
290
     0
176
     1
 40
1.0
176
     1
 40
1.0
176
     1
  0
VISUALSTYLE
  5
32
102
{ACAD_REACTORS
330
2A
102
}
330
2A
100
AcDbVisualStyle
  2
Basic
 70
     7
177
     3
291
     1
 70
    58
 90
        1
176
     1
 90
        0
176
     1
 90
        1
176
     1
 90
        0
176
     1
 40
0.6
176
     1
 40
30.0
176
     1
 62
     7
420
 16777215
176
     1
 90
        0
176
     1
 90
        4
176
     1
 62
     7
176
     1
 62
   257
176
     1
 90
        1
176
     1
 90
        1
176
     1
 40
1.0
176
     1
 90
        8
176
     1
 62
     7
176
     1
 40
1.0
176
     1
 90
        1
176
     1
 90
        6
176
     1
 90
        2
176
     1
 62
     7
176
     1
 90
        5
176
     1
 90
        0
176
     1
 90
        0
176
     1
290
     0
176
     1
 90
        1
176
     1
 40
0.0
176
     1
 90
        0
176
     1
290
     0
176
     1
290
     1
176
     1
290
     1
176
     1
290
     0
176
     1
290
     0
176
     1
290
     0
176
     1
290
     0
176
     1
290
     0
176
     1
290
     0
176
     1
 90
       50
176
     1
 40
0.0
176
     1
 40
1.0
176
     1
 90
        0
176
     1
 62
    18
420
        0
176
     1
 90
       50
176
     1
 90
        3
176
     1
 62
     5
420
      255
176
     1
290
     0
176
     1
 90
       50
176
     1
 90
       50
176
     1
 90
       50
176
     1
290
     0
176
     1
 90
       50
176
     1
 62
   256
176
     0
 40
1.0
176
     0
 90
        2
176
     1
  1
strokes_ogs.tif
176
     1
290
     0
176
     1
 40
1.0
176
     1
 40
1.0
176
     1
  0
VISUALSTYLE
  5
36
102
{ACAD_REACTORS
330
2A
102
}
330
2A
100
AcDbVisualStyle
  2
Brighten
 70
    12
177
     3
291
     1
 70
    58
 90
        2
176
     1
 90
        2
176
     1
 90
        0
176
     1
 90
        0
176
     1
 40
0.6
176
     1
 40
30.0
176
     1
 62
     7
420
 16777215
176
     1
 90
        1
176
     1
 90
        4
176
     1
 62
     7
176
     1
 62
   257
176
     1
 90
        1
176
     1
 90
        1
176
     1
 40
1.0
176
     1
 90
        8
176
     1
 62
     7
176
     1
 40
1.0
176
     1
 90
        1
176
     1
 90
        6
176
     1
 90
        2
176
     1
 62
     7
176
     1
 90
        5
176
     1
 90
        0
176
     1
 90
        0
176
     1
290
     0
176
     1
 90
        1
176
     1
 40
50.0
176
     1
 90
        0
176
     1
290
     0
176
     1
290
     1
176
     1
290
     1
176
     1
290
     0
176
     1
290
     0
176
     1
290
     0
176
     1
290
     0
176
     1
290
     0
176
     1
290
     0
176
     1
 90
       50
176
     1
 40
0.0
176
     1
 40
1.0
176
     1
 90
        0
176
     1
 62
    18
420
        0
176
     1
 90
       50
176
     1
 90
        3
176
     1
 62
     5
420
      255
176
     1
290
     0
176
     1
 90
       50
176
     1
 90
       50
176
     1
 90
       50
176
     1
290
     0
176
     1
 90
       50
176
     1
 62
   256
176
     0
 40
1.0
176
     0
 90
        2
176
     1
  1
strokes_ogs.tif
176
     1
290
     0
176
     1
 40
1.0
176
     1
 40
1.0
176
     1
  0
VISUALSTYLE
  5
3A
102
{ACAD_REACTORS
330
2A
102
}
330
2A
100
AcDbVisualStyle
  2
ColorChange
 70
    16
177
     3
291
     1
 70
    58
 90
        2
176
     1
 90
        2
176
     1
 90
        3
176
     1
 90
        0
176
     1
 40
0.6
176
     1
 40
30.0
176
     1
 62
     8
420
  8421504
176
     1
 90
        1
176
     1
 90
        4
176
     1
 62
     7
176
     1
 62
   257
176
     1
 90
        1
176
     1
 90
        1
176
     1
 40
1.0
176
     1
 90
        8
176
     1
 62
     8
420
  8421504
176
     1
 40
1.0
176
     1
 90
        1
176
     1
 90
        6
176
     1
 90
        2
176
     1
 62
     7
176
     1
 90
        5
176
     1
 90
        0
176
     1
 90
        0
176
     1
290
     0
176
     1
 90
        1
176
     1
 40
0.0
176
     1
 90
        0
176
     1
290
     0
176
     1
290
     1
176
     1
290
     1
176
     1
290
     0
176
     1
290
     0
176
     1
290
     0
176
     1
290
     0
176
     1
290
     0
176
     1
290
     0
176
     1
 90
       50
176
     1
 40
0.0
176
     1
 40
1.0
176
     1
 90
        0
176
     1
 62
    18
420
        0
176
     1
 90
       50
176
     1
 90
        3
176
     1
 62
     5
420
      255
176
     1
290
     0
176
     1
 90
       50
176
     1
 90
       50
176
     1
 90
       50
176
     1
290
     0
176
     1
 90
       50
176
     1
 62
   256
176
     0
 40
1.0
176
     0
 90
        2
176
     1
  1
strokes_ogs.tif
176
     1
290
     0
176
     1
 40
1.0
176
     1
 40
1.0
176
     1
  0
VISUALSTYLE
  5
34
102
{ACAD_REACTORS
330
2A
102
}
330
2A
100
AcDbVisualStyle
  2
Conceptual
 70
     9
177
     3
291
     0
 70
    58
 90
        3
176
     1
 90
        2
176
     1
 90
        0
176
     1
 90
        0
176
     1
 40
0.6
176
     1
 40
30.0
176
     1
 62
     7
420
 16777215
176
     1
 90
        2
176
     1
 90
        2
176
     1
 62
     7
176
     1
 62
   257
176
     1
 90
        1
176
     1
 90
        1
176
     1
 40
179.0
176
     1
 90
        8
176
     1
 62
     7
176
     1
 40
1.0
176
     1
 90
        1
176
     1
 90
        6
176
     1
 90
        2
176
     1
 62
     7
176
     1
 90
        3
176
     1
 90
        0
176
     1
 90
        0
176
     1
290
     0
176
     1
 90
        1
176
     1
 40
0.0
176
     1
 90
        0
176
     1
290
     0
176
     1
290
     1
176
     1
290
     1
176
     1
290
     0
176
     1
290
     0
176
     1
290
     0
176
     1
290
     0
176
     1
290
     0
176
     1
290
     0
176
     1
 90
       50
176
     1
 40
0.0
176
     1
 40
1.0
176
     1
 90
        0
176
     1
 62
    18
420
        0
176
     1
 90
       50
176
     1
 90
        3
176
     1
 62
     5
420
      255
176
     1
290
     0
176
     1
 90
       50
176
     1
 90
       50
176
     1
 90
       50
176
     1
290
     0
176
     1
 90
       50
176
     1
 62
   256
176
     0
 40
1.0
176
     0
 90
        2
176
     1
  1
strokes_ogs.tif
176
     1
290
     0
176
     1
 40
1.0
176
     1
 40
1.0
176
     1
  0
VISUALSTYLE
  5
35
102
{ACAD_REACTORS
330
2A
102
}
330
2A
100
AcDbVisualStyle
  2
Dim
 70
    11
177
     3
291
     1
 70
    58
 90
        2
176
     1
 90
        2
176
     1
 90
        0
176
     1
 90
        0
176
     1
 40
0.6
176
     1
 40
30.0
176
     1
 62
     7
420
 16777215
176
     1
 90
        1
176
     1
 90
        4
176
     1
 62
     7
176
     1
 62
   257
176
     1
 90
        1
176
     1
 90
        1
176
     1
 40
1.0
176
     1
 90
        8
176
     1
 62
     7
176
     1
 40
1.0
176
     1
 90
        1
176
     1
 90
        6
176
     1
 90
        2
176
     1
 62
     7
176
     1
 90
        5
176
     1
 90
        0
176
     1
 90
        0
176
     1
290
     0
176
     1
 90
        1
176
     1
 40
-50.0
176
     1
 90
        0
176
     1
290
     0
176
     1
290
     1
176
     1
290
     1
176
     1
290
     0
176
     1
290
     0
176
     1
290
     0
176
     1
290
     0
176
     1
290
     0
176
     1
290
     0
176
     1
 90
       50
176
     1
 40
0.0
176
     1
 40
1.0
176
     1
 90
        0
176
     1
 62
    18
420
        0
176
     1
 90
       50
176
     1
 90
        3
176
     1
 62
     5
420
      255
176
     1
290
     0
176
     1
 90
       50
176
     1
 90
       50
176
     1
 90
       50
176
     1
290
     0
176
     1
 90
       50
176
     1
 62
   256
176
     0
 40
1.0
176
     0
 90
        2
176
     1
  1
strokes_ogs.tif
176
     1
290
     0
176
     1
 40
1.0
176
     1
 40
1.0
176
     1
  0
VISUALSTYLE
  5
3D
102
{ACAD_REACTORS
330
2A
102
}
330
2A
100
AcDbVisualStyle
  2
EdgeColorOff
 70
    22
177
     3
291
     1
 70
    58
 90
        2
176
     0
 90
        2
176
     0
 90
        0
176
     0
 90
        0
176
     0
 40
0.6
176
     0
 40
30.0
176
     0
 62
     7
420
 16777215
176
     0
 90
        1
176
     0
 90
        4
176
     0
 62
     7
176
     0
 62
   257
176
     0
 90
        1
176
     0
 90
        1
176
     0
 40
1.0
176
     0
 90
        8
176
     2
 62
     7
176
     0
 40
1.0
176
     0
 90
        1
176
     0
 90
        6
176
     0
 90
        2
176
     0
 62
     7
176
     0
 90
        5
176
     0
 90
        0
176
     0
 90
        0
176
     0
290
     0
176
     0
 90
        1
176
     0
 40
0.0
176
     0
 90
        0
176
     0
290
     0
176
     0
290
     1
176
     0
290
     1
176
     0
290
     0
176
     0
290
     0
176
     0
290
     0
176
     0
290
     0
176
     0
290
     0
176
     0
290
     0
176
     0
 90
       50
176
     0
 40
0.0
176
     0
 40
1.0
176
     0
 90
        0
176
     0
 62
    18
420
        0
176
     0
 90
       50
176
     0
 90
        3
176
     0
 62
     5
420
      255
176
     0
290
     0
176
     0
 90
       50
176
     0
 90
       50
176
     0
 90
       50
176
     0
290
     0
176
     0
 90
       50
176
     0
 62
   256
176
     0
 40
1.0
176
     0
 90
        2
176
     0
  1
strokes_ogs.tif
176
     0
290
     0
176
     0
 40
1.0
176
     0
 40
1.0
176
     0
  0
VISUALSTYLE
  5
39
102
{ACAD_REACTORS
330
2A
102
}
330
2A
100
AcDbVisualStyle
  2
Facepattern
 70
    15
177
     3
291
     1
 70
    58
 90
        2
176
     1
 90
        2
176
     1
 90
        0
176
     1
 90
        0
176
     1
 40
0.6
176
     1
 40
30.0
176
     1
 62
     7
420
 16777215
176
     1
 90
        1
176
     1
 90
        4
176
     1
 62
     7
176
     1
 62
   257
176
     1
 90
        1
176
     1
 90
        1
176
     1
 40
1.0
176
     1
 90
        8
176
     1
 62
     7
176
     1
 40
1.0
176
     1
 90
        1
176
     1
 90
        6
176
     1
 90
        2
176
     1
 62
     7
176
     1
 90
        5
176
     1
 90
        0
176
     1
 90
        0
176
     1
290
     0
176
     1
 90
        1
176
     1
 40
0.0
176
     1
 90
        0
176
     1
290
     0
176
     1
290
     1
176
     1
290
     1
176
     1
290
     0
176
     1
290
     0
176
     1
290
     0
176
     1
290
     0
176
     1
290
     0
176
     1
290
     0
176
     1
 90
       50
176
     1
 40
0.0
176
     1
 40
1.0
176
     1
 90
        0
176
     1
 62
    18
420
        0
176
     1
 90
       50
176
     1
 90
        3
176
     1
 62
     5
420
      255
176
     1
290
     0
176
     1
 90
       50
176
     1
 90
       50
176
     1
 90
       50
176
     1
290
     0
176
     1
 90
       50
176
     1
 62
   256
176
     0
 40
1.0
176
     0
 90
        2
176
     1
  1
strokes_ogs.tif
176
     1
290
     0
176
     1
 40
1.0
176
     1
 40
1.0
176
     1
  0
VISUALSTYLE
  5
2B
102
{ACAD_REACTORS
330
2A
102
}
330
2A
100
AcDbVisualStyle
  2
Flat
 70
     0
177
     3
291
     1
 70
    58
 90
        2
176
     1
 90
        1
176
     1
 90
        1
176
     1
 90
        2
176
     1
 40
0.6
176
     1
 40
30.0
176
     1
 62
     7
420
 16777215
176
     1
 90
        0
176
     1
 90
        0
176
     1
 62
     7
176
     1
 62
   257
176
     1
 90
        1
176
     1
 90
        1
176
     1
 40
1.0
176
     1
 90
        8
176
     1
 62
     7
176
     1
 40
1.0
176
     1
 90
        1
176
     1
 90
        6
176
     1
 90
        2
176
     1
 62
     7
176
     1
 90
        5
176
     1
 90
        0
176
     1
 90
        0
176
     1
290
     0
176
     1
 90
       13
176
     1
 40
0.0
176
     1
 90
        0
176
     1
290
     0
176
     1
290
     1
176
     1
290
     1
176
     1
290
     0
176
     1
290
     0
176
     1
290
     0
176
     1
290
     0
176
     1
290
     0
176
     1
290
     0
176
     1
 90
       50
176
     1
 40
0.0
176
     1
 40
1.0
176
     1
 90
        0
176
     1
 62
    18
420
        0
176
     1
 90
       50
176
     1
 90
        3
176
     1
 62
     5
420
      255
176
     1
290
     0
176
     1
 90
       50
176
     1
 90
       50
176
     1
 90
       50
176
     1
290
     0
176
     1
 90
       50
176
     1
 62
   256
176
     0
 40
1.0
176
     0
 90
        2
176
     1
  1
strokes_ogs.tif
176
     1
290
     0
176
     1
 40
1.0
176
     1
 40
1.0
176
     1
  0
VISUALSTYLE
  5
2C
102
{ACAD_REACTORS
330
2A
102
}
330
2A
100
AcDbVisualStyle
  2
FlatWithEdges
 70
     1
177
     3
291
     1
 70
    58
 90
        2
176
     1
 90
        1
176
     1
 90
        1
176
     1
 90
        2
176
     1
 40
0.6
176
     1
 40
30.0
176
     1
 62
     7
420
 16777215
176
     1
 90
        1
176
     1
 90
        0
176
     1
 62
     7
176
     1
 62
   257
176
     1
 90
        1
176
     1
 90
        1
176
     1
 40
1.0
176
     1
 90
        0
176
     1
 62
   257
176
     1
 40
1.0
176
     1
 90
        1
176
     1
 90
        6
176
     1
 90
        2
176
     1
 62
     7
176
     1
 90
        5
176
     1
 90
        0
176
     1
 90
        0
176
     1
290
     0
176
     1
 90
       13
176
     1
 40
0.0
176
     1
 90
        0
176
     1
290
     0
176
     1
290
     1
176
     1
290
     1
176
     1
290
     0
176
     1
290
     0
176
     1
290
     0
176
     1
290
     0
176
     1
290
     0
176
     1
290
     0
176
     1
 90
       50
176
     1
 40
0.0
176
     1
 40
1.0
176
     1
 90
        0
176
     1
 62
    18
420
        0
176
     1
 90
       50
176
     1
 90
        3
176
     1
 62
     5
420
      255
176
     1
290
     0
176
     1
 90
       50
176
     1
 90
       50
176
     1
 90
       50
176
     1
290
     0
176
     1
 90
       50
176
     1
 62
   256
176
     0
 40
1.0
176
     0
 90
        2
176
     1
  1
strokes_ogs.tif
176
     1
290
     0
176
     1
 40
1.0
176
     1
 40
1.0
176
     1
  0
VISUALSTYLE
  5
2D
102
{ACAD_REACTORS
330
2A
102
}
330
2A
100
AcDbVisualStyle
  2
Gouraud
 70
     2
177
     3
291
     1
 70
    58
 90
        2
176
     1
 90
        2
176
     1
 90
        1
176
     1
 90
        2
176
     1
 40
0.6
176
     1
 40
30.0
176
     1
 62
     7
420
 16777215
176
     1
 90
        0
176
     1
 90
        0
176
     1
 62
     7
176
     1
 62
   257
176
     1
 90
        1
176
     1
 90
        1
176
     1
 40
1.0
176
     1
 90
        0
176
     1
 62
     7
176
     1
 40
1.0
176
     1
 90
        1
176
     1
 90
        6
176
     1
 90
        2
176
     1
 62
     7
176
     1
 90
        5
176
     1
 90
        0
176
     1
 90
        0
176
     1
290
     0
176
     1
 90
       13
176
     1
 40
0.0
176
     1
 90
        0
176
     1
290
     0
176
     1
290
     1
176
     1
290
     1
176
     1
290
     0
176
     1
290
     0
176
     1
290
     0
176
     1
290
     0
176
     1
290
     0
176
     1
290
     0
176
     1
 90
       50
176
     1
 40
0.0
176
     1
 40
1.0
176
     1
 90
        0
176
     1
 62
    18
420
        0
176
     1
 90
       50
176
     1
 90
        3
176
     1
 62
     5
420
      255
176
     1
290
     0
176
     1
 90
       50
176
     1
 90
       50
176
     1
 90
       50
176
     1
290
     0
176
     1
 90
       50
176
     1
 62
   256
176
     0
 40
1.0
176
     0
 90
        2
176
     1
  1
strokes_ogs.tif
176
     1
290
     0
176
     1
 40
1.0
176
     1
 40
1.0
176
     1
  0
VISUALSTYLE
  5
2E
102
{ACAD_REACTORS
330
2A
102
}
330
2A
100
AcDbVisualStyle
  2
GouraudWithEdges
 70
     3
177
     3
291
     1
 70
    58
 90
        2
176
     1
 90
        2
176
     1
 90
        1
176
     1
 90
        2
176
     1
 40
0.6
176
     1
 40
30.0
176
     1
 62
     7
420
 16777215
176
     1
 90
        1
176
     1
 90
        0
176
     1
 62
     7
176
     1
 62
   257
176
     1
 90
        1
176
     1
 90
        1
176
     1
 40
1.0
176
     1
 90
        0
176
     1
 62
   257
176
     1
 40
1.0
176
     1
 90
        1
176
     1
 90
        6
176
     1
 90
        2
176
     1
 62
     7
176
     1
 90
        5
176
     1
 90
        0
176
     1
 90
        0
176
     1
290
     0
176
     1
 90
       13
176
     1
 40
0.0
176
     1
 90
        0
176
     1
290
     0
176
     1
290
     1
176
     1
290
     1
176
     1
290
     0
176
     1
290
     0
176
     1
290
     0
176
     1
290
     0
176
     1
290
     0
176
     1
290
     0
176
     1
 90
       50
176
     1
 40
0.0
176
     1
 40
1.0
176
     1
 90
        0
176
     1
 62
    18
420
        0
176
     1
 90
       50
176
     1
 90
        3
176
     1
 62
     5
420
      255
176
     1
290
     0
176
     1
 90
       50
176
     1
 90
       50
176
     1
 90
       50
176
     1
290
     0
176
     1
 90
       50
176
     1
 62
   256
176
     0
 40
1.0
176
     0
 90
        2
176
     1
  1
strokes_ogs.tif
176
     1
290
     0
176
     1
 40
1.0
176
     1
 40
1.0
176
     1
  0
VISUALSTYLE
  5
31
102
{ACAD_REACTORS
330
2A
102
}
330
2A
100
AcDbVisualStyle
  2
Hidden
 70
     6
177
     3
291
     0
 70
    58
 90
        1
176
     1
 90
        2
176
     1
 90
        2
176
     1
 90
        0
176
     1
 40
0.6
176
     1
 40
30.0
176
     1
 62
     7
420
 16777215
176
     1
 90
        2
176
     1
 90
        2
176
     1
 62
     7
176
     1
 62
   257
176
     1
 90
        2
176
     1
 90
        1
176
     1
 40
40.0
176
     1
 90
        0
176
     1
 62
   257
176
     1
 40
1.0
176
     1
 90
        1
176
     1
 90
        6
176
     1
 90
        2
176
     1
 62
     7
176
     1
 90
        3
176
     1
 90
        0
176
     1
 90
        0
176
     1
290
     0
176
     1
 90
        1
176
     1
 40
0.0
176
     1
 90
        0
176
     1
290
     0
176
     1
290
     1
176
     1
290
     1
176
     1
290
     0
176
     1
290
     0
176
     1
290
     0
176
     1
290
     0
176
     1
290
     0
176
     1
290
     0
176
     1
 90
       50
176
     1
 40
0.0
176
     1
 40
1.0
176
     1
 90
        0
176
     1
 62
    18
420
        0
176
     1
 90
       50
176
     1
 90
        3
176
     1
 62
     5
420
      255
176
     1
290
     0
176
     1
 90
       50
176
     1
 90
       50
176
     1
 90
       50
176
     1
290
     0
176
     1
 90
       50
176
     1
 62
   256
176
     0
 40
1.0
176
     0
 90
        2
176
     1
  1
strokes_ogs.tif
176
     1
290
     0
176
     1
 40
1.0
176
     1
 40
1.0
176
     1
  0
VISUALSTYLE
  5
3B
102
{ACAD_REACTORS
330
2A
102
}
330
2A
100
AcDbVisualStyle
  2
JitterOff
 70
    20
177
     3
291
     1
 70
    58
 90
        2
176
     0
 90
        2
176
     0
 90
        0
176
     0
 90
        0
176
     0
 40
0.6
176
     0
 40
30.0
176
     0
 62
     7
420
 16777215
176
     0
 90
        1
176
     0
 90
        4
176
     0
 62
     7
176
     0
 62
   257
176
     0
 90
        1
176
     0
 90
        1
176
     0
 40
1.0
176
     0
 90
       10
176
     2
 62
     7
176
     0
 40
1.0
176
     0
 90
        1
176
     0
 90
        6
176
     0
 90
        2
176
     0
 62
     7
176
     0
 90
        5
176
     0
 90
        0
176
     0
 90
        0
176
     0
290
     0
176
     0
 90
        1
176
     0
 40
0.0
176
     0
 90
        0
176
     0
290
     0
176
     0
290
     1
176
     0
290
     1
176
     0
290
     0
176
     0
290
     0
176
     0
290
     0
176
     0
290
     0
176
     0
290
     0
176
     0
290
     0
176
     0
 90
       50
176
     0
 40
0.0
176
     0
 40
1.0
176
     0
 90
        0
176
     0
 62
    18
420
        0
176
     0
 90
       50
176
     0
 90
        3
176
     0
 62
     5
420
      255
176
     0
290
     0
176
     0
 90
       50
176
     0
 90
       50
176
     0
 90
       50
176
     0
290
     0
176
     0
 90
       50
176
     0
 62
   256
176
     0
 40
1.0
176
     0
 90
        2
176
     0
  1
strokes_ogs.tif
176
     0
290
     0
176
     0
 40
1.0
176
     0
 40
1.0
176
     0
  0
VISUALSTYLE
  5
38
102
{ACAD_REACTORS
330
2A
102
}
330
2A
100
AcDbVisualStyle
  2
Linepattern
 70
    14
177
     3
291
     1
 70
    58
 90
        2
176
     1
 90
        2
176
     1
 90
        0
176
     1
 90
        0
176
     1
 40
0.6
176
     1
 40
30.0
176
     1
 62
     7
420
 16777215
176
     1
 90
        1
176
     1
 90
        4
176
     1
 62
     7
176
     1
 62
   257
176
     1
 90
        7
176
     1
 90
        7
176
     1
 40
1.0
176
     1
 90
        8
176
     1
 62
     7
176
     1
 40
1.0
176
     1
 90
        1
176
     1
 90
        6
176
     1
 90
        2
176
     1
 62
     7
176
     1
 90
        5
176
     1
 90
        0
176
     1
 90
        0
176
     1
290
     0
176
     1
 90
        1
176
     1
 40
0.0
176
     1
 90
        0
176
     1
290
     0
176
     1
290
     1
176
     1
290
     1
176
     1
290
     0
176
     1
290
     0
176
     1
290
     0
176
     1
290
     0
176
     1
290
     0
176
     1
290
     0
176
     1
 90
       50
176
     1
 40
0.0
176
     1
 40
1.0
176
     1
 90
        0
176
     1
 62
    18
420
        0
176
     1
 90
       50
176
     1
 90
        3
176
     1
 62
     5
420
      255
176
     1
290
     0
176
     1
 90
       50
176
     1
 90
       50
176
     1
 90
       50
176
     1
290
     0
176
     1
 90
       50
176
     1
 62
   256
176
     0
 40
1.0
176
     0
 90
        2
176
     1
  1
strokes_ogs.tif
176
     1
290
     0
176
     1
 40
1.0
176
     1
 40
1.0
176
     1
  0
VISUALSTYLE
  5
3C
102
{ACAD_REACTORS
330
2A
102
}
330
2A
100
AcDbVisualStyle
  2
OverhangOff
 70
    21
177
     3
291
     1
 70
    58
 90
        2
176
     0
 90
        2
176
     0
 90
        0
176
     0
 90
        0
176
     0
 40
0.6
176
     0
 40
30.0
176
     0
 62
     7
420
 16777215
176
     0
 90
        1
176
     0
 90
        4
176
     0
 62
     7
176
     0
 62
   257
176
     0
 90
        1
176
     0
 90
        1
176
     0
 40
1.0
176
     0
 90
        9
176
     2
 62
     7
176
     0
 40
1.0
176
     0
 90
        1
176
     0
 90
        6
176
     0
 90
        2
176
     0
 62
     7
176
     0
 90
        5
176
     0
 90
        0
176
     0
 90
        0
176
     0
290
     0
176
     0
 90
        1
176
     0
 40
0.0
176
     0
 90
        0
176
     0
290
     0
176
     0
290
     1
176
     0
290
     1
176
     0
290
     0
176
     0
290
     0
176
     0
290
     0
176
     0
290
     0
176
     0
290
     0
176
     0
290
     0
176
     0
 90
       50
176
     0
 40
0.0
176
     0
 40
1.0
176
     0
 90
        0
176
     0
 62
    18
420
        0
176
     0
 90
       50
176
     0
 90
        3
176
     0
 62
     5
420
      255
176
     0
290
     0
176
     0
 90
       50
176
     0
 90
       50
176
     0
 90
       50
176
     0
290
     0
176
     0
 90
       50
176
     0
 62
   256
176
     0
 40
1.0
176
     0
 90
        2
176
     0
  1
strokes_ogs.tif
176
     0
290
     0
176
     0
 40
1.0
176
     0
 40
1.0
176
     0
  0
VISUALSTYLE
  5
33
102
{ACAD_REACTORS
330
2A
102
}
330
2A
100
AcDbVisualStyle
  2
Realistic
 70
     8
177
     3
291
     0
 70
    58
 90
        2
176
     1
 90
        3
176
     1
 90
        0
176
     1
 90
        2
176
     1
 40
0.6
176
     1
 40
30.0
176
     1
 62
     7
420
 16777215
176
     1
 90
        0
176
     1
 90
        0
176
     1
 62
     7
176
     1
 62
   257
176
     1
 90
        1
176
     1
 90
        1
176
     1
 40
1.0
176
     1
 90
        8
176
     1
 62
   257
176
     1
 40
1.0
176
     1
 90
        1
176
     1
 90
        6
176
     1
 90
        2
176
     1
 62
     7
176
     1
 90
        3
176
     1
 90
        0
176
     1
 90
        0
176
     1
290
     0
176
     1
 90
       13
176
     1
 40
0.0
176
     1
 90
        0
176
     1
290
     0
176
     1
290
     1
176
     1
290
     1
176
     1
290
     0
176
     1
290
     0
176
     1
290
     0
176
     1
290
     0
176
     1
290
     0
176
     1
290
     0
176
     1
 90
       50
176
     1
 40
0.0
176
     1
 40
1.0
176
     1
 90
        0
176
     1
 62
    18
420
        0
176
     1
 90
       50
176
     1
 90
        3
176
     1
 62
     5
420
      255
176
     1
290
     0
176
     1
 90
       50
176
     1
 90
       50
176
     1
 90
       50
176
     1
290
     0
176
     1
 90
       50
176
     1
 62
   256
176
     0
 40
1.0
176
     0
 90
        2
176
     1
  1
strokes_ogs.tif
176
     1
290
     0
176
     1
 40
1.0
176
     1
 40
1.0
176
     1
  0
VISUALSTYLE
  5
42
102
{ACAD_REACTORS
330
2A
102
}
330
2A
100
AcDbVisualStyle
  2
Shaded
 70
    27
177
     3
291
     0
 70
    58
 90
        2
176
     1
 90
        2
176
     1
 90
        1
176
     1
 90
        2
176
     1
 40
0.6
176
     1
 40
30.0
176
     1
 62
     7
420
 16777215
176
     1
 90
        0
176
     1
 90
        4
176
     1
 62
     7
176
     1
 62
   257
176
     1
 90
        1
176
     1
 90
        1
176
     1
 40
1.0
176
     1
 90
        8
176
     1
 62
   257
176
     1
 40
1.0
176
     1
 90
        1
176
     1
 90
        6
176
     1
 90
        2
176
     1
 62
     8
420
  7895160
176
     1
 90
        3
176
     1
 90
        0
176
     1
 90
        0
176
     1
290
     0
176
     1
 90
        5
176
     1
 40
0.0
176
     1
 90
        0
176
     1
290
     0
176
     1
290
     1
176
     1
290
     1
176
     1
290
     0
176
     1
290
     0
176
     1
290
     0
176
     1
290
     0
176
     1
290
     0
176
     1
290
     0
176
     1
 90
       50
176
     1
 40
0.0
176
     1
 40
1.0
176
     1
 90
        0
176
     1
 62
    18
420
        0
176
     1
 90
       50
176
     1
 90
        3
176
     1
 62
     5
420
      255
176
     1
290
     0
176
     1
 90
       50
176
     1
 90
       50
176
     1
 90
       50
176
     1
290
     0
176
     1
 90
       50
176
     1
 62
   256
176
     0
 40
1.0
176
     0
 90
        2
176
     1
  1
strokes_ogs.tif
176
     1
290
     0
176
     1
 40
1.0
176
     1
 40
1.0
176
     1
  0
VISUALSTYLE
  5
41
102
{ACAD_REACTORS
330
2A
102
}
330
2A
100
AcDbVisualStyle
  2
Shaded with edges
 70
    26
177
     3
291
     0
 70
    58
 90
        2
176
     1
 90
        2
176
     1
 90
        1
176
     1
 90
        2
176
     1
 40
0.6
176
     1
 40
30.0
176
     1
 62
     7
420
 16777215
176
     1
 90
        1
176
     1
 90
       10
176
     1
 62
     7
176
     1
 62
   257
176
     1
 90
        2
176
     1
 90
        1
176
     1
 40
1.0
176
     1
 90
        8
176
     1
 62
   257
176
     1
 40
1.0
176
     1
 90
        1
176
     1
 90
        6
176
     1
 90
        2
176
     1
 62
     7
176
     1
 90
        3
176
     1
 90
        0
176
     1
 90
        0
176
     1
290
     0
176
     1
 90
        5
176
     1
 40
0.0
176
     1
 90
        0
176
     1
290
     0
176
     1
290
     1
176
     1
290
     1
176
     1
290
     0
176
     1
290
     0
176
     1
290
     0
176
     1
290
     0
176
     1
290
     0
176
     1
290
     0
176
     1
 90
       50
176
     1
 40
0.0
176
     1
 40
1.0
176
     1
 90
        0
176
     1
 62
    18
420
        0
176
     1
 90
       50
176
     1
 90
        3
176
     1
 62
     5
420
      255
176
     1
290
     0
176
     1
 90
       50
176
     1
 90
       50
176
     1
 90
       50
176
     1
290
     0
176
     1
 90
       50
176
     1
 62
   256
176
     0
 40
1.0
176
     0
 90
        2
176
     1
  1
strokes_ogs.tif
176
     1
290
     0
176
     1
 40
1.0
176
     1
 40
1.0
176
     1
  0
VISUALSTYLE
  5
3E
102
{ACAD_REACTORS
330
2A
102
}
330
2A
100
AcDbVisualStyle
  2
Shades of Gray
 70
    23
177
     3
291
     0
 70
    58
 90
        2
176
     1
 90
        2
176
     1
 90
        3
176
     1
 90
        0
176
     1
 40
0.6
176
     1
 40
30.0
176
     1
 62
     7
420
 16777215
176
     1
 90
        2
176
     1
 90
        2
176
     1
 62
     7
176
     1
 62
     7
176
     1
 90
        1
176
     1
 90
        1
176
     1
 40
40.0
176
     1
 90
        8
176
     1
 62
     7
176
     1
 40
1.0
176
     1
 90
        1
176
     1
 90
        6
176
     1
 90
        2
176
     1
 62
     7
176
     1
 90
        3
176
     1
 90
        0
176
     1
 90
        0
176
     1
290
     0
176
     1
 90
        1
176
     1
 40
0.0
176
     1
 90
        0
176
     1
290
     0
176
     1
290
     1
176
     1
290
     1
176
     1
290
     0
176
     1
290
     0
176
     1
290
     0
176
     1
290
     0
176
     1
290
     0
176
     1
290
     0
176
     1
 90
       50
176
     1
 40
0.0
176
     1
 40
1.0
176
     1
 90
        0
176
     1
 62
    18
420
        0
176
     1
 90
       50
176
     1
 90
        3
176
     1
 62
     5
420
      255
176
     1
290
     0
176
     1
 90
       50
176
     1
 90
       50
176
     1
 90
       50
176
     1
290
     0
176
     1
 90
       50
176
     1
 62
   256
176
     0
 40
1.0
176
     0
 90
        2
176
     1
  1
strokes_ogs.tif
176
     1
290
     0
176
     1
 40
1.0
176
     1
 40
1.0
176
     1
  0
VISUALSTYLE
  5
3F
102
{ACAD_REACTORS
330
2A
102
}
330
2A
100
AcDbVisualStyle
  2
Sketchy
 70
    24
177
     3
291
     0
 70
    58
 90
        1
176
     1
 90
        2
176
     1
 90
        2
176
     1
 90
        0
176
     1
 40
0.6
176
     1
 40
30.0
176
     1
 62
     7
420
 16777215
176
     1
 90
        2
176
     1
 90
        2
176
     1
 62
     7
176
     1
 62
     7
176
     1
 90
        1
176
     1
 90
        1
176
     1
 40
40.0
176
     1
 90
       11
176
     1
 62
     7
176
     1
 40
1.0
176
     1
 90
        1
176
     1
 90
        6
176
     1
 90
        2
176
     1
 62
     7
176
     1
 90
        6
176
     1
 90
        0
176
     1
 90
        0
176
     1
290
     0
176
     1
 90
        1
176
     1
 40
0.0
176
     1
 90
        0
176
     1
290
     0
176
     1
290
     1
176
     1
290
     1
176
     1
290
     0
176
     1
290
     0
176
     1
290
     0
176
     1
290
     0
176
     1
290
     0
176
     1
290
     0
176
     1
 90
       50
176
     1
 40
0.0
176
     1
 40
1.0
176
     1
 90
        0
176
     1
 62
    18
420
        0
176
     1
 90
       50
176
     1
 90
        3
176
     1
 62
     5
420
      255
176
     1
290
     0
176
     1
 90
       50
176
     1
 90
       50
176
     1
 90
       50
176
     1
290
     0
176
     1
 90
       50
176
     1
 62
   256
176
     0
 40
1.0
176
     0
 90
        2
176
     1
  1
strokes_ogs.tif
176
     1
290
     0
176
     1
 40
1.0
176
     1
 40
1.0
176
     1
  0
VISUALSTYLE
  5
37
102
{ACAD_REACTORS
330
2A
102
}
330
2A
100
AcDbVisualStyle
  2
Thicken
 70
    13
177
     3
291
     1
 70
    58
 90
        2
176
     1
 90
        2
176
     1
 90
        0
176
     1
 90
        0
176
     1
 40
0.6
176
     1
 40
30.0
176
     1
 62
     7
420
 16777215
176
     1
 90
        1
176
     1
 90
        4
176
     1
 62
     7
176
     1
 62
   257
176
     1
 90
        1
176
     1
 90
        1
176
     1
 40
1.0
176
     1
 90
       12
176
     1
 62
     7
176
     1
 40
1.0
176
     1
 90
        1
176
     1
 90
        6
176
     1
 90
        2
176
     1
 62
     7
176
     1
 90
        5
176
     1
 90
        0
176
     1
 90
        0
176
     1
290
     0
176
     1
 90
        1
176
     1
 40
0.0
176
     1
 90
        0
176
     1
290
     0
176
     1
290
     1
176
     1
290
     1
176
     1
290
     0
176
     1
290
     0
176
     1
290
     0
176
     1
290
     0
176
     1
290
     0
176
     1
290
     0
176
     1
 90
       50
176
     1
 40
0.0
176
     1
 40
1.0
176
     1
 90
        0
176
     1
 62
    18
420
        0
176
     1
 90
       50
176
     1
 90
        3
176
     1
 62
     5
420
      255
176
     1
290
     0
176
     1
 90
       50
176
     1
 90
       50
176
     1
 90
       50
176
     1
290
     0
176
     1
 90
       50
176
     1
 62
   256
176
     0
 40
1.0
176
     0
 90
        2
176
     1
  1
strokes_ogs.tif
176
     1
290
     0
176
     1
 40
1.0
176
     1
 40
1.0
176
     1
  0
VISUALSTYLE
  5
30
102
{ACAD_REACTORS
330
2A
102
}
330
2A
100
AcDbVisualStyle
  2
Wireframe
 70
     5
177
     3
291
     0
 70
    58
 90
        0
176
     1
 90
        2
176
     1
 90
        0
176
     1
 90
        0
176
     1
 40
0.6
176
     1
 40
30.0
176
     1
 62
     7
420
 16777215
176
     1
 90
        1
176
     1
 90
        4
176
     1
 62
     7
176
     1
 62
   257
176
     1
 90
        1
176
     1
 90
        1
176
     1
 40
1.0
176
     1
 90
        0
176
     1
 62
   257
176
     1
 40
1.0
176
     1
 90
        1
176
     1
 90
        6
176
     1
 90
        2
176
     1
 62
     7
176
     1
 90
        3
176
     1
 90
        0
176
     1
 90
        0
176
     1
290
     0
176
     1
 90
        1
176
     1
 40
0.0
176
     1
 90
        0
176
     1
290
     0
176
     1
290
     1
176
     1
290
     1
176
     1
290
     0
176
     1
290
     0
176
     1
290
     0
176
     1
290
     0
176
     1
290
     0
176
     1
290
     0
176
     1
 90
       50
176
     1
 40
0.0
176
     1
 40
1.0
176
     1
 90
        0
176
     1
 62
    18
420
        0
176
     1
 90
       50
176
     1
 90
        3
176
     1
 62
     5
420
      255
176
     1
290
     0
176
     1
 90
       50
176
     1
 90
       50
176
     1
 90
       50
176
     1
290
     0
176
     1
 90
       50
176
     1
 62
   256
176
     0
 40
1.0
176
     0
 90
        2
176
     1
  1
strokes_ogs.tif
176
     1
290
     0
176
     1
 40
1.0
176
     1
 40
1.0
176
     1
  0
VISUALSTYLE
  5
40
102
{ACAD_REACTORS
330
2A
102
}
330
2A
100
AcDbVisualStyle
  2
X-Ray
 70
    25
177
     3
291
     0
 70
    58
 90
        2
176
     1
 90
        2
176
     1
 90
        1
176
     1
 90
        1
176
     1
 40
0.5
176
     1
 40
30.0
176
     1
 62
     7
420
 16777215
176
     1
 90
        1
176
     1
 90
        0
176
     1
 62
     7
176
     1
 62
   257
176
     1
 90
        1
176
     1
 90
        1
176
     1
 40
1.0
176
     1
 90
        8
176
     1
 62
     7
176
     1
 40
1.0
176
     1
 90
        1
176
     1
 90
        6
176
     1
 90
        2
176
     1
 62
     7
176
     1
 90
        3
176
     1
 90
        0
176
     1
 90
        0
176
     1
290
     0
176
     1
 90
       13
176
     1
 40
0.0
176
     1
 90
        0
176
     1
290
     0
176
     1
290
     1
176
     1
290
     1
176
     1
290
     0
176
     1
290
     0
176
     1
290
     0
176
     1
290
     0
176
     1
290
     0
176
     1
290
     0
176
     1
 90
       50
176
     1
 40
0.0
176
     1
 40
1.0
176
     1
 90
        0
176
     1
 62
    18
420
        0
176
     1
 90
       50
176
     1
 90
        3
176
     1
 62
     5
420
      255
176
     1
290
     0
176
     1
 90
       50
176
     1
 90
       50
176
     1
 90
       50
176
     1
290
     0
176
     1
 90
       50
176
     1
 62
   256
176
     0
 40
1.0
176
     0
 90
        2
176
     1
  1
strokes_ogs.tif
176
     1
290
     0
176
     1
 40
1.0
176
     1
 40
1.0
176
     1
  0
DICTIONARYVAR
  5
1A3
102
{ACAD_REACTORS
330
1A2
102
}
330
1A2
100
DictionaryVariables
280
     0
  1
1:1
  0
DICTIONARYVAR
  5
1A8
102
{ACAD_REACTORS
330
1A2
102
}
330
1A2
100
DictionaryVariables
280
     0
  1
Standard
  0
DICTIONARYVAR
  5
1A7
102
{ACAD_REACTORS
330
1A2
102
}
330
1A2
100
DictionaryVariables
280
     0
  1
Standard
  0
DICTIONARY
  5
1A4
330
6A
100
AcDbDictionary
280
     1
281
     1
  3
ACAD_ROUNDTRIP_2008_TABLESTYLE_CELLSTYLEMAP
360
1A5
  0
CELLSTYLEMAP
  5
1A5
102
{ACAD_REACTORS
330
1A4
102
}
330
1A4
100
AcDbCellStyleMap
 90
        3
300
CELLSTYLE
  1
TABLEFORMAT_BEGIN
 90
        5
170
     1
 91
        0
 92
    32768
 62
   257
 93
        1
300
CONTENTFORMAT
  1
CONTENTFORMAT_BEGIN
 90
        0
 91
        0
 92
        4
 93
        0
300

 40
0.0
140
1.0
 94
        5
 62
     0
340
11
144
0.25
309
CONTENTFORMAT_END
171
     1
301
MARGIN
  1
CELLMARGIN_BEGIN
 40
0.06
 40
0.06
 40
0.06
 40
0.06
 40
0.06
 40
0.06
309
CELLMARGIN_END
 94
        6
 95
        1
302
GRIDFORMAT
  1
GRIDFORMAT_BEGIN
 90
        0
 91
        1
 62
     0
 92
       -2
340
14
 93
        0
 40
0.045
309
GRIDFORMAT_END
 95
        2
302
GRIDFORMAT
  1
GRIDFORMAT_BEGIN
 90
        0
 91
        1
 62
     0
 92
       -2
340
14
 93
        0
 40
0.045
309
GRIDFORMAT_END
 95
        4
302
GRIDFORMAT
  1
GRIDFORMAT_BEGIN
 90
        0
 91
        1
 62
     0
 92
       -2
340
14
 93
        0
 40
0.045
309
GRIDFORMAT_END
 95
        8
302
GRIDFORMAT
  1
GRIDFORMAT_BEGIN
 90
        0
 91
        1
 62
     0
 92
       -2
340
14
 93
        0
 40
0.045
309
GRIDFORMAT_END
 95
       16
302
GRIDFORMAT
  1
GRIDFORMAT_BEGIN
 90
        0
 91
        1
 62
     0
 92
       -2
340
14
 93
        0
 40
0.045
309
GRIDFORMAT_END
 95
       32
302
GRIDFORMAT
  1
GRIDFORMAT_BEGIN
 90
        0
 91
        1
 62
     0
 92
       -2
340
14
 93
        0
 40
0.045
309
GRIDFORMAT_END
309
TABLEFORMAT_END
  1
CELLSTYLE_BEGIN
 90
        1
 91
        1
300
_TITLE
309
CELLSTYLE_END
300
CELLSTYLE
  1
TABLEFORMAT_BEGIN
 90
        5
170
     1
 91
        0
 92
        0
 62
   257
 93
        1
300
CONTENTFORMAT
  1
CONTENTFORMAT_BEGIN
 90
        0
 91
        0
 92
        4
 93
        0
300

 40
0.0
140
1.0
 94
        5
 62
     0
340
11
144
0.18
309
CONTENTFORMAT_END
171
     1
301
MARGIN
  1
CELLMARGIN_BEGIN
 40
0.06
 40
0.06
 40
0.06
 40
0.06
 40
0.06
 40
0.06
309
CELLMARGIN_END
 94
        6
 95
        1
302
GRIDFORMAT
  1
GRIDFORMAT_BEGIN
 90
        0
 91
        1
 62
     0
 92
       -2
340
14
 93
        0
 40
0.045
309
GRIDFORMAT_END
 95
        2
302
GRIDFORMAT
  1
GRIDFORMAT_BEGIN
 90
        0
 91
        1
 62
     0
 92
       -2
340
14
 93
        0
 40
0.045
309
GRIDFORMAT_END
 95
        4
302
GRIDFORMAT
  1
GRIDFORMAT_BEGIN
 90
        0
 91
        1
 62
     0
 92
       -2
340
14
 93
        0
 40
0.045
309
GRIDFORMAT_END
 95
        8
302
GRIDFORMAT
  1
GRIDFORMAT_BEGIN
 90
        0
 91
        1
 62
     0
 92
       -2
340
14
 93
        0
 40
0.045
309
GRIDFORMAT_END
 95
       16
302
GRIDFORMAT
  1
GRIDFORMAT_BEGIN
 90
        0
 91
        1
 62
     0
 92
       -2
340
14
 93
        0
 40
0.045
309
GRIDFORMAT_END
 95
       32
302
GRIDFORMAT
  1
GRIDFORMAT_BEGIN
 90
        0
 91
        1
 62
     0
 92
       -2
340
14
 93
        0
 40
0.045
309
GRIDFORMAT_END
309
TABLEFORMAT_END
  1
CELLSTYLE_BEGIN
 90
        2
 91
        1
300
_HEADER
309
CELLSTYLE_END
300
CELLSTYLE
  1
TABLEFORMAT_BEGIN
 90
        5
170
     1
 91
        0
 92
        0
 62
   257
 93
        1
300
CONTENTFORMAT
  1
CONTENTFORMAT_BEGIN
 90
        0
 91
        0
 92
        4
 93
        0
300

 40
0.0
140
1.0
 94
        2
 62
     0
340
11
144
0.18
309
CONTENTFORMAT_END
171
     1
301
MARGIN
  1
CELLMARGIN_BEGIN
 40
0.06
 40
0.06
 40
0.06
 40
0.06
 40
0.06
 40
0.06
309
CELLMARGIN_END
 94
        6
 95
        1
302
GRIDFORMAT
  1
GRIDFORMAT_BEGIN
 90
        0
 91
        1
 62
     0
 92
       -2
340
14
 93
        0
 40
0.045
309
GRIDFORMAT_END
 95
        2
302
GRIDFORMAT
  1
GRIDFORMAT_BEGIN
 90
        0
 91
        1
 62
     0
 92
       -2
340
14
 93
        0
 40
0.045
309
GRIDFORMAT_END
 95
        4
302
GRIDFORMAT
  1
GRIDFORMAT_BEGIN
 90
        0
 91
        1
 62
     0
 92
       -2
340
14
 93
        0
 40
0.045
309
GRIDFORMAT_END
 95
        8
302
GRIDFORMAT
  1
GRIDFORMAT_BEGIN
 90
        0
 91
        1
 62
     0
 92
       -2
340
14
 93
        0
 40
0.045
309
GRIDFORMAT_END
 95
       16
302
GRIDFORMAT
  1
GRIDFORMAT_BEGIN
 90
        0
 91
        1
 62
     0
 92
       -2
340
14
 93
        0
 40
0.045
309
GRIDFORMAT_END
 95
       32
302
GRIDFORMAT
  1
GRIDFORMAT_BEGIN
 90
        0
 91
        1
 62
     0
 92
       -2
340
14
 93
        0
 40
0.045
309
GRIDFORMAT_END
309
TABLEFORMAT_END
  1
CELLSTYLE_BEGIN
 90
        3
 91
        2
300
_DATA
309
CELLSTYLE_END
  0
ENDSEC
  0
EOF