0
SECTION
  2
HEADER
  9
$ACADVER
  1
AC1027
  9
$ACADMAINTVER
 70
     8
  9
$DWGCODEPAGE
  3
ANSI_1252
  9
$REQUIREDVERSIONS
160
                 0
  9
$COMMENTS
  1
File was created by Cadenas
  9
$CUSTOMPROPERTYTAG
  1
NN
  9
$CUSTOMPROPERTY
  1
Double-Interlock D Units Gray Iron - Inch
  9
$CUSTOMPROPERTYTAG
  1
NT
  9
$CUSTOMPROPERTY
  1
Double-Interlock Bearings
  9
$CUSTOMPROPERTYTAG
  1
NB
  9
$CUSTOMPROPERTY
  1
023481
  9
$CUSTOMPROPERTYTAG
  1
NBSYN
  9
$CUSTOMPROPERTY
  1
$PN.
  9
$CUSTOMPROPERTYTAG
  1
LINA
  9
$CUSTOMPROPERTY
  1
023481
  9
$CUSTOMPROPERTYTAG
  1
SS
  9
$CUSTOMPROPERTY
  1
1-7/16
  9
$CUSTOMPROPERTYTAG
  1
PN
  9
$CUSTOMPROPERTY
  1
023481
  9
$CUSTOMPROPERTYTAG
  1
DESCRIPTION
  9
$CUSTOMPROPERTY
  1
DU-DI-107R
  9
$CUSTOMPROPERTYTAG
  1
A
  9
$CUSTOMPROPERTY
  1
3
  9
$CUSTOMPROPERTYTAG
  1
B
  9
$CUSTOMPROPERTY
  1
2-1/16
  9
$CUSTOMPROPERTYTAG
  1
H
  9
$CUSTOMPROPERTY
  1
11/16
  9
$CUSTOMPROPERTYTAG
  1
L
  9
$CUSTOMPROPERTY
  1
2-3/4
  9
$CUSTOMPROPERTYTAG
  1
N
  9
$CUSTOMPROPERTY
  1
2-7/8
  9
$CUSTOMPROPERTYTAG
  1
P
  9
$CUSTOMPROPERTY
  1
3-5/8
  9
$CUSTOMPROPERTYTAG
  1
S
  9
$CUSTOMPROPERTY
  1
3.844
  9
$CUSTOMPROPERTYTAG
  1
COMPANY
  9
$CUSTOMPROPERTY
  1
baldor
  9
$INSBASE
 10
0.0
 20
0.0
 30
0.0
  9
$EXTMIN
 10
1.000000000000000E+20
 20
1.000000000000000E+20
 30
1.000000000000000E+20
  9
$EXTMAX
 10
-1.000000000000000E+20
 20
-1.000000000000000E+20
 30
-1.000000000000000E+20
  9
$LIMMIN
 10
0.0
 20
0.0
  9
$LIMMAX
 10
12.0
 20
9.0
  9
$ORTHOMODE
 70
     0
  9
$REGENMODE
 70
     1
  9
$FILLMODE
 70
     1
  9
$QTEXTMODE
 70
     0
  9
$MIRRTEXT
 70
     1
  9
$LTSCALE
 40
1.0
  9
$ATTMODE
 70
     1
  9
$TEXTSIZE
 40
0.2
  9
$TRACEWID
 40
0.05
  9
$TEXTSTYLE
  7
Standard
  9
$CLAYER
  8
0
  9
$CELTYPE
  6
ByLayer
  9
$CECOLOR
 62
   256
  9
$CELTSCALE
 40
1.0
  9
$DISPSILH
 70
     0
  9
$DIMSCALE
 40
1.0
  9
$DIMASZ
 40
0.18
  9
$DIMEXO
 40
0.0625
  9
$DIMDLI
 40
0.38
  9
$DIMRND
 40
0.0
  9
$DIMDLE
 40
0.0
  9
$DIMEXE
 40
0.18
  9
$DIMTP
 40
0.0
  9
$DIMTM
 40
0.0
  9
$DIMTXT
 40
0.18
  9
$DIMCEN
 40
0.09
  9
$DIMTSZ
 40
0.0
  9
$DIMTOL
 70
     0
  9
$DIMLIM
 70
     0
  9
$DIMTIH
 70
     1
  9
$DIMTOH
 70
     1
  9
$DIMSE1
 70
     0
  9
$DIMSE2
 70
     0
  9
$DIMTAD
 70
     0
  9
$DIMZIN
 70
     0
  9
$DIMBLK
  1

  9
$DIMASO
 70
     1
  9
$DIMSHO
 70
     1
  9
$DIMPOST
  1

  9
$DIMAPOST
  1

  9
$DIMALT
 70
     0
  9
$DIMALTD
 70
     2
  9
$DIMALTF
 40
25.4
  9
$DIMLFAC
 40
1.0
  9
$DIMTOFL
 70
     0
  9
$DIMTVP
 40
0.0
  9
$DIMTIX
 70
     0
  9
$DIMSOXD
 70
     0
  9
$DIMSAH
 70
     0
  9
$DIMBLK1
  1

  9
$DIMBLK2
  1

  9
$DIMSTYLE
  2
Standard
  9
$DIMCLRD
 70
     0
  9
$DIMCLRE
 70
     0
  9
$DIMCLRT
 70
     0
  9
$DIMTFAC
 40
1.0
  9
$DIMGAP
 40
0.09
  9
$DIMJUST
 70
     0
  9
$DIMSD1
 70
     0
  9
$DIMSD2
 70
     0
  9
$DIMTOLJ
 70
     1
  9
$DIMTZIN
 70
     0
  9
$DIMALTZ
 70
     0
  9
$DIMALTTZ
 70
     0
  9
$DIMUPT
 70
     0
  9
$DIMDEC
 70
     4
  9
$DIMTDEC
 70
     4
  9
$DIMALTU
 70
     2
  9
$DIMALTTD
 70
     2
  9
$DIMTXSTY
  7
Standard
  9
$DIMAUNIT
 70
     0
  9
$DIMADEC
 70
     0
  9
$DIMALTRND
 40
0.0
  9
$DIMAZIN
 70
     0
  9
$DIMDSEP
 70
    46
  9
$DIMATFIT
 70
     3
  9
$DIMFRAC
 70
     0
  9
$DIMLDRBLK
  1

  9
$DIMLUNIT
 70
     2
  9
$DIMLWD
 70
    -2
  9
$DIMLWE
 70
    -2
  9
$DIMTMOVE
 70
     0
  9
$DIMFXL
 40
1.0
  9
$DIMFXLON
 70
     0
  9
$DIMJOGANG
 40
0.7853981633974483
  9
$DIMTFILL
 70
     0
  9
$DIMTFILLCLR
 70
     0
  9
$DIMARCSYM
 70
     0
  9
$DIMLTYPE
  6

  9
$DIMLTEX1
  6

  9
$DIMLTEX2
  6

  9
$DIMTXTDIRECTION
 70
     0
  9
$LUNITS
 70
     2
  9
$LUPREC
 70
     4
  9
$SKETCHINC
 40
0.1
  9
$FILLETRAD
 40
0.5
  9
$AUNITS
 70
     0
  9
$AUPREC
 70
     0
  9
$MENU
  1
.
  9
$ELEVATION
 40
0.0
  9
$PELEVATION
 40
0.0
  9
$THICKNESS
 40
0.0
  9
$LIMCHECK
 70
     0
  9
$CHAMFERA
 40
0.0
  9
$CHAMFERB
 40
0.0
  9
$CHAMFERC
 40
0.0
  9
$CHAMFERD
 40
0.0
  9
$SKPOLY
 70
     0
  9
$TDCREATE
 40
2458169.015477211
  9
$TDUCREATE
 40
2458168.973810544
  9
$TDUPDATE
 40
2458169.015477384
  9
$TDUUPDATE
 40
2458168.973810717
  9
$TDINDWG
 40
0.0000000116
  9
$TDUSRTIMER
 40
0.0000000116
  9
$USRTIMER
 70
     1
  9
$ANGBASE
 50
0.0
  9
$ANGDIR
 70
     0
  9
$PDMODE
 70
     0
  9
$PDSIZE
 40
0.0
  9
$PLINEWID
 40
0.0
  9
$SPLFRAME
 70
     0
  9
$SPLINETYPE
 70
     6
  9
$SPLINESEGS
 70
     8
  9
$HANDSEED
  5
1A6
  9
$SURFTAB1
 70
     6
  9
$SURFTAB2
 70
     6
  9
$SURFTYPE
 70
     6
  9
$SURFU
 70
     6
  9
$SURFV
 70
     6
  9
$UCSBASE
  2

  9
$UCSNAME
  2

  9
$UCSORG
 10
0.0
 20
0.0
 30
0.0
  9
$UCSXDIR
 10
1.0
 20
0.0
 30
0.0
  9
$UCSYDIR
 10
0.0
 20
1.0
 30
0.0
  9
$UCSORTHOREF
  2

  9
$UCSORTHOVIEW
 70
     0
  9
$UCSORGTOP
 10
0.0
 20
0.0
 30
0.0
  9
$UCSORGBOTTOM
 10
0.0
 20
0.0
 30
0.0
  9
$UCSORGLEFT
 10
0.0
 20
0.0
 30
0.0
  9
$UCSORGRIGHT
 10
0.0
 20
0.0
 30
0.0
  9
$UCSORGFRONT
 10
0.0
 20
0.0
 30
0.0
  9
$UCSORGBACK
 10
0.0
 20
0.0
 30
0.0
  9
$PUCSBASE
  2

  9
$PUCSNAME
  2

  9
$PUCSORG
 10
0.0
 20
0.0
 30
0.0
  9
$PUCSXDIR
 10
1.0
 20
0.0
 30
0.0
  9
$PUCSYDIR
 10
0.0
 20
1.0
 30
0.0
  9
$PUCSORTHOREF
  2

  9
$PUCSORTHOVIEW
 70
     0
  9
$PUCSORGTOP
 10
0.0
 20
0.0
 30
0.0
  9
$PUCSORGBOTTOM
 10
0.0
 20
0.0
 30
0.0
  9
$PUCSORGLEFT
 10
0.0
 20
0.0
 30
0.0
  9
$PUCSORGRIGHT
 10
0.0
 20
0.0
 30
0.0
  9
$PUCSORGFRONT
 10
0.0
 20
0.0
 30
0.0
  9
$PUCSORGBACK
 10
0.0
 20
0.0
 30
0.0
  9
$USERI1
 70
     0
  9
$USERI2
 70
     0
  9
$USERI3
 70
     0
  9
$USERI4
 70
     0
  9
$USERI5
 70
     0
  9
$USERR1
 40
0.0
  9
$USERR2
 40
0.0
  9
$USERR3
 40
0.0
  9
$USERR4
 40
0.0
  9
$USERR5
 40
0.0
  9
$WORLDVIEW
 70
     1
  9
$SHADEDGE
 70
     3
  9
$SHADEDIF
 70
    70
  9
$TILEMODE
 70
     1
  9
$MAXACTVP
 70
    64
  9
$PINSBASE
 10
0.0
 20
0.0
 30
0.0
  9
$PLIMCHECK
 70
     0
  9
$PEXTMIN
 10
1.000000000000000E+20
 20
1.000000000000000E+20
 30
1.000000000000000E+20
  9
$PEXTMAX
 10
-1.000000000000000E+20
 20
-1.000000000000000E+20
 30
-1.000000000000000E+20
  9
$PLIMMIN
 10
0.0
 20
0.0
  9
$PLIMMAX
 10
12.0
 20
9.0
  9
$UNITMODE
 70
     0
  9
$VISRETAIN
 70
     1
  9
$PLINEGEN
 70
     0
  9
$PSLTSCALE
 70
     1
  9
$TREEDEPTH
 70
  3020
  9
$CMLSTYLE
  2
Standard
  9
$CMLJUST
 70
     0
  9
$CMLSCALE
 40
1.0
  9
$PROXYGRAPHICS
 70
     1
  9
$MEASUREMENT
 70
     0
  9
$CELWEIGHT
370
    -1
  9
$ENDCAPS
280
     0
  9
$JOINSTYLE
280
     0
  9
$LWDISPLAY
290
     0
  9
$INSUNITS
 70
     1
  9
$HYPERLINKBASE
  1

  9
$STYLESHEET
  1

  9
$XEDIT
290
     1
  9
$CEPSNTYPE
380
     0
  9
$PSTYLEMODE
290
     1
  9
$FINGERPRINTGUID
  2
{3E176B66-AB0E-4515-A34C-9ED39C1B2DD2}
  9
$VERSIONGUID
  2
{FAEB1C32-E019-11D5-929B-00C0DF256EC4}
  9
$EXTNAMES
290
     1
  9
$PSVPSCALE
 40
0.0
  9
$OLESTARTUP
290
     0
  9
$SORTENTS
280
   127
  9
$INDEXCTL
280
     0
  9
$HIDETEXT
280
     1
  9
$XCLIPFRAME
280
     2
  9
$HALOGAP
280
     0
  9
$OBSCOLOR
 70
   257
  9
$OBSLTYPE
280
     0
  9
$INTERSECTIONDISPLAY
280
     0
  9
$INTERSECTIONCOLOR
 70
   257
  9
$DIMASSOC
280
     2
  9
$PROJECTNAME
  1

  9
$CAMERADISPLAY
290
     0
  9
$LENSLENGTH
 40
50.0
  9
$CAMERAHEIGHT
 40
0.0
  9
$STEPSPERSEC
 40
2.0
  9
$STEPSIZE
 40
6.0
  9
$3DDWFPREC
 40
2.0
  9
$PSOLWIDTH
 40
0.25
  9
$PSOLHEIGHT
 40
4.0
  9
$LOFTANG1
 40
1.570796326794897
  9
$LOFTANG2
 40
1.570796326794897
  9
$LOFTMAG1
 40
0.0
  9
$LOFTMAG2
 40
0.0
  9
$LOFTPARAM
 70
     7
  9
$LOFTNORMALS
280
     1
  9
$LATITUDE
 40
37.795
  9
$LONGITUDE
 40
-122.394
  9
$NORTHDIRECTION
 40
0.0
  9
$TIMEZONE
 70
 -8000
  9
$LIGHTGLYPHDISPLAY
280
     1
  9
$TILEMODELIGHTSYNCH
280
     1
  9
$CMATERIAL
347
44
  9
$SOLIDHIST
280
     0
  9
$SHOWHIST
280
     1
  9
$DWFFRAME
280
     2
  9
$DGNFRAME
280
     2
  9
$REALWORLDSCALE
290
     1
  9
$INTERFERECOLOR
 62
   256
  9
$CSHADOW
280
     0
  9
$SHADOWPLANELOCATION
 40
0.0
  0
ENDSEC
  0
SECTION
  2
CLASSES
  0
CLASS
  1
ACDBDICTIONARYWDFLT
  2
AcDbDictionaryWithDefault
  3
ObjectDBX Classes
 90
        0
 91
        4
280
     0
281
     0
  0
CLASS
  1
VISUALSTYLE
  2
AcDbVisualStyle
  3
ObjectDBX Classes
 90
     4095
 91
        4
280
     0
281
     0
  0
CLASS
  1
MATERIAL
  2
AcDbMaterial
  3
ObjectDBX Classes
 90
     1153
 91
        4
280
     0
281
     0
  0
CLASS
  1
SCALE
  2
AcDbScale
  3
ObjectDBX Classes
 90
     1153
 91
        4
280
     0
281
     0
  0
CLASS
  1
TABLESTYLE
  2
AcDbTableStyle
  3
ObjectDBX Classes
 90
     4095
 91
        4
280
     0
281
     0
  0
CLASS
  1
MLEADERSTYLE
  2
AcDbMLeaderStyle
  3
ACDB_MLEADERSTYLE_CLASS
 90
     4095
 91
        4
280
     0
281
     0
  0
CLASS
  1
SUN
  2
AcDbSun
  3
SCENEOE
 90
     1153
 91
        4
280
     0
281
     0
  0
CLASS
  1
DICTIONARYVAR
  2
AcDbDictionaryVar
  3
ObjectDBX Classes
 90
        0
 91
        4
280
     0
281
     0
  0
CLASS
  1
CELLSTYLEMAP
  2
AcDbCellStyleMap
  3
ObjectDBX Classes
 90
     1152
 91
        4
280
     0
281
     0
  0
ENDSEC
  0
SECTION
  2
TABLES
  0
TABLE
  2
VPORT
  5
8
330
0
100
AcDbSymbolTable
 70
     1
  0
VPORT
  5
29
330
8
100
AcDbSymbolTableRecord
100
AcDbViewportTableRecord
  2
*Active
 70
     0
 10
0.0
 20
0.0
 11
1.0
 21
1.0
 12
0.0
 22
0.4566250000000007
 13
0.0
 23
0.0
 14
0.5
 24
0.5
 15
0.5
 25
0.5
 16
0.0
 26
0.0
 36
1.0
 17
0.0
 27
0.0
 37
0.0
 40
4.998764999999999
 41
0.6733663214814063
 42
50.0
 43
0.0
 44
0.0
 50
0.0
 51
0.0
 71
     0
 72
   100
 73
     1
 74
     3
 75
     0
 76
     0
 77
     0
 78
     0
281
     0
 65
     1
110
0.0
120
0.0
130
0.0
111
1.0
121
0.0
131
0.0
112
0.0
122
1.0
132
0.0
 79
     0
146
0.0
348
2F
 60
     3
 61
     5
292
     1
282
     1
141
0.0
142
0.0
 63
   250
361
6D
  0
ENDTAB
  0
TABLE
  2
LTYPE
  5
5
330
0
100
AcDbSymbolTable
 70
     3
  0
LTYPE
  5
14
330
5
100
AcDbSymbolTableRecord
100
AcDbLinetypeTableRecord
  2
ByBlock
 70
     0
  3

 72
    65
 73
     0
 40
0.0
  0
LTYPE
  5
15
330
5
100
AcDbSymbolTableRecord
100
AcDbLinetypeTableRecord
  2
ByLayer
 70
     0
  3

 72
    65
 73
     0
 40
0.0
  0
LTYPE
  5
16
330
5
100
AcDbSymbolTableRecord
100
AcDbLinetypeTableRecord
  2
Continuous
 70
     0
  3
Solid line
 72
    65
 73
     0
 40
0.0
  0
LTYPE
  5
98
330
5
100
AcDbSymbolTableRecord
100
AcDbLinetypeTableRecord
  2
Dashed
 70
     0
  3

 72
    65
 73
     2
 40
2.0
 49
1.0
 74
     0
 49
-1.0
 74
     0
  0
LTYPE
  5
17C
330
5
100
AcDbSymbolTableRecord
100
AcDbLinetypeTableRecord
  2
Center
 70
     0
  3

 72
    65
 73
     4
 40
1.5
 49
0.45
 74
     0
 49
-0.5
 74
     0
 49
0.05
 74
     0
 49
-0.5
 74
     0
  0
ENDTAB
  0
TABLE
  2
LAYER
  5
2
330
0
100
AcDbSymbolTable
 70
     7
  0
LAYER
  5
10
330
2
100
AcDbSymbolTableRecord
100
AcDbLayerTableRecord
  2
0
 70
     0
 62
     7
  6
Continuous
370
    -3
390
F
347
46
348
0
  0
LAYER
  5
72
330
2
100
AcDbSymbolTableRecord
100
AcDbLayerTableRecord
  2
AM_6
 70
     0
 62
    -2
  6
Continuous
370
    35
390
F
347
46
348
0
  0
LAYER
  5
99
330
2
100
AcDbSymbolTableRecord
100
AcDbLayerTableRecord
  2
AM_9
 70
     0
 62
     6
  6
Dashed
370
    25
390
F
347
46
348
0
  0
LAYER
  5
B0
330
2
100
AcDbSymbolTableRecord
100
AcDbLayerTableRecord
  2
AM_5
 70
     0
 62
     3
  6
Continuous
370
    25
390
F
347
46
348
0
  0
LAYER
  5
B3
330
2
100
AcDbSymbolTableRecord
100
AcDbLayerTableRecord
  2
AM_4
 70
     0
 62
     7
  6
Continuous
370
    50
390
F
347
46
348
0
  0
LAYER
  5
17D
330
2
100
AcDbSymbolTableRecord
100
AcDbLayerTableRecord
  2
AM_7
 70
     0
 62
     7
  6
Center
370
    25
390
F
347
46
348
0
  0
LAYER
  5
195
330
2
100
AcDbSymbolTableRecord
100
AcDbLayerTableRecord
  2
ConnectionPoints
 70
     0
 62
     7
  6
Continuous
370
    50
390
F
347
46
348
0
  0
ENDTAB
  0
TABLE
  2
STYLE
  5
3
330
0
100
AcDbSymbolTable
 70
     1
  0
STYLE
  5
11
330
3
100
AcDbSymbolTableRecord
100
AcDbTextStyleTableRecord
  2
Standard
 70
     0
 40
0.0
 41
1.0
 50
0.0
 71
     0
 42
0.2
  3
txt
  4

  0
ENDTAB
  0
TABLE
  2
VIEW
  5
6
330
0
100
AcDbSymbolTable
 70
     0
  0
ENDTAB
  0
TABLE
  2
UCS
  5
7
330
0
100
AcDbSymbolTable
 70
     0
  0
ENDTAB
  0
TABLE
  2
APPID
  5
9
330
0
100
AcDbSymbolTable
 70
     1
  0
APPID
  5
12
330
9
100
AcDbSymbolTableRecord
100
AcDbRegAppTableRecord
  2
ACAD
 70
     0
  0
ENDTAB
  0
TABLE
  2
DIMSTYLE
  5
A
330
0
100
AcDbSymbolTable
 70
     1
100
AcDbDimStyleTable
  0
DIMSTYLE
105
27
330
A
100
AcDbSymbolTableRecord
100
AcDbDimStyleTableRecord
  2
Standard
 70
     0
178
     0
340
11
  0
ENDTAB
  0
TABLE
  2
BLOCK_RECORD
  5
1
330
0
100
AcDbSymbolTable
 70
     6
  0
BLOCK_RECORD
  5
1F
330
1
100
AcDbSymbolTableRecord
100
AcDbBlockTableRecord
  2
*Model_Space
340
22
 70
     0
280
     1
281
     0
  0
BLOCK_RECORD
  5
1B
330
1
100
AcDbSymbolTableRecord
100
AcDbBlockTableRecord
  2
*Paper_Space
340
1E
 70
     0
280
     1
281
     0
  0
BLOCK_RECORD
  5
23
330
1
100
AcDbSymbolTableRecord
100
AcDbBlockTableRecord
  2
*Paper_Space0
340
26
 70
     0
280
     1
281
     0
  0
BLOCK_RECORD
  5
6E
330
1
100
AcDbSymbolTableRecord
100
AcDbBlockTableRecord
  2
1_023481_2
340
0
102
{BLKREFS
331
6F
102
}
 70
     0
280
     1
281
     0
  0
BLOCK_RECORD
  5
83
330
1
100
AcDbSymbolTableRecord
100
AcDbBlockTableRecord
  2
2_1_7_16C_1_0_in_023481_2
340
0
102
{BLKREFS
331
84
102
}
 70
     0
280
     1
281
     0
  0
BLOCK_RECORD
  5
BF
330
1
100
AcDbSymbolTableRecord
100
AcDbBlockTableRecord
  2
3_1_7_16C_2_0_in_023481_2
340
0
102
{BLKREFS
331
C0
102
}
 70
     0
280
     1
281
     0
  0
BLOCK_RECORD
  5
F6
330
1
100
AcDbSymbolTableRecord
100
AcDbBlockTableRecord
  2
4_405015E_Inch_0_in_023481_2
340
0
102
{BLKREFS
331
F7
102
}
 70
     0
280
     1
281
     0
  0
BLOCK_RECORD
  5
134
330
1
100
AcDbSymbolTableRecord
100
AcDbBlockTableRecord
  2
5_023481_Insert_0_in_023481_2
340
0
102
{BLKREFS
331
135
102
}
 70
     0
280
     1
281
     0
  0
ENDTAB
  0
ENDSEC
  0
SECTION
  2
BLOCKS
  0
BLOCK
  5
20
330
1F
100
AcDbEntity
  8
0
100
AcDbBlockBegin
  2
*Model_Space
 70
     0
 10
0.0
 20
0.0
 30
0.0
  3
*Model_Space
  1

  0
ENDBLK
  5
21
330
1F
100
AcDbEntity
  8
0
100
AcDbBlockEnd
  0
BLOCK
  5
1C
330
1B
100
AcDbEntity
 67
     1
  8
0
100
AcDbBlockBegin
  2
*Paper_Space
 70
     0
 10
0.0
 20
0.0
 30
0.0
  3
*Paper_Space
  1

  0
ENDBLK
  5
1D
330
1B
100
AcDbEntity
 67
     1
  8
0
100
AcDbBlockEnd
  0
BLOCK
  5
24
330
23
100
AcDbEntity
  8
0
100
AcDbBlockBegin
  2
*Paper_Space0
 70
     0
 10
0.0
 20
0.0
 30
0.0
  3
*Paper_Space0
  1

  0
ENDBLK
  5
25
330
23
100
AcDbEntity
  8
0
100
AcDbBlockEnd
  0
BLOCK
  5
70
330
6E
100
AcDbEntity
  8
0
100
AcDbBlockBegin
  2
1_023481_2
 70
     2
 10
0.0
 20
0.0
 30
0.0
  3
1_023481_2
  1

  0
ATTDEF
  5
73
330
6E
100
AcDbEntity
  8
AM_6
100
AcDbText
 10
6.649999999999999
 20
2.907
 30
0.0
 40
0.5
  1
Double-Interlock D Units Gray Iron - Inch
100
AcDbAttributeDefinition
  3

  2
NN
 70
     8
280
     0
  0
ATTDEF
  5
74
330
6E
100
AcDbEntity
  8
AM_6
100
AcDbText
 10
6.649999999999999
 20
2.407
 30
0.0
 40
0.5
  1
Double-Interlock Bearings
100
AcDbAttributeDefinition
  3

  2
NT
 70
     8
280
     0
  0
ATTDEF
  5
75
330
6E
100
AcDbEntity
  8
AM_6
100
AcDbText
 10
6.649999999999999
 20
1.907
 30
0.0
 40
0.5
  1
023481
100
AcDbAttributeDefinition
  3

  2
NB
 70
     8
280
     0
  0
ATTDEF
  5
76
330
6E
100
AcDbEntity
  8
AM_6
100
AcDbText
 10
6.649999999999999
 20
1.407
 30
0.0
 40
0.5
  1
$PN.
100
AcDbAttributeDefinition
  3

  2
NBSYN
 70
     8
280
     0
  0
ATTDEF
  5
77
330
6E
100
AcDbEntity
  8
AM_6
100
AcDbText
 10
6.649999999999999
 20
0.907
 30
0.0
 40
0.5
  1
023481
100
AcDbAttributeDefinition
  3

  2
LINA
 70
     8
280
     0
  0
ATTDEF
  5
78
330
6E
100
AcDbEntity
  8
AM_6
100
AcDbText
 10
6.649999999999999
 20
0.407
 30
0.0
 40
0.5
  1
1-7/16
100
AcDbAttributeDefinition
  3

  2
SS
 70
     8
280
     0
  0
ATTDEF
  5
79
330
6E
100
AcDbEntity
  8
AM_6
100
AcDbText
 10
6.649999999999999
 20
-0.093
 30
0.0
 40
0.5
  1
023481
100
AcDbAttributeDefinition
  3

  2
PN
 70
     8
280
     0
  0
ATTDEF
  5
7A
330
6E
100
AcDbEntity
  8
AM_6
100
AcDbText
 10
6.649999999999999
 20
-0.593
 30
0.0
 40
0.5
  1
DU-DI-107R
100
AcDbAttributeDefinition
  3

  2
DESCRIPTION
 70
     8
280
     0
  0
ATTDEF
  5
7B
330
6E
100
AcDbEntity
  8
AM_6
100
AcDbText
 10
6.649999999999999
 20
-1.093
 30
0.0
 40
0.5
  1
3
100
AcDbAttributeDefinition
  3

  2
A
 70
     8
280
     0
  0
ATTDEF
  5
7C
330
6E
100
AcDbEntity
  8
AM_6
100
AcDbText
 10
6.649999999999999
 20
-1.593
 30
0.0
 40
0.5
  1
2-1/16
100
AcDbAttributeDefinition
  3

  2
B
 70
     8
280
     0
  0
ATTDEF
  5
7D
330
6E
100
AcDbEntity
  8
AM_6
100
AcDbText
 10
6.649999999999999
 20
-2.093
 30
0.0
 40
0.5
  1
11/16
100
AcDbAttributeDefinition
  3

  2
H
 70
     8
280
     0
  0
ATTDEF
  5
7E
330
6E
100
AcDbEntity
  8
AM_6
100
AcDbText
 10
6.649999999999999
 20
-2.593
 30
0.0
 40
0.5
  1
2-3/4
100
AcDbAttributeDefinition
  3

  2
L
 70
     8
280
     0
  0
ATTDEF
  5
7F
330
6E
100
AcDbEntity
  8
AM_6
100
AcDbText
 10
6.649999999999999
 20
-3.093
 30
0.0
 40
0.5
  1
2-7/8
100
AcDbAttributeDefinition
  3

  2
N
 70
     8
280
     0
  0
ATTDEF
  5
80
330
6E
100
AcDbEntity
  8
AM_6
100
AcDbText
 10
6.649999999999999
 20
-3.593
 30
0.0
 40
0.5
  1
3-5/8
100
AcDbAttributeDefinition
  3

  2
P
 70
     8
280
     0
  0
ATTDEF
  5
81
330
6E
100
AcDbEntity
  8
AM_6
100
AcDbText
 10
6.649999999999999
 20
-4.093
 30
0.0
 40
0.5
  1
3.844
100
AcDbAttributeDefinition
  3

  2
S
 70
     8
280
     0
  0
ATTDEF
  5
82
330
6E
100
AcDbEntity
  8
AM_6
100
AcDbText
 10
6.649999999999999
 20
-4.593
 30
0.0
 40
0.5
  1
baldor
100
AcDbAttributeDefinition
  3

  2
COMPANY
 70
     8
280
     0
  0
INSERT
  5
84
330
6E
100
AcDbEntity
  8
0
100
AcDbBlockReference
  2
2_1_7_16C_1_0_in_023481_2
 10
0.0
 20
0.0
 30
0.0
  0
INSERT
  5
C0
330
6E
100
AcDbEntity
  8
0
100
AcDbBlockReference
  2
3_1_7_16C_2_0_in_023481_2
 10
0.0
 20
0.0
 30
0.0
  0
INSERT
  5
F7
330
6E
100
AcDbEntity
  8
0
100
AcDbBlockReference
  2
4_405015E_Inch_0_in_023481_2
 10
0.0
 20
0.0
 30
0.0
  0
INSERT
  5
135
330
6E
100
AcDbEntity
  8
0
100
AcDbBlockReference
  2
5_023481_Insert_0_in_023481_2
 10
0.0
 20
0.0
 30
0.0
  0
ENDBLK
  5
71
330
6E
100
AcDbEntity
  8
0
100
AcDbBlockEnd
  0
BLOCK
  5
85
330
83
100
AcDbEntity
  8
0
100
AcDbBlockBegin
  2
2_1_7_16C_1_0_in_023481_2
 70
     2
 10
0.0
 20
0.0
 30
0.0
  3
2_1_7_16C_1_0_in_023481_2
  1

  0
ATTDEF
  5
87
330
83
100
AcDbEntity
  8
AM_6
100
AcDbText
 10
6.5
 20
1.375000000000002
 30
0.0
 40
0.5
  1
E-Type Collar -Inch
100
AcDbAttributeDefinition
  3

  2
NN
 70
     8
280
     0
  0
ATTDEF
  5
88
330
83
100
AcDbEntity
  8
AM_6
100
AcDbText
 10
6.5
 20
0.8750000000000016
 30
0.0
 40
0.5
  1
E-Type Bearings
100
AcDbAttributeDefinition
  3

  2
NT
 70
     8
280
     0
  0
ATTDEF
  5
89
330
83
100
AcDbEntity
  8
AM_6
100
AcDbText
 10
6.5
 20
0.3750000000000016
 30
0.0
 40
0.5
  1
1-7/16C
100
AcDbAttributeDefinition
  3

  2
NB
 70
     8
280
     0
  0
ATTDEF
  5
8A
330
83
100
AcDbEntity
  8
AM_6
100
AcDbText
 10
6.5
 20
-0.1249999999999984
 30
0.0
 40
0.5
  1
$BORE.C
100
AcDbAttributeDefinition
  3

  2
NBSYN
 70
     8
280
     0
  0
ATTDEF
  5
8B
330
83
100
AcDbEntity
  8
AM_6
100
AcDbText
 10
6.5
 20
-0.6249999999999984
 30
0.0
 40
0.5
  1
1-7/16C
100
AcDbAttributeDefinition
  3

  2
LINA
 70
     8
280
     0
  0
ATTDEF
  5
8C
330
83
100
AcDbEntity
  8
AM_6
100
AcDbText
 10
6.5
 20
-1.124999999999998
 30
0.0
 40
0.5
  1
1-7/16
100
AcDbAttributeDefinition
  3

  2
BORE
 70
     8
280
     0
  0
ATTDEF
  5
8D
330
83
100
AcDbEntity
  8
AM_6
100
AcDbText
 10
6.5
 20
-1.624999999999998
 30
0.0
 40
0.5
  1
2.75000
100
AcDbAttributeDefinition
  3

  2
L
 70
     8
280
     0
  0
ATTDEF
  5
8E
330
83
100
AcDbEntity
  8
AM_6
100
AcDbText
 10
6.5
 20
-2.124999999999998
 30
0.0
 40
0.5
  1
3.00
100
AcDbAttributeDefinition
  3

  2
A
 70
     8
280
     0
  0
ATTDEF
  5
8F
330
83
100
AcDbEntity
  8
AM_6
100
AcDbText
 10
6.5
 20
-2.624999999999998
 30
0.0
 40
0.5
  1
1.25
100
AcDbAttributeDefinition
  3

  2
B
 70
     8
280
     0
  0
ATTDEF
  5
90
330
83
100
AcDbEntity
  8
AM_6
100
AcDbText
 10
6.5
 20
-3.124999999999998
 30
0.0
 40
0.5
  1
1.75
100
AcDbAttributeDefinition
  3

  2
C
 70
     8
280
     0
  0
ATTDEF
  5
91
330
83
100
AcDbEntity
  8
AM_6
100
AcDbText
 10
6.5
 20
-3.624999999999998
 30
0.0
 40
0.5
  1
2.81
100
AcDbAttributeDefinition
  3

  2
D
 70
     8
280
     0
  0
ATTDEF
  5
92
330
83
100
AcDbEntity
  8
AM_6
100
AcDbText
 10
6.5
 20
-4.124999999999998
 30
0.0
 40
0.5
  1
0.35
100
AcDbAttributeDefinition
  3

  2
E
 70
     8
280
     0
  0
ATTDEF
  5
93
330
83
100
AcDbEntity
  8
AM_6
100
AcDbText
 10
6.5
 20
-4.624999999999998
 30
0.0
 40
0.5
  1
0.28
100
AcDbAttributeDefinition
  3

  2
F
 70
     8
280
     0
  0
ATTDEF
  5
94
330
83
100
AcDbEntity
  8
AM_6
100
AcDbText
 10
6.5
 20
-5.124999999999998
 30
0.0
 40
0.5
  1
5/16-18
100
AcDbAttributeDefinition
  3

  2
CS
 70
     8
280
     0
  0
ATTDEF
  5
95
330
83
100
AcDbEntity
  8
AM_6
100
AcDbText
 10
6.5
 20
-5.624999999999998
 30
0.0
 40
0.5
  1
0.3125
100
AcDbAttributeDefinition
  3

  2
NDM
 70
     8
280
     0
  0
ATTDEF
  5
96
330
83
100
AcDbEntity
  8
AM_6
100
AcDbText
 10
6.5
 20
-6.124999999999998
 30
0.0
 40
0.5
  1
0.2520
100
AcDbAttributeDefinition
  3

  2
KDM
 70
     8
280
     0
  0
ATTDEF
  5
97
330
83
100
AcDbEntity
  8
AM_6
100
AcDbText
 10
6.5
 20
-6.624999999999998
 30
0.0
 40
0.5
  1
baldor
100
AcDbAttributeDefinition
  3

  2
COMPANY
 70
     8
280
     0
  0
LINE
  5
9A
330
83
100
AcDbEntity
  8
AM_9
100
AcDbLine
 10
1.0938
 20
0.8842166666666665
 30
0.0
 11
1.084757810974871
 21
0.8751744776415373
 31
0.0
  0
LINE
  5
9B
330
83
100
AcDbEntity
  8
AM_9
100
AcDbLine
 10
1.355203804909517
 20
0.8752128617571496
 30
0.0
 11
1.3462
 21
0.8842166666666665
 31
0.0
  0
LINE
  5
9C
330
83
100
AcDbEntity
  8
AM_9
100
AcDbLine
 10
1.3462
 20
1.34495
 30
0.0
 11
1.375980019206374
 21
1.374730019206374
 31
0.0
  0
LINE
  5
9D
330
83
100
AcDbEntity
  8
AM_9
100
AcDbLine
 10
1.063808441042552
 20
1.374941558957448
 30
0.0
 11
1.0938
 21
1.34495
 31
0.0
  0
LINE
  5
9E
330
83
100
AcDbEntity
  8
AM_9
100
AcDbLine
 10
1.0938
 20
1.34495
 30
0.0
 11
1.3462
 21
1.34495
 31
0.0
  0
LINE
  5
9F
330
83
100
AcDbEntity
  8
AM_9
100
AcDbLine
 10
1.0938
 20
0.8842166666666665
 30
0.0
 11
1.3462
 21
0.8842166666666665
 31
0.0
  0
LINE
  5
A0
330
83
100
AcDbEntity
  8
AM_9
100
AcDbLine
 10
1.3462
 20
0.8842166666666665
 30
0.0
 11
1.3462
 21
1.34495
 31
0.0
  0
LINE
  5
A1
330
83
100
AcDbEntity
  8
AM_9
100
AcDbLine
 10
1.0938
 20
1.34495
 30
0.0
 11
1.0938
 21
0.8842166666666665
 31
0.0
  0
LWPOLYLINE
  5
A2
330
83
100
AcDbEntity
  8
AM_9
100
AcDbPolyline
 90
       39
 70
     0
 43
0.0
 10
1.122199687246963
 20
0.2747145440319531
 10
1.136903453457435
 20
0.2607607566554306
 10
1.154010762066324
 20
0.2487324497754508
 10
1.174741122769116
 20
0.2386926454617363
 10
1.197824940871669
 20
0.2322754671952262
 10
1.218872494582667
 20
0.2303059480506105
 10
1.240627562570657
 20
0.2320080854110873
 10
1.260135469779944
 20
0.2368622371537444
 10
1.279072789775271
 20
0.244884893223878
 10
1.296645391169684
 20
0.2557661598913618
 10
1.31265165690055
 20
0.2693681490071377
 10
1.327156354930328
 20
0.286050659902882
 10
1.339078944654755
 20
0.3049626335838871
 10
1.348251134502975
 20
0.3263799779113433
 10
1.353819628058776
 20
0.3492243555975878
 10
1.355383606156809
 20
0.3727380441837349
 10
1.352636230202916
 20
0.3964956204328836
 10
1.34568101656021
 20
0.4187980733734886
 10
1.334248970900008
 20
0.4400387287478132
 10
1.319482484702337
 20
0.4581343333386061
 10
1.300615093504594
 20
0.4739739571113885
 10
1.280587174492274
 20
0.4854030799684177
 10
1.257574299387511
 20
0.4937189160108419
 10
1.23623856407008
 20
0.4977207037882675
 10
1.213634206282981
 20
0.4984827847741464
 10
1.193538202169756
 20
0.4962154740882956
 10
1.173625633874727
 20
0.4910676781511977
 10
1.155323700304483
 20
0.483425205632184
 10
1.138253679073796
 20
0.4731842906274262
 10
1.122485701466208
 20
0.4600929337533901
 10
1.108941602637135
 20
0.4445712393548856
 10
1.097645431565555
 20
0.4260789347061782
 10
1.089617548557427
 20
0.4054812205096114
 10
1.085250973049289
 20
0.3829795894855879
 10
1.085009812554479
 20
0.3591714096025951
 10
1.089038595395006
 20
0.3354805315078563
 10
1.097548016760655
 20
0.3117833819193345
 10
1.108213516089834
 20
0.2926520154714865
 10
1.122199687246963
 20
0.2747145440319531
  0
LINE
  5
A3
330
83
100
AcDbEntity
  8
AM_9
100
AcDbLine
 10
1.5
 20
0.8750000000000001
 30
0.0
 11
1.354893748142507
 21
0.8750000000000001
 31
0.0
  0
LINE
  5
A4
330
83
100
AcDbEntity
  8
AM_9
100
AcDbLine
 10
1.085013227441156
 20
0.8750000000000001
 30
0.0
 11
0.94
 21
0.8750000000000001
 31
0.0
  0
LINE
  5
A5
330
83
100
AcDbEntity
  8
AM_9
100
AcDbLine
 10
0.94
 20
-0.8750000000000001
 30
0.0
 11
1.5
 21
-0.8750000000000001
 31
0.0
  0
LWPOLYLINE
  5
A6
330
83
100
AcDbEntity
  8
AM_9
100
AcDbPolyline
 90
       21
 70
     0
 43
0.0
 10
1.084583333334289
 20
0.874999999999825
 10
1.084747776894818
 20
0.874967019100782
 10
1.08802554884785
 20
0.8743772212545815
 10
1.095672747625656
 20
0.8730452831029573
 10
1.107474314973258
 20
0.871142828599801
 10
1.122967780635393
 20
0.8689181357518555
 10
1.141928028831849
 20
0.8666286651792269
 10
1.1625560753687
 20
0.864694120181169
 10
1.185275560392111
 20
0.8632305858311305
 10
1.206948264240496
 20
0.8625124143567571
 10
1.229044684241965
 20
0.8624448699404865
 10
1.249307696735587
 20
0.8629919289233302
 10
1.268764666059565
 20
0.8640481809791959
 10
1.28714812826148
 20
0.8655313111879467
 10
1.303819681444548
 20
0.8672717385944676
 10
1.319539183502123
 20
0.8692564618318042
 10
1.332636951173203
 20
0.8711599439533071
 10
1.343671908509527
 20
0.8729354371593387
 10
1.351156367690985
 20
0.8742314170604928
 10
1.35502773251204
 20
0.8749261235566107
 10
1.355416666666533
 20
0.8749999999999755
  0
ELLIPSE
  5
A7
330
83
100
AcDbEntity
  8
AM_9
100
AcDbEllipse
 10
1.22
 20
0.3736861106688219
 30
0.0
 11
0.1261999999999999
 21
0.0
 31
0.0
210
0.0
220
0.0
230
1.0
 40
0.9063077870366506
 41
2.123320634400395
 42
3.141592653589793
  0
ELLIPSE
  5
A8
330
83
100
AcDbEntity
  8
AM_9
100
AcDbEllipse
 10
1.22
 20
0.3736861106688217
 30
0.0
 11
0.1262000000000005
 21
0.0
 31
0.0
210
0.0
220
0.0
230
1.0
 40
0.9063077870366498
 41
0.0
 42
1.018272019189393
  0
LINE
  5
A9
330
83
100
AcDbEntity
  8
AM_9
100
AcDbLine
 10
1.3462
 20
0.373686110668822
 30
0.0
 11
1.3462
 21
0.5684004311281536
 31
0.0
  0
LINE
  5
AA
330
83
100
AcDbEntity
  8
AM_9
100
AcDbLine
 10
1.0938
 20
0.5684004311281536
 30
0.0
 11
1.0938
 21
0.373686110668822
 31
0.0
  0
ELLIPSE
  5
AB
330
83
100
AcDbEntity
  8
AM_9
100
AcDbEllipse
 10
1.22
 20
0.3736861106688222
 30
0.0
 11
0.1262000000000003
 21
0.0
 31
0.0
210
0.0
220
0.0
230
1.0
 40
0.90630778703665
 41
3.141592653589793
 42
6.283185307179586
  0
LINE
  5
AC
330
83
100
AcDbEntity
  8
AM_9
100
AcDbLine
 10
0.94
 20
-1.375
 30
0.0
 11
0.94
 21
1.375
 31
0.0
  0
LINE
  5
AD
330
83
100
AcDbEntity
  8
AM_9
100
AcDbLine
 10
1.03125
 20
1.375
 30
0.0
 11
0.94
 21
1.375
 31
0.0
  0
LINE
  5
AE
330
83
100
AcDbEntity
  8
AM_9
100
AcDbLine
 10
0.94
 20
-1.375
 30
0.0
 11
1.03125
 21
-1.375
 31
0.0
  0
LINE
  5
AF
330
83
100
AcDbEntity
  8
AM_9
100
AcDbLine
 10
1.063750000000031
 20
1.374999999999997
 30
0.0
 11
1.075128747741011
 21
1.373880362466833
 31
0.0
  0
LINE
  5
B1
330
83
100
AcDbEntity
  8
AM_5
100
AcDbLine
 10
1.37625
 20
1.375
 30
0.0
 11
1.37625
 21
0.8750000000000001
 31
0.0
  0
LINE
  5
B2
330
83
100
AcDbEntity
  8
AM_5
100
AcDbLine
 10
1.06375
 20
1.375
 30
0.0
 11
1.06375
 21
0.8750000000000001
 31
0.0
  0
ELLIPSE
  5
B4
330
83
100
AcDbEntity
  8
AM_4
100
AcDbEllipse
 10
1.22
 20
0.3736861106688222
 30
0.0
 11
0.1262000000000001
 21
0.0
 31
0.0
210
0.0
220
0.0
230
1.0
 40
0.9063077870366473
 41
1.018272019189395
 42
2.123320634400396
  0
LINE
  5
B5
330
83
100
AcDbEntity
  8
AM_4
100
AcDbLine
 10
1.5
 20
-1.281666666666667
 30
0.0
 11
1.5
 21
1.281666666666667
 31
0.0
  0
ARC
  5
B6
330
83
100
AcDbEntity
  8
AM_4
100
AcDbCircle
 10
1.406666666666667
 20
1.281666666666667
 30
0.0
 40
0.0933333333333326
100
AcDbArc
 50
0.0
 51
90.0
  0
ARC
  5
B7
330
83
100
AcDbEntity
  8
AM_4
100
AcDbCircle
 10
1.406666666666667
 20
-1.281666666666667
 30
0.0
 40
0.0933333333333326
100
AcDbArc
 50
270.0
 51
0.0
  0
LINE
  5
B8
330
83
100
AcDbEntity
  8
AM_4
100
AcDbLine
 10
1.406666666666667
 20
-1.375
 30
0.0
 11
1.406666666666667
 21
1.375
 31
0.0
  0
LWPOLYLINE
  5
B9
330
83
100
AcDbEntity
  8
AM_4
100
AcDbPolyline
 90
       39
 70
     0
 43
0.0
 10
1.112369548543375
 20
0.4819878296448133
 10
1.096952072533292
 20
0.4970786552187829
 10
1.083831467733721
 20
0.5144585755551428
 10
1.072995335326383
 20
0.5352323226483987
 10
1.066065099648466
 20
0.5579858413371785
 10
1.06376068715988
 20
0.5795301797649122
 10
1.065597017410984
 20
0.6015935131678287
 10
1.071216166181804
 20
0.6217752706182446
 10
1.080715018465871
 20
0.6412334048467847
 10
1.093527552812434
 20
0.6587681405069321
 10
1.109772359402606
 20
0.6745670468943582
 10
1.129080069890754
 20
0.6880814407893351
 10
1.151189956010213
 20
0.698963973377151
 10
1.175586064860428
 20
0.7067818229938475
 10
1.20183085489531
 20
0.7111933715313264
 10
1.228693878067912
 20
0.7118627757889933
 10
1.256070477788024
 20
0.7086052098246597
 10
1.281899686892216
 20
0.7015800248943808
 10
1.306671708626957
 20
0.6905029202383631
 10
1.327857641863691
 20
0.6764823708258964
 10
1.346452413466206
 20
0.6587911775171128
 10
1.360140110260821
 20
0.6397986680814234
 10
1.370105318328365
 20
0.6181055696510265
 10
1.37515370501682
 20
0.5969215224406882
 10
1.376055976317155
 20
0.5744064190278183
 10
1.372909448482094
 20
0.5533565121861717
 10
1.365770038325583
 20
0.5323385966026003
 10
1.35521954138692
 20
0.5129940101900733
 10
1.341076817463883
 20
0.4948904857637593
 10
1.323768325770395
 20
0.4788212498004947
 10
1.303425553454251
 20
0.4651251306482019
 10
1.28044959848318
 20
0.454358194045995
 10
1.255273445151328
 20
0.4470151995712972
 10
1.228853226457306
 20
0.4435930144984955
 10
1.201450691527511
 20
0.4443660032169821
 10
1.174881513992516
 20
0.4493850417902387
 10
1.148850473075974
 20
0.4588367556516714
 10
1.129923635702543
 20
0.4691095008931135
 10
1.112369548476993
 20
0.4819878294122441
  0
LINE
  5
BA
330
83
100
AcDbEntity
  8
AM_4
100
AcDbLine
 10
1.406666666666667
 20
1.375
 30
0.0
 11
1.375760321630057
 21
1.375
 31
0.0
  0
LINE
  5
BB
330
83
100
AcDbEntity
  8
AM_4
100
AcDbLine
 10
1.06385517927249
 20
1.375
 30
0.0
 11
1.03125
 21
1.375
 31
0.0
  0
LINE
  5
BC
330
83
100
AcDbEntity
  8
AM_4
100
AcDbLine
 10
1.03125
 20
-1.375
 30
0.0
 11
1.406666666666667
 21
-1.375
 31
0.0
  0
LWPOLYLINE
  5
BD
330
83
100
AcDbEntity
  8
AM_4
100
AcDbPolyline
 90
       21
 70
     0
 43
0.0
 10
1.376250000000015
 20
1.375000000000002
 10
1.375484183905685
 20
1.374920805569285
 10
1.371045463425595
 20
1.374477591412241
 10
1.36283964844079
 20
1.373688718177656
 10
1.351179009021861
 20
1.372643350961167
 10
1.335905414122079
 20
1.371406866887767
 10
1.317830469953243
 20
1.370137781555878
 10
1.296332813732761
 20
1.368908308110841
 10
1.272905290297762
 20
1.367909174738189
 10
1.246986690689378
 20
1.367229475410096
 10
1.22034413607417
 20
1.366986159229996
 10
1.193028976858676
 20
1.367229515541707
 10
1.166473971776393
 20
1.367930948644328
 10
1.141438636526269
 20
1.369022476614536
 10
1.118696022862792
 20
1.370365050701655
 10
1.099469110817792
 20
1.371765621647999
 10
1.083802433908226
 20
1.373082730666425
 10
1.072809153749846
 20
1.374100916523016
 10
1.066012224683069
 20
1.374770797511672
 10
1.063771399685511
 20
1.37499646359676
 10
1.063750000000031
 20
1.374999999999997
  0
ELLIPSE
  5
BE
330
83
100
AcDbEntity
  8
AM_4
100
AcDbEllipse
 10
1.22
 20
0.5684004311281536
 30
0.0
 11
0.1261999999999999
 21
0.0
 31
0.0
210
0.0
220
0.0
230
1.0
 40
0.906307787036651
 41
0.0
 42
6.283185307179586
  0
ENDBLK
  5
86
330
83
100
AcDbEntity
  8
0
100
AcDbBlockEnd
  0
BLOCK
  5
C1
330
BF
100
AcDbEntity
  8
0
100
AcDbBlockBegin
  2
3_1_7_16C_2_0_in_023481_2
 70
     2
 10
0.0
 20
0.0
 30
0.0
  3
3_1_7_16C_2_0_in_023481_2
  1

  0
ATTDEF
  5
C3
330
BF
100
AcDbEntity
  8
AM_6
100
AcDbText
 10
4.06
 20
1.375
 30
0.0
 40
0.5
  1
E-Type Collar -Inch
100
AcDbAttributeDefinition
  3

  2
NN
 70
     8
280
     0
  0
ATTDEF
  5
C4
330
BF
100
AcDbEntity
  8
AM_6
100
AcDbText
 10
4.06
 20
0.875
 30
0.0
 40
0.5
  1
E-Type Bearings
100
AcDbAttributeDefinition
  3

  2
NT
 70
     8
280
     0
  0
ATTDEF
  5
C5
330
BF
100
AcDbEntity
  8
AM_6
100
AcDbText
 10
4.06
 20
0.375
 30
0.0
 40
0.5
  1
1-7/16C
100
AcDbAttributeDefinition
  3

  2
NB
 70
     8
280
     0
  0
ATTDEF
  5
C6
330
BF
100
AcDbEntity
  8
AM_6
100
AcDbText
 10
4.06
 20
-0.125
 30
0.0
 40
0.5
  1
$BORE.C
100
AcDbAttributeDefinition
  3

  2
NBSYN
 70
     8
280
     0
  0
ATTDEF
  5
C7
330
BF
100
AcDbEntity
  8
AM_6
100
AcDbText
 10
4.06
 20
-0.625
 30
0.0
 40
0.5
  1
1-7/16C
100
AcDbAttributeDefinition
  3

  2
LINA
 70
     8
280
     0
  0
ATTDEF
  5
C8
330
BF
100
AcDbEntity
  8
AM_6
100
AcDbText
 10
4.06
 20
-1.125
 30
0.0
 40
0.5
  1
1-7/16
100
AcDbAttributeDefinition
  3

  2
BORE
 70
     8
280
     0
  0
ATTDEF
  5
C9
330
BF
100
AcDbEntity
  8
AM_6
100
AcDbText
 10
4.06
 20
-1.625
 30
0.0
 40
0.5
  1
2.75000
100
AcDbAttributeDefinition
  3

  2
L
 70
     8
280
     0
  0
ATTDEF
  5
CA
330
BF
100
AcDbEntity
  8
AM_6
100
AcDbText
 10
4.06
 20
-2.125
 30
0.0
 40
0.5
  1
3.00
100
AcDbAttributeDefinition
  3

  2
A
 70
     8
280
     0
  0
ATTDEF
  5
CB
330
BF
100
AcDbEntity
  8
AM_6
100
AcDbText
 10
4.06
 20
-2.625
 30
0.0
 40
0.5
  1
1.25
100
AcDbAttributeDefinition
  3

  2
B
 70
     8
280
     0
  0
ATTDEF
  5
CC
330
BF
100
AcDbEntity
  8
AM_6
100
AcDbText
 10
4.06
 20
-3.125
 30
0.0
 40
0.5
  1
1.75
100
AcDbAttributeDefinition
  3

  2
C
 70
     8
280
     0
  0
ATTDEF
  5
CD
330
BF
100
AcDbEntity
  8
AM_6
100
AcDbText
 10
4.06
 20
-3.625
 30
0.0
 40
0.5
  1
2.81
100
AcDbAttributeDefinition
  3

  2
D
 70
     8
280
     0
  0
ATTDEF
  5
CE
330
BF
100
AcDbEntity
  8
AM_6
100
AcDbText
 10
4.06
 20
-4.125
 30
0.0
 40
0.5
  1
0.35
100
AcDbAttributeDefinition
  3

  2
E
 70
     8
280
     0
  0
ATTDEF
  5
CF
330
BF
100
AcDbEntity
  8
AM_6
100
AcDbText
 10
4.06
 20
-4.625
 30
0.0
 40
0.5
  1
0.28
100
AcDbAttributeDefinition
  3

  2
F
 70
     8
280
     0
  0
ATTDEF
  5
D0
330
BF
100
AcDbEntity
  8
AM_6
100
AcDbText
 10
4.06
 20
-5.125
 30
0.0
 40
0.5
  1
5/16-18
100
AcDbAttributeDefinition
  3

  2
CS
 70
     8
280
     0
  0
ATTDEF
  5
D1
330
BF
100
AcDbEntity
  8
AM_6
100
AcDbText
 10
4.06
 20
-5.625
 30
0.0
 40
0.5
  1
0.3125
100
AcDbAttributeDefinition
  3

  2
NDM
 70
     8
280
     0
  0
ATTDEF
  5
D2
330
BF
100
AcDbEntity
  8
AM_6
100
AcDbText
 10
4.06
 20
-6.125
 30
0.0
 40
0.5
  1
0.2520
100
AcDbAttributeDefinition
  3

  2
KDM
 70
     8
280
     0
  0
ATTDEF
  5
D3
330
BF
100
AcDbEntity
  8
AM_6
100
AcDbText
 10
4.06
 20
-6.625
 30
0.0
 40
0.5
  1
baldor
100
AcDbAttributeDefinition
  3

  2
COMPANY
 70
     8
280
     0
  0
LINE
  5
D4
330
BF
100
AcDbEntity
  8
AM_9
100
AcDbLine
 10
-1.0938
 20
0.8842166666666665
 30
0.0
 11
-1.0938
 21
1.34495
 31
0.0
  0
LINE
  5
D5
330
BF
100
AcDbEntity
  8
AM_9
100
AcDbLine
 10
-1.3462
 20
1.34495
 30
0.0
 11
-1.3462
 21
0.8842166666666665
 31
0.0
  0
LINE
  5
D6
330
BF
100
AcDbEntity
  8
AM_9
100
AcDbLine
 10
-1.3462
 20
1.34495
 30
0.0
 11
-1.0938
 21
1.34495
 31
0.0
  0
LINE
  5
D7
330
BF
100
AcDbEntity
  8
AM_9
100
AcDbLine
 10
-1.0938
 20
1.34495
 30
0.0
 11
-1.06375
 21
1.375
 31
0.0
  0
LINE
  5
D8
330
BF
100
AcDbEntity
  8
AM_9
100
AcDbLine
 10
-1.37625
 20
1.375
 30
0.0
 11
-1.3462
 21
1.34495
 31
0.0
  0
LINE
  5
D9
330
BF
100
AcDbEntity
  8
AM_9
100
AcDbLine
 10
-1.3462
 20
0.8842166666666665
 30
0.0
 11
-1.0938
 21
0.8842166666666665
 31
0.0
  0
LINE
  5
DA
330
BF
100
AcDbEntity
  8
AM_9
100
AcDbLine
 10
-1.3462
 20
0.8842166666666665
 30
0.0
 11
-1.355322756135511
 21
0.875093910531155
 31
0.0
  0
LINE
  5
DB
330
BF
100
AcDbEntity
  8
AM_9
100
AcDbLine
 10
-1.084801376692717
 20
0.8752180433593841
 30
0.0
 11
-1.0938
 21
0.8842166666666665
 31
0.0
  0
LWPOLYLINE
  5
DC
330
BF
100
AcDbEntity
  8
AM_9
100
AcDbPolyline
 90
       38
 70
     0
 43
0.0
 10
-1.122512944615278
 20
0.2743731080557923
 10
-1.10987067025447
 20
0.2902087235174336
 10
-1.099652100472578
 20
0.3074241341673336
 10
-1.090777076816615
 20
0.3294306542079486
 10
-1.085749860806129
 20
0.3522153566566878
 10
-1.084747776894818
 20
0.3760788117394522
 10
-1.08802554884785
 20
0.3994424596119345
 10
-1.095672747625656
 20
0.4218773501572947
 10
-1.107474314973258
 20
0.4425398213078174
 10
-1.122967780635393
 20
0.4605376263200328
 10
-1.141928028831849
 20
0.4756867412286193
 10
-1.1625560753687
 20
0.4867933339497444
 10
-1.185275560392111
 20
0.4944473998520165
 10
-1.206948264240496
 20
0.4980243739354936
 10
-1.229044684241965
 20
0.4983421825221666
 10
-1.249307696735587
 20
0.4956521935770825
 10
-1.268764666059565
 20
0.4902387315737626
 10
-1.28714812826148
 20
0.4821376512726612
 10
-1.303819681444548
 20
0.4716906817304888
 10
-1.319539183502123
 20
0.4580642858508739
 10
-1.332636951173203
 20
0.4423822146551874
 10
-1.343671908509527
 20
0.4233165305818403
 10
-1.351156367690985
 20
0.4026972617325465
 10
-1.35502773251204
 20
0.3797008329426652
 10
-1.354710188987229
 20
0.3561175715320604
 10
-1.350024083668005
 20
0.3321188293758287
 10
-1.341078315598573
 20
0.3088956051556672
 10
-1.328085227015781
 20
0.2873380055979072
 10
-1.311318304145893
 20
0.2680703259489686
 10
-1.292014725291367
 20
0.2525574880576902
 10
-1.270072510545152
 20
0.2406364257056886
 10
-1.248338942753326
 20
0.2335605630787611
 10
-1.225634877090701
 20
0.2304276571482665
 10
-1.204782158177671
 20
0.2312439789963953
 10
-1.18437027990892
 20
0.2354488955541852
 10
-1.165307411503916
 20
0.2427260654064994
 10
-1.147656115607665
 20
0.2527551944583884
 10
-1.122512944615278
 20
0.2743731080557923
  0
LINE
  5
DD
330
BF
100
AcDbEntity
  8
AM_9
100
AcDbLine
 10
-1.5
 20
-0.875
 30
0.0
 11
-0.94
 21
-0.875
 31
0.0
  0
LINE
  5
DE
330
BF
100
AcDbEntity
  8
AM_9
100
AcDbLine
 10
-0.94
 20
0.875
 30
0.0
 11
-1.085116962535728
 21
0.875
 31
0.0
  0
LINE
  5
DF
330
BF
100
AcDbEntity
  8
AM_9
100
AcDbLine
 10
-1.35518643514101
 20
0.875
 30
0.0
 11
-1.5
 21
0.875
 31
0.0
  0
LWPOLYLINE
  5
E0
330
BF
100
AcDbEntity
  8
AM_9
100
AcDbPolyline
 90
       21
 70
     0
 43
0.0
 10
-1.355416666665996
 20
0.8749999999998772
 10
-1.355383606156809
 20
0.874993947356603
 10
-1.352636230202916
 20
0.8744957887278755
 10
-1.34568101656021
 20
0.8732774829402508
 10
-1.334248970900008
 20
0.871409717282672
 10
-1.319482484702337
 20
0.8692487463534139
 10
-1.300615093504594
 20
0.866907706543922
 10
-1.280587174492273
 20
0.8649477428884087
 10
-1.257574299387511
 20
0.8633744315584261
 10
-1.23623856407008
 20
0.8625721331397554
 10
-1.213634206282981
 20
0.8624159782618529
 10
-1.193538202169756
 20
0.8628773888899468
 10
-1.173625633874727
 20
0.8638897112264655
 10
-1.155323700304483
 20
0.8653035315819461
 10
-1.138253679073796
 20
0.8670346320224149
 10
-1.122485701466208
 20
0.8689823829023265
 10
-1.108941602637135
 20
0.8709186336298379
 10
-1.097645431565555
 20
0.8727166463535222
 10
-1.089617548557427
 20
0.8740942665872906
 10
-1.085250973049289
 20
0.8748780373430578
 10
-1.084583333333417
 20
0.8749999999999847
  0
ELLIPSE
  5
E1
330
BF
100
AcDbEntity
  8
AM_9
100
AcDbEllipse
 10
-1.219999999999999
 20
0.3736861106688217
 30
0.0
 11
0.1262000000000008
 21
0.0
 31
0.0
210
0.0
220
0.0
230
1.0
 40
0.90630778703665
 41
2.123320634400397
 42
6.283185307179586
  0
LINE
  5
E2
330
BF
100
AcDbEntity
  8
AM_9
100
AcDbLine
 10
-1.0938
 20
0.3736861106688221
 30
0.0
 11
-1.0938
 21
0.5684004311281539
 31
0.0
  0
LINE
  5
E3
330
BF
100
AcDbEntity
  8
AM_9
100
AcDbLine
 10
-1.3462
 20
0.5684004311281539
 30
0.0
 11
-1.3462
 21
0.3736861106688221
 31
0.0
  0
ELLIPSE
  5
E4
330
BF
100
AcDbEntity
  8
AM_9
100
AcDbEllipse
 10
-1.220000000000001
 20
0.3736861106688217
 30
0.0
 11
0.126200000000001
 21
0.0
 31
0.0
210
0.0
220
0.0
230
1.0
 40
0.9063077870366496
 41
0.0
 42
1.018272019189395
  0
LINE
  5
E5
330
BF
100
AcDbEntity
  8
AM_9
100
AcDbLine
 10
-1.031250000000001
 20
-1.375
 30
0.0
 11
-0.94
 21
-1.375
 31
0.0
  0
LINE
  5
E6
330
BF
100
AcDbEntity
  8
AM_9
100
AcDbLine
 10
-0.94
 20
1.375
 30
0.0
 11
-1.031250000000001
 21
1.375
 31
0.0
  0
LINE
  5
E7
330
BF
100
AcDbEntity
  8
AM_9
100
AcDbLine
 10
-0.94
 20
1.375
 30
0.0
 11
-0.94
 21
-1.375
 31
0.0
  0
LINE
  5
E8
330
BF
100
AcDbEntity
  8
AM_5
100
AcDbLine
 10
-1.37625
 20
1.375
 30
0.0
 11
-1.37625
 21
0.875
 31
0.0
  0
LINE
  5
E9
330
BF
100
AcDbEntity
  8
AM_5
100
AcDbLine
 10
-1.06375
 20
1.375
 30
0.0
 11
-1.06375
 21
0.875
 31
0.0
  0
ELLIPSE
  5
EA
330
BF
100
AcDbEntity
  8
AM_4
100
AcDbEllipse
 10
-1.22
 20
0.3736861106688238
 30
0.0
 11
0.1261999999999983
 21
0.0
 31
0.0
210
0.0
220
0.0
230
1.0
 40
0.9063077870366482
 41
1.570796326794897
 42
2.123320634400398
  0
ELLIPSE
  5
EB
330
BF
100
AcDbEntity
  8
AM_4
100
AcDbEllipse
 10
-1.22
 20
0.3736861106688192
 30
0.0
 11
0.1262000000000025
 21
0.0
 31
0.0
210
0.0
220
0.0
230
1.0
 40
0.9063077870366544
 41
1.018272019189408
 42
1.570796326794897
  0
LWPOLYLINE
  5
EC
330
BF
100
AcDbEntity
  8
AM_4
100
AcDbPolyline
 90
       38
 70
     0
 43
0.0
 10
-1.100737901136074
 20
0.4929518138866407
 10
-1.117052505794309
 20
0.478184995251073
 10
-1.135491892973774
 20
0.4657443238136156
 10
-1.158722070384836
 20
0.4546873869228014
 10
-1.183537976368723
 20
0.447268639744102
 10
-1.210286872408725
 20
0.443653416105651
 10
-1.237300946102108
 20
0.444235519677651
 10
-1.264289218204959
 20
0.4491771691350587
 10
-1.29001308628885
 20
0.4583188756761399
 10
-1.313524275971437
 20
0.4713722948970543
 10
-1.334285601758116
 20
0.487972805995754
 10
-1.351027611144431
 20
0.5069986731919219
 10
-1.363919759244189
 20
0.5283313706339569
 10
-1.372047697163316
 20
0.5500770922468966
 10
-1.37593847519573
 20
0.5726171305514657
 10
-1.375484183905685
 20
0.5941942099697561
 10
-1.371045463425595
 20
0.6152276866481442
 10
-1.36283964844079
 20
0.6349181422963716
 10
-1.351179009021861
 20
0.6530336655464631
 10
-1.335905414122079
 20
0.6696048932712816
 10
-1.317830469953243
 20
0.6837520792037503
 10
-1.296332813732761
 20
0.6957048429348078
 10
-1.272905290297762
 20
0.7044983750785049
 10
-1.246986690689378
 20
0.7101276702619833
 10
-1.22034413607417
 20
0.7120605378312687
 10
-1.193028976858676
 20
0.7101287623116718
 10
-1.166473971776393
 20
0.7043138673284388
 10
-1.141438636526269
 20
0.6946534904720006
 10
-1.118696022862792
 20
0.6813759789146264
 10
-1.099469110817792
 20
0.6651409607601427
 10
-1.083802433908226
 20
0.6460756392111471
 10
-1.072809153749846
 20
0.6257047151284929
 10
-1.066012224683069
 20
0.6037559805055568
 10
-1.063771399685511
 20
0.5820743868195628
 10
-1.065643797398974
 20
0.5601889914516516
 10
-1.071427047275454
 20
0.539266325583897
 10
-1.080850750539779
 20
0.5193474066282417
 10
-1.100737901081572
 20
0.4929518138060027
  0
LINE
  5
ED
330
BF
100
AcDbEntity
  8
AM_4
100
AcDbLine
 10
-1.406666666666667
 20
-1.375
 30
0.0
 11
-1.031250000000001
 21
-1.375
 31
0.0
  0
LINE
  5
EE
330
BF
100
AcDbEntity
  8
AM_4
100
AcDbLine
 10
-1.031250000000001
 20
1.375
 30
0.0
 11
-1.06375
 21
1.375
 31
0.0
  0
LINE
  5
EF
330
BF
100
AcDbEntity
  8
AM_4
100
AcDbLine
 10
-1.37625
 20
1.375
 30
0.0
 11
-1.406666666666667
 21
1.375
 31
0.0
  0
LWPOLYLINE
  5
F0
330
BF
100
AcDbEntity
  8
AM_4
100
AcDbPolyline
 90
       20
 70
     0
 43
0.0
 10
-1.063750000000042
 20
1.374999999999996
 10
-1.065597017410984
 20
1.374812619856244
 10
-1.071216166181804
 20
1.374255986806327
 10
-1.080715018465871
 20
1.373361100930823
 10
-1.093527552812433
 20
1.372246056813539
 10
-1.109772359402606
 20
1.370984923616305
 10
-1.129080069890754
 20
1.369709022795597
 10
-1.151189956010213
 20
1.36854693075873
 10
-1.175586064860428
 20
1.367636767592361
 10
-1.20183085489531
 20
1.367095046119883
 10
-1.228693878067912
 20
1.36701106113551
 10
-1.256070477788024
 20
1.367415334717704
 10
-1.281899686892216
 20
1.368249426366891
 10
-1.306671708626957
 20
1.369460917454835
 10
-1.327857641863691
 20
1.370815243767821
 10
-1.346452413466206
 20
1.37224439629973
 10
-1.360140110260821
 20
1.373439286972606
 10
-1.370105318328365
 20
1.374385073574348
 10
-1.37515370501682
 20
1.374888517493469
 10
-1.376249999999893
 20
1.374999999999989
  0
LINE
  5
F1
330
BF
100
AcDbEntity
  8
AM_4
100
AcDbLine
 10
-1.5
 20
1.281666666666667
 30
0.0
 11
-1.5
 21
-1.281666666666667
 31
0.0
  0
ARC
  5
F2
330
BF
100
AcDbEntity
  8
AM_4
100
AcDbCircle
 10
-1.406666666666667
 20
-1.281666666666667
 30
0.0
 40
0.0933333333333326
100
AcDbArc
 50
180.0
 51
270.0
  0
ARC
  5
F3
330
BF
100
AcDbEntity
  8
AM_4
100
AcDbCircle
 10
-1.406666666666667
 20
1.281666666666667
 30
0.0
 40
0.0933333333333326
100
AcDbArc
 50
90.0
 51
180.0
  0
LINE
  5
F4
330
BF
100
AcDbEntity
  8
AM_4
100
AcDbLine
 10
-1.406666666666667
 20
1.375
 30
0.0
 11
-1.406666666666667
 21
-1.375
 31
0.0
  0
ELLIPSE
  5
F5
330
BF
100
AcDbEntity
  8
AM_4
100
AcDbEllipse
 10
-1.22
 20
0.5684004311281537
 30
0.0
 11
0.1261999999999999
 21
0.0
 31
0.0
210
0.0
220
0.0
230
1.0
 40
0.9063077870366502
 41
0.0
 42
6.283185307179586
  0
ENDBLK
  5
C2
330
BF
100
AcDbEntity
  8
0
100
AcDbBlockEnd
  0
BLOCK
  5
F8
330
F6
100
AcDbEntity
  8
0
100
AcDbBlockBegin
  2
4_405015E_Inch_0_in_023481_2
 70
     2
 10
0.0
 20
0.0
 30
0.0
  3
4_405015E_Inch_0_in_023481_2
  1

  0
ATTDEF
  5
FA
330
F6
100
AcDbEntity
  8
AM_6
100
AcDbText
 10
5.252590742770462
 20
2.875
 30
0.0
 40
0.5
  1
405015E -Inch
100
AcDbAttributeDefinition
  3

  2
NN
 70
     8
280
     0
  0
ATTDEF
  5
FB
330
F6
100
AcDbEntity
  8
AM_6
100
AcDbText
 10
5.252590742770462
 20
2.375
 30
0.0
 40
0.5
  1
Grease Fitting
100
AcDbAttributeDefinition
  3

  2
NT
 70
     8
280
     0
  0
ATTDEF
  5
FC
330
F6
100
AcDbEntity
  8
AM_6
100
AcDbText
 10
5.252590742770462
 20
1.875
 30
0.0
 40
0.5
  1
405015E-Inch
100
AcDbAttributeDefinition
  3

  2
NB
 70
     8
280
     0
  0
ATTDEF
  5
FD
330
F6
100
AcDbEntity
  8
AM_6
100
AcDbText
 10
5.252590742770462
 20
1.375
 30
0.0
 40
0.5
  1
$MN.-Inch
100
AcDbAttributeDefinition
  3

  2
NBSYN
 70
     8
280
     0
  0
ATTDEF
  5
FE
330
F6
100
AcDbEntity
  8
AM_6
100
AcDbText
 10
5.252590742770462
 20
0.8750000000000004
 30
0.0
 40
0.5
  1
405015E
100
AcDbAttributeDefinition
  3

  2
LINA
 70
     8
280
     0
  0
ATTDEF
  5
FF
330
F6
100
AcDbEntity
  8
AM_6
100
AcDbText
 10
5.252590742770462
 20
0.3750000000000004
 30
0.0
 40
0.5
  1
405015E
100
AcDbAttributeDefinition
  3

  2
MN
 70
     8
280
     0
  0
ATTDEF
  5
100
330
F6
100
AcDbEntity
  8
AM_6
100
AcDbText
 10
5.252590742770462
 20
-0.1249999999999996
 30
0.0
 40
0.5
  1
1/8 x 27PTF
100
AcDbAttributeDefinition
  3

  2
T
 70
     8
280
     0
  0
ATTDEF
  5
101
330
F6
100
AcDbEntity
  8
AM_6
100
AcDbText
 10
5.252590742770462
 20
-0.6249999999999996
 30
0.0
 40
0.5
  1
baldor
100
AcDbAttributeDefinition
  3

  2
COMPANY
 70
     8
280
     0
  0
LINE
  5
102
330
F6
100
AcDbEntity
  8
AM_9
100
AcDbLine
 10
-0.161902872472269
 20
2.235
 30
0.0
 11
0.161902872472269
 21
2.235
 31
0.0
  0
LINE
  5
103
330
F6
100
AcDbEntity
  8
AM_9
100
AcDbLine
 10
0.161902872472269
 20
2.235
 30
0.0
 11
0.1986176267812154
 21
2.271714754308947
 31
0.0
  0
LINE
  5
104
330
F6
100
AcDbEntity
  8
AM_9
100
AcDbLine
 10
-0.1986176267812154
 20
2.271714754308947
 30
0.0
 11
-0.161902872472269
 21
2.235
 31
0.0
  0
LINE
  5
105
330
F6
100
AcDbEntity
  8
AM_9
100
AcDbLine
 10
-0.1986176267812154
 20
2.271714754308947
 30
0.0
 11
0.1986176267812154
 21
2.271714754308947
 31
0.0
  0
LINE
  5
106
330
F6
100
AcDbEntity
  8
AM_9
100
AcDbLine
 10
0.1986176267812154
 20
2.271714754308947
 30
0.0
 11
0.2057518972230696
 21
2.5
 31
0.0
  0
LINE
  5
107
330
F6
100
AcDbEntity
  8
AM_9
100
AcDbLine
 10
-0.2057518972230696
 20
2.5
 30
0.0
 11
-0.1986176267812154
 21
2.271714754308947
 31
0.0
  0
LINE
  5
108
330
F6
100
AcDbEntity
  8
AM_5
100
AcDbLine
 10
0.1681491248523479
 20
2.434870087748463
 30
0.0
 11
0.161902872472269
 21
2.235
 31
0.0
  0
LINE
  5
109
330
F6
100
AcDbEntity
  8
AM_5
100
AcDbLine
 10
0.2057518972230696
 20
2.5
 30
0.0
 11
0.1681491248523478
 21
2.434870087748463
 31
0.0
  0
LINE
  5
10A
330
F6
100
AcDbEntity
  8
AM_5
100
AcDbLine
 10
-0.2037164857515568
 20
2.434870087748463
 30
0.0
 11
0.2037164857515567
 21
2.434870087748463
 31
0.0
  0
LINE
  5
10B
330
F6
100
AcDbEntity
  8
AM_5
100
AcDbLine
 10
-0.1681491248523479
 20
2.434870087748463
 30
0.0
 11
-0.161902872472269
 21
2.235
 31
0.0
  0
LINE
  5
10C
330
F6
100
AcDbEntity
  8
AM_5
100
AcDbLine
 10
-0.2057518972230696
 20
2.5
 30
0.0
 11
-0.1681491248523478
 21
2.434870087748463
 31
0.0
  0
LINE
  5
10D
330
F6
100
AcDbEntity
  8
AM_4
100
AcDbLine
 10
0.105
 20
2.705
 30
0.0
 11
0.105
 21
2.735
 31
0.0
  0
LINE
  5
10E
330
F6
100
AcDbEntity
  8
AM_4
100
AcDbLine
 10
-0.105
 20
2.735
 30
0.0
 11
-0.105
 21
2.705
 31
0.0
  0
LINE
  5
10F
330
F6
100
AcDbEntity
  8
AM_4
100
AcDbLine
 10
-0.21875
 20
2.6
 30
0.0
 11
0.21875
 21
2.6
 31
0.0
  0
LINE
  5
110
330
F6
100
AcDbEntity
  8
AM_4
100
AcDbLine
 10
0.2525907427704612
 20
2.590932400303386
 30
0.0
 11
0.21875
 21
2.6
 31
0.0
  0
LINE
  5
111
330
F6
100
AcDbEntity
  8
AM_4
100
AcDbLine
 10
-0.21875
 20
2.6
 30
0.0
 11
-0.2525907427704612
 21
2.590932400303386
 31
0.0
  0
LINE
  5
112
330
F6
100
AcDbEntity
  8
AM_4
100
AcDbLine
 10
0.21875
 20
2.5
 30
0.0
 11
0.2525907427704612
 21
2.509067599696615
 31
0.0
  0
LINE
  5
113
330
F6
100
AcDbEntity
  8
AM_4
100
AcDbLine
 10
-0.2525907427704612
 20
2.509067599696615
 30
0.0
 11
-0.21875
 21
2.5
 31
0.0
  0
LINE
  5
114
330
F6
100
AcDbEntity
  8
AM_4
100
AcDbLine
 10
-0.105
 20
2.705
 30
0.0
 11
0.105
 21
2.705
 31
0.0
  0
LINE
  5
115
330
F6
100
AcDbEntity
  8
AM_4
100
AcDbLine
 10
-0.105
 20
2.705
 30
0.0
 11
-0.1188200907348975
 21
2.672753121618573
 31
0.0
  0
LINE
  5
116
330
F6
100
AcDbEntity
  8
AM_4
100
AcDbLine
 10
0.1188200907348975
 20
2.672753121618573
 30
0.0
 11
0.105
 21
2.705
 31
0.0
  0
LINE
  5
117
330
F6
100
AcDbEntity
  8
AM_4
100
AcDbLine
 10
-0.105
 20
2.735
 30
0.0
 11
0.105
 21
2.735
 31
0.0
  0
LINE
  5
118
330
F6
100
AcDbEntity
  8
AM_4
100
AcDbLine
 10
0.105
 20
2.735
 30
0.0
 11
0.135
 21
2.795
 31
0.0
  0
LINE
  5
119
330
F6
100
AcDbEntity
  8
AM_4
100
AcDbLine
 10
-0.135
 20
2.795
 30
0.0
 11
-0.105
 21
2.735
 31
0.0
  0
LINE
  5
11A
330
F6
100
AcDbEntity
  8
AM_4
100
AcDbLine
 10
-0.1026779019331875
 20
2.875
 30
0.0
 11
0.1026779019331875
 21
2.875
 31
0.0
  0
LINE
  5
11B
330
F6
100
AcDbEntity
  8
AM_4
100
AcDbLine
 10
-0.135
 20
2.795
 30
0.0
 11
0.135
 21
2.795
 31
0.0
  0
LINE
  5
11C
330
F6
100
AcDbEntity
  8
AM_4
100
AcDbLine
 10
-0.1026779019331875
 20
2.875
 30
0.0
 11
-0.135
 21
2.795
 31
0.0
  0
LINE
  5
11D
330
F6
100
AcDbEntity
  8
AM_4
100
AcDbLine
 10
0.135
 20
2.795
 30
0.0
 11
0.1026779019331875
 21
2.875
 31
0.0
  0
LINE
  5
11E
330
F6
100
AcDbEntity
  8
AM_4
100
AcDbLine
 10
-0.1188200907348975
 20
2.672753121618573
 30
0.0
 11
0.1188200907348975
 21
2.672753121618573
 31
0.0
  0
LINE
  5
11F
330
F6
100
AcDbEntity
  8
AM_4
100
AcDbLine
 10
-0.1188200907348975
 20
2.672753121618573
 30
0.0
 11
-0.1725340532830154
 21
2.618318198540882
 31
0.0
  0
LINE
  5
120
330
F6
100
AcDbEntity
  8
AM_4
100
AcDbLine
 10
0.1725340532830154
 20
2.618318198540882
 30
0.0
 11
0.1188200907348975
 21
2.672753121618573
 31
0.0
  0
LINE
  5
121
330
F6
100
AcDbEntity
  8
AM_4
100
AcDbLine
 10
-0.1725340532830154
 20
2.618318198540882
 30
0.0
 11
0.1725340532830154
 21
2.618318198540882
 31
0.0
  0
LINE
  5
122
330
F6
100
AcDbEntity
  8
AM_4
100
AcDbLine
 10
-0.1725340532830154
 20
2.618318198540882
 30
0.0
 11
-0.21375
 21
2.6
 31
0.0
  0
LINE
  5
123
330
F6
100
AcDbEntity
  8
AM_4
100
AcDbLine
 10
0.21375
 20
2.6
 30
0.0
 11
0.1725340532830154
 21
2.618318198540882
 31
0.0
  0
LWPOLYLINE
  5
124
330
F6
100
AcDbEntity
  8
AM_4
100
AcDbPolyline
 90
        3
 70
     0
 43
0.0
 10
-0.1894430570778459
 20
2.6
 10
-0.1578692142315383
 20
2.597606619214965
 10
-0.1262953713852306
 20
2.590932400303386
  0
LWPOLYLINE
  5
125
330
F6
100
AcDbEntity
  8
AM_4
100
AcDbPolyline
 90
        3
 70
     0
 43
0.0
 10
-0.2525907427704612
 20
2.590932400303386
 10
-0.2211588644235643
 20
2.59758547505038
 10
-0.1894430570778459
 20
2.6
  0
LINE
  5
126
330
F6
100
AcDbEntity
  8
AM_4
100
AcDbLine
 10
-0.2525907427704612
 20
2.590932400303386
 30
0.0
 11
-0.2525907427704612
 21
2.509067599696615
 31
0.0
  0
LWPOLYLINE
  5
127
330
F6
100
AcDbEntity
  8
AM_4
100
AcDbPolyline
 90
        3
 70
     0
 43
0.0
 10
-0.1894430570778459
 20
2.5
 10
-0.2210168999241536
 20
2.502393380785035
 10
-0.2525907427704612
 20
2.509067599696615
  0
LINE
  5
128
330
F6
100
AcDbEntity
  8
AM_4
100
AcDbLine
 10
0.2525907427704612
 20
2.590932400303386
 30
0.0
 11
0.2525907427704612
 21
2.509067599696615
 31
0.0
  0
LWPOLYLINE
  5
129
330
F6
100
AcDbEntity
  8
AM_4
100
AcDbPolyline
 90
        3
 70
     0
 43
0.0
 10
0.1894430570778459
 20
2.6
 10
0.2210168999241536
 20
2.597606619214965
 10
0.2525907427704612
 20
2.590932400303386
  0
LWPOLYLINE
  5
12A
330
F6
100
AcDbEntity
  8
AM_4
100
AcDbPolyline
 90
        3
 70
     0
 43
0.0
 10
0.2525907427704612
 20
2.509067599696615
 10
0.2211588644235643
 20
2.50241452494962
 10
0.1894430570778459
 20
2.5
  0
LWPOLYLINE
  5
12B
330
F6
100
AcDbEntity
  8
AM_4
100
AcDbPolyline
 90
        3
 70
     0
 43
0.0
 10
-0.1262953713852306
 20
2.509067599696615
 10
-0.1577272497321276
 20
2.50241452494962
 10
-0.1894430570778459
 20
2.5
  0
LINE
  5
12C
330
F6
100
AcDbEntity
  8
AM_4
100
AcDbLine
 10
0.1262953713852306
 20
2.590932400303386
 30
0.0
 11
0.1262953713852306
 21
2.509067599696615
 31
0.0
  0
LWPOLYLINE
  5
12D
330
F6
100
AcDbEntity
  8
AM_4
100
AcDbPolyline
 90
        3
 70
     0
 43
0.0
 10
-0.1262953713852306
 20
2.590932400303386
 10
-0.0634316146914367
 20
2.59758547505038
 10
0.0
 20
2.6
  0
LINE
  5
12E
330
F6
100
AcDbEntity
  8
AM_4
100
AcDbLine
 10
-0.1262953713852306
 20
2.590932400303386
 30
0.0
 11
-0.1262953713852306
 21
2.509067599696615
 31
0.0
  0
LWPOLYLINE
  5
12F
330
F6
100
AcDbEntity
  8
AM_4
100
AcDbPolyline
 90
        3
 70
     0
 43
0.0
 10
0.0
 20
2.5
 10
-0.0631476856926153
 20
2.502393380785035
 10
-0.1262953713852306
 20
2.509067599696615
  0
LWPOLYLINE
  5
130
330
F6
100
AcDbEntity
  8
AM_4
100
AcDbPolyline
 90
        3
 70
     0
 43
0.0
 10
0.1894430570778459
 20
2.5
 10
0.1578692142315383
 20
2.502393380785035
 10
0.1262953713852306
 20
2.509067599696615
  0
LWPOLYLINE
  5
131
330
F6
100
AcDbEntity
  8
AM_4
100
AcDbPolyline
 90
        4
 70
     0
 43
0.0
 10
0.1262953713852306
 20
2.509067599696615
 10
0.0967996321117978
 20
2.505482412517844
 10
0.0485424412477544
 20
2.501425828243072
 10
0.0
 20
2.5
  0
LWPOLYLINE
  5
132
330
F6
100
AcDbEntity
  8
AM_4
100
AcDbPolyline
 90
        4
 70
     0
 43
0.0
 10
0.0
 20
2.6
 10
0.0483998160558989
 20
2.598582439282862
 10
0.0967996321117978
 20
2.594517587482156
 10
0.1262953713852306
 20
2.590932400303386
  0
LWPOLYLINE
  5
133
330
F6
100
AcDbEntity
  8
AM_4
100
AcDbPolyline
 90
        3
 70
     0
 43
0.0
 10
0.1262953713852306
 20
2.590932400303386
 10
0.1577272497321276
 20
2.59758547505038
 10
0.1894430570778459
 20
2.6
  0
ENDBLK
  5
F9
330
F6
100
AcDbEntity
  8
0
100
AcDbBlockEnd
  0
BLOCK
  5
136
330
134
100
AcDbEntity
  8
0
100
AcDbBlockBegin
  2
5_023481_Insert_0_in_023481_2
 70
     2
 10
0.0
 20
0.0
 30
0.0
  3
5_023481_Insert_0_in_023481_2
  1

  0
ATTDEF
  5
138
330
134
100
AcDbEntity
  8
AM_6
100
AcDbText
 10
6.649999999999999
 20
2.907
 30
0.0
 40
0.5
  1
D Unit -Insert -Inch
100
AcDbAttributeDefinition
  3

  2
NN
 70
     8
280
     0
  0
ATTDEF
  5
139
330
134
100
AcDbEntity
  8
AM_6
100
AcDbText
 10
6.649999999999999
 20
2.407
 30
0.0
 40
0.5
  1
Double-Interlock Bearings
100
AcDbAttributeDefinition
  3

  2
NT
 70
     8
280
     0
  0
ATTDEF
  5
13A
330
134
100
AcDbEntity
  8
AM_6
100
AcDbText
 10
6.649999999999999
 20
1.907
 30
0.0
 40
0.5
  1
023481-Insert
100
AcDbAttributeDefinition
  3

  2
NB
 70
     8
280
     0
  0
ATTDEF
  5
13B
330
134
100
AcDbEntity
  8
AM_6
100
AcDbText
 10
6.649999999999999
 20
1.407
 30
0.0
 40
0.5
  1
$PN.-Insert
100
AcDbAttributeDefinition
  3

  2
NBSYN
 70
     8
280
     0
  0
ATTDEF
  5
13C
330
134
100
AcDbEntity
  8
AM_6
100
AcDbText
 10
6.649999999999999
 20
0.907
 30
0.0
 40
0.5
  1
023481-Insert
100
AcDbAttributeDefinition
  3

  2
LINA
 70
     8
280
     0
  0
ATTDEF
  5
13D
330
134
100
AcDbEntity
  8
AM_6
100
AcDbText
 10
6.649999999999999
 20
0.407
 30
0.0
 40
0.5
  1
1-7/16
100
AcDbAttributeDefinition
  3

  2
SS
 70
     8
280
     0
  0
ATTDEF
  5
13E
330
134
100
AcDbEntity
  8
AM_6
100
AcDbText
 10
6.649999999999999
 20
-0.093
 30
0.0
 40
0.5
  1
023481
100
AcDbAttributeDefinition
  3

  2
PN
 70
     8
280
     0
  0
ATTDEF
  5
13F
330
134
100
AcDbEntity
  8
AM_6
100
AcDbText
 10
6.649999999999999
 20
-0.593
 30
0.0
 40
0.5
  1
DU-DI-107R
100
AcDbAttributeDefinition
  3

  2
DESCRIPTION
 70
     8
280
     0
  0
ATTDEF
  5
140
330
134
100
AcDbEntity
  8
AM_6
100
AcDbText
 10
6.649999999999999
 20
-1.093
 30
0.0
 40
0.5
  1
3
100
AcDbAttributeDefinition
  3

  2
A
 70
     8
280
     0
  0
ATTDEF
  5
141
330
134
100
AcDbEntity
  8
AM_6
100
AcDbText
 10
6.649999999999999
 20
-1.593
 30
0.0
 40
0.5
  1
2-1/16
100
AcDbAttributeDefinition
  3

  2
B
 70
     8
280
     0
  0
ATTDEF
  5
142
330
134
100
AcDbEntity
  8
AM_6
100
AcDbText
 10
6.649999999999999
 20
-2.093
 30
0.0
 40
0.5
  1
11/16
100
AcDbAttributeDefinition
  3

  2
H
 70
     8
280
     0
  0
ATTDEF
  5
143
330
134
100
AcDbEntity
  8
AM_6
100
AcDbText
 10
6.649999999999999
 20
-2.593
 30
0.0
 40
0.5
  1
2-3/4
100
AcDbAttributeDefinition
  3

  2
L
 70
     8
280
     0
  0
ATTDEF
  5
144
330
134
100
AcDbEntity
  8
AM_6
100
AcDbText
 10
6.649999999999999
 20
-3.093
 30
0.0
 40
0.5
  1
2-7/8
100
AcDbAttributeDefinition
  3

  2
N
 70
     8
280
     0
  0
ATTDEF
  5
145
330
134
100
AcDbEntity
  8
AM_6
100
AcDbText
 10
6.649999999999999
 20
-3.593
 30
0.0
 40
0.5
  1
3-5/8
100
AcDbAttributeDefinition
  3

  2
P
 70
     8
280
     0
  0
ATTDEF
  5
146
330
134
100
AcDbEntity
  8
AM_6
100
AcDbText
 10
6.649999999999999
 20
-4.093
 30
0.0
 40
0.5
  1
3.844
100
AcDbAttributeDefinition
  3

  2
S
 70
     8
280
     0
  0
ATTDEF
  5
147
330
134
100
AcDbEntity
  8
AM_6
100
AcDbText
 10
6.649999999999999
 20
-4.593
 30
0.0
 40
0.5
  1
baldor
100
AcDbAttributeDefinition
  3

  2
COMPANY
 70
     8
280
     0
  0
LINE
  5
148
330
134
100
AcDbEntity
  8
AM_9
100
AcDbLine
 10
1.045
 20
0.8749999999999998
 30
0.0
 11
1.045
 21
0.71875
 31
0.0
  0
LINE
  5
149
330
134
100
AcDbEntity
  8
AM_9
100
AcDbLine
 10
1.395
 20
0.71875
 30
0.0
 11
1.395
 21
0.8749999999999998
 31
0.0
  0
LINE
  5
14A
330
134
100
AcDbEntity
  8
AM_9
100
AcDbLine
 10
-1.395
 20
0.8750000000000001
 30
0.0
 11
-1.395
 21
0.71875
 31
0.0
  0
LINE
  5
14B
330
134
100
AcDbEntity
  8
AM_9
100
AcDbLine
 10
-1.045
 20
0.71875
 30
0.0
 11
-1.045
 21
0.8750000000000001
 31
0.0
  0
LINE
  5
14C
330
134
100
AcDbEntity
  8
AM_9
100
AcDbLine
 10
-1.5
 20
-0.71875
 30
0.0
 11
1.5
 21
-0.71875
 31
0.0
  0
LINE
  5
14D
330
134
100
AcDbEntity
  8
AM_9
100
AcDbLine
 10
1.5
 20
0.71875
 30
0.0
 11
1.395
 21
0.71875
 31
0.0
  0
LINE
  5
14E
330
134
100
AcDbEntity
  8
AM_9
100
AcDbLine
 10
1.045
 20
0.71875
 30
0.0
 11
-1.045
 21
0.71875
 31
0.0
  0
LINE
  5
14F
330
134
100
AcDbEntity
  8
AM_9
100
AcDbLine
 10
-1.395
 20
0.71875
 30
0.0
 11
-1.5
 21
0.71875
 31
0.0
  0
LWPOLYLINE
  5
150
330
134
100
AcDbEntity
  8
AM_9
100
AcDbPolyline
 90
       21
 70
     0
 43
0.0
 10
1.045000000003314
 20
0.7187499999991931
 10
1.045077819179302
 20
0.7187310566846746
 10
1.048440332710898
 20
0.7179201083270669
 10
1.056222732538655
 20
0.7161002414725922
 10
1.068628888439773
 20
0.7133651070209269
 10
1.084945445324241
 20
0.7100818933324996
 10
1.105443990185209
 20
0.7064698449931791
 10
1.129051795477483
 20
0.703027836152929
 10
1.156050335719255
 20
0.7000472284507809
 10
1.183979571696159
 20
0.6980501656436965
 10
1.213860290003424
 20
0.6971472287392686
 10
1.242268004751091
 20
0.6974757533675234
 10
1.270855038532132
 20
0.6989726728879352
 10
1.297100368360824
 20
0.7013708215354947
 10
1.32192411541045
 20
0.704531821710136
 10
1.343877556237759
 20
0.708041108580172
 10
1.362945930379502
 20
0.711624972518574
 10
1.377787968987706
 20
0.7147542274497335
 10
1.388465727782718
 20
0.7171870494768857
 10
1.39332433802596
 20
0.7183438512663258
 10
1.395
 20
0.71875
  0
LWPOLYLINE
  5
151
330
134
100
AcDbEntity
  8
AM_9
100
AcDbPolyline
 90
       21
 70
     0
 43
0.0
 10
-1.394999999996686
 20
0.7187499999991931
 10
-1.394922180820698
 20
0.7187310566846746
 10
-1.391559667289102
 20
0.7179201083270669
 10
-1.383777267461345
 20
0.7161002414725922
 10
-1.371371111560227
 20
0.7133651070209268
 10
-1.355054554675758
 20
0.7100818933324996
 10
-1.334556009814791
 20
0.706469844993179
 10
-1.310948204522516
 20
0.703027836152929
 10
-1.283949664280745
 20
0.700047228450781
 10
-1.25602042830384
 20
0.6980501656436965
 10
-1.226139709996576
 20
0.6971472287392686
 10
-1.197731995248909
 20
0.6974757533675235
 10
-1.169144961467868
 20
0.6989726728879352
 10
-1.142899631639176
 20
0.7013708215354947
 10
-1.11807588458955
 20
0.704531821710136
 10
-1.096122443762241
 20
0.7080411085801721
 10
-1.077054069620498
 20
0.7116249725185742
 10
-1.062212031012294
 20
0.7147542274497335
 10
-1.051534272217282
 20
0.7171870494768857
 10
-1.04667566197404
 20
0.7183438512663258
 10
-1.045
 20
0.71875
  0
LWPOLYLINE
  5
152
330
134
100
AcDbEntity
  8
AM_9
100
AcDbPolyline
 90
       11
 70
     0
 43
0.0
 10
1.22
 20
0.1360118611589992
 10
1.24847251369985
 20
0.1383707967893547
 10
1.276945027399699
 20
0.1456249484330422
 10
1.30300564464926
 20
0.1570693503569526
 10
1.327452801361243
 20
0.1729099932888141
 10
1.348712149543852
 20
0.1921369457922523
 10
1.366918134479247
 20
0.2149163549549724
 10
1.380726296060105
 20
0.2396058747951351
 10
1.390250453581485
 20
0.2665741635619695
 10
1.39459125346243
 20
0.2928810071079487
 10
1.394999999699445
 20
0.303747580114774
  0
LINE
  5
153
330
134
100
AcDbEntity
  8
AM_9
100
AcDbLine
 10
1.045
 20
0.3697407892786316
 30
0.0
 11
1.045
 21
0.3037164273918939
 31
0.0
  0
LINE
  5
154
330
134
100
AcDbEntity
  8
AM_9
100
AcDbLine
 10
1.395
 20
0.3036943179196157
 30
0.0
 11
1.395
 21
0.3697686887809535
 31
0.0
  0
LWPOLYLINE
  5
155
330
134
100
AcDbEntity
  8
AM_9
100
AcDbPolyline
 90
        4
 70
     0
 43
0.0
 10
1.048953452430117
 20
0.3368765013311869
 10
1.048754998851331
 20
0.336053668839096
 10
1.045109863267252
 20
0.3093646878734931
 10
1.045000000944804
 20
0.3037733564199003
  0
LWPOLYLINE
  5
156
330
134
100
AcDbEntity
  8
AM_9
100
AcDbPolyline
 90
        5
 70
     0
 43
0.0
 10
1.102438349455079
 20
0.4162614617688855
 10
1.087742598064866
 20
0.4037331447188805
 10
1.07051087524291
 20
0.3837724297048811
 10
1.057110828617241
 20
0.3605276243932638
 10
1.048953452430117
 20
0.3368765013311869
  0
LWPOLYLINE
  5
157
330
134
100
AcDbEntity
  8
AM_9
100
AcDbPolyline
 90
       11
 70
     0
 43
0.0
 10
1.335885872843102
 20
0.4175041860379599
 10
1.325288442788794
 20
0.4246436351394703
 10
1.299920412254462
 20
0.4376437573819812
 10
1.272850654330108
 20
0.4466593067035468
 10
1.243343208889717
 20
0.4519673719045905
 10
1.214732505305202
 20
0.453156132464433
 10
1.18542805093416
 20
0.450455891993495
 10
1.158343223549555
 20
0.4441996508616656
 10
1.13223219671306
 20
0.4341560704090759
 10
1.108755885387006
 20
0.4207778860108984
 10
1.102438349455079
 20
0.4162614617688855
  0
LWPOLYLINE
  5
158
330
134
100
AcDbEntity
  8
AM_9
100
AcDbPolyline
 90
        6
 70
     0
 43
0.0
 10
1.39109072379014
 20
0.3366952628196336
 10
1.388952539248475
 20
0.3444791239126349
 10
1.379091592532188
 20
0.3682629575435774
 10
1.365198881607596
 20
0.3894707436535293
 10
1.346973875441623
 20
0.4086066423251571
 10
1.335885872843102
 20
0.4175041860379599
  0
LWPOLYLINE
  5
159
330
134
100
AcDbEntity
  8
AM_9
100
AcDbPolyline
 90
        3
 70
     0
 43
0.0
 10
1.394999999699445
 20
0.303747580114774
 10
1.394092040677685
 20
0.3197990443997104
 10
1.39109072379014
 20
0.3366952628196336
  0
LWPOLYLINE
  5
15A
330
134
100
AcDbEntity
  8
AM_9
100
AcDbPolyline
 90
       11
 70
     0
 43
0.0
 10
1.045000000944804
 20
0.3037733564199003
 10
1.046418071122001
 20
0.2834614173344801
 10
1.052549815798764
 20
0.2569126201564972
 10
1.062914012373305
 20
0.2320995766737484
 10
1.077790341746503
 20
0.2082514587084356
 10
1.096436277584853
 20
0.1868951929762643
 10
1.119085457617357
 20
0.1681091195617085
 10
1.144354681343338
 20
0.1533241932385801
 10
1.17266128856061
 20
0.1426034159881057
 10
1.195858107804946
 20
0.1377049361086373
 10
1.22
 20
0.1360118611589992
  0
LWPOLYLINE
  5
15B
330
134
100
AcDbEntity
  8
AM_9
100
AcDbPolyline
 90
        8
 70
     0
 43
0.0
 10
1.31700594015482
 20
0.4966382912693461
 10
1.333568171038646
 20
0.4861360443036569
 10
1.354101558916377
 20
0.4686266234022791
 10
1.371125834199364
 20
0.4478449178684508
 10
1.383865682863087
 20
0.4245486896041237
 10
1.391843042082492
 20
0.3994248455457199
 10
1.394963126460134
 20
0.3730435618409572
 10
1.394999999205964
 20
0.3698060877460543
  0
LWPOLYLINE
  5
15C
330
134
100
AcDbEntity
  8
AM_9
100
AcDbPolyline
 90
        9
 70
     0
 43
0.0
 10
1.122635231644961
 20
0.4964382021581535
 10
1.141691107419067
 20
0.5056665267301664
 10
1.169227998515566
 20
0.5147216145558065
 10
1.198253410674937
 20
0.5198107376650553
 10
1.227422380484276
 20
0.5207808966294852
 10
1.256378700017828
 20
0.5177848399256203
 10
1.284020118922756
 20
0.5109244826368343
 10
1.309893046964028
 20
0.5003857056993659
 10
1.31700594015482
 20
0.4966382912693461
  0
LWPOLYLINE
  5
15D
330
134
100
AcDbEntity
  8
AM_9
100
AcDbPolyline
 90
        8
 70
     0
 43
0.0
 10
1.045000000468358
 20
0.3697793752210052
 10
1.045990749889832
 20
0.3865604251005009
 10
1.051448197370599
 20
0.4118544494447837
 10
1.061463107079015
 20
0.4356214211437488
 10
1.07590521189103
 20
0.4573781044779424
 10
1.094264686595812
 20
0.4765108919669644
 10
1.116505877767442
 20
0.4928277828524045
 10
1.122635231644961
 20
0.4964382021581535
  0
LWPOLYLINE
  5
15E
330
134
100
AcDbEntity
  8
AM_9
100
AcDbPolyline
 90
       11
 70
     0
 43
0.0
 10
1.394999999205964
 20
0.3698060877460543
 10
1.393128818100192
 20
0.346611023219344
 10
1.386564743506913
 20
0.3204469326772152
 10
1.375437361354973
 20
0.2953902633695359
 10
1.360119097320101
 20
0.2721087156624931
 10
1.340639330863476
 20
0.2510158163233125
 10
1.317792774003862
 20
0.2331403424479243
 10
1.291869790384473
 20
0.2189993924174684
 10
1.263851758459557
 20
0.2092496540465202
 10
1.242108762612438
 20
0.2051135709773874
 10
1.22
 20
0.2037158213049312
  0
LWPOLYLINE
  5
15F
330
134
100
AcDbEntity
  8
AM_9
100
AcDbPolyline
 90
       11
 70
     0
 43
0.0
 10
-1.22
 20
0.1360118611589992
 10
-1.19152748630015
 20
0.1383707967893547
 10
-1.163054972600301
 20
0.1456249484330422
 10
-1.13699435535074
 20
0.1570693503569526
 10
-1.112547198638757
 20
0.172909993288814
 10
-1.091287850456148
 20
0.1921369457922524
 10
-1.073081865520752
 20
0.2149163549549726
 10
-1.059273703939895
 20
0.2396058747951352
 10
-1.049749546418515
 20
0.2665741635619696
 10
-1.04540874653757
 20
0.2928810071079488
 10
-1.045000000300555
 20
0.303747580114774
  0
LINE
  5
160
330
134
100
AcDbEntity
  8
AM_9
100
AcDbLine
 10
-1.395
 20
0.3697407892786318
 30
0.0
 11
-1.395
 21
0.3037164273918938
 31
0.0
  0
LINE
  5
161
330
134
100
AcDbEntity
  8
AM_9
100
AcDbLine
 10
-1.045
 20
0.3036943179196157
 30
0.0
 11
-1.045
 21
0.3697686887809536
 31
0.0
  0
LWPOLYLINE
  5
162
330
134
100
AcDbEntity
  8
AM_9
100
AcDbPolyline
 90
        4
 70
     0
 43
0.0
 10
-1.391046547569883
 20
0.3368765013311868
 10
-1.391245001148668
 20
0.3360536688390962
 10
-1.394890136732748
 20
0.3093646878734932
 10
-1.394999999055196
 20
0.3037733564199003
  0
LWPOLYLINE
  5
163
330
134
100
AcDbEntity
  8
AM_9
100
AcDbPolyline
 90
        5
 70
     0
 43
0.0
 10
-1.33598686060839
 20
0.4174302399419659
 10
-1.352257401935134
 20
0.4037331447188804
 10
-1.36948912475709
 20
0.3837724297048811
 10
-1.382889171382759
 20
0.3605276243932639
 10
-1.391046547569883
 20
0.3368765013311868
  0
LWPOLYLINE
  5
164
330
134
100
AcDbEntity
  8
AM_9
100
AcDbPolyline
 90
       11
 70
     0
 43
0.0
 10
-1.104158860251292
 20
0.417536902636306
 10
-1.114711557211205
 20
0.4246436351394702
 10
-1.140079587745538
 20
0.4376437573819811
 10
-1.167149345669891
 20
0.4466593067035468
 10
-1.196656791110282
 20
0.4519673719045905
 10
-1.225267494694797
 20
0.453156132464433
 10
-1.25457194906584
 20
0.4504558919934949
 10
-1.281656776450445
 20
0.4441996508616656
 10
-1.30776780328694
 20
0.434156070409076
 10
-1.331244114612993
 20
0.4207778860108986
 10
-1.33598686060839
 20
0.4174302399419659
  0
LWPOLYLINE
  5
165
330
134
100
AcDbEntity
  8
AM_9
100
AcDbPolyline
 90
        6
 70
     0
 43
0.0
 10
-1.04890927620986
 20
0.336695262819634
 10
-1.051047460751525
 20
0.3444791239126349
 10
-1.060908407467812
 20
0.3682629575435774
 10
-1.074801118392404
 20
0.3894707436535293
 10
-1.093026124558377
 20
0.4086066423251572
 10
-1.104158860251292
 20
0.417536902636306
  0
LWPOLYLINE
  5
166
330
134
100
AcDbEntity
  8
AM_9
100
AcDbPolyline
 90
        3
 70
     0
 43
0.0
 10
-1.045000000300555
 20
0.303747580114774
 10
-1.045907959322315
 20
0.3197990443997105
 10
-1.04890927620986
 20
0.336695262819634
  0
LWPOLYLINE
  5
167
330
134
100
AcDbEntity
  8
AM_9
100
AcDbPolyline
 90
       11
 70
     0
 43
0.0
 10
-1.394999999055196
 20
0.3037733564199003
 10
-1.393581928877999
 20
0.2834614173344802
 10
-1.387450184201236
 20
0.2569126201564972
 10
-1.377085987626695
 20
0.2320995766737484
 10
-1.362209658253497
 20
0.2082514587084357
 10
-1.343563722415147
 20
0.1868951929762644
 10
-1.320914542382643
 20
0.1681091195617086
 10
-1.295645318656663
 20
0.1533241932385802
 10
-1.26733871143939
 20
0.1426034159881057
 10
-1.244141892195054
 20
0.1377049361086373
 10
-1.22
 20
0.1360118611589992
  0
LWPOLYLINE
  5
168
330
134
100
AcDbEntity
  8
AM_9
100
AcDbPolyline
 90
        8
 70
     0
 43
0.0
 10
-1.123189173144391
 20
0.4967466303387783
 10
-1.106431828961354
 20
0.486136044303657
 10
-1.085898441083623
 20
0.4686266234022793
 10
-1.068874165800636
 20
0.4478449178684509
 10
-1.056134317136913
 20
0.4245486896041237
 10
-1.048156957917508
 20
0.39942484554572
 10
-1.045036873539867
 20
0.3730435618409573
 10
-1.045000000794035
 20
0.3698060877460544
  0
LWPOLYLINE
  5
169
330
134
100
AcDbEntity
  8
AM_9
100
AcDbPolyline
 90
        9
 70
     0
 43
0.0
 10
-1.317201213536302
 20
0.4965295393723742
 10
-1.298308892580933
 20
0.5056665267301665
 10
-1.270772001484434
 20
0.5147216145558066
 10
-1.241746589325063
 20
0.5198107376650553
 10
-1.212577619515724
 20
0.5207808966294852
 10
-1.183621299982172
 20
0.5177848399256204
 10
-1.155979881077245
 20
0.5109244826368344
 10
-1.130106953035973
 20
0.500385705699366
 10
-1.123189173144391
 20
0.4967466303387783
  0
LWPOLYLINE
  5
16A
330
134
100
AcDbEntity
  8
AM_9
100
AcDbPolyline
 90
        8
 70
     0
 43
0.0
 10
-1.394999999531642
 20
0.3697793752210052
 10
-1.394009250110168
 20
0.386560425100501
 10
-1.388551802629401
 20
0.4118544494447837
 10
-1.378536892920985
 20
0.4356214211437489
 10
-1.36409478810897
 20
0.4573781044779424
 10
-1.345735313404188
 20
0.4765108919669646
 10
-1.323494122232558
 20
0.4928277828524046
 10
-1.317201213536302
 20
0.4965295393723742
  0
LWPOLYLINE
  5
16B
330
134
100
AcDbEntity
  8
AM_9
100
AcDbPolyline
 90
       11
 70
     0
 43
0.0
 10
-1.045000000794035
 20
0.3698060877460544
 10
-1.046871181899809
 20
0.3466110232193441
 10
-1.053435256493086
 20
0.3204469326772154
 10
-1.064562638645026
 20
0.2953902633695361
 10
-1.079880902679899
 20
0.2721087156624931
 10
-1.099360669136524
 20
0.2510158163233125
 10
-1.122207225996138
 20
0.2331403424479244
 10
-1.148130209615527
 20
0.2189993924174685
 10
-1.176148241540443
 20
0.2092496540465204
 10
-1.197891237387562
 20
0.2051135709773874
 10
-1.22
 20
0.2037158213049312
  0
LWPOLYLINE
  5
16C
330
134
100
AcDbEntity
  8
AM_9
100
AcDbPolyline
 90
       20
 70
     0
 43
0.0
 10
1.395
 20
0.8749999999999998
 10
1.392640558245545
 20
0.8745311671697774
 10
1.385360362255692
 20
0.8731231582115626
 10
1.37379362699326
 20
0.8710065899312943
 10
1.357627140658482
 20
0.8682978923421554
 10
1.337931254288788
 20
0.8653945809502891
 10
1.314308021457394
 20
0.86249290020916
 10
1.28845682137824
 20
0.8600501941126529
 10
1.25979742690094
 20
0.858244624328015
 10
1.231179134976648
 20
0.8573942926441871
 10
1.201379534558233
 20
0.8575235983535775
 10
1.173380604947979
 20
0.8585880082991004
 10
1.145914234320858
 20
0.860516531320732
 10
1.121065070261984
 20
0.8630110777517668
 10
1.098305390198433
 20
0.865915456643866
 10
1.079155419740087
 20
0.8688136715018882
 10
1.063504493198977
 20
0.8714877185875362
 10
1.052662802417272
 20
0.8734997067514335
 10
1.046359744692555
 20
0.8747290656330303
 10
1.045000000001547
 20
0.8749999999996905
  0
LWPOLYLINE
  5
16D
330
134
100
AcDbEntity
  8
AM_9
100
AcDbPolyline
 90
       11
 70
     0
 43
0.0
 10
1.22
 20
0.2037158213049312
 10
1.190953579819934
 20
0.2061429975843997
 10
1.162734029021331
 20
0.2132554189937572
 10
1.136170774334226
 20
0.2248434207094194
 10
1.111934746540848
 20
0.2404354906910038
 10
1.090455667079723
 20
0.2598212932158233
 10
1.072593898484804
 20
0.2821524353384292
 10
1.058797206756747
 20
0.3069842750009515
 10
1.049589124468068
 20
0.3333244789163159
 10
1.04535008796134
 20
0.3600035783308753
 10
1.045000000468358
 20
0.3697793752210052
  0
LINE
  5
16E
330
134
100
AcDbEntity
  8
AM_9
100
AcDbLine
 10
0.9119999999999998
 20
-0.8749999999999998
 30
0.0
 11
1.5
 21
-0.8749999999999998
 31
0.0
  0
LINE
  5
16F
330
134
100
AcDbEntity
  8
AM_9
100
AcDbLine
 10
1.5
 20
0.8749999999999998
 30
0.0
 11
1.395
 21
0.8749999999999998
 31
0.0
  0
LINE
  5
170
330
134
100
AcDbEntity
  8
AM_9
100
AcDbLine
 10
1.045
 20
0.8749999999999998
 30
0.0
 11
0.9120000000000001
 21
0.8749999999999998
 31
0.0
  0
LWPOLYLINE
  5
171
330
134
100
AcDbEntity
  8
AM_9
100
AcDbPolyline
 90
       20
 70
     0
 43
0.0
 10
-1.045
 20
0.875
 10
-1.047359441754455
 20
0.8745311671697775
 10
-1.054639637744308
 20
0.8731231582115627
 10
-1.066206373006739
 20
0.8710065899312944
 10
-1.082372859341518
 20
0.8682978923421555
 10
-1.102068745711213
 20
0.8653945809502891
 10
-1.125691978542606
 20
0.8624929002091601
 10
-1.15154317862176
 20
0.860050194112653
 10
-1.18020257309906
 20
0.8582446243280151
 10
-1.208820865023352
 20
0.8573942926441872
 10
-1.238620465441767
 20
0.8575235983535776
 10
-1.266619395052021
 20
0.8585880082991006
 10
-1.294085765679142
 20
0.8605165313207321
 10
-1.318934929738017
 20
0.8630110777517669
 10
-1.341694609801567
 20
0.8659154566438664
 10
-1.360844580259913
 20
0.8688136715018883
 10
-1.376495506801022
 20
0.8714877185875363
 10
-1.387337197582728
 20
0.8734997067514338
 10
-1.393640255307445
 20
0.8747290656330304
 10
-1.394999999998453
 20
0.8749999999996906
  0
LWPOLYLINE
  5
172
330
134
100
AcDbEntity
  8
AM_9
100
AcDbPolyline
 90
       11
 70
     0
 43
0.0
 10
-1.22
 20
0.2037158213049312
 10
-1.249046420180066
 20
0.2061429975843997
 10
-1.277265970978669
 20
0.2132554189937574
 10
-1.303829225665774
 20
0.2248434207094195
 10
-1.328065253459151
 20
0.2404354906910038
 10
-1.349544332920276
 20
0.2598212932158234
 10
-1.367406101515195
 20
0.2821524353384293
 10
-1.381202793243253
 20
0.3069842750009517
 10
-1.390410875531932
 20
0.3333244789163162
 10
-1.39464991203866
 20
0.3600035783308754
 10
-1.394999999531642
 20
0.3697793752210052
  0
LINE
  5
173
330
134
100
AcDbEntity
  8
AM_9
100
AcDbLine
 10
-1.5
 20
-0.875
 30
0.0
 11
-0.9119999999999998
 21
-0.875
 31
0.0
  0
LINE
  5
174
330
134
100
AcDbEntity
  8
AM_9
100
AcDbLine
 10
-0.9119999999999998
 20
0.875
 30
0.0
 11
-1.045
 21
0.875
 31
0.0
  0
LINE
  5
175
330
134
100
AcDbEntity
  8
AM_9
100
AcDbLine
 10
-1.395
 20
0.875
 30
0.0
 11
-1.5
 21
0.875
 31
0.0
  0
LINE
  5
176
330
134
100
AcDbEntity
  8
AM_9
100
AcDbLine
 10
-0.9119999999999998
 20
1.41025641025641
 30
0.0
 11
-1.03125
 21
1.431283402705895
 31
0.0
  0
LINE
  5
177
330
134
100
AcDbEntity
  8
AM_9
100
AcDbLine
 10
-1.03125
 20
-1.431283402705895
 30
0.0
 11
-0.9119999999999998
 21
-1.41025641025641
 31
0.0
  0
LINE
  5
178
330
134
100
AcDbEntity
  8
AM_9
100
AcDbLine
 10
-0.9119999999999998
 20
1.41025641025641
 30
0.0
 11
-0.9119999999999998
 21
-1.41025641025641
 31
0.0
  0
LINE
  5
179
330
134
100
AcDbEntity
  8
AM_9
100
AcDbLine
 10
0.9119999999999997
 20
-1.410256410256411
 30
0.0
 11
0.912
 21
1.410256410256411
 31
0.0
  0
LINE
  5
17A
330
134
100
AcDbEntity
  8
AM_9
100
AcDbLine
 10
0.9119999999999997
 20
-1.410256410256411
 30
0.0
 11
1.03125
 21
-1.431283402705895
 31
0.0
  0
LINE
  5
17B
330
134
100
AcDbEntity
  8
AM_9
100
AcDbLine
 10
1.03125
 20
1.431283402705895
 30
0.0
 11
0.912
 21
1.410256410256411
 31
0.0
  0
LINE
  5
17E
330
134
100
AcDbEntity
  8
AM_7
100
AcDbLine
 10
-1.65
 20
0.0
 30
0.0
 11
1.65
 21
0.0
 31
0.0
  0
LINE
  5
17F
330
134
100
AcDbEntity
  8
AM_7
100
AcDbLine
 10
-1.22
 20
-0.06875
 30
0.0
 11
-1.22
 21
1.44375
 31
0.0
  0
LINE
  5
180
330
134
100
AcDbEntity
  8
AM_7
100
AcDbLine
 10
1.22
 20
-0.06875
 30
0.0
 11
1.22
 21
1.44375
 31
0.0
  0
LINE
  5
181
330
134
100
AcDbEntity
  8
AM_7
100
AcDbLine
 10
0.0000000000000001
 20
-1.99375
 30
0.0
 11
0.0
 21
2.907
 31
0.0
  0
LINE
  5
182
330
134
100
AcDbEntity
  8
AM_4
100
AcDbLine
 10
-0.3437500000000001
 20
2.464999999999999
 30
0.0
 11
-0.3437500000000001
 21
1.8125
 31
0.0
  0
LINE
  5
183
330
134
100
AcDbEntity
  8
AM_4
100
AcDbLine
 10
0.3437500000000001
 20
1.8125
 30
0.0
 11
0.3437500000000001
 21
2.464999999999999
 31
0.0
  0
LINE
  5
184
330
134
100
AcDbEntity
  8
AM_4
100
AcDbLine
 10
0.30875
 20
2.5
 30
0.0
 11
-0.3087499997058327
 21
2.5
 31
0.0
  0
LINE
  5
185
330
134
100
AcDbEntity
  8
AM_4
100
AcDbLine
 10
0.3437500000000002
 20
2.464999999999999
 30
0.0
 11
-0.3437500000000002
 21
2.464999999999999
 31
0.0
  0
ARC
  5
186
330
134
100
AcDbEntity
  8
AM_4
100
AcDbCircle
 10
-0.3087499999999981
 20
2.464999999999998
 30
0.0
 40
0.0350000000000019
100
AcDbArc
 50
90.0
 51
179.9999991462263
  0
ARC
  5
187
330
134
100
AcDbEntity
  8
AM_4
100
AcDbCircle
 10
0.3087499999999981
 20
2.464999999999998
 30
0.0
 40
0.0350000000000021
100
AcDbArc
 50
0.0000008537736463
 51
90.0
  0
ARC
  5
188
330
134
100
AcDbEntity
  8
AM_4
100
AcDbCircle
 10
-0.0000000000000369
 20
-0.0000000000000784
 30
0.0
 40
1.922000000000086
100
AcDbArc
 50
57.550878430659
 51
70.56646706168688
  0
ARC
  5
189
330
134
100
AcDbEntity
  8
AM_4
100
AcDbCircle
 10
-0.0000000000001028
 20
0.0000000000002152
 30
0.0
 40
1.922000000000235
100
AcDbArc
 50
289.4335329383136
 51
302.4491215693405
  0
LINE
  5
18A
330
134
100
AcDbEntity
  8
AM_4
100
AcDbLine
 10
1.03125
 20
1.621914744214381
 30
0.0
 11
1.03125
 21
-1.621914744214379
 31
0.0
  0
LWPOLYLINE
  5
18B
330
134
100
AcDbEntity
  8
AM_4
100
AcDbPolyline
 90
       32
 70
     0
 43
0.0
 10
0.3437500000000001
 20
1.8125
 10
0.3391049049796057
 20
1.811624774637736
 10
0.3331259334631371
 20
1.810514812302419
 10
0.3247712407601839
 20
1.808996557853251
 10
0.3019931666693866
 20
1.805046276474651
 10
0.2870853146110034
 20
1.802611988851336
 10
0.2701499622932205
 20
1.799992552658768
 10
0.2314047665193089
 20
1.794586401783947
 10
0.2089346751841005
 20
1.79182787422937
 10
0.1849425639292962
 20
1.789188626012568
 10
0.1601208244741046
 20
1.786793977705022
 10
0.1341660763971447
 20
1.78465479114472
 10
0.1064381640094656
 20
1.782785481669648
 10
0.0779010952332466
 20
1.781308723421782
 10
0.0499552493465792
 20
1.780306297356796
 10
0.0216562501425789
 20
1.7797362671672
 10
-0.0076473457804559
 20
1.779621857333586
 10
-0.0368934438430216
 20
1.779986885822083
 10
-0.0919890384278224
 20
1.781980406932376
 10
-0.1194385994351413
 20
1.783608744031357
 10
-0.1460288354893924
 20
1.785585788556346
 10
-0.1948700490662544
 20
1.790242029314216
 10
-0.218001457779378
 20
1.792907656694422
 10
-0.2395840598197714
 20
1.795659407911123
 10
-0.277104488060088
 20
1.801049439855287
 10
-0.293489720189448
 20
1.803643000413993
 10
-0.3077347485001097
 20
1.806015742715003
 10
-0.3194270362198461
 20
1.808044522873148
 10
-0.3289073400654003
 20
1.809743690650391
 10
-0.3362756585598452
 20
1.811096946946226
 10
-0.3411622332643176
 20
1.812010998009089
 10
-0.3437499999976072
 20
1.812499999999546
  0
LINE
  5
18C
330
134
100
AcDbEntity
  8
AM_4
100
AcDbLine
 10
-0.6394745890182031
 20
-1.8125
 30
0.0
 11
0.6394745890182029
 21
-1.8125
 31
0.0
  0
LINE
  5
18D
330
134
100
AcDbEntity
  8
AM_4
100
AcDbLine
 10
0.6394745890182029
 20
1.8125
 30
0.0
 11
0.3437500000000001
 21
1.8125
 31
0.0
  0
LINE
  5
18E
330
134
100
AcDbEntity
  8
AM_4
100
AcDbLine
 10
-0.3437500000000001
 20
1.8125
 30
0.0
 11
-0.6394745890182031
 21
1.8125
 31
0.0
  0
LINE
  5
18F
330
134
100
AcDbEntity
  8
AM_4
100
AcDbLine
 10
0.6394745890182029
 20
1.8125
 30
0.0
 11
0.6394745890182029
 21
-1.8125
 31
0.0
  0
LWPOLYLINE
  5
190
330
134
100
AcDbEntity
  8
AM_4
100
AcDbPolyline
 90
       65
 70
     0
 43
0.0
 10
-0.321110954185557
 20
0.0
 10
-0.3197014596434596
 20
0.083743384516318
 10
-0.3150811270821318
 20
0.1674898263258144
 10
-0.3066621830990205
 20
0.250614575877152
 10
-0.2938568542915728
 20
0.332492883618993
 10
-0.2760773672572356
 20
0.4125
 10
-0.2620235952797885
 20
0.4613714893824684
 10
-0.2450333523023935
 20
0.509156739585722
 10
-0.2245671983317135
 20
0.5552064553238051
 10
-0.200085693374411
 20
0.5988713413107617
 10
-0.1748953888255341
 20
0.634429228342524
 10
-0.1454731312912805
 20
0.6666912729372193
 10
-0.1229105718734365
 20
0.6859691262927531
 10
-0.0980202122510887
 20
0.7026613477455811
 10
-0.0710657510115199
 20
0.7159682521431805
 10
-0.0433055637238754
 20
0.7249211843656362
 10
-0.0143449161843956
 20
0.7295782149806719
 10
0.0151543947701599
 20
0.7294838543192593
 10
0.0442018685750096
 20
0.7247250559520383
 10
0.0709156343270133
 20
0.716015849414838
 10
0.0960136489971234
 20
0.7038420549709209
 10
0.1311241514404953
 20
0.6794478579897792
 10
0.1616909365821267
 20
0.6499988269350662
 10
0.190211195597309
 20
0.613855814484252
 10
0.2144309867676015
 20
0.574543793951509
 10
0.2348703315766357
 20
0.5331145964084623
 10
0.2586899343883278
 20
0.4717255271792256
 10
0.277429073509713
 20
0.4079051832203686
 10
0.2918858831323688
 20
0.3423995307172497
 10
0.3028584974478729
 20
0.2759545358552272
 10
0.3132940886527597
 20
0.1865269956014543
 10
0.319456143921156
 20
0.095944567486486
 10
0.3215105517256718
 20
0.0048185221584028
 10
0.319623200538917
 20
-0.0862398697347147
 10
0.3139599788335017
 20
-0.176619337544786
 10
0.3065758754706112
 20
-0.2486739090305009
 10
0.2960295631575839
 20
-0.3200959783107106
 10
0.2816629331552994
 20
-0.3903033760525594
 10
0.2628178767246371
 20
-0.4587139329231918
 10
0.2467093079466568
 20
-0.5046815168033236
 10
0.2274486025458646
 20
-0.5492242077710074
 10
0.2045214935437469
 20
-0.5916921626953878
 10
0.1845506785673474
 20
-0.6217800760713166
 10
0.1617618757613266
 20
-0.64993037909093
 10
0.1359512248330951
 20
-0.6753620424461712
 10
0.107864116900225
 20
-0.6966108606098166
 10
0.0766761927039808
 20
-0.7135884722364121
 10
0.0486501457137151
 20
-0.7235454299581974
 10
0.0192472728578061
 20
-0.729123708733376
 10
-0.010896294187221
 20
-0.7297867483290239
 10
-0.0406995951765753
 20
-0.7255551112206212
 10
-0.0675207457571629
 20
-0.7173574749960612
 10
-0.0927833248202734
 20
-0.705641449379932
 10
-0.1275931822314781
 20
-0.6823235070605579
 10
-0.1580312988303378
 20
-0.6539894913945723
 10
-0.1863029511501366
 20
-0.6193908224829494
 10
-0.2104397590923812
 20
-0.5816630990210884
 10
-0.2309148390468337
 20
-0.5418287858318934
 10
-0.2548171992574859
 20
-0.4829798029147047
 10
-0.2737983296235848
 20
-0.4217169517894984
 10
-0.2886198443762886
 20
-0.3587668092384586
 10
-0.3000433577467553
 20
-0.2948559520437695
 10
-0.3121710316317963
 20
-0.1975291232754218
 10
-0.3189818369574323
 20
-0.0989574572370939
 10
-0.321110954185557
 20
0.0
  0
ARC
  5
191
330
134
100
AcDbEntity
  8
AM_4
100
AcDbCircle
 10
0.0000000000000168
 20
-0.0000000000000397
 30
0.0
 40
1.922000000000043
100
AcDbArc
 50
109.433532938313
 51
122.4491215693411
  0
ARC
  5
192
330
134
100
AcDbEntity
  8
AM_4
100
AcDbCircle
 10
-0.0000000000002529
 20
-0.0000000000005191
 30
0.0
 40
1.92199999999943
100
AcDbArc
 50
237.5508784306568
 51
250.5664670616891
  0
LINE
  5
193
330
134
100
AcDbEntity
  8
AM_4
100
AcDbLine
 10
-1.031250000000001
 20
1.621914744214381
 30
0.0
 11
-1.031250000000001
 21
-1.621914744214385
 31
0.0
  0
LINE
  5
194
330
134
100
AcDbEntity
  8
AM_4
100
AcDbLine
 10
-0.6394745890182031
 20
1.8125
 30
0.0
 11
-0.6394745890182031
 21
-1.812500000000004
 31
0.0
  0
ENDBLK
  5
137
330
134
100
AcDbEntity
  8
0
100
AcDbBlockEnd
  0
ENDSEC
  0
SECTION
  2
ENTITIES
  0
INSERT
  5
6F
330
1F
100
AcDbEntity
  8
0
100
AcDbBlockReference
  2
1_023481_2
 10
0.0
 20
0.0
 30
0.0
  0
POINT
  5
196
330
1F
100
AcDbEntity
  8
ConnectionPoints
100
AcDbPoint
 10
-1.5
 20
0.0
 30
0.0000000000000001
  0
POINT
  5
197
330
1F
100
AcDbEntity
  8
ConnectionPoints
100
AcDbPoint
 10
0.0
 20
2.5
 30
0.0
  0
POINT
  5
198
330
1F
100
AcDbEntity
  8
ConnectionPoints
100
AcDbPoint
 10
0.0
 20
0.0
 30
0.0
  0
POINT
  5
199
330
1F
100
AcDbEntity
  8
ConnectionPoints
100
AcDbPoint
 10
-1.5
 20
0.0
 30
0.0000000000000001
  0
POINT
  5
19A
330
1F
100
AcDbEntity
  8
ConnectionPoints
100
AcDbPoint
 10
1.5
 20
0.0
 30
-0.0000000000000001
  0
POINT
  5
19B
330
1F
100
AcDbEntity
  8
ConnectionPoints
100
AcDbPoint
 10
0.0
 20
2.5
 30
0.0
  0
POINT
  5
19C
330
1F
100
AcDbEntity
  8
ConnectionPoints
100
AcDbPoint
 10
0.0
 20
2.5
 30
0.0
  0
ENDSEC
  0
SECTION
  2
OBJECTS
  0
DICTIONARY
  5
C
330
0
100
AcDbDictionary
281
     1
  3
ACAD_DETAILVIEWSTYLE
350
1A4
  3
ACAD_GROUP
350
D
  3
ACAD_LAYOUT
350
1A
  3
ACAD_MATERIAL
350
43
  3
ACAD_MLEADERSTYLE
350
6B
  3
ACAD_MLINESTYLE
350
17
  3
ACAD_PLOTSETTINGS
350
19
  3
ACAD_PLOTSTYLENAME
350
E
  3
ACAD_SCALELIST
350
47
  3
ACAD_SECTIONVIEWSTYLE
350
1A5
  3
ACAD_TABLESTYLE
350
69
  3
ACAD_VISUALSTYLE
350
2A
  3
ACDB_RECOMPOSE_DATA
350
1A1
  3
AcDbVariableDictionary
350
19D
  0
SUN
  5
6D
330
29
100
AcDbSun
 90
        1
290
     0
 63
     7
421
 16777215
 40
1.0
291
     1
 91
  2455826
 92
 54000000
292
     0
 70
     2
 71
   256
280
     1
  0
DICTIONARY
  5
1A4
102
{ACAD_REACTORS
330
C
102
}
330
C
100
AcDbDictionary
281
     1
  0
DICTIONARY
  5
D
102
{ACAD_REACTORS
330
C
102
}
330
C
100
AcDbDictionary
281
     1
  0
DICTIONARY
  5
1A
102
{ACAD_REACTORS
330
C
102
}
330
C
100
AcDbDictionary
281
     1
  3
Layout1
350
1E
  3
Layout2
350
26
  3
Model
350
22
  0
DICTIONARY
  5
43
102
{ACAD_REACTORS
330
C
102
}
330
C
100
AcDbDictionary
281
     1
  3
ByBlock
350
45
  3
ByLayer
350
44
  3
Global
350
46
  0
DICTIONARY
  5
6B
102
{ACAD_REACTORS
330
C
102
}
330
C
100
AcDbDictionary
281
     1
  3
Standard
350
6C
  0
DICTIONARY
  5
17
102
{ACAD_REACTORS
330
C
102
}
330
C
100
AcDbDictionary
281
     1
  3
Standard
350
18
  0
DICTIONARY
  5
19
102
{ACAD_REACTORS
330
C
102
}
330
C
100
AcDbDictionary
281
     1
  0
ACDBDICTIONARYWDFLT
  5
E
102
{ACAD_REACTORS
330
C
102
}
330
C
100
AcDbDictionary
281
     1
  3
Normal
350
F
100
AcDbDictionaryWithDefault
340
F
  0
DICTIONARY
  5
47
102
{ACAD_REACTORS
330
C
102
}
330
C
100
AcDbDictionary
281
     1
  3
A0
350
48
  3
A1
350
49
  3
A2
350
4A
  3
A3
350
4B
  3
A4
350
4C
  3
A5
350
4D
  3
A6
350
4E
  3
A7
350
4F
  3
A8
350
50
  3
A9
350
51
  3
B0
350
52
  3
B1
350
53
  3
B2
350
54
  3
B3
350
55
  3
B4
350
56
  3
B5
350
57
  3
B6
350
58
  3
B7
350
59
  3
B8
350
5A
  3
B9
350
5B
  3
C0
350
5C
  3
C1
350
5D
  3
C2
350
5E
  3
C3
350
5F
  3
C4
350
60
  3
C5
350
61
  3
C6
350
62
  3
C7
350
63
  3
C8
350
64
  3
C9
350
65
  3
D0
350
66
  3
D1
350
67
  3
D2
350
68
  0
DICTIONARY
  5
1A5
102
{ACAD_REACTORS
330
C
102
}
330
C
100
AcDbDictionary
281
     1
  0
DICTIONARY
  5
69
102
{ACAD_REACTORS
330
C
102
}
330
C
100
AcDbDictionary
281
     1
  3
Standard
350
6A
  0
DICTIONARY
  5
2A
102
{ACAD_REACTORS
330
C
102
}
330
C
100
AcDbDictionary
281
     1
  3
2dWireframe
350
2F
  3
Basic
350
32
  3
Brighten
350
36
  3
ColorChange
350
3A
  3
Conceptual
350
34
  3
Dim
350
35
  3
EdgeColorOff
350
3D
  3
Facepattern
350
39
  3
Flat
350
2B
  3
FlatWithEdges
350
2C
  3
Gouraud
350
2D
  3
GouraudWithEdges
350
2E
  3
Hidden
350
31
  3
JitterOff
350
3B
  3
Linepattern
350
38
  3
OverhangOff
350
3C
  3
Realistic
350
33
  3
Shaded
350
42
  3
Shaded with edges
350
41
  3
Shades of Gray
350
3E
  3
Sketchy
350
3F
  3
Thicken
350
37
  3
Wireframe
350
30
  3
X-Ray
350
40
  0
XRECORD
  5
1A1
102
{ACAD_REACTORS
330
C
102
}
330
C
100
AcDbXrecord
280
     1
 90
        1
330
6A
  0
DICTIONARY
  5
19D
102
{ACAD_REACTORS
330
C
102
}
330
C
100
AcDbDictionary
281
     1
  3
CANNOSCALE
350
19E
  3
CMLEADERSTYLE
350
1A3
  3
CTABLESTYLE
350
1A2
  0
LAYOUT
  5
1E
102
{ACAD_REACTORS
330
1A
102
}
330
1A
100
AcDbPlotSettings
  1

  2
none_device
  4

  6

 40
0.0
 41
0.0
 42
0.0
 43
0.0
 44
0.0
 45
0.0
 46
0.0
 47
0.0
 48
0.0
 49
0.0
140
0.0
141
0.0
142
1.0
143
1.0
 70
   688
 72
     0
 73
     0
 74
     5
  7

 75
    16
 76
     0
 77
     2
 78
   300
147
1.0
148
0.0
149
0.0
100
AcDbLayout
  1
Layout1
 70
     1
 71
     1
 10
0.0
 20
0.0
 11
12.0
 21
9.0
 12
0.0
 22
0.0
 32
0.0
 14
1.000000000000000E+20
 24
1.000000000000000E+20
 34
1.000000000000000E+20
 15
-1.000000000000000E+20
 25
-1.000000000000000E+20
 35
-1.000000000000000E+20
146
0.0
 13
0.0
 23
0.0
 33
0.0
 16
1.0
 26
0.0
 36
0.0
 17
0.0
 27
1.0
 37
0.0
 76
     0
330
1B
  0
LAYOUT
  5
26
102
{ACAD_REACTORS
330
1A
102
}
330
1A
100
AcDbPlotSettings
  1

  2
none_device
  4

  6

 40
0.0
 41
0.0
 42
0.0
 43
0.0
 44
0.0
 45
0.0
 46
0.0
 47
0.0
 48
0.0
 49
0.0
140
0.0
141
0.0
142
1.0
143
1.0
 70
   688
 72
     0
 73
     0
 74
     5
  7

 75
    16
 76
     0
 77
     2
 78
   300
147
1.0
148
0.0
149
0.0
100
AcDbLayout
  1
Layout2
 70
     1
 71
     2
 10
0.0
 20
0.0
 11
0.0
 21
0.0
 12
0.0
 22
0.0
 32
0.0
 14
0.0
 24
0.0
 34
0.0
 15
0.0
 25
0.0
 35
0.0
146
0.0
 13
0.0
 23
0.0
 33
0.0
 16
1.0
 26
0.0
 36
0.0
 17
0.0
 27
1.0
 37
0.0
 76
     0
330
23
  0
LAYOUT
  5
22
102
{ACAD_REACTORS
330
1A
102
}
330
1A
100
AcDbPlotSettings
  1

  2
none_device
  4
Letter_(8.50_x_11.00_Inches)
  6

 40
6.35
 41
6.35
 42
6.35000508
 43
6.35000508
 44
215.9
 45
279.4
 46
0.0
 47
0.0
 48
0.0
 49
0.0
140
0.0
141
0.0
142
1.0
143
1.0
 70
  1712
 72
     0
 73
     0
 74
     0
  7

 75
     0
 76
     0
 77
     2
 78
   300
147
1.0
148
0.0
149
0.0
100
AcDbLayout
  1
Model
 70
     1
 71
     0
 10
0.0
 20
0.0
 11
12.0
 21
9.0
 12
0.0
 22
0.0
 32
0.0
 14
1.000000000000000E+20
 24
1.000000000000000E+20
 34
1.000000000000000E+20
 15
-1.000000000000000E+20
 25
-1.000000000000000E+20
 35
-1.000000000000000E+20
146
0.0
 13
0.0
 23
0.0
 33
0.0
 16
1.0
 26
0.0
 36
0.0
 17
0.0
 27
1.0
 37
0.0
 76
     0
330
1F
331
29
  0
MATERIAL
  5
45
102
{ACAD_REACTORS
330
43
102
}
330
43
100
AcDbMaterial
  1
ByBlock
 72
     1
 94
      127
  0
MATERIAL
  5
44
102
{ACAD_REACTORS
330
43
102
}
330
43
100
AcDbMaterial
  1
ByLayer
 72
     1
 94
      127
  0
MATERIAL
  5
46
102
{ACAD_REACTORS
330
43
102
}
330
43
100
AcDbMaterial
  1
Global
 72
     1
 94
      127
  0
MLEADERSTYLE
  5
6C
102
{ACAD_REACTORS
330
6B
102
}
330
6B
100
AcDbMLeaderStyle
179
     2
170
     2
171
     1
172
     0
 90
        2
 40
0.0
 41
0.0
173
     1
 91
-1056964608
340
14
 92
       -2
290
     1
 42
0.09
291
     1
 43
0.36
  3
Standard
341
0
 44
0.18
300

342
11
174
     1
178
     6
175
     1
176
     0
 93
-1056964608
 45
0.18
292
     0
297
     0
 46
0.18
343
0
 94
-1056964608
 47
1.0
 49
1.0
140
1.0
293
     1
141
0.0
294
     1
177
     0
142
1.0
295
     0
296
     0
143
0.125
271
     0
272
     9
273
     9
298
     0
  0
MLINESTYLE
  5
18
102
{ACAD_REACTORS
330
17
102
}
330
17
100
AcDbMlineStyle
  2
Standard
 70
     0
  3

 62
   256
 51
90.0
 52
90.0
 71
     2
 49
0.5
 62
   256
  6
BYLAYER
 49
-0.5
 62
   256
  6
BYLAYER
  0
ACDBPLACEHOLDER
  5
F
102
{ACAD_REACTORS
330
E
102
}
330
E
  0
SCALE
  5
48
102
{ACAD_REACTORS
330
47
102
}
330
47
100
AcDbScale
 70
     0
300
1:1
140
1.0
141
1.0
290
     1
  0
SCALE
  5
49
102
{ACAD_REACTORS
330
47
102
}
330
47
100
AcDbScale
 70
     0
300
1:2
140
1.0
141
2.0
290
     0
  0
SCALE
  5
4A
102
{ACAD_REACTORS
330
47
102
}
330
47
100
AcDbScale
 70
     0
300
1:4
140
1.0
141
4.0
290
     0
  0
SCALE
  5
4B
102
{ACAD_REACTORS
330
47
102
}
330
47
100
AcDbScale
 70
     0
300
1:5
140
1.0
141
5.0
290
     0
  0
SCALE
  5
4C
102
{ACAD_REACTORS
330
47
102
}
330
47
100
AcDbScale
 70
     0
300
1:8
140
1.0
141
8.0
290
     0
  0
SCALE
  5
4D
102
{ACAD_REACTORS
330
47
102
}
330
47
100
AcDbScale
 70
     0
300
1:10
140
1.0
141
10.0
290
     0
  0
SCALE
  5
4E
102
{ACAD_REACTORS
330
47
102
}
330
47
100
AcDbScale
 70
     0
300
1:16
140
1.0
141
16.0
290
     0
  0
SCALE
  5
4F
102
{ACAD_REACTORS
330
47
102
}
330
47
100
AcDbScale
 70
     0
300
1:20
140
1.0
141
20.0
290
     0
  0
SCALE
  5
50
102
{ACAD_REACTORS
330
47
102
}
330
47
100
AcDbScale
 70
     0
300
1:30
140
1.0
141
30.0
290
     0
  0
SCALE
  5
51
102
{ACAD_REACTORS
330
47
102
}
330
47
100
AcDbScale
 70
     0
300
1:40
140
1.0
141
40.0
290
     0
  0
SCALE
  5
52
102
{ACAD_REACTORS
330
47
102
}
330
47
100
AcDbScale
 70
     0
300
1:50
140
1.0
141
50.0
290
     0
  0
SCALE
  5
53
102
{ACAD_REACTORS
330
47
102
}
330
47
100
AcDbScale
 70
     0
300
1:100
140
1.0
141
100.0
290
     0
  0
SCALE
  5
54
102
{ACAD_REACTORS
330
47
102
}
330
47
100
AcDbScale
 70
     0
300
2:1
140
2.0
141
1.0
290
     0
  0
SCALE
  5
55
102
{ACAD_REACTORS
330
47
102
}
330
47
100
AcDbScale
 70
     0
300
4:1
140
4.0
141
1.0
290
     0
  0
SCALE
  5
56
102
{ACAD_REACTORS
330
47
102
}
330
47
100
AcDbScale
 70
     0
300
8:1
140
8.0
141
1.0
290
     0
  0
SCALE
  5
57
102
{ACAD_REACTORS
330
47
102
}
330
47
100
AcDbScale
 70
     0
300
10:1
140
10.0
141
1.0
290
     0
  0
SCALE
  5
58
102
{ACAD_REACTORS
330
47
102
}
330
47
100
AcDbScale
 70
     0
300
100:1
140
100.0
141
1.0
290
     0
  0
SCALE
  5
59
102
{ACAD_REACTORS
330
47
102
}
330
47
100
AcDbScale
 70
     0
300
1/128" = 1'-0"
140
0.0078125
141
12.0
290
     0
  0
SCALE
  5
5A
102
{ACAD_REACTORS
330
47
102
}
330
47
100
AcDbScale
 70
     0
300
1/64" = 1'-0"
140
0.015625
141
12.0
290
     0
  0
SCALE
  5
5B
102
{ACAD_REACTORS
330
47
102
}
330
47
100
AcDbScale
 70
     0
300
1/32" = 1'-0"
140
0.03125
141
12.0
290
     0
  0
SCALE
  5
5C
102
{ACAD_REACTORS
330
47
102
}
330
47
100
AcDbScale
 70
     0
300
1/16" = 1'-0"
140
0.0625
141
12.0
290
     0
  0
SCALE
  5
5D
102
{ACAD_REACTORS
330
47
102
}
330
47
100
AcDbScale
 70
     0
300
3/32" = 1'-0"
140
0.09375
141
12.0
290
     0
  0
SCALE
  5
5E
102
{ACAD_REACTORS
330
47
102
}
330
47
100
AcDbScale
 70
     0
300
1/8" = 1'-0"
140
0.125
141
12.0
290
     0
  0
SCALE
  5
5F
102
{ACAD_REACTORS
330
47
102
}
330
47
100
AcDbScale
 70
     0
300
3/16" = 1'-0"
140
0.1875
141
12.0
290
     0
  0
SCALE
  5
60
102
{ACAD_REACTORS
330
47
102
}
330
47
100
AcDbScale
 70
     0
300
1/4" = 1'-0"
140
0.25
141
12.0
290
     0
  0
SCALE
  5
61
102
{ACAD_REACTORS
330
47
102
}
330
47
100
AcDbScale
 70
     0
300
3/8" = 1'-0"
140
0.375
141
12.0
290
     0
  0
SCALE
  5
62
102
{ACAD_REACTORS
330
47
102
}
330
47
100
AcDbScale
 70
     0
300
1/2" = 1'-0"
140
0.5
141
12.0
290
     0
  0
SCALE
  5
63
102
{ACAD_REACTORS
330
47
102
}
330
47
100
AcDbScale
 70
     0
300
3/4" = 1'-0"
140
0.75
141
12.0
290
     0
  0
SCALE
  5
64
102
{ACAD_REACTORS
330
47
102
}
330
47
100
AcDbScale
 70
     0
300
1" = 1'-0"
140
1.0
141
12.0
290
     0
  0
SCALE
  5
65
102
{ACAD_REACTORS
330
47
102
}
330
47
100
AcDbScale
 70
     0
300
1-1/2" = 1'-0"
140
1.5
141
12.0
290
     0
  0
SCALE
  5
66
102
{ACAD_REACTORS
330
47
102
}
330
47
100
AcDbScale
 70
     0
300
3" = 1'-0"
140
3.0
141
12.0
290
     0
  0
SCALE
  5
67
102
{ACAD_REACTORS
330
47
102
}
330
47
100
AcDbScale
 70
     0
300
6" = 1'-0"
140
6.0
141
12.0
290
     0
  0
SCALE
  5
68
102
{ACAD_REACTORS
330
47
102
}
330
47
100
AcDbScale
 70
     0
300
1'-0" = 1'-0"
140
12.0
141
12.0
290
     0
  0
TABLESTYLE
  5
6A
102
{ACAD_REACTORS
330
69
102
}
102
{ACAD_XDICTIONARY
360
19F
102
}
330
69
100
AcDbTableStyle
  3
Standard
 70
     0
 71
     0
 40
0.06
 41
0.06
280
     0
281
     0
  7
Standard
140
0.18
170
     2
 62
     0
 63
   257
283
     0
 90
        4
 91
        0
  1

274
    -2
284
     1
 64
     0
275
    -2
285
     1
 65
     0
276
    -2
286
     1
 66
     0
277
    -2
287
     1
 67
     0
278
    -2
288
     1
 68
     0
279
    -2
289
     1
 69
     0
  7
Standard
140
0.25
170
     5
 62
     0
 63
   257
283
     0
 90
        4
 91
        0
  1

274
    -2
284
     1
 64
     0
275
    -2
285
     1
 65
     0
276
    -2
286
     1
 66
     0
277
    -2
287
     1
 67
     0
278
    -2
288
     1
 68
     0
279
    -2
289
     1
 69
     0
  7
Standard
140
0.18
170
     5
 62
     0
 63
   257
283
     0
 90
        4
 91
        0
  1

274
    -2
284
     1
 64
     0
275
    -2
285
     1
 65
     0
276
    -2
286
     1
 66
     0
277
    -2
287
     1
 67
     0
278
    -2
288
     1
 68
     0
279
    -2
289
     1
 69
     0
  0
VISUALSTYLE
  5
2F
102
{ACAD_REACTORS
330
2A
102
}
330
2A
100
AcDbVisualStyle
  2
2dWireframe
 70
     4
177
     3
291
     0
 70
    58
 90
        0
176
     1
 90
        2
176
     1
 90
        0
176
     1
 90
        0
176
     1
 40
0.6
176
     1
 40
30.0
176
     1
 62
     7
420
 16777215
176
     1
 90
        1
176
     1
 90
        4
176
     1
 62
     7
176
     1
 62
   257
176
     1
 90
        1
176
     1
 90
        1
176
     1
 40
1.0
176
     1
 90
        0
176
     1
 62
   257
176
     1
 40
1.0
176
     1
 90
        1
176
     1
 90
        6
176
     1
 90
        2
176
     1
 62
     7
176
     1
 90
        5
176
     1
 90
        0
176
     1
 90
        0
176
     1
290
     0
176
     1
 90
        1
176
     1
 40
0.0
176
     1
 90
        0
176
     1
290
     1
176
     1
290
     1
176
     1
290
     0
176
     1
290
     0
176
     1
290
     0
176
     1
290
     0
176
     1
290
     0
176
     1
290
     0
176
     1
290
     0
176
     1
 90
       50
176
     1
 40
0.0
176
     1
 40
1.0
176
     1
 90
        0
176
     1
 62
    18
420
        0
176
     1
 90
       50
176
     1
 90
        3
176
     1
 62
     5
420
      255
176
     1
290
     0
176
     1
 90
       50
176
     1
 90
       50
176
     1
 90
       50
176
     1
290
     0
176
     1
 90
       50
176
     1
 62
   256
176
     0
 40
1.0
176
     0
 90
        2
176
     1
  1
strokes_ogs.tif
176
     1
290
     0
176
     1
 40
1.0
176
     1
 40
1.0
176
     1
  0
VISUALSTYLE
  5
32
102
{ACAD_REACTORS
330
2A
102
}
330
2A
100
AcDbVisualStyle
  2
Basic
 70
     7
177
     3
291
     1
 70
    58
 90
        1
176
     1
 90
        0
176
     1
 90
        1
176
     1
 90
        0
176
     1
 40
0.6
176
     1
 40
30.0
176
     1
 62
     7
420
 16777215
176
     1
 90
        0
176
     1
 90
        4
176
     1
 62
     7
176
     1
 62
   257
176
     1
 90
        1
176
     1
 90
        1
176
     1
 40
1.0
176
     1
 90
        8
176
     1
 62
     7
176
     1
 40
1.0
176
     1
 90
        1
176
     1
 90
        6
176
     1
 90
        2
176
     1
 62
     7
176
     1
 90
        5
176
     1
 90
        0
176
     1
 90
        0
176
     1
290
     0
176
     1
 90
        1
176
     1
 40
0.0
176
     1
 90
        0
176
     1
290
     0
176
     1
290
     1
176
     1
290
     1
176
     1
290
     0
176
     1
290
     0
176
     1
290
     0
176
     1
290
     0
176
     1
290
     0
176
     1
290
     0
176
     1
 90
       50
176
     1
 40
0.0
176
     1
 40
1.0
176
     1
 90
        0
176
     1
 62
    18
420
        0
176
     1
 90
       50
176
     1
 90
        3
176
     1
 62
     5
420
      255
176
     1
290
     0
176
     1
 90
       50
176
     1
 90
       50
176
     1
 90
       50
176
     1
290
     0
176
     1
 90
       50
176
     1
 62
   256
176
     0
 40
1.0
176
     0
 90
        2
176
     1
  1
strokes_ogs.tif
176
     1
290
     0
176
     1
 40
1.0
176
     1
 40
1.0
176
     1
  0
VISUALSTYLE
  5
36
102
{ACAD_REACTORS
330
2A
102
}
330
2A
100
AcDbVisualStyle
  2
Brighten
 70
    12
177
     3
291
     1
 70
    58
 90
        2
176
     1
 90
        2
176
     1
 90
        0
176
     1
 90
        0
176
     1
 40
0.6
176
     1
 40
30.0
176
     1
 62
     7
420
 16777215
176
     1
 90
        1
176
     1
 90
        4
176
     1
 62
     7
176
     1
 62
   257
176
     1
 90
        1
176
     1
 90
        1
176
     1
 40
1.0
176
     1
 90
        8
176
     1
 62
     7
176
     1
 40
1.0
176
     1
 90
        1
176
     1
 90
        6
176
     1
 90
        2
176
     1
 62
     7
176
     1
 90
        5
176
     1
 90
        0
176
     1
 90
        0
176
     1
290
     0
176
     1
 90
        1
176
     1
 40
50.0
176
     1
 90
        0
176
     1
290
     0
176
     1
290
     1
176
     1
290
     1
176
     1
290
     0
176
     1
290
     0
176
     1
290
     0
176
     1
290
     0
176
     1
290
     0
176
     1
290
     0
176
     1
 90
       50
176
     1
 40
0.0
176
     1
 40
1.0
176
     1
 90
        0
176
     1
 62
    18
420
        0
176
     1
 90
       50
176
     1
 90
        3
176
     1
 62
     5
420
      255
176
     1
290
     0
176
     1
 90
       50
176
     1
 90
       50
176
     1
 90
       50
176
     1
290
     0
176
     1
 90
       50
176
     1
 62
   256
176
     0
 40
1.0
176
     0
 90
        2
176
     1
  1
strokes_ogs.tif
176
     1
290
     0
176
     1
 40
1.0
176
     1
 40
1.0
176
     1
  0
VISUALSTYLE
  5
3A
102
{ACAD_REACTORS
330
2A
102
}
330
2A
100
AcDbVisualStyle
  2
ColorChange
 70
    16
177
     3
291
     1
 70
    58
 90
        2
176
     1
 90
        2
176
     1
 90
        3
176
     1
 90
        0
176
     1
 40
0.6
176
     1
 40
30.0
176
     1
 62
     8
420
  8421504
176
     1
 90
        1
176
     1
 90
        4
176
     1
 62
     7
176
     1
 62
   257
176
     1
 90
        1
176
     1
 90
        1
176
     1
 40
1.0
176
     1
 90
        8
176
     1
 62
     8
420
  8421504
176
     1
 40
1.0
176
     1
 90
        1
176
     1
 90
        6
176
     1
 90
        2
176
     1
 62
     7
176
     1
 90
        5
176
     1
 90
        0
176
     1
 90
        0
176
     1
290
     0
176
     1
 90
        1
176
     1
 40
0.0
176
     1
 90
        0
176
     1
290
     0
176
     1
290
     1
176
     1
290
     1
176
     1
290
     0
176
     1
290
     0
176
     1
290
     0
176
     1
290
     0
176
     1
290
     0
176
     1
290
     0
176
     1
 90
       50
176
     1
 40
0.0
176
     1
 40
1.0
176
     1
 90
        0
176
     1
 62
    18
420
        0
176
     1
 90
       50
176
     1
 90
        3
176
     1
 62
     5
420
      255
176
     1
290
     0
176
     1
 90
       50
176
     1
 90
       50
176
     1
 90
       50
176
     1
290
     0
176
     1
 90
       50
176
     1
 62
   256
176
     0
 40
1.0
176
     0
 90
        2
176
     1
  1
strokes_ogs.tif
176
     1
290
     0
176
     1
 40
1.0
176
     1
 40
1.0
176
     1
  0
VISUALSTYLE
  5
34
102
{ACAD_REACTORS
330
2A
102
}
330
2A
100
AcDbVisualStyle
  2
Conceptual
 70
     9
177
     3
291
     0
 70
    58
 90
        3
176
     1
 90
        2
176
     1
 90
        0
176
     1
 90
        0
176
     1
 40
0.6
176
     1
 40
30.0
176
     1
 62
     7
420
 16777215
176
     1
 90
        2
176
     1
 90
        2
176
     1
 62
     7
176
     1
 62
   257
176
     1
 90
        1
176
     1
 90
        1
176
     1
 40
179.0
176
     1
 90
        8
176
     1
 62
     7
176
     1
 40
1.0
176
     1
 90
        1
176
     1
 90
        6
176
     1
 90
        2
176
     1
 62
     7
176
     1
 90
        3
176
     1
 90
        0
176
     1
 90
        0
176
     1
290
     0
176
     1
 90
        1
176
     1
 40
0.0
176
     1
 90
        0
176
     1
290
     0
176
     1
290
     1
176
     1
290
     1
176
     1
290
     0
176
     1
290
     0
176
     1
290
     0
176
     1
290
     0
176
     1
290
     0
176
     1
290
     0
176
     1
 90
       50
176
     1
 40
0.0
176
     1
 40
1.0
176
     1
 90
        0
176
     1
 62
    18
420
        0
176
     1
 90
       50
176
     1
 90
        3
176
     1
 62
     5
420
      255
176
     1
290
     0
176
     1
 90
       50
176
     1
 90
       50
176
     1
 90
       50
176
     1
290
     0
176
     1
 90
       50
176
     1
 62
   256
176
     0
 40
1.0
176
     0
 90
        2
176
     1
  1
strokes_ogs.tif
176
     1
290
     0
176
     1
 40
1.0
176
     1
 40
1.0
176
     1
  0
VISUALSTYLE
  5
35
102
{ACAD_REACTORS
330
2A
102
}
330
2A
100
AcDbVisualStyle
  2
Dim
 70
    11
177
     3
291
     1
 70
    58
 90
        2
176
     1
 90
        2
176
     1
 90
        0
176
     1
 90
        0
176
     1
 40
0.6
176
     1
 40
30.0
176
     1
 62
     7
420
 16777215
176
     1
 90
        1
176
     1
 90
        4
176
     1
 62
     7
176
     1
 62
   257
176
     1
 90
        1
176
     1
 90
        1
176
     1
 40
1.0
176
     1
 90
        8
176
     1
 62
     7
176
     1
 40
1.0
176
     1
 90
        1
176
     1
 90
        6
176
     1
 90
        2
176
     1
 62
     7
176
     1
 90
        5
176
     1
 90
        0
176
     1
 90
        0
176
     1
290
     0
176
     1
 90
        1
176
     1
 40
-50.0
176
     1
 90
        0
176
     1
290
     0
176
     1
290
     1
176
     1
290
     1
176
     1
290
     0
176
     1
290
     0
176
     1
290
     0
176
     1
290
     0
176
     1
290
     0
176
     1
290
     0
176
     1
 90
       50
176
     1
 40
0.0
176
     1
 40
1.0
176
     1
 90
        0
176
     1
 62
    18
420
        0
176
     1
 90
       50
176
     1
 90
        3
176
     1
 62
     5
420
      255
176
     1
290
     0
176
     1
 90
       50
176
     1
 90
       50
176
     1
 90
       50
176
     1
290
     0
176
     1
 90
       50
176
     1
 62
   256
176
     0
 40
1.0
176
     0
 90
        2
176
     1
  1
strokes_ogs.tif
176
     1
290
     0
176
     1
 40
1.0
176
     1
 40
1.0
176
     1
  0
VISUALSTYLE
  5
3D
102
{ACAD_REACTORS
330
2A
102
}
330
2A
100
AcDbVisualStyle
  2
EdgeColorOff
 70
    22
177
     3
291
     1
 70
    58
 90
        2
176
     0
 90
        2
176
     0
 90
        0
176
     0
 90
        0
176
     0
 40
0.6
176
     0
 40
30.0
176
     0
 62
     7
420
 16777215
176
     0
 90
        1
176
     0
 90
        4
176
     0
 62
     7
176
     0
 62
   257
176
     0
 90
        1
176
     0
 90
        1
176
     0
 40
1.0
176
     0
 90
        8
176
     2
 62
     7
176
     0
 40
1.0
176
     0
 90
        1
176
     0
 90
        6
176
     0
 90
        2
176
     0
 62
     7
176
     0
 90
        5
176
     0
 90
        0
176
     0
 90
        0
176
     0
290
     0
176
     0
 90
        1
176
     0
 40
0.0
176
     0
 90
        0
176
     0
290
     0
176
     0
290
     1
176
     0
290
     1
176
     0
290
     0
176
     0
290
     0
176
     0
290
     0
176
     0
290
     0
176
     0
290
     0
176
     0
290
     0
176
     0
 90
       50
176
     0
 40
0.0
176
     0
 40
1.0
176
     0
 90
        0
176
     0
 62
    18
420
        0
176
     0
 90
       50
176
     0
 90
        3
176
     0
 62
     5
420
      255
176
     0
290
     0
176
     0
 90
       50
176
     0
 90
       50
176
     0
 90
       50
176
     0
290
     0
176
     0
 90
       50
176
     0
 62
   256
176
     0
 40
1.0
176
     0
 90
        2
176
     0
  1
strokes_ogs.tif
176
     0
290
     0
176
     0
 40
1.0
176
     0
 40
1.0
176
     0
  0
VISUALSTYLE
  5
39
102
{ACAD_REACTORS
330
2A
102
}
330
2A
100
AcDbVisualStyle
  2
Facepattern
 70
    15
177
     3
291
     1
 70
    58
 90
        2
176
     1
 90
        2
176
     1
 90
        0
176
     1
 90
        0
176
     1
 40
0.6
176
     1
 40
30.0
176
     1
 62
     7
420
 16777215
176
     1
 90
        1
176
     1
 90
        4
176
     1
 62
     7
176
     1
 62
   257
176
     1
 90
        1
176
     1
 90
        1
176
     1
 40
1.0
176
     1
 90
        8
176
     1
 62
     7
176
     1
 40
1.0
176
     1
 90
        1
176
     1
 90
        6
176
     1
 90
        2
176
     1
 62
     7
176
     1
 90
        5
176
     1
 90
        0
176
     1
 90
        0
176
     1
290
     0
176
     1
 90
        1
176
     1
 40
0.0
176
     1
 90
        0
176
     1
290
     0
176
     1
290
     1
176
     1
290
     1
176
     1
290
     0
176
     1
290
     0
176
     1
290
     0
176
     1
290
     0
176
     1
290
     0
176
     1
290
     0
176
     1
 90
       50
176
     1
 40
0.0
176
     1
 40
1.0
176
     1
 90
        0
176
     1
 62
    18
420
        0
176
     1
 90
       50
176
     1
 90
        3
176
     1
 62
     5
420
      255
176
     1
290
     0
176
     1
 90
       50
176
     1
 90
       50
176
     1
 90
       50
176
     1
290
     0
176
     1
 90
       50
176
     1
 62
   256
176
     0
 40
1.0
176
     0
 90
        2
176
     1
  1
strokes_ogs.tif
176
     1
290
     0
176
     1
 40
1.0
176
     1
 40
1.0
176
     1
  0
VISUALSTYLE
  5
2B
102
{ACAD_REACTORS
330
2A
102
}
330
2A
100
AcDbVisualStyle
  2
Flat
 70
     0
177
     3
291
     1
 70
    58
 90
        2
176
     1
 90
        1
176
     1
 90
        1
176
     1
 90
        2
176
     1
 40
0.6
176
     1
 40
30.0
176
     1
 62
     7
420
 16777215
176
     1
 90
        0
176
     1
 90
        0
176
     1
 62
     7
176
     1
 62
   257
176
     1
 90
        1
176
     1
 90
        1
176
     1
 40
1.0
176
     1
 90
        8
176
     1
 62
     7
176
     1
 40
1.0
176
     1
 90
        1
176
     1
 90
        6
176
     1
 90
        2
176
     1
 62
     7
176
     1
 90
        5
176
     1
 90
        0
176
     1
 90
        0
176
     1
290
     0
176
     1
 90
       13
176
     1
 40
0.0
176
     1
 90
        0
176
     1
290
     0
176
     1
290
     1
176
     1
290
     1
176
     1
290
     0
176
     1
290
     0
176
     1
290
     0
176
     1
290
     0
176
     1
290
     0
176
     1
290
     0
176
     1
 90
       50
176
     1
 40
0.0
176
     1
 40
1.0
176
     1
 90
        0
176
     1
 62
    18
420
        0
176
     1
 90
       50
176
     1
 90
        3
176
     1
 62
     5
420
      255
176
     1
290
     0
176
     1
 90
       50
176
     1
 90
       50
176
     1
 90
       50
176
     1
290
     0
176
     1
 90
       50
176
     1
 62
   256
176
     0
 40
1.0
176
     0
 90
        2
176
     1
  1
strokes_ogs.tif
176
     1
290
     0
176
     1
 40
1.0
176
     1
 40
1.0
176
     1
  0
VISUALSTYLE
  5
2C
102
{ACAD_REACTORS
330
2A
102
}
330
2A
100
AcDbVisualStyle
  2
FlatWithEdges
 70
     1
177
     3
291
     1
 70
    58
 90
        2
176
     1
 90
        1
176
     1
 90
        1
176
     1
 90
        2
176
     1
 40
0.6
176
     1
 40
30.0
176
     1
 62
     7
420
 16777215
176
     1
 90
        1
176
     1
 90
        0
176
     1
 62
     7
176
     1
 62
   257
176
     1
 90
        1
176
     1
 90
        1
176
     1
 40
1.0
176
     1
 90
        0
176
     1
 62
   257
176
     1
 40
1.0
176
     1
 90
        1
176
     1
 90
        6
176
     1
 90
        2
176
     1
 62
     7
176
     1
 90
        5
176
     1
 90
        0
176
     1
 90
        0
176
     1
290
     0
176
     1
 90
       13
176
     1
 40
0.0
176
     1
 90
        0
176
     1
290
     0
176
     1
290
     1
176
     1
290
     1
176
     1
290
     0
176
     1
290
     0
176
     1
290
     0
176
     1
290
     0
176
     1
290
     0
176
     1
290
     0
176
     1
 90
       50
176
     1
 40
0.0
176
     1
 40
1.0
176
     1
 90
        0
176
     1
 62
    18
420
        0
176
     1
 90
       50
176
     1
 90
        3
176
     1
 62
     5
420
      255
176
     1
290
     0
176
     1
 90
       50
176
     1
 90
       50
176
     1
 90
       50
176
     1
290
     0
176
     1
 90
       50
176
     1
 62
   256
176
     0
 40
1.0
176
     0
 90
        2
176
     1
  1
strokes_ogs.tif
176
     1
290
     0
176
     1
 40
1.0
176
     1
 40
1.0
176
     1
  0
VISUALSTYLE
  5
2D
102
{ACAD_REACTORS
330
2A
102
}
330
2A
100
AcDbVisualStyle
  2
Gouraud
 70
     2
177
     3
291
     1
 70
    58
 90
        2
176
     1
 90
        2
176
     1
 90
        1
176
     1
 90
        2
176
     1
 40
0.6
176
     1
 40
30.0
176
     1
 62
     7
420
 16777215
176
     1
 90
        0
176
     1
 90
        0
176
     1
 62
     7
176
     1
 62
   257
176
     1
 90
        1
176
     1
 90
        1
176
     1
 40
1.0
176
     1
 90
        0
176
     1
 62
     7
176
     1
 40
1.0
176
     1
 90
        1
176
     1
 90
        6
176
     1
 90
        2
176
     1
 62
     7
176
     1
 90
        5
176
     1
 90
        0
176
     1
 90
        0
176
     1
290
     0
176
     1
 90
       13
176
     1
 40
0.0
176
     1
 90
        0
176
     1
290
     0
176
     1
290
     1
176
     1
290
     1
176
     1
290
     0
176
     1
290
     0
176
     1
290
     0
176
     1
290
     0
176
     1
290
     0
176
     1
290
     0
176
     1
 90
       50
176
     1
 40
0.0
176
     1
 40
1.0
176
     1
 90
        0
176
     1
 62
    18
420
        0
176
     1
 90
       50
176
     1
 90
        3
176
     1
 62
     5
420
      255
176
     1
290
     0
176
     1
 90
       50
176
     1
 90
       50
176
     1
 90
       50
176
     1
290
     0
176
     1
 90
       50
176
     1
 62
   256
176
     0
 40
1.0
176
     0
 90
        2
176
     1
  1
strokes_ogs.tif
176
     1
290
     0
176
     1
 40
1.0
176
     1
 40
1.0
176
     1
  0
VISUALSTYLE
  5
2E
102
{ACAD_REACTORS
330
2A
102
}
330
2A
100
AcDbVisualStyle
  2
GouraudWithEdges
 70
     3
177
     3
291
     1
 70
    58
 90
        2
176
     1
 90
        2
176
     1
 90
        1
176
     1
 90
        2
176
     1
 40
0.6
176
     1
 40
30.0
176
     1
 62
     7
420
 16777215
176
     1
 90
        1
176
     1
 90
        0
176
     1
 62
     7
176
     1
 62
   257
176
     1
 90
        1
176
     1
 90
        1
176
     1
 40
1.0
176
     1
 90
        0
176
     1
 62
   257
176
     1
 40
1.0
176
     1
 90
        1
176
     1
 90
        6
176
     1
 90
        2
176
     1
 62
     7
176
     1
 90
        5
176
     1
 90
        0
176
     1
 90
        0
176
     1
290
     0
176
     1
 90
       13
176
     1
 40
0.0
176
     1
 90
        0
176
     1
290
     0
176
     1
290
     1
176
     1
290
     1
176
     1
290
     0
176
     1
290
     0
176
     1
290
     0
176
     1
290
     0
176
     1
290
     0
176
     1
290
     0
176
     1
 90
       50
176
     1
 40
0.0
176
     1
 40
1.0
176
     1
 90
        0
176
     1
 62
    18
420
        0
176
     1
 90
       50
176
     1
 90
        3
176
     1
 62
     5
420
      255
176
     1
290
     0
176
     1
 90
       50
176
     1
 90
       50
176
     1
 90
       50
176
     1
290
     0
176
     1
 90
       50
176
     1
 62
   256
176
     0
 40
1.0
176
     0
 90
        2
176
     1
  1
strokes_ogs.tif
176
     1
290
     0
176
     1
 40
1.0
176
     1
 40
1.0
176
     1
  0
VISUALSTYLE
  5
31
102
{ACAD_REACTORS
330
2A
102
}
330
2A
100
AcDbVisualStyle
  2
Hidden
 70
     6
177
     3
291
     0
 70
    58
 90
        1
176
     1
 90
        2
176
     1
 90
        2
176
     1
 90
        0
176
     1
 40
0.6
176
     1
 40
30.0
176
     1
 62
     7
420
 16777215
176
     1
 90
        2
176
     1
 90
        2
176
     1
 62
     7
176
     1
 62
   257
176
     1
 90
        2
176
     1
 90
        1
176
     1
 40
40.0
176
     1
 90
        0
176
     1
 62
   257
176
     1
 40
1.0
176
     1
 90
        1
176
     1
 90
        6
176
     1
 90
        2
176
     1
 62
     7
176
     1
 90
        3
176
     1
 90
        0
176
     1
 90
        0
176
     1
290
     0
176
     1
 90
        1
176
     1
 40
0.0
176
     1
 90
        0
176
     1
290
     0
176
     1
290
     1
176
     1
290
     1
176
     1
290
     0
176
     1
290
     0
176
     1
290
     0
176
     1
290
     0
176
     1
290
     0
176
     1
290
     0
176
     1
 90
       50
176
     1
 40
0.0
176
     1
 40
1.0
176
     1
 90
        0
176
     1
 62
    18
420
        0
176
     1
 90
       50
176
     1
 90
        3
176
     1
 62
     5
420
      255
176
     1
290
     0
176
     1
 90
       50
176
     1
 90
       50
176
     1
 90
       50
176
     1
290
     0
176
     1
 90
       50
176
     1
 62
   256
176
     0
 40
1.0
176
     0
 90
        2
176
     1
  1
strokes_ogs.tif
176
     1
290
     0
176
     1
 40
1.0
176
     1
 40
1.0
176
     1
  0
VISUALSTYLE
  5
3B
102
{ACAD_REACTORS
330
2A
102
}
330
2A
100
AcDbVisualStyle
  2
JitterOff
 70
    20
177
     3
291
     1
 70
    58
 90
        2
176
     0
 90
        2
176
     0
 90
        0
176
     0
 90
        0
176
     0
 40
0.6
176
     0
 40
30.0
176
     0
 62
     7
420
 16777215
176
     0
 90
        1
176
     0
 90
        4
176
     0
 62
     7
176
     0
 62
   257
176
     0
 90
        1
176
     0
 90
        1
176
     0
 40
1.0
176
     0
 90
       10
176
     2
 62
     7
176
     0
 40
1.0
176
     0
 90
        1
176
     0
 90
        6
176
     0
 90
        2
176
     0
 62
     7
176
     0
 90
        5
176
     0
 90
        0
176
     0
 90
        0
176
     0
290
     0
176
     0
 90
        1
176
     0
 40
0.0
176
     0
 90
        0
176
     0
290
     0
176
     0
290
     1
176
     0
290
     1
176
     0
290
     0
176
     0
290
     0
176
     0
290
     0
176
     0
290
     0
176
     0
290
     0
176
     0
290
     0
176
     0
 90
       50
176
     0
 40
0.0
176
     0
 40
1.0
176
     0
 90
        0
176
     0
 62
    18
420
        0
176
     0
 90
       50
176
     0
 90
        3
176
     0
 62
     5
420
      255
176
     0
290
     0
176
     0
 90
       50
176
     0
 90
       50
176
     0
 90
       50
176
     0
290
     0
176
     0
 90
       50
176
     0
 62
   256
176
     0
 40
1.0
176
     0
 90
        2
176
     0
  1
strokes_ogs.tif
176
     0
290
     0
176
     0
 40
1.0
176
     0
 40
1.0
176
     0
  0
VISUALSTYLE
  5
38
102
{ACAD_REACTORS
330
2A
102
}
330
2A
100
AcDbVisualStyle
  2
Linepattern
 70
    14
177
     3
291
     1
 70
    58
 90
        2
176
     1
 90
        2
176
     1
 90
        0
176
     1
 90
        0
176
     1
 40
0.6
176
     1
 40
30.0
176
     1
 62
     7
420
 16777215
176
     1
 90
        1
176
     1
 90
        4
176
     1
 62
     7
176
     1
 62
   257
176
     1
 90
        7
176
     1
 90
        7
176
     1
 40
1.0
176
     1
 90
        8
176
     1
 62
     7
176
     1
 40
1.0
176
     1
 90
        1
176
     1
 90
        6
176
     1
 90
        2
176
     1
 62
     7
176
     1
 90
        5
176
     1
 90
        0
176
     1
 90
        0
176
     1
290
     0
176
     1
 90
        1
176
     1
 40
0.0
176
     1
 90
        0
176
     1
290
     0
176
     1
290
     1
176
     1
290
     1
176
     1
290
     0
176
     1
290
     0
176
     1
290
     0
176
     1
290
     0
176
     1
290
     0
176
     1
290
     0
176
     1
 90
       50
176
     1
 40
0.0
176
     1
 40
1.0
176
     1
 90
        0
176
     1
 62
    18
420
        0
176
     1
 90
       50
176
     1
 90
        3
176
     1
 62
     5
420
      255
176
     1
290
     0
176
     1
 90
       50
176
     1
 90
       50
176
     1
 90
       50
176
     1
290
     0
176
     1
 90
       50
176
     1
 62
   256
176
     0
 40
1.0
176
     0
 90
        2
176
     1
  1
strokes_ogs.tif
176
     1
290
     0
176
     1
 40
1.0
176
     1
 40
1.0
176
     1
  0
VISUALSTYLE
  5
3C
102
{ACAD_REACTORS
330
2A
102
}
330
2A
100
AcDbVisualStyle
  2
OverhangOff
 70
    21
177
     3
291
     1
 70
    58
 90
        2
176
     0
 90
        2
176
     0
 90
        0
176
     0
 90
        0
176
     0
 40
0.6
176
     0
 40
30.0
176
     0
 62
     7
420
 16777215
176
     0
 90
        1
176
     0
 90
        4
176
     0
 62
     7
176
     0
 62
   257
176
     0
 90
        1
176
     0
 90
        1
176
     0
 40
1.0
176
     0
 90
        9
176
     2
 62
     7
176
     0
 40
1.0
176
     0
 90
        1
176
     0
 90
        6
176
     0
 90
        2
176
     0
 62
     7
176
     0
 90
        5
176
     0
 90
        0
176
     0
 90
        0
176
     0
290
     0
176
     0
 90
        1
176
     0
 40
0.0
176
     0
 90
        0
176
     0
290
     0
176
     0
290
     1
176
     0
290
     1
176
     0
290
     0
176
     0
290
     0
176
     0
290
     0
176
     0
290
     0
176
     0
290
     0
176
     0
290
     0
176
     0
 90
       50
176
     0
 40
0.0
176
     0
 40
1.0
176
     0
 90
        0
176
     0
 62
    18
420
        0
176
     0
 90
       50
176
     0
 90
        3
176
     0
 62
     5
420
      255
176
     0
290
     0
176
     0
 90
       50
176
     0
 90
       50
176
     0
 90
       50
176
     0
290
     0
176
     0
 90
       50
176
     0
 62
   256
176
     0
 40
1.0
176
     0
 90
        2
176
     0
  1
strokes_ogs.tif
176
     0
290
     0
176
     0
 40
1.0
176
     0
 40
1.0
176
     0
  0
VISUALSTYLE
  5
33
102
{ACAD_REACTORS
330
2A
102
}
330
2A
100
AcDbVisualStyle
  2
Realistic
 70
     8
177
     3
291
     0
 70
    58
 90
        2
176
     1
 90
        3
176
     1
 90
        0
176
     1
 90
        2
176
     1
 40
0.6
176
     1
 40
30.0
176
     1
 62
     7
420
 16777215
176
     1
 90
        0
176
     1
 90
        0
176
     1
 62
     7
176
     1
 62
   257
176
     1
 90
        1
176
     1
 90
        1
176
     1
 40
1.0
176
     1
 90
        8
176
     1
 62
   257
176
     1
 40
1.0
176
     1
 90
        1
176
     1
 90
        6
176
     1
 90
        2
176
     1
 62
     7
176
     1
 90
        3
176
     1
 90
        0
176
     1
 90
        0
176
     1
290
     0
176
     1
 90
       13
176
     1
 40
0.0
176
     1
 90
        0
176
     1
290
     0
176
     1
290
     1
176
     1
290
     1
176
     1
290
     0
176
     1
290
     0
176
     1
290
     0
176
     1
290
     0
176
     1
290
     0
176
     1
290
     0
176
     1
 90
       50
176
     1
 40
0.0
176
     1
 40
1.0
176
     1
 90
        0
176
     1
 62
    18
420
        0
176
     1
 90
       50
176
     1
 90
        3
176
     1
 62
     5
420
      255
176
     1
290
     0
176
     1
 90
       50
176
     1
 90
       50
176
     1
 90
       50
176
     1
290
     0
176
     1
 90
       50
176
     1
 62
   256
176
     0
 40
1.0
176
     0
 90
        2
176
     1
  1
strokes_ogs.tif
176
     1
290
     0
176
     1
 40
1.0
176
     1
 40
1.0
176
     1
  0
VISUALSTYLE
  5
42
102
{ACAD_REACTORS
330
2A
102
}
330
2A
100
AcDbVisualStyle
  2
Shaded
 70
    27
177
     3
291
     0
 70
    58
 90
        2
176
     1
 90
        2
176
     1
 90
        1
176
     1
 90
        2
176
     1
 40
0.6
176
     1
 40
30.0
176
     1
 62
     7
420
 16777215
176
     1
 90
        0
176
     1
 90
        4
176
     1
 62
     7
176
     1
 62
   257
176
     1
 90
        1
176
     1
 90
        1
176
     1
 40
1.0
176
     1
 90
        8
176
     1
 62
   257
176
     1
 40
1.0
176
     1
 90
        1
176
     1
 90
        6
176
     1
 90
        2
176
     1
 62
     8
420
  7895160
176
     1
 90
        3
176
     1
 90
        0
176
     1
 90
        0
176
     1
290
     0
176
     1
 90
        5
176
     1
 40
0.0
176
     1
 90
        0
176
     1
290
     0
176
     1
290
     1
176
     1
290
     1
176
     1
290
     0
176
     1
290
     0
176
     1
290
     0
176
     1
290
     0
176
     1
290
     0
176
     1
290
     0
176
     1
 90
       50
176
     1
 40
0.0
176
     1
 40
1.0
176
     1
 90
        0
176
     1
 62
    18
420
        0
176
     1
 90
       50
176
     1
 90
        3
176
     1
 62
     5
420
      255
176
     1
290
     0
176
     1
 90
       50
176
     1
 90
       50
176
     1
 90
       50
176
     1
290
     0
176
     1
 90
       50
176
     1
 62
   256
176
     0
 40
1.0
176
     0
 90
        2
176
     1
  1
strokes_ogs.tif
176
     1
290
     0
176
     1
 40
1.0
176
     1
 40
1.0
176
     1
  0
VISUALSTYLE
  5
41
102
{ACAD_REACTORS
330
2A
102
}
330
2A
100
AcDbVisualStyle
  2
Shaded with edges
 70
    26
177
     3
291
     0
 70
    58
 90
        2
176
     1
 90
        2
176
     1
 90
        1
176
     1
 90
        2
176
     1
 40
0.6
176
     1
 40
30.0
176
     1
 62
     7
420
 16777215
176
     1
 90
        1
176
     1
 90
       10
176
     1
 62
     7
176
     1
 62
   257
176
     1
 90
        2
176
     1
 90
        1
176
     1
 40
1.0
176
     1
 90
        8
176
     1
 62
   257
176
     1
 40
1.0
176
     1
 90
        1
176
     1
 90
        6
176
     1
 90
        2
176
     1
 62
     7
176
     1
 90
        3
176
     1
 90
        0
176
     1
 90
        0
176
     1
290
     0
176
     1
 90
        5
176
     1
 40
0.0
176
     1
 90
        0
176
     1
290
     0
176
     1
290
     1
176
     1
290
     1
176
     1
290
     0
176
     1
290
     0
176
     1
290
     0
176
     1
290
     0
176
     1
290
     0
176
     1
290
     0
176
     1
 90
       50
176
     1
 40
0.0
176
     1
 40
1.0
176
     1
 90
        0
176
     1
 62
    18
420
        0
176
     1
 90
       50
176
     1
 90
        3
176
     1
 62
     5
420
      255
176
     1
290
     0
176
     1
 90
       50
176
     1
 90
       50
176
     1
 90
       50
176
     1
290
     0
176
     1
 90
       50
176
     1
 62
   256
176
     0
 40
1.0
176
     0
 90
        2
176
     1
  1
strokes_ogs.tif
176
     1
290
     0
176
     1
 40
1.0
176
     1
 40
1.0
176
     1
  0
VISUALSTYLE
  5
3E
102
{ACAD_REACTORS
330
2A
102
}
330
2A
100
AcDbVisualStyle
  2
Shades of Gray
 70
    23
177
     3
291
     0
 70
    58
 90
        2
176
     1
 90
        2
176
     1
 90
        3
176
     1
 90
        0
176
     1
 40
0.6
176
     1
 40
30.0
176
     1
 62
     7
420
 16777215
176
     1
 90
        2
176
     1
 90
        2
176
     1
 62
     7
176
     1
 62
     7
176
     1
 90
        1
176
     1
 90
        1
176
     1
 40
40.0
176
     1
 90
        8
176
     1
 62
     7
176
     1
 40
1.0
176
     1
 90
        1
176
     1
 90
        6
176
     1
 90
        2
176
     1
 62
     7
176
     1
 90
        3
176
     1
 90
        0
176
     1
 90
        0
176
     1
290
     0
176
     1
 90
        1
176
     1
 40
0.0
176
     1
 90
        0
176
     1
290
     0
176
     1
290
     1
176
     1
290
     1
176
     1
290
     0
176
     1
290
     0
176
     1
290
     0
176
     1
290
     0
176
     1
290
     0
176
     1
290
     0
176
     1
 90
       50
176
     1
 40
0.0
176
     1
 40
1.0
176
     1
 90
        0
176
     1
 62
    18
420
        0
176
     1
 90
       50
176
     1
 90
        3
176
     1
 62
     5
420
      255
176
     1
290
     0
176
     1
 90
       50
176
     1
 90
       50
176
     1
 90
       50
176
     1
290
     0
176
     1
 90
       50
176
     1
 62
   256
176
     0
 40
1.0
176
     0
 90
        2
176
     1
  1
strokes_ogs.tif
176
     1
290
     0
176
     1
 40
1.0
176
     1
 40
1.0
176
     1
  0
VISUALSTYLE
  5
3F
102
{ACAD_REACTORS
330
2A
102
}
330
2A
100
AcDbVisualStyle
  2
Sketchy
 70
    24
177
     3
291
     0
 70
    58
 90
        1
176
     1
 90
        2
176
     1
 90
        2
176
     1
 90
        0
176
     1
 40
0.6
176
     1
 40
30.0
176
     1
 62
     7
420
 16777215
176
     1
 90
        2
176
     1
 90
        2
176
     1
 62
     7
176
     1
 62
     7
176
     1
 90
        1
176
     1
 90
        1
176
     1
 40
40.0
176
     1
 90
       11
176
     1
 62
     7
176
     1
 40
1.0
176
     1
 90
        1
176
     1
 90
        6
176
     1
 90
        2
176
     1
 62
     7
176
     1
 90
        6
176
     1
 90
        0
176
     1
 90
        0
176
     1
290
     0
176
     1
 90
        1
176
     1
 40
0.0
176
     1
 90
        0
176
     1
290
     0
176
     1
290
     1
176
     1
290
     1
176
     1
290
     0
176
     1
290
     0
176
     1
290
     0
176
     1
290
     0
176
     1
290
     0
176
     1
290
     0
176
     1
 90
       50
176
     1
 40
0.0
176
     1
 40
1.0
176
     1
 90
        0
176
     1
 62
    18
420
        0
176
     1
 90
       50
176
     1
 90
        3
176
     1
 62
     5
420
      255
176
     1
290
     0
176
     1
 90
       50
176
     1
 90
       50
176
     1
 90
       50
176
     1
290
     0
176
     1
 90
       50
176
     1
 62
   256
176
     0
 40
1.0
176
     0
 90
        2
176
     1
  1
strokes_ogs.tif
176
     1
290
     0
176
     1
 40
1.0
176
     1
 40
1.0
176
     1
  0
VISUALSTYLE
  5
37
102
{ACAD_REACTORS
330
2A
102
}
330
2A
100
AcDbVisualStyle
  2
Thicken
 70
    13
177
     3
291
     1
 70
    58
 90
        2
176
     1
 90
        2
176
     1
 90
        0
176
     1
 90
        0
176
     1
 40
0.6
176
     1
 40
30.0
176
     1
 62
     7
420
 16777215
176
     1
 90
        1
176
     1
 90
        4
176
     1
 62
     7
176
     1
 62
   257
176
     1
 90
        1
176
     1
 90
        1
176
     1
 40
1.0
176
     1
 90
       12
176
     1
 62
     7
176
     1
 40
1.0
176
     1
 90
        1
176
     1
 90
        6
176
     1
 90
        2
176
     1
 62
     7
176
     1
 90
        5
176
     1
 90
        0
176
     1
 90
        0
176
     1
290
     0
176
     1
 90
        1
176
     1
 40
0.0
176
     1
 90
        0
176
     1
290
     0
176
     1
290
     1
176
     1
290
     1
176
     1
290
     0
176
     1
290
     0
176
     1
290
     0
176
     1
290
     0
176
     1
290
     0
176
     1
290
     0
176
     1
 90
       50
176
     1
 40
0.0
176
     1
 40
1.0
176
     1
 90
        0
176
     1
 62
    18
420
        0
176
     1
 90
       50
176
     1
 90
        3
176
     1
 62
     5
420
      255
176
     1
290
     0
176
     1
 90
       50
176
     1
 90
       50
176
     1
 90
       50
176
     1
290
     0
176
     1
 90
       50
176
     1
 62
   256
176
     0
 40
1.0
176
     0
 90
        2
176
     1
  1
strokes_ogs.tif
176
     1
290
     0
176
     1
 40
1.0
176
     1
 40
1.0
176
     1
  0
VISUALSTYLE
  5
30
102
{ACAD_REACTORS
330
2A
102
}
330
2A
100
AcDbVisualStyle
  2
Wireframe
 70
     5
177
     3
291
     0
 70
    58
 90
        0
176
     1
 90
        2
176
     1
 90
        0
176
     1
 90
        0
176
     1
 40
0.6
176
     1
 40
30.0
176
     1
 62
     7
420
 16777215
176
     1
 90
        1
176
     1
 90
        4
176
     1
 62
     7
176
     1
 62
   257
176
     1
 90
        1
176
     1
 90
        1
176
     1
 40
1.0
176
     1
 90
        0
176
     1
 62
   257
176
     1
 40
1.0
176
     1
 90
        1
176
     1
 90
        6
176
     1
 90
        2
176
     1
 62
     7
176
     1
 90
        3
176
     1
 90
        0
176
     1
 90
        0
176
     1
290
     0
176
     1
 90
        1
176
     1
 40
0.0
176
     1
 90
        0
176
     1
290
     0
176
     1
290
     1
176
     1
290
     1
176
     1
290
     0
176
     1
290
     0
176
     1
290
     0
176
     1
290
     0
176
     1
290
     0
176
     1
290
     0
176
     1
 90
       50
176
     1
 40
0.0
176
     1
 40
1.0
176
     1
 90
        0
176
     1
 62
    18
420
        0
176
     1
 90
       50
176
     1
 90
        3
176
     1
 62
     5
420
      255
176
     1
290
     0
176
     1
 90
       50
176
     1
 90
       50
176
     1
 90
       50
176
     1
290
     0
176
     1
 90
       50
176
     1
 62
   256
176
     0
 40
1.0
176
     0
 90
        2
176
     1
  1
strokes_ogs.tif
176
     1
290
     0
176
     1
 40
1.0
176
     1
 40
1.0
176
     1
  0
VISUALSTYLE
  5
40
102
{ACAD_REACTORS
330
2A
102
}
330
2A
100
AcDbVisualStyle
  2
X-Ray
 70
    25
177
     3
291
     0
 70
    58
 90
        2
176
     1
 90
        2
176
     1
 90
        1
176
     1
 90
        1
176
     1
 40
0.5
176
     1
 40
30.0
176
     1
 62
     7
420
 16777215
176
     1
 90
        1
176
     1
 90
        0
176
     1
 62
     7
176
     1
 62
   257
176
     1
 90
        1
176
     1
 90
        1
176
     1
 40
1.0
176
     1
 90
        8
176
     1
 62
     7
176
     1
 40
1.0
176
     1
 90
        1
176
     1
 90
        6
176
     1
 90
        2
176
     1
 62
     7
176
     1
 90
        3
176
     1
 90
        0
176
     1
 90
        0
176
     1
290
     0
176
     1
 90
       13
176
     1
 40
0.0
176
     1
 90
        0
176
     1
290
     0
176
     1
290
     1
176
     1
290
     1
176
     1
290
     0
176
     1
290
     0
176
     1
290
     0
176
     1
290
     0
176
     1
290
     0
176
     1
290
     0
176
     1
 90
       50
176
     1
 40
0.0
176
     1
 40
1.0
176
     1
 90
        0
176
     1
 62
    18
420
        0
176
     1
 90
       50
176
     1
 90
        3
176
     1
 62
     5
420
      255
176
     1
290
     0
176
     1
 90
       50
176
     1
 90
       50
176
     1
 90
       50
176
     1
290
     0
176
     1
 90
       50
176
     1
 62
   256
176
     0
 40
1.0
176
     0
 90
        2
176
     1
  1
strokes_ogs.tif
176
     1
290
     0
176
     1
 40
1.0
176
     1
 40
1.0
176
     1
  0
DICTIONARYVAR
  5
19E
102
{ACAD_REACTORS
330
19D
102
}
330
19D
100
DictionaryVariables
280
     0
  1
1:1
  0
DICTIONARYVAR
  5
1A3
102
{ACAD_REACTORS
330
19D
102
}
330
19D
100
DictionaryVariables
280
     0
  1
Standard
  0
DICTIONARYVAR
  5
1A2
102
{ACAD_REACTORS
330
19D
102
}
330
19D
100
DictionaryVariables
280
     0
  1
Standard
  0
DICTIONARY
  5
19F
330
6A
100
AcDbDictionary
280
     1
281
     1
  3
ACAD_ROUNDTRIP_2008_TABLESTYLE_CELLSTYLEMAP
360
1A0
  0
CELLSTYLEMAP
  5
1A0
102
{ACAD_REACTORS
330
19F
102
}
330
19F
100
AcDbCellStyleMap
 90
        3
300
CELLSTYLE
  1
TABLEFORMAT_BEGIN
 90
        5
170
     1
 91
        0
 92
    32768
 62
   257
 93
        1
300
CONTENTFORMAT
  1
CONTENTFORMAT_BEGIN
 90
        0
 91
        0
 92
        4
 93
        0
300

 40
0.0
140
1.0
 94
        5
 62
     0
340
11
144
0.25
309
CONTENTFORMAT_END
171
     1
301
MARGIN
  1
CELLMARGIN_BEGIN
 40
0.06
 40
0.06
 40
0.06
 40
0.06
 40
0.06
 40
0.06
309
CELLMARGIN_END
 94
        6
 95
        1
302
GRIDFORMAT
  1
GRIDFORMAT_BEGIN
 90
        0
 91
        1
 62
     0
 92
       -2
340
14
 93
        0
 40
0.045
309
GRIDFORMAT_END
 95
        2
302
GRIDFORMAT
  1
GRIDFORMAT_BEGIN
 90
        0
 91
        1
 62
     0
 92
       -2
340
14
 93
        0
 40
0.045
309
GRIDFORMAT_END
 95
        4
302
GRIDFORMAT
  1
GRIDFORMAT_BEGIN
 90
        0
 91
        1
 62
     0
 92
       -2
340
14
 93
        0
 40
0.045
309
GRIDFORMAT_END
 95
        8
302
GRIDFORMAT
  1
GRIDFORMAT_BEGIN
 90
        0
 91
        1
 62
     0
 92
       -2
340
14
 93
        0
 40
0.045
309
GRIDFORMAT_END
 95
       16
302
GRIDFORMAT
  1
GRIDFORMAT_BEGIN
 90
        0
 91
        1
 62
     0
 92
       -2
340
14
 93
        0
 40
0.045
309
GRIDFORMAT_END
 95
       32
302
GRIDFORMAT
  1
GRIDFORMAT_BEGIN
 90
        0
 91
        1
 62
     0
 92
       -2
340
14
 93
        0
 40
0.045
309
GRIDFORMAT_END
309
TABLEFORMAT_END
  1
CELLSTYLE_BEGIN
 90
        1
 91
        1
300
_TITLE
309
CELLSTYLE_END
300
CELLSTYLE
  1
TABLEFORMAT_BEGIN
 90
        5
170
     1
 91
        0
 92
        0
 62
   257
 93
        1
300
CONTENTFORMAT
  1
CONTENTFORMAT_BEGIN
 90
        0
 91
        0
 92
        4
 93
        0
300

 40
0.0
140
1.0
 94
        5
 62
     0
340
11
144
0.18
309
CONTENTFORMAT_END
171
     1
301
MARGIN
  1
CELLMARGIN_BEGIN
 40
0.06
 40
0.06
 40
0.06
 40
0.06
 40
0.06
 40
0.06
309
CELLMARGIN_END
 94
        6
 95
        1
302
GRIDFORMAT
  1
GRIDFORMAT_BEGIN
 90
        0
 91
        1
 62
     0
 92
       -2
340
14
 93
        0
 40
0.045
309
GRIDFORMAT_END
 95
        2
302
GRIDFORMAT
  1
GRIDFORMAT_BEGIN
 90
        0
 91
        1
 62
     0
 92
       -2
340
14
 93
        0
 40
0.045
309
GRIDFORMAT_END
 95
        4
302
GRIDFORMAT
  1
GRIDFORMAT_BEGIN
 90
        0
 91
        1
 62
     0
 92
       -2
340
14
 93
        0
 40
0.045
309
GRIDFORMAT_END
 95
        8
302
GRIDFORMAT
  1
GRIDFORMAT_BEGIN
 90
        0
 91
        1
 62
     0
 92
       -2
340
14
 93
        0
 40
0.045
309
GRIDFORMAT_END
 95
       16
302
GRIDFORMAT
  1
GRIDFORMAT_BEGIN
 90
        0
 91
        1
 62
     0
 92
       -2
340
14
 93
        0
 40
0.045
309
GRIDFORMAT_END
 95
       32
302
GRIDFORMAT
  1
GRIDFORMAT_BEGIN
 90
        0
 91
        1
 62
     0
 92
       -2
340
14
 93
        0
 40
0.045
309
GRIDFORMAT_END
309
TABLEFORMAT_END
  1
CELLSTYLE_BEGIN
 90
        2
 91
        1
300
_HEADER
309
CELLSTYLE_END
300
CELLSTYLE
  1
TABLEFORMAT_BEGIN
 90
        5
170
     1
 91
        0
 92
        0
 62
   257
 93
        1
300
CONTENTFORMAT
  1
CONTENTFORMAT_BEGIN
 90
        0
 91
        0
 92
        4
 93
        0
300

 40
0.0
140
1.0
 94
        2
 62
     0
340
11
144
0.18
309
CONTENTFORMAT_END
171
     1
301
MARGIN
  1
CELLMARGIN_BEGIN
 40
0.06
 40
0.06
 40
0.06
 40
0.06
 40
0.06
 40
0.06
309
CELLMARGIN_END
 94
        6
 95
        1
302
GRIDFORMAT
  1
GRIDFORMAT_BEGIN
 90
        0
 91
        1
 62
     0
 92
       -2
340
14
 93
        0
 40
0.045
309
GRIDFORMAT_END
 95
        2
302
GRIDFORMAT
  1
GRIDFORMAT_BEGIN
 90
        0
 91
        1
 62
     0
 92
       -2
340
14
 93
        0
 40
0.045
309
GRIDFORMAT_END
 95
        4
302
GRIDFORMAT
  1
GRIDFORMAT_BEGIN
 90
        0
 91
        1
 62
     0
 92
       -2
340
14
 93
        0
 40
0.045
309
GRIDFORMAT_END
 95
        8
302
GRIDFORMAT
  1
GRIDFORMAT_BEGIN
 90
        0
 91
        1
 62
     0
 92
       -2
340
14
 93
        0
 40
0.045
309
GRIDFORMAT_END
 95
       16
302
GRIDFORMAT
  1
GRIDFORMAT_BEGIN
 90
        0
 91
        1
 62
     0
 92
       -2
340
14
 93
        0
 40
0.045
309
GRIDFORMAT_END
 95
       32
302
GRIDFORMAT
  1
GRIDFORMAT_BEGIN
 90
        0
 91
        1
 62
     0
 92
       -2
340
14
 93
        0
 40
0.045
309
GRIDFORMAT_END
309
TABLEFORMAT_END
  1
CELLSTYLE_BEGIN
 90
        3
 91
        2
300
_DATA
309
CELLSTYLE_END
  0
ENDSEC
  0
EOF