0
SECTION
  2
HEADER
  9
$ACADVER
  1
AC1027
  9
$ACADMAINTVER
 70
     8
  9
$DWGCODEPAGE
  3
ANSI_1252
  9
$REQUIREDVERSIONS
160
                 0
  9
$COMMENTS
  1
File was created by Cadenas
  9
$CUSTOMPROPERTYTAG
  1
NN
  9
$CUSTOMPROPERTY
  1
Double-Interlock 4-Bolt Flange  Expansion Inch Bore
  9
$CUSTOMPROPERTYTAG
  1
NT
  9
$CUSTOMPROPERTY
  1
Double-Interlock Flange Bearings
  9
$CUSTOMPROPERTYTAG
  1
NB
  9
$CUSTOMPROPERTY
  1
023474
  9
$CUSTOMPROPERTYTAG
  1
NBSYN
  9
$CUSTOMPROPERTY
  1
$PN.
  9
$CUSTOMPROPERTYTAG
  1
LINA
  9
$CUSTOMPROPERTY
  1
023474
  9
$CUSTOMPROPERTYTAG
  1
SS
  9
$CUSTOMPROPERTY
  1
3-15/16
  9
$CUSTOMPROPERTYTAG
  1
PN
  9
$CUSTOMPROPERTY
  1
023474
  9
$CUSTOMPROPERTYTAG
  1
DESCRIPTION
  9
$CUSTOMPROPERTY
  1
F4B-DI-315RE
  9
$CUSTOMPROPERTYTAG
  1
EF
  9
$CUSTOMPROPERTY
  1
Expansion Type
  9
$CUSTOMPROPERTYTAG
  1
A
  9
$CUSTOMPROPERTY
  1
6-1/4
  9
$CUSTOMPROPERTYTAG
  1
B
  9
$CUSTOMPROPERTY
  1
11-7/16
  9
$CUSTOMPROPERTYTAG
  1
C
  9
$CUSTOMPROPERTY
  1
4-5/8
  9
$CUSTOMPROPERTYTAG
  1
D
  9
$CUSTOMPROPERTY
  1
13
  9
$CUSTOMPROPERTYTAG
  1
E
  9
$CUSTOMPROPERTY
  1
3/4
  9
$CUSTOMPROPERTYTAG
  1
F
  9
$CUSTOMPROPERTY
  1
1
  9
$CUSTOMPROPERTYTAG
  1
G
  9
$CUSTOMPROPERTY
  1
12-7/8
  9
$CUSTOMPROPERTYTAG
  1
H
  9
$CUSTOMPROPERTY
  1
13/16
  9
$CUSTOMPROPERTYTAG
  1
J
  9
$CUSTOMPROPERTY
  1
9-3/16
  9
$CUSTOMPROPERTYTAG
  1
L
  9
$CUSTOMPROPERTY
  1
6
  9
$CUSTOMPROPERTYTAG
  1
T
  9
$CUSTOMPROPERTY
  1
5/16
  9
$CUSTOMPROPERTYTAG
  1
COMPANY
  9
$CUSTOMPROPERTY
  1
baldor
  9
$INSBASE
 10
0.0
 20
0.0
 30
0.0
  9
$EXTMIN
 10
1.000000000000000E+20
 20
1.000000000000000E+20
 30
1.000000000000000E+20
  9
$EXTMAX
 10
-1.000000000000000E+20
 20
-1.000000000000000E+20
 30
-1.000000000000000E+20
  9
$LIMMIN
 10
0.0
 20
0.0
  9
$LIMMAX
 10
12.0
 20
9.0
  9
$ORTHOMODE
 70
     0
  9
$REGENMODE
 70
     1
  9
$FILLMODE
 70
     1
  9
$QTEXTMODE
 70
     0
  9
$MIRRTEXT
 70
     1
  9
$LTSCALE
 40
1.0
  9
$ATTMODE
 70
     1
  9
$TEXTSIZE
 40
0.2
  9
$TRACEWID
 40
0.05
  9
$TEXTSTYLE
  7
Standard
  9
$CLAYER
  8
0
  9
$CELTYPE
  6
ByLayer
  9
$CECOLOR
 62
   256
  9
$CELTSCALE
 40
1.0
  9
$DISPSILH
 70
     0
  9
$DIMSCALE
 40
1.0
  9
$DIMASZ
 40
0.18
  9
$DIMEXO
 40
0.0625
  9
$DIMDLI
 40
0.38
  9
$DIMRND
 40
0.0
  9
$DIMDLE
 40
0.0
  9
$DIMEXE
 40
0.18
  9
$DIMTP
 40
0.0
  9
$DIMTM
 40
0.0
  9
$DIMTXT
 40
0.18
  9
$DIMCEN
 40
0.09
  9
$DIMTSZ
 40
0.0
  9
$DIMTOL
 70
     0
  9
$DIMLIM
 70
     0
  9
$DIMTIH
 70
     1
  9
$DIMTOH
 70
     1
  9
$DIMSE1
 70
     0
  9
$DIMSE2
 70
     0
  9
$DIMTAD
 70
     0
  9
$DIMZIN
 70
     0
  9
$DIMBLK
  1

  9
$DIMASO
 70
     1
  9
$DIMSHO
 70
     1
  9
$DIMPOST
  1

  9
$DIMAPOST
  1

  9
$DIMALT
 70
     0
  9
$DIMALTD
 70
     2
  9
$DIMALTF
 40
25.4
  9
$DIMLFAC
 40
1.0
  9
$DIMTOFL
 70
     0
  9
$DIMTVP
 40
0.0
  9
$DIMTIX
 70
     0
  9
$DIMSOXD
 70
     0
  9
$DIMSAH
 70
     0
  9
$DIMBLK1
  1

  9
$DIMBLK2
  1

  9
$DIMSTYLE
  2
Standard
  9
$DIMCLRD
 70
     0
  9
$DIMCLRE
 70
     0
  9
$DIMCLRT
 70
     0
  9
$DIMTFAC
 40
1.0
  9
$DIMGAP
 40
0.09
  9
$DIMJUST
 70
     0
  9
$DIMSD1
 70
     0
  9
$DIMSD2
 70
     0
  9
$DIMTOLJ
 70
     1
  9
$DIMTZIN
 70
     0
  9
$DIMALTZ
 70
     0
  9
$DIMALTTZ
 70
     0
  9
$DIMUPT
 70
     0
  9
$DIMDEC
 70
     4
  9
$DIMTDEC
 70
     4
  9
$DIMALTU
 70
     2
  9
$DIMALTTD
 70
     2
  9
$DIMTXSTY
  7
Standard
  9
$DIMAUNIT
 70
     0
  9
$DIMADEC
 70
     0
  9
$DIMALTRND
 40
0.0
  9
$DIMAZIN
 70
     0
  9
$DIMDSEP
 70
    46
  9
$DIMATFIT
 70
     3
  9
$DIMFRAC
 70
     0
  9
$DIMLDRBLK
  1

  9
$DIMLUNIT
 70
     2
  9
$DIMLWD
 70
    -2
  9
$DIMLWE
 70
    -2
  9
$DIMTMOVE
 70
     0
  9
$DIMFXL
 40
1.0
  9
$DIMFXLON
 70
     0
  9
$DIMJOGANG
 40
0.7853981633974483
  9
$DIMTFILL
 70
     0
  9
$DIMTFILLCLR
 70
     0
  9
$DIMARCSYM
 70
     0
  9
$DIMLTYPE
  6

  9
$DIMLTEX1
  6

  9
$DIMLTEX2
  6

  9
$DIMTXTDIRECTION
 70
     0
  9
$LUNITS
 70
     2
  9
$LUPREC
 70
     4
  9
$SKETCHINC
 40
0.1
  9
$FILLETRAD
 40
0.5
  9
$AUNITS
 70
     0
  9
$AUPREC
 70
     0
  9
$MENU
  1
.
  9
$ELEVATION
 40
0.0
  9
$PELEVATION
 40
0.0
  9
$THICKNESS
 40
0.0
  9
$LIMCHECK
 70
     0
  9
$CHAMFERA
 40
0.0
  9
$CHAMFERB
 40
0.0
  9
$CHAMFERC
 40
0.0
  9
$CHAMFERD
 40
0.0
  9
$SKPOLY
 70
     0
  9
$TDCREATE
 40
2458168.97043978
  9
$TDUCREATE
 40
2458168.928773114
  9
$TDUPDATE
 40
2458168.970439965
  9
$TDUUPDATE
 40
2458168.928773298
  9
$TDINDWG
 40
0.0000000116
  9
$TDUSRTIMER
 40
0.0000000116
  9
$USRTIMER
 70
     1
  9
$ANGBASE
 50
0.0
  9
$ANGDIR
 70
     0
  9
$PDMODE
 70
     0
  9
$PDSIZE
 40
0.0
  9
$PLINEWID
 40
0.0
  9
$SPLFRAME
 70
     0
  9
$SPLINETYPE
 70
     6
  9
$SPLINESEGS
 70
     8
  9
$HANDSEED
  5
230
  9
$SURFTAB1
 70
     6
  9
$SURFTAB2
 70
     6
  9
$SURFTYPE
 70
     6
  9
$SURFU
 70
     6
  9
$SURFV
 70
     6
  9
$UCSBASE
  2

  9
$UCSNAME
  2

  9
$UCSORG
 10
0.0
 20
0.0
 30
0.0
  9
$UCSXDIR
 10
1.0
 20
0.0
 30
0.0
  9
$UCSYDIR
 10
0.0
 20
1.0
 30
0.0
  9
$UCSORTHOREF
  2

  9
$UCSORTHOVIEW
 70
     0
  9
$UCSORGTOP
 10
0.0
 20
0.0
 30
0.0
  9
$UCSORGBOTTOM
 10
0.0
 20
0.0
 30
0.0
  9
$UCSORGLEFT
 10
0.0
 20
0.0
 30
0.0
  9
$UCSORGRIGHT
 10
0.0
 20
0.0
 30
0.0
  9
$UCSORGFRONT
 10
0.0
 20
0.0
 30
0.0
  9
$UCSORGBACK
 10
0.0
 20
0.0
 30
0.0
  9
$PUCSBASE
  2

  9
$PUCSNAME
  2

  9
$PUCSORG
 10
0.0
 20
0.0
 30
0.0
  9
$PUCSXDIR
 10
1.0
 20
0.0
 30
0.0
  9
$PUCSYDIR
 10
0.0
 20
1.0
 30
0.0
  9
$PUCSORTHOREF
  2

  9
$PUCSORTHOVIEW
 70
     0
  9
$PUCSORGTOP
 10
0.0
 20
0.0
 30
0.0
  9
$PUCSORGBOTTOM
 10
0.0
 20
0.0
 30
0.0
  9
$PUCSORGLEFT
 10
0.0
 20
0.0
 30
0.0
  9
$PUCSORGRIGHT
 10
0.0
 20
0.0
 30
0.0
  9
$PUCSORGFRONT
 10
0.0
 20
0.0
 30
0.0
  9
$PUCSORGBACK
 10
0.0
 20
0.0
 30
0.0
  9
$USERI1
 70
     0
  9
$USERI2
 70
     0
  9
$USERI3
 70
     0
  9
$USERI4
 70
     0
  9
$USERI5
 70
     0
  9
$USERR1
 40
0.0
  9
$USERR2
 40
0.0
  9
$USERR3
 40
0.0
  9
$USERR4
 40
0.0
  9
$USERR5
 40
0.0
  9
$WORLDVIEW
 70
     1
  9
$SHADEDGE
 70
     3
  9
$SHADEDIF
 70
    70
  9
$TILEMODE
 70
     1
  9
$MAXACTVP
 70
    64
  9
$PINSBASE
 10
0.0
 20
0.0
 30
0.0
  9
$PLIMCHECK
 70
     0
  9
$PEXTMIN
 10
1.000000000000000E+20
 20
1.000000000000000E+20
 30
1.000000000000000E+20
  9
$PEXTMAX
 10
-1.000000000000000E+20
 20
-1.000000000000000E+20
 30
-1.000000000000000E+20
  9
$PLIMMIN
 10
0.0
 20
0.0
  9
$PLIMMAX
 10
12.0
 20
9.0
  9
$UNITMODE
 70
     0
  9
$VISRETAIN
 70
     1
  9
$PLINEGEN
 70
     0
  9
$PSLTSCALE
 70
     1
  9
$TREEDEPTH
 70
  3020
  9
$CMLSTYLE
  2
Standard
  9
$CMLJUST
 70
     0
  9
$CMLSCALE
 40
1.0
  9
$PROXYGRAPHICS
 70
     1
  9
$MEASUREMENT
 70
     0
  9
$CELWEIGHT
370
    -1
  9
$ENDCAPS
280
     0
  9
$JOINSTYLE
280
     0
  9
$LWDISPLAY
290
     0
  9
$INSUNITS
 70
     1
  9
$HYPERLINKBASE
  1

  9
$STYLESHEET
  1

  9
$XEDIT
290
     1
  9
$CEPSNTYPE
380
     0
  9
$PSTYLEMODE
290
     1
  9
$FINGERPRINTGUID
  2
{94522657-FEC2-4EDE-822C-B6E8AE2BCF44}
  9
$VERSIONGUID
  2
{FAEB1C32-E019-11D5-929B-00C0DF256EC4}
  9
$EXTNAMES
290
     1
  9
$PSVPSCALE
 40
0.0
  9
$OLESTARTUP
290
     0
  9
$SORTENTS
280
   127
  9
$INDEXCTL
280
     0
  9
$HIDETEXT
280
     1
  9
$XCLIPFRAME
280
     2
  9
$HALOGAP
280
     0
  9
$OBSCOLOR
 70
   257
  9
$OBSLTYPE
280
     0
  9
$INTERSECTIONDISPLAY
280
     0
  9
$INTERSECTIONCOLOR
 70
   257
  9
$DIMASSOC
280
     2
  9
$PROJECTNAME
  1

  9
$CAMERADISPLAY
290
     0
  9
$LENSLENGTH
 40
50.0
  9
$CAMERAHEIGHT
 40
0.0
  9
$STEPSPERSEC
 40
2.0
  9
$STEPSIZE
 40
6.0
  9
$3DDWFPREC
 40
2.0
  9
$PSOLWIDTH
 40
0.25
  9
$PSOLHEIGHT
 40
4.0
  9
$LOFTANG1
 40
1.570796326794897
  9
$LOFTANG2
 40
1.570796326794897
  9
$LOFTMAG1
 40
0.0
  9
$LOFTMAG2
 40
0.0
  9
$LOFTPARAM
 70
     7
  9
$LOFTNORMALS
280
     1
  9
$LATITUDE
 40
37.795
  9
$LONGITUDE
 40
-122.394
  9
$NORTHDIRECTION
 40
0.0
  9
$TIMEZONE
 70
 -8000
  9
$LIGHTGLYPHDISPLAY
280
     1
  9
$TILEMODELIGHTSYNCH
280
     1
  9
$CMATERIAL
347
44
  9
$SOLIDHIST
280
     0
  9
$SHOWHIST
280
     1
  9
$DWFFRAME
280
     2
  9
$DGNFRAME
280
     2
  9
$REALWORLDSCALE
290
     1
  9
$INTERFERECOLOR
 62
   256
  9
$CSHADOW
280
     0
  9
$SHADOWPLANELOCATION
 40
0.0
  0
ENDSEC
  0
SECTION
  2
CLASSES
  0
CLASS
  1
ACDBDICTIONARYWDFLT
  2
AcDbDictionaryWithDefault
  3
ObjectDBX Classes
 90
        0
 91
        4
280
     0
281
     0
  0
CLASS
  1
VISUALSTYLE
  2
AcDbVisualStyle
  3
ObjectDBX Classes
 90
     4095
 91
        4
280
     0
281
     0
  0
CLASS
  1
MATERIAL
  2
AcDbMaterial
  3
ObjectDBX Classes
 90
     1153
 91
        4
280
     0
281
     0
  0
CLASS
  1
SCALE
  2
AcDbScale
  3
ObjectDBX Classes
 90
     1153
 91
        4
280
     0
281
     0
  0
CLASS
  1
TABLESTYLE
  2
AcDbTableStyle
  3
ObjectDBX Classes
 90
     4095
 91
        4
280
     0
281
     0
  0
CLASS
  1
MLEADERSTYLE
  2
AcDbMLeaderStyle
  3
ACDB_MLEADERSTYLE_CLASS
 90
     4095
 91
        4
280
     0
281
     0
  0
CLASS
  1
SUN
  2
AcDbSun
  3
SCENEOE
 90
     1153
 91
        4
280
     0
281
     0
  0
CLASS
  1
DICTIONARYVAR
  2
AcDbDictionaryVar
  3
ObjectDBX Classes
 90
        0
 91
        4
280
     0
281
     0
  0
CLASS
  1
CELLSTYLEMAP
  2
AcDbCellStyleMap
  3
ObjectDBX Classes
 90
     1152
 91
        4
280
     0
281
     0
  0
ENDSEC
  0
SECTION
  2
TABLES
  0
TABLE
  2
VPORT
  5
8
330
0
100
AcDbSymbolTable
 70
     1
  0
VPORT
  5
29
330
8
100
AcDbSymbolTableRecord
100
AcDbViewportTableRecord
  2
*Active
 70
     0
 10
0.0
 20
0.0
 11
1.0
 21
1.0
 12
-2.374999999999998
 22
1.143749999999999
 13
0.0
 23
0.0
 14
0.5
 24
0.5
 15
0.5
 25
0.5
 16
0.0
 26
0.0
 36
1.0
 17
0.0
 27
0.0
 37
0.0
 40
13.9995
 41
0.5009107468123859
 42
50.0
 43
0.0
 44
0.0
 50
0.0
 51
0.0
 71
     0
 72
   100
 73
     1
 74
     3
 75
     0
 76
     0
 77
     0
 78
     0
281
     0
 65
     1
110
0.0
120
0.0
130
0.0
111
1.0
121
0.0
131
0.0
112
0.0
122
1.0
132
0.0
 79
     0
146
0.0
348
2F
 60
     3
 61
     5
292
     1
282
     1
141
0.0
142
0.0
 63
   250
361
6D
  0
ENDTAB
  0
TABLE
  2
LTYPE
  5
5
330
0
100
AcDbSymbolTable
 70
     3
  0
LTYPE
  5
14
330
5
100
AcDbSymbolTableRecord
100
AcDbLinetypeTableRecord
  2
ByBlock
 70
     0
  3

 72
    65
 73
     0
 40
0.0
  0
LTYPE
  5
15
330
5
100
AcDbSymbolTableRecord
100
AcDbLinetypeTableRecord
  2
ByLayer
 70
     0
  3

 72
    65
 73
     0
 40
0.0
  0
LTYPE
  5
16
330
5
100
AcDbSymbolTableRecord
100
AcDbLinetypeTableRecord
  2
Continuous
 70
     0
  3
Solid line
 72
    65
 73
     0
 40
0.0
  0
LTYPE
  5
9D
330
5
100
AcDbSymbolTableRecord
100
AcDbLinetypeTableRecord
  2
Dashed
 70
     0
  3

 72
    65
 73
     2
 40
2.0
 49
1.0
 74
     0
 49
-1.0
 74
     0
  0
LTYPE
  5
1AC
330
5
100
AcDbSymbolTableRecord
100
AcDbLinetypeTableRecord
  2
Center
 70
     0
  3

 72
    65
 73
     4
 40
1.5
 49
0.45
 74
     0
 49
-0.5
 74
     0
 49
0.05
 74
     0
 49
-0.5
 74
     0
  0
ENDTAB
  0
TABLE
  2
LAYER
  5
2
330
0
100
AcDbSymbolTable
 70
     7
  0
LAYER
  5
10
330
2
100
AcDbSymbolTableRecord
100
AcDbLayerTableRecord
  2
0
 70
     0
 62
     7
  6
Continuous
370
    -3
390
F
347
46
348
0
  0
LAYER
  5
72
330
2
100
AcDbSymbolTableRecord
100
AcDbLayerTableRecord
  2
AM_6
 70
     0
 62
    -2
  6
Continuous
370
    35
390
F
347
46
348
0
  0
LAYER
  5
9E
330
2
100
AcDbSymbolTableRecord
100
AcDbLayerTableRecord
  2
AM_9
 70
     0
 62
     6
  6
Dashed
370
    25
390
F
347
46
348
0
  0
LAYER
  5
BF
330
2
100
AcDbSymbolTableRecord
100
AcDbLayerTableRecord
  2
AM_5
 70
     0
 62
     3
  6
Continuous
370
    25
390
F
347
46
348
0
  0
LAYER
  5
C2
330
2
100
AcDbSymbolTableRecord
100
AcDbLayerTableRecord
  2
AM_4
 70
     0
 62
     7
  6
Continuous
370
    50
390
F
347
46
348
0
  0
LAYER
  5
1AD
330
2
100
AcDbSymbolTableRecord
100
AcDbLayerTableRecord
  2
AM_7
 70
     0
 62
     7
  6
Center
370
    25
390
F
347
46
348
0
  0
LAYER
  5
21D
330
2
100
AcDbSymbolTableRecord
100
AcDbLayerTableRecord
  2
ConnectionPoints
 70
     0
 62
     7
  6
Continuous
370
    50
390
F
347
46
348
0
  0
ENDTAB
  0
TABLE
  2
STYLE
  5
3
330
0
100
AcDbSymbolTable
 70
     1
  0
STYLE
  5
11
330
3
100
AcDbSymbolTableRecord
100
AcDbTextStyleTableRecord
  2
Standard
 70
     0
 40
0.0
 41
1.0
 50
0.0
 71
     0
 42
0.2
  3
txt
  4

  0
ENDTAB
  0
TABLE
  2
VIEW
  5
6
330
0
100
AcDbSymbolTable
 70
     0
  0
ENDTAB
  0
TABLE
  2
UCS
  5
7
330
0
100
AcDbSymbolTable
 70
     0
  0
ENDTAB
  0
TABLE
  2
APPID
  5
9
330
0
100
AcDbSymbolTable
 70
     1
  0
APPID
  5
12
330
9
100
AcDbSymbolTableRecord
100
AcDbRegAppTableRecord
  2
ACAD
 70
     0
  0
ENDTAB
  0
TABLE
  2
DIMSTYLE
  5
A
330
0
100
AcDbSymbolTable
 70
     1
100
AcDbDimStyleTable
  0
DIMSTYLE
105
27
330
A
100
AcDbSymbolTableRecord
100
AcDbDimStyleTableRecord
  2
Standard
 70
     0
178
     0
340
11
  0
ENDTAB
  0
TABLE
  2
BLOCK_RECORD
  5
1
330
0
100
AcDbSymbolTable
 70
     7
  0
BLOCK_RECORD
  5
1F
330
1
100
AcDbSymbolTableRecord
100
AcDbBlockTableRecord
  2
*Model_Space
340
22
 70
     0
280
     1
281
     0
  0
BLOCK_RECORD
  5
1B
330
1
100
AcDbSymbolTableRecord
100
AcDbBlockTableRecord
  2
*Paper_Space
340
1E
 70
     0
280
     1
281
     0
  0
BLOCK_RECORD
  5
23
330
1
100
AcDbSymbolTableRecord
100
AcDbBlockTableRecord
  2
*Paper_Space0
340
26
 70
     0
280
     1
281
     0
  0
BLOCK_RECORD
  5
6E
330
1
100
AcDbSymbolTableRecord
100
AcDbBlockTableRecord
  2
1_023474_2
340
0
102
{BLKREFS
331
6F
102
}
 70
     0
280
     1
281
     0
  0
BLOCK_RECORD
  5
88
330
1
100
AcDbSymbolTableRecord
100
AcDbBlockTableRecord
  2
2_3_15_16C_1_0_in_023474_2
340
0
102
{BLKREFS
331
89
102
}
 70
     0
280
     1
281
     0
  0
BLOCK_RECORD
  5
CC
330
1
100
AcDbSymbolTableRecord
100
AcDbBlockTableRecord
  2
3_3_15_16C_2_0_in_023474_2
340
0
102
{BLKREFS
331
CD
102
}
 70
     0
280
     1
281
     0
  0
BLOCK_RECORD
  5
110
330
1
100
AcDbSymbolTableRecord
100
AcDbBlockTableRecord
  2
4_405015E_Inch_0_in_023474_2
340
0
102
{BLKREFS
331
111
102
}
 70
     0
280
     1
281
     0
  0
BLOCK_RECORD
  5
14E
330
1
100
AcDbSymbolTableRecord
100
AcDbBlockTableRecord
  2
5_023530_Insert_0_in_023474_2
340
0
102
{BLKREFS
331
14F
102
}
 70
     0
280
     1
281
     0
  0
BLOCK_RECORD
  5
1B2
330
1
100
AcDbSymbolTableRecord
100
AcDbBlockTableRecord
  2
6_023474H_0_in_023474_2
340
0
102
{BLKREFS
331
1B3
102
}
 70
     0
280
     1
281
     0
  0
ENDTAB
  0
ENDSEC
  0
SECTION
  2
BLOCKS
  0
BLOCK
  5
20
330
1F
100
AcDbEntity
  8
0
100
AcDbBlockBegin
  2
*Model_Space
 70
     0
 10
0.0
 20
0.0
 30
0.0
  3
*Model_Space
  1

  0
ENDBLK
  5
21
330
1F
100
AcDbEntity
  8
0
100
AcDbBlockEnd
  0
BLOCK
  5
1C
330
1B
100
AcDbEntity
 67
     1
  8
0
100
AcDbBlockBegin
  2
*Paper_Space
 70
     0
 10
0.0
 20
0.0
 30
0.0
  3
*Paper_Space
  1

  0
ENDBLK
  5
1D
330
1B
100
AcDbEntity
 67
     1
  8
0
100
AcDbBlockEnd
  0
BLOCK
  5
24
330
23
100
AcDbEntity
  8
0
100
AcDbBlockBegin
  2
*Paper_Space0
 70
     0
 10
0.0
 20
0.0
 30
0.0
  3
*Paper_Space0
  1

  0
ENDBLK
  5
25
330
23
100
AcDbEntity
  8
0
100
AcDbBlockEnd
  0
BLOCK
  5
70
330
6E
100
AcDbEntity
  8
0
100
AcDbBlockBegin
  2
1_023474_2
 70
     2
 10
0.0
 20
0.0
 30
0.0
  3
1_023474_2
  1

  0
ATTDEF
  5
73
330
6E
100
AcDbEntity
  8
AM_6
100
AcDbText
 10
6.0625
 20
8.00625
 30
0.0
 40
0.5
  1
Double-Interlock 4-Bolt Flange  Expansion Inch Bore
100
AcDbAttributeDefinition
  3

  2
NN
 70
     8
280
     0
  0
ATTDEF
  5
74
330
6E
100
AcDbEntity
  8
AM_6
100
AcDbText
 10
6.0625
 20
7.50625
 30
0.0
 40
0.5
  1
Double-Interlock Flange Bearings
100
AcDbAttributeDefinition
  3

  2
NT
 70
     8
280
     0
  0
ATTDEF
  5
75
330
6E
100
AcDbEntity
  8
AM_6
100
AcDbText
 10
6.0625
 20
7.00625
 30
0.0
 40
0.5
  1
023474
100
AcDbAttributeDefinition
  3

  2
NB
 70
     8
280
     0
  0
ATTDEF
  5
76
330
6E
100
AcDbEntity
  8
AM_6
100
AcDbText
 10
6.0625
 20
6.50625
 30
0.0
 40
0.5
  1
$PN.
100
AcDbAttributeDefinition
  3

  2
NBSYN
 70
     8
280
     0
  0
ATTDEF
  5
77
330
6E
100
AcDbEntity
  8
AM_6
100
AcDbText
 10
6.0625
 20
6.00625
 30
0.0
 40
0.5
  1
023474
100
AcDbAttributeDefinition
  3

  2
LINA
 70
     8
280
     0
  0
ATTDEF
  5
78
330
6E
100
AcDbEntity
  8
AM_6
100
AcDbText
 10
6.0625
 20
5.50625
 30
0.0
 40
0.5
  1
3-15/16
100
AcDbAttributeDefinition
  3

  2
SS
 70
     8
280
     0
  0
ATTDEF
  5
79
330
6E
100
AcDbEntity
  8
AM_6
100
AcDbText
 10
6.0625
 20
5.00625
 30
0.0
 40
0.5
  1
023474
100
AcDbAttributeDefinition
  3

  2
PN
 70
     8
280
     0
  0
ATTDEF
  5
7A
330
6E
100
AcDbEntity
  8
AM_6
100
AcDbText
 10
6.0625
 20
4.50625
 30
0.0
 40
0.5
  1
F4B-DI-315RE
100
AcDbAttributeDefinition
  3

  2
DESCRIPTION
 70
     8
280
     0
  0
ATTDEF
  5
7B
330
6E
100
AcDbEntity
  8
AM_6
100
AcDbText
 10
6.0625
 20
4.00625
 30
0.0
 40
0.5
  1
Expansion Type
100
AcDbAttributeDefinition
  3

  2
EF
 70
     8
280
     0
  0
ATTDEF
  5
7C
330
6E
100
AcDbEntity
  8
AM_6
100
AcDbText
 10
6.0625
 20
3.50625
 30
0.0
 40
0.5
  1
6-1/4
100
AcDbAttributeDefinition
  3

  2
A
 70
     8
280
     0
  0
ATTDEF
  5
7D
330
6E
100
AcDbEntity
  8
AM_6
100
AcDbText
 10
6.0625
 20
3.00625
 30
0.0
 40
0.5
  1
11-7/16
100
AcDbAttributeDefinition
  3

  2
B
 70
     8
280
     0
  0
ATTDEF
  5
7E
330
6E
100
AcDbEntity
  8
AM_6
100
AcDbText
 10
6.0625
 20
2.50625
 30
0.0
 40
0.5
  1
4-5/8
100
AcDbAttributeDefinition
  3

  2
C
 70
     8
280
     0
  0
ATTDEF
  5
7F
330
6E
100
AcDbEntity
  8
AM_6
100
AcDbText
 10
6.0625
 20
2.00625
 30
0.0
 40
0.5
  1
13
100
AcDbAttributeDefinition
  3

  2
D
 70
     8
280
     0
  0
ATTDEF
  5
80
330
6E
100
AcDbEntity
  8
AM_6
100
AcDbText
 10
6.0625
 20
1.50625
 30
0.0
 40
0.5
  1
3/4
100
AcDbAttributeDefinition
  3

  2
E
 70
     8
280
     0
  0
ATTDEF
  5
81
330
6E
100
AcDbEntity
  8
AM_6
100
AcDbText
 10
6.0625
 20
1.00625
 30
0.0
 40
0.5
  1
1
100
AcDbAttributeDefinition
  3

  2
F
 70
     8
280
     0
  0
ATTDEF
  5
82
330
6E
100
AcDbEntity
  8
AM_6
100
AcDbText
 10
6.0625
 20
0.5062499999999996
 30
0.0
 40
0.5
  1
12-7/8
100
AcDbAttributeDefinition
  3

  2
G
 70
     8
280
     0
  0
ATTDEF
  5
83
330
6E
100
AcDbEntity
  8
AM_6
100
AcDbText
 10
6.0625
 20
0.0062499999999996
 30
0.0
 40
0.5
  1
13/16
100
AcDbAttributeDefinition
  3

  2
H
 70
     8
280
     0
  0
ATTDEF
  5
84
330
6E
100
AcDbEntity
  8
AM_6
100
AcDbText
 10
6.0625
 20
-0.4937500000000004
 30
0.0
 40
0.5
  1
9-3/16
100
AcDbAttributeDefinition
  3

  2
J
 70
     8
280
     0
  0
ATTDEF
  5
85
330
6E
100
AcDbEntity
  8
AM_6
100
AcDbText
 10
6.0625
 20
-0.9937500000000004
 30
0.0
 40
0.5
  1
6
100
AcDbAttributeDefinition
  3

  2
L
 70
     8
280
     0
  0
ATTDEF
  5
86
330
6E
100
AcDbEntity
  8
AM_6
100
AcDbText
 10
6.0625
 20
-1.49375
 30
0.0
 40
0.5
  1
5/16
100
AcDbAttributeDefinition
  3

  2
T
 70
     8
280
     0
  0
ATTDEF
  5
87
330
6E
100
AcDbEntity
  8
AM_6
100
AcDbText
 10
6.0625
 20
-1.99375
 30
0.0
 40
0.5
  1
baldor
100
AcDbAttributeDefinition
  3

  2
COMPANY
 70
     8
280
     0
  0
INSERT
  5
89
330
6E
100
AcDbEntity
  8
0
100
AcDbBlockReference
  2
2_3_15_16C_1_0_in_023474_2
 10
0.0
 20
0.0
 30
0.0
  0
INSERT
  5
CD
330
6E
100
AcDbEntity
  8
0
100
AcDbBlockReference
  2
3_3_15_16C_2_0_in_023474_2
 10
0.0
 20
0.0
 30
0.0
  0
INSERT
  5
111
330
6E
100
AcDbEntity
  8
0
100
AcDbBlockReference
  2
4_405015E_Inch_0_in_023474_2
 10
0.0
 20
0.0
 30
0.0
  0
INSERT
  5
14F
330
6E
100
AcDbEntity
  8
0
100
AcDbBlockReference
  2
5_023530_Insert_0_in_023474_2
 10
0.0
 20
0.0
 30
0.0
  0
INSERT
  5
1B3
330
6E
100
AcDbEntity
  8
0
100
AcDbBlockReference
  2
6_023474H_0_in_023474_2
 10
0.0
 20
0.0
 30
0.0
  0
ENDBLK
  5
71
330
6E
100
AcDbEntity
  8
0
100
AcDbBlockEnd
  0
BLOCK
  5
8A
330
88
100
AcDbEntity
  8
0
100
AcDbBlockBegin
  2
2_3_15_16C_1_0_in_023474_2
 70
     2
 10
0.0
 20
0.0
 30
0.0
  3
2_3_15_16C_1_0_in_023474_2
  1

  0
ATTDEF
  5
8C
330
88
100
AcDbEntity
  8
AM_6
100
AcDbText
 10
0.5
 20
3.0625
 30
0.0
 40
0.5
  1
E-Type Collar -Inch
100
AcDbAttributeDefinition
  3

  2
NN
 70
     8
280
     0
  0
ATTDEF
  5
8D
330
88
100
AcDbEntity
  8
AM_6
100
AcDbText
 10
0.5
 20
2.5625
 30
0.0
 40
0.5
  1
E-Type Bearings
100
AcDbAttributeDefinition
  3

  2
NT
 70
     8
280
     0
  0
ATTDEF
  5
8E
330
88
100
AcDbEntity
  8
AM_6
100
AcDbText
 10
0.5
 20
2.0625
 30
0.0
 40
0.5
  1
3-15/16C
100
AcDbAttributeDefinition
  3

  2
NB
 70
     8
280
     0
  0
ATTDEF
  5
8F
330
88
100
AcDbEntity
  8
AM_6
100
AcDbText
 10
0.5
 20
1.5625
 30
0.0
 40
0.5
  1
$BORE.C
100
AcDbAttributeDefinition
  3

  2
NBSYN
 70
     8
280
     0
  0
ATTDEF
  5
90
330
88
100
AcDbEntity
  8
AM_6
100
AcDbText
 10
0.5
 20
1.0625
 30
0.0
 40
0.5
  1
3-15/16C
100
AcDbAttributeDefinition
  3

  2
LINA
 70
     8
280
     0
  0
ATTDEF
  5
91
330
88
100
AcDbEntity
  8
AM_6
100
AcDbText
 10
0.5
 20
0.5625
 30
0.0
 40
0.5
  1
3-15/16
100
AcDbAttributeDefinition
  3

  2
BORE
 70
     8
280
     0
  0
ATTDEF
  5
92
330
88
100
AcDbEntity
  8
AM_6
100
AcDbText
 10
0.5
 20
0.0625
 30
0.0
 40
0.5
  1
6.12500
100
AcDbAttributeDefinition
  3

  2
L
 70
     8
280
     0
  0
ATTDEF
  5
93
330
88
100
AcDbEntity
  8
AM_6
100
AcDbText
 10
0.5
 20
-0.4375
 30
0.0
 40
0.5
  1
6.25
100
AcDbAttributeDefinition
  3

  2
A
 70
     8
280
     0
  0
ATTDEF
  5
94
330
88
100
AcDbEntity
  8
AM_6
100
AcDbText
 10
0.5
 20
-0.9375
 30
0.0
 40
0.5
  1
3.12
100
AcDbAttributeDefinition
  3

  2
B
 70
     8
280
     0
  0
ATTDEF
  5
95
330
88
100
AcDbEntity
  8
AM_6
100
AcDbText
 10
0.5
 20
-1.4375
 30
0.0
 40
0.5
  1
4.50
100
AcDbAttributeDefinition
  3

  2
C
 70
     8
280
     0
  0
ATTDEF
  5
96
330
88
100
AcDbEntity
  8
AM_6
100
AcDbText
 10
0.5
 20
-1.9375
 30
0.0
 40
0.5
  1
6.38
100
AcDbAttributeDefinition
  3

  2
D
 70
     8
280
     0
  0
ATTDEF
  5
97
330
88
100
AcDbEntity
  8
AM_6
100
AcDbText
 10
0.5
 20
-2.4375
 30
0.0
 40
0.5
  1
0.66
100
AcDbAttributeDefinition
  3

  2
E
 70
     8
280
     0
  0
ATTDEF
  5
98
330
88
100
AcDbEntity
  8
AM_6
100
AcDbText
 10
0.5
 20
-2.9375
 30
0.0
 40
0.5
  1
0.50
100
AcDbAttributeDefinition
  3

  2
F
 70
     8
280
     0
  0
ATTDEF
  5
99
330
88
100
AcDbEntity
  8
AM_6
100
AcDbText
 10
0.5
 20
-3.4375
 30
0.0
 40
0.5
  1
5/8-11
100
AcDbAttributeDefinition
  3

  2
CS
 70
     8
280
     0
  0
ATTDEF
  5
9A
330
88
100
AcDbEntity
  8
AM_6
100
AcDbText
 10
0.5
 20
-3.9375
 30
0.0
 40
0.5
  1
0.6250
100
AcDbAttributeDefinition
  3

  2
NDM
 70
     8
280
     0
  0
ATTDEF
  5
9B
330
88
100
AcDbEntity
  8
AM_6
100
AcDbText
 10
0.5
 20
-4.4375
 30
0.0
 40
0.5
  1
0.5270
100
AcDbAttributeDefinition
  3

  2
KDM
 70
     8
280
     0
  0
ATTDEF
  5
9C
330
88
100
AcDbEntity
  8
AM_6
100
AcDbText
 10
0.5
 20
-4.9375
 30
0.0
 40
0.5
  1
baldor
100
AcDbAttributeDefinition
  3

  2
COMPANY
 70
     8
280
     0
  0
ELLIPSE
  5
9F
330
88
100
AcDbEntity
  8
AM_9
100
AcDbEllipse
 10
-5.0
 20
1.273475608103248
 30
0.0
 11
0.263300000000001
 21
0.0
 31
0.0
210
0.0
220
0.0
230
1.0
 40
0.9063077870366496
 41
0.0
 42
3.141592653589793
  0
LINE
  5
A0
330
88
100
AcDbEntity
  8
AM_9
100
AcDbLine
 10
-4.7367
 20
0.9540748131550202
 30
0.0
 11
-4.7367
 21
1.273475608103249
 31
0.0
  0
LINE
  5
A1
330
88
100
AcDbEntity
  8
AM_9
100
AcDbLine
 10
-5.263300000000001
 20
1.273475608103249
 30
0.0
 11
-5.263300000000001
 21
0.9540748131550202
 31
0.0
  0
ELLIPSE
  5
A2
330
88
100
AcDbEntity
  8
AM_9
100
AcDbEllipse
 10
-4.999999999999993
 20
1.273475608103253
 30
0.0
 11
0.2633000000000081
 21
0.0
 31
0.0
210
0.0
220
0.0
230
1.0
 40
0.9063077870366496
 41
3.141592653589793
 42
4.064476149809451
  0
ELLIPSE
  5
A3
330
88
100
AcDbEntity
  8
AM_9
100
AcDbEllipse
 10
-5.000000000000001
 20
1.273475608103249
 30
0.0
 11
0.263300000000001
 21
0.0
 31
0.0
210
0.0
220
0.0
230
1.0
 40
0.9063077870366496
 41
4.064476149809465
 42
6.283185307179586
  0
ELLIPSE
  5
A4
330
88
100
AcDbEntity
  8
AM_9
100
AcDbEllipse
 10
-5.0
 20
0.9540748131550209
 30
0.0
 11
0.263300000000001
 21
0.0
 31
0.0
210
0.0
220
0.0
230
1.0
 40
0.9063077870366496
 41
2.874926567685579
 42
6.283185307179586
  0
ELLIPSE
  5
A5
330
88
100
AcDbEntity
  8
AM_9
100
AcDbEllipse
 10
-4.999999999999988
 20
0.9540748131550163
 30
0.0
 11
0.2632999999999877
 21
0.0
 31
0.0
210
0.0
220
0.0
230
1.0
 40
0.9063077870366526
 41
0.0
 42
2.874926567685573
  0
LINE
  5
A6
330
88
100
AcDbEntity
  8
AM_9
100
AcDbLine
 10
-5.263300000000001
 20
2.257533333333333
 30
0.0
 11
-5.270512784635821
 21
2.250320548697513
 31
0.0
  0
LINE
  5
A7
330
88
100
AcDbEntity
  8
AM_9
100
AcDbLine
 10
-4.729619242727109
 20
2.250452576060442
 30
0.0
 11
-4.7367
 21
2.257533333333333
 31
0.0
  0
LINE
  5
A8
330
88
100
AcDbEntity
  8
AM_9
100
AcDbLine
 10
-4.7367
 20
3.0133
 30
0.0
 11
-4.687653128339127
 21
3.062346871660873
 31
0.0
  0
LINE
  5
A9
330
88
100
AcDbEntity
  8
AM_9
100
AcDbLine
 10
-5.311948968284959
 20
3.061948968284959
 30
0.0
 11
-5.263300000000001
 21
3.0133
 31
0.0
  0
LINE
  5
AA
330
88
100
AcDbEntity
  8
AM_9
100
AcDbLine
 10
-4.7367
 20
2.257533333333333
 30
0.0
 11
-4.7367
 21
3.0133
 31
0.0
  0
LINE
  5
AB
330
88
100
AcDbEntity
  8
AM_9
100
AcDbLine
 10
-5.263300000000001
 20
3.0133
 30
0.0
 11
-5.263300000000001
 21
2.257533333333333
 31
0.0
  0
LINE
  5
AC
330
88
100
AcDbEntity
  8
AM_9
100
AcDbLine
 10
-5.263300000000001
 20
3.0133
 30
0.0
 11
-4.7367
 21
3.0133
 31
0.0
  0
LINE
  5
AD
330
88
100
AcDbEntity
  8
AM_9
100
AcDbLine
 10
-5.263300000000001
 20
2.257533333333333
 30
0.0
 11
-4.7367
 21
2.257533333333333
 31
0.0
  0
LWPOLYLINE
  5
AE
330
88
100
AcDbEntity
  8
AM_9
100
AcDbPolyline
 90
        7
 70
     0
 43
0.0
 10
-4.735210950656653
 20
1.005534554226077
 10
-4.729710563360627
 20
0.9674378301967653
 10
-4.730919465138448
 20
0.9210618298021317
 10
-4.74044217554158
 20
0.8755066019787976
 10
-4.758696355065427
 20
0.8303727433870342
 10
-4.779405345489852
 20
0.7962759555620313
 10
-4.805735211364563
 20
0.7644799658275648
  0
LWPOLYLINE
  5
AF
330
88
100
AcDbEntity
  8
AM_9
100
AcDbPolyline
 90
       19
 70
     0
 43
0.0
 10
-5.264696528905198
 20
1.005943895661491
 10
-5.26361806861081
 20
1.010495020928126
 10
-5.248646827757242
 20
1.053443629930978
 10
-5.225000172924426
 20
1.094251202998459
 10
-5.195151131989309
 20
1.128810902280082
 10
-5.15759308984657
 20
1.158897733563939
 10
-5.11782770580223
 20
1.180649907074633
 10
-5.072643841859466
 20
1.196307066982151
 10
-5.029701320489272
 20
1.203902817055953
 10
-4.98443962131652
 20
1.204988627495685
 10
-4.943120692678949
 20
1.199867021059699
 10
-4.90224844128487
 20
1.18866204894858
 10
-4.864807228378662
 20
1.172197841702228
 10
-4.830021789540427
 20
1.150196226666262
 10
-4.798819443424516
 20
1.122789082397281
 10
-4.772313639702131
 20
1.090421366245112
 10
-4.751160028593252
 20
1.053020034990264
 10
-4.736669989647122
 20
1.011648930882936
 10
-4.735210950656653
 20
1.005534554226077
  0
LWPOLYLINE
  5
B0
330
88
100
AcDbEntity
  8
AM_9
100
AcDbPolyline
 90
       17
 70
     0
 43
0.0
 10
-4.805735211364563
 20
0.7644799658275648
 10
-4.835439735924683
 20
0.7377101135059102
 10
-4.869840353049987
 20
0.7148458225873742
 10
-4.911135796202668
 20
0.6960301305903352
 10
-4.956774836284429
 20
0.6841566556652464
 10
-4.999535921085054
 20
0.6805722173805185
 10
-5.043627155212641
 20
0.6842240537355554
 10
-5.08386390285018
 20
0.6942987487419172
 10
-5.122880977350692
 20
0.7109061231910963
 10
-5.158590902897186
 20
0.7331908505472827
 10
-5.190967199008947
 20
0.7611063470768873
 10
-5.219330235923443
 20
0.7945106388713049
 10
-5.242328153422486
 20
0.8323919298078102
 10
-5.259201068495302
 20
0.8743385835999269
 10
-5.268834159892085
 20
0.9190341305332519
 10
-5.27046260744046
 20
0.9645586955133844
 10
-5.264696528905198
 20
1.005943895661491
  0
LWPOLYLINE
  5
B1
330
88
100
AcDbEntity
  8
AM_9
100
AcDbPolyline
 90
        6
 70
     0
 43
0.0
 10
-4.799082972374702
 20
2.241632062175615
 10
-4.774763396888957
 20
2.244268473149524
 10
-4.755359313984091
 20
2.246583163266534
 10
-4.73910857260277
 20
2.248660355130569
 10
-4.730525839022781
 20
2.249814457297956
 10
-4.729166666666733
 20
2.249999999999991
  0
LINE
  5
B2
330
88
100
AcDbEntity
  8
AM_9
100
AcDbLine
 10
-5.5
 20
-2.25
 30
0.0
 11
-4.5
 21
-2.25
 31
0.0
  0
LINE
  5
B3
330
88
100
AcDbEntity
  8
AM_9
100
AcDbLine
 10
-4.5
 20
2.25
 30
0.0
 11
-4.730217839648494
 21
2.25
 31
0.0
  0
LINE
  5
B4
330
88
100
AcDbEntity
  8
AM_9
100
AcDbLine
 10
-5.270086381870144
 20
2.25
 30
0.0
 11
-5.5
 21
2.25
 31
0.0
  0
LWPOLYLINE
  5
B5
330
88
100
AcDbEntity
  8
AM_9
100
AcDbPolyline
 90
        4
 70
     0
 43
0.0
 10
-5.255773063510937
 20
2.24799438836647
 10
-5.264606347972983
 20
2.249157323301504
 10
-5.270595235730551
 20
2.249963312185637
 10
-5.270833333332688
 20
2.249999999999912
  0
LINE
  5
B6
330
88
100
AcDbEntity
  8
AM_9
100
AcDbLine
 10
-4.783003769507313
 20
2.243342660021664
 30
0.0
 11
-4.802203054727009
 21
2.241315051907744
 31
0.0
  0
LWPOLYLINE
  5
B7
330
88
100
AcDbEntity
  8
AM_9
100
AcDbPolyline
 90
       15
 70
     0
 43
0.0
 10
-5.270833333332688
 20
2.249999999999912
 10
-5.268348926536562
 20
2.249661529971779
 10
-5.257562895888697
 20
2.248223346573706
 10
-5.238536016522358
 20
2.245835127006266
 10
-5.211839356576487
 20
2.242779602990524
 10
-5.178045015133619
 20
2.239421181516243
 10
-5.139596931006785
 20
2.236302292988758
 10
-5.096392751805567
 20
2.233682102038341
 10
-5.052962729005911
 20
2.232022395724883
 10
-5.007836869066099
 20
2.231308285050134
 10
-4.96518222178112
 20
2.231611150103828
 10
-4.923521681249182
 20
2.232797401260049
 10
-4.884372715778862
 20
2.234732784730375
 10
-4.848280229800553
 20
2.237201837890911
 10
-4.799082972374702
 20
2.241632062175615
  0
LWPOLYLINE
  5
B8
330
88
100
AcDbEntity
  8
AM_9
100
AcDbPolyline
 90
       39
 70
     0
 43
0.0
 10
-4.784038501657308
 20
1.09596897362173
 10
-4.753293999030465
 20
1.126302575680296
 10
-4.727184302563257
 20
1.16120505777857
 10
-4.705679345382352
 20
1.202890739075216
 10
-4.691993321100946
 20
1.248506340999335
 10
-4.687511660087832
 20
1.291937391624052
 10
-4.691364188673969
 20
1.336415137385735
 10
-4.702863685547852
 20
1.377242084494781
 10
-4.722225504573122
 20
1.416611681100127
 10
-4.748253700854287
 20
1.452017523156329
 10
-4.781235021022639
 20
1.483895031271883
 10
-4.820215298746451
 20
1.510980059554066
 10
-4.864824193208894
 20
1.532716606947886
 10
-4.913757032163892
 20
1.548142655696852
 10
-4.966344420951939
 20
1.556677892016762
 10
-5.019943905495579
 20
1.55765363415178
 10
-5.074496661741504
 20
1.550730262532842
 10
-5.125834228741049
 20
1.536279121393685
 10
-5.174989448102393
 20
1.513733134542917
 10
-5.216976268288859
 20
1.485350085484716
 10
-5.253748219438783
 20
1.44970167873198
 10
-5.280846642915296
 20
1.411428806525793
 10
-5.300501483050373
 20
1.367853997173736
 10
-5.31043808730989
 20
1.325129401945537
 10
-5.312052009948231
 20
1.279809932057396
 10
-5.305521316926255
 20
1.237298242685765
 10
-5.290913603985694
 20
1.194908406515497
 10
-5.269411869708007
 20
1.155958023401802
 10
-5.240627237334802
 20
1.119571416008727
 10
-5.205582360535034
 20
1.087491066174375
 10
-5.164423960297643
 20
1.060245806775314
 10
-5.118226532860238
 20
1.0390646492183
 10
-5.06765697279029
 20
1.024781495263666
 10
-5.014853742653766
 20
1.018395088564344
 10
-4.960160247710522
 20
1.020383377753426
 10
-4.907298454948959
 20
1.030795635495611
 10
-4.855592874092777
 20
1.050003772177851
 10
-4.818456407984778
 20
1.070470118225304
 10
-4.784038501613284
 20
1.095968973468149
  0
LINE
  5
B9
330
88
100
AcDbEntity
  8
AM_9
100
AcDbLine
 10
-4.625
 20
-3.0625
 30
0.0
 11
-4.5
 21
-3.0625
 31
0.0
  0
LINE
  5
BA
330
88
100
AcDbEntity
  8
AM_9
100
AcDbLine
 10
-4.5
 20
3.0625
 30
0.0
 11
-4.625
 21
3.0625
 31
0.0
  0
LINE
  5
BB
330
88
100
AcDbEntity
  8
AM_9
100
AcDbLine
 10
-4.5
 20
3.0625
 30
0.0
 11
-4.5
 21
-3.0625
 31
0.0
  0
LWPOLYLINE
  5
BC
330
88
100
AcDbEntity
  8
AM_9
100
AcDbPolyline
 90
        4
 70
     0
 43
0.0
 10
-4.6939233723815
 20
3.061911253144977
 10
-4.692216726338115
 20
3.062066506327778
 10
-4.687550753690212
 20
3.062492800955106
 10
-4.687500000000065
 20
3.062499999999994
  0
LINE
  5
BD
330
88
100
AcDbEntity
  8
AM_9
100
AcDbLine
 10
-4.70343281198692
 20
3.061061734784048
 30
0.0
 11
-4.6939233723815
 21
3.061911253144977
 31
0.0
  0
LINE
  5
BE
330
88
100
AcDbEntity
  8
AM_9
100
AcDbLine
 10
-4.795813894013437
 20
3.054188526622005
 30
0.0
 11
-4.760319915120084
 21
3.056532454799497
 31
0.0
  0
LINE
  5
C0
330
88
100
AcDbEntity
  8
AM_5
100
AcDbLine
 10
-5.3125
 20
3.062499999999999
 30
0.0
 11
-5.3125
 21
2.250000000000001
 31
0.0
  0
LINE
  5
C1
330
88
100
AcDbEntity
  8
AM_5
100
AcDbLine
 10
-4.6875
 20
3.0625
 30
0.0
 11
-4.6875
 21
2.25
 31
0.0
  0
LINE
  5
C3
330
88
100
AcDbEntity
  8
AM_4
100
AcDbLine
 10
-5.5
 20
2.895833333333333
 30
0.0
 11
-5.5
 21
-2.895833333333333
 31
0.0
  0
ARC
  5
C4
330
88
100
AcDbEntity
  8
AM_4
100
AcDbCircle
 10
-5.333333333333335
 20
-2.895833333333335
 30
0.0
 40
0.1666666666666652
100
AcDbArc
 50
180.0
 51
270.0
  0
ARC
  5
C5
330
88
100
AcDbEntity
  8
AM_4
100
AcDbCircle
 10
-5.333333333333335
 20
2.895833333333335
 30
0.0
 40
0.1666666666666647
100
AcDbArc
 50
90.0
 51
180.0
  0
LWPOLYLINE
  5
C6
330
88
100
AcDbEntity
  8
AM_4
100
AcDbPolyline
 90
       16
 70
     0
 43
0.0
 10
-4.761669224162556
 20
3.056436559717802
 10
-4.794324124323393
 20
3.054280794777517
 10
-4.831249300311386
 20
3.052219879539561
 10
-4.877728121440682
 20
3.050206744738342
 10
-4.927392895672698
 20
3.048757455786052
 10
-4.980765715781386
 20
3.048031090931427
 10
-5.034664745061727
 20
3.048149409728581
 10
-5.088447471209892
 20
3.049144246394877
 10
-5.139707014395128
 20
3.050883990595889
 10
-5.186575755604574
 20
3.053167149364176
 10
-5.22797705462223
 20
3.055718564696991
 10
-5.261480688049367
 20
3.058156108307787
 10
-5.287334954168392
 20
3.060262238627412
 10
-5.303801648034094
 20
3.061703388285627
 10
-5.311793940430576
 20
3.062434696705212
 10
-5.312499999999968
 20
3.062499999999997
  0
LINE
  5
C7
330
88
100
AcDbEntity
  8
AM_4
100
AcDbLine
 10
-5.333333333333334
 20
-3.0625
 30
0.0
 11
-4.625
 21
-3.0625
 31
0.0
  0
LINE
  5
C8
330
88
100
AcDbEntity
  8
AM_4
100
AcDbLine
 10
-4.625
 20
3.0625
 30
0.0
 11
-4.687778889525999
 21
3.0625
 31
0.0
  0
LINE
  5
C9
330
88
100
AcDbEntity
  8
AM_4
100
AcDbLine
 10
-5.311491964330508
 20
3.0625
 30
0.0
 11
-5.333333333333334
 21
3.0625
 31
0.0
  0
LINE
  5
CA
330
88
100
AcDbEntity
  8
AM_4
100
AcDbLine
 10
-5.333333333333334
 20
3.0625
 30
0.0
 11
-5.333333333333334
 21
-3.0625
 31
0.0
  0
LINE
  5
CB
330
88
100
AcDbEntity
  8
AM_4
100
AcDbLine
 10
-4.687500000000065
 20
3.062499999999994
 30
0.0
 11
-4.761669224162556
 21
3.056436559717802
 31
0.0
  0
ENDBLK
  5
8B
330
88
100
AcDbEntity
  8
0
100
AcDbBlockEnd
  0
BLOCK
  5
CE
330
CC
100
AcDbEntity
  8
0
100
AcDbBlockBegin
  2
3_3_15_16C_2_0_in_023474_2
 70
     2
 10
0.0
 20
0.0
 30
0.0
  3
3_3_15_16C_2_0_in_023474_2
  1

  0
ATTDEF
  5
D0
330
CC
100
AcDbEntity
  8
AM_6
100
AcDbText
 10
5.75
 20
3.0625
 30
0.0
 40
0.5
  1
E-Type Collar -Inch
100
AcDbAttributeDefinition
  3

  2
NN
 70
     8
280
     0
  0
ATTDEF
  5
D1
330
CC
100
AcDbEntity
  8
AM_6
100
AcDbText
 10
5.75
 20
2.5625
 30
0.0
 40
0.5
  1
E-Type Bearings
100
AcDbAttributeDefinition
  3

  2
NT
 70
     8
280
     0
  0
ATTDEF
  5
D2
330
CC
100
AcDbEntity
  8
AM_6
100
AcDbText
 10
5.75
 20
2.0625
 30
0.0
 40
0.5
  1
3-15/16C
100
AcDbAttributeDefinition
  3

  2
NB
 70
     8
280
     0
  0
ATTDEF
  5
D3
330
CC
100
AcDbEntity
  8
AM_6
100
AcDbText
 10
5.75
 20
1.5625
 30
0.0
 40
0.5
  1
$BORE.C
100
AcDbAttributeDefinition
  3

  2
NBSYN
 70
     8
280
     0
  0
ATTDEF
  5
D4
330
CC
100
AcDbEntity
  8
AM_6
100
AcDbText
 10
5.75
 20
1.0625
 30
0.0
 40
0.5
  1
3-15/16C
100
AcDbAttributeDefinition
  3

  2
LINA
 70
     8
280
     0
  0
ATTDEF
  5
D5
330
CC
100
AcDbEntity
  8
AM_6
100
AcDbText
 10
5.75
 20
0.5625
 30
0.0
 40
0.5
  1
3-15/16
100
AcDbAttributeDefinition
  3

  2
BORE
 70
     8
280
     0
  0
ATTDEF
  5
D6
330
CC
100
AcDbEntity
  8
AM_6
100
AcDbText
 10
5.75
 20
0.0625
 30
0.0
 40
0.5
  1
6.12500
100
AcDbAttributeDefinition
  3

  2
L
 70
     8
280
     0
  0
ATTDEF
  5
D7
330
CC
100
AcDbEntity
  8
AM_6
100
AcDbText
 10
5.75
 20
-0.4375
 30
0.0
 40
0.5
  1
6.25
100
AcDbAttributeDefinition
  3

  2
A
 70
     8
280
     0
  0
ATTDEF
  5
D8
330
CC
100
AcDbEntity
  8
AM_6
100
AcDbText
 10
5.75
 20
-0.9375
 30
0.0
 40
0.5
  1
3.12
100
AcDbAttributeDefinition
  3

  2
B
 70
     8
280
     0
  0
ATTDEF
  5
D9
330
CC
100
AcDbEntity
  8
AM_6
100
AcDbText
 10
5.75
 20
-1.4375
 30
0.0
 40
0.5
  1
4.50
100
AcDbAttributeDefinition
  3

  2
C
 70
     8
280
     0
  0
ATTDEF
  5
DA
330
CC
100
AcDbEntity
  8
AM_6
100
AcDbText
 10
5.75
 20
-1.9375
 30
0.0
 40
0.5
  1
6.38
100
AcDbAttributeDefinition
  3

  2
D
 70
     8
280
     0
  0
ATTDEF
  5
DB
330
CC
100
AcDbEntity
  8
AM_6
100
AcDbText
 10
5.75
 20
-2.4375
 30
0.0
 40
0.5
  1
0.66
100
AcDbAttributeDefinition
  3

  2
E
 70
     8
280
     0
  0
ATTDEF
  5
DC
330
CC
100
AcDbEntity
  8
AM_6
100
AcDbText
 10
5.75
 20
-2.9375
 30
0.0
 40
0.5
  1
0.50
100
AcDbAttributeDefinition
  3

  2
F
 70
     8
280
     0
  0
ATTDEF
  5
DD
330
CC
100
AcDbEntity
  8
AM_6
100
AcDbText
 10
5.75
 20
-3.4375
 30
0.0
 40
0.5
  1
5/8-11
100
AcDbAttributeDefinition
  3

  2
CS
 70
     8
280
     0
  0
ATTDEF
  5
DE
330
CC
100
AcDbEntity
  8
AM_6
100
AcDbText
 10
5.75
 20
-3.9375
 30
0.0
 40
0.5
  1
0.6250
100
AcDbAttributeDefinition
  3

  2
NDM
 70
     8
280
     0
  0
ATTDEF
  5
DF
330
CC
100
AcDbEntity
  8
AM_6
100
AcDbText
 10
5.75
 20
-4.4375
 30
0.0
 40
0.5
  1
0.5270
100
AcDbAttributeDefinition
  3

  2
KDM
 70
     8
280
     0
  0
ATTDEF
  5
E0
330
CC
100
AcDbEntity
  8
AM_6
100
AcDbText
 10
5.75
 20
-4.9375
 30
0.0
 40
0.5
  1
baldor
100
AcDbAttributeDefinition
  3

  2
COMPANY
 70
     8
280
     0
  0
ELLIPSE
  5
E1
330
CC
100
AcDbEntity
  8
AM_9
100
AcDbEllipse
 10
0.2499999999999992
 20
1.273475608103249
 30
0.0
 11
0.2633000000000004
 21
0.0
 31
0.0
210
0.0
220
0.0
230
1.0
 40
0.9063077870366498
 41
0.0
 42
1.570796326794897
  0
LINE
  5
E2
330
CC
100
AcDbEntity
  8
AM_9
100
AcDbLine
 10
0.5132999999999999
 20
0.9540748131550203
 30
0.0
 11
0.5132999999999999
 21
1.273475608103249
 31
0.0
  0
LINE
  5
E3
330
CC
100
AcDbEntity
  8
AM_9
100
AcDbLine
 10
-0.0133000000000001
 20
1.273475608103249
 30
0.0
 11
-0.0133000000000001
 21
0.9540748131550203
 31
0.0
  0
ELLIPSE
  5
E4
330
CC
100
AcDbEntity
  8
AM_9
100
AcDbEllipse
 10
0.2499999999999964
 20
1.273475608103247
 30
0.0
 11
0.2632999999999966
 21
0.0
 31
0.0
210
0.0
220
0.0
230
1.0
 40
0.9063077870366487
 41
3.141592653589793
 42
3.460791030544887
  0
ELLIPSE
  5
E5
330
CC
100
AcDbEntity
  8
AM_9
100
AcDbEllipse
 10
0.2499999999999998
 20
1.273475608103252
 30
0.0
 11
0.2632999999999998
 21
0.0
 31
0.0
210
0.0
220
0.0
230
1.0
 40
0.9063077870366532
 41
3.4607910305449
 42
4.064022733975427
  0
ELLIPSE
  5
E6
330
CC
100
AcDbEntity
  8
AM_9
100
AcDbEllipse
 10
0.2499999999999999
 20
1.273475608103249
 30
0.0
 11
0.2632999999999998
 21
0.0
 31
0.0
210
0.0
220
0.0
230
1.0
 40
0.9063077870366495
 41
4.06402273397542
 42
5.364172177262901
  0
ELLIPSE
  5
E7
330
CC
100
AcDbEntity
  8
AM_9
100
AcDbEllipse
 10
0.2500000000000316
 20
1.273475608103182
 30
0.0
 11
0.263299999999953
 21
0.0
 31
0.0
210
0.0
220
0.0
230
1.0
 40
0.9063077870365494
 41
5.364172177262923
 42
6.283185307179586
  0
ELLIPSE
  5
E8
330
CC
100
AcDbEntity
  8
AM_9
100
AcDbEllipse
 10
0.2500000000000003
 20
1.273475608103249
 30
0.0
 11
0.2633000000000004
 21
0.0
 31
0.0
210
0.0
220
0.0
230
1.0
 40
0.9063077870366493
 41
1.570796326794897
 42
3.141592653589793
  0
ELLIPSE
  5
E9
330
CC
100
AcDbEntity
  8
AM_9
100
AcDbEllipse
 10
0.2499999999999963
 20
0.9540748131550096
 30
0.0
 11
0.2632999999999963
 21
0.0
 31
0.0
210
0.0
220
0.0
230
1.0
 40
0.9063077870366429
 41
3.141592653589793
 42
3.460791030544857
  0
ELLIPSE
  5
EA
330
CC
100
AcDbEntity
  8
AM_9
100
AcDbEllipse
 10
0.2499999999999999
 20
0.9540748131550203
 30
0.0
 11
0.2633
 21
0.0
 31
0.0
210
0.0
220
0.0
230
1.0
 40
0.9063077870366493
 41
3.460791030544893
 42
9.155977647035673
  0
ELLIPSE
  5
EB
330
CC
100
AcDbEntity
  8
AM_9
100
AcDbEllipse
 10
0.2500000000000041
 20
0.954074813155027
 30
0.0
 11
0.2633000000000041
 21
0.0
 31
0.0
210
0.0
220
0.0
230
1.0
 40
0.9063077870366485
 41
2.872792339856119
 42
3.141592653589793
  0
LINE
  5
EC
330
CC
100
AcDbEntity
  8
AM_9
100
AcDbLine
 10
0.5133
 20
2.257533333333333
 30
0.0
 11
0.5133
 21
3.0133
 31
0.0
  0
LINE
  5
ED
330
CC
100
AcDbEntity
  8
AM_9
100
AcDbLine
 10
-0.0133
 20
3.0133
 30
0.0
 11
-0.0133
 21
2.257533333333333
 31
0.0
  0
LINE
  5
EE
330
CC
100
AcDbEntity
  8
AM_9
100
AcDbLine
 10
-0.0133
 20
2.257533333333333
 30
0.0
 11
-0.0204118073863571
 21
2.250421525946976
 31
0.0
  0
LINE
  5
EF
330
CC
100
AcDbEntity
  8
AM_9
100
AcDbLine
 10
0.5204616648810039
 20
2.250371668452329
 30
0.0
 11
0.5133
 21
2.257533333333333
 31
0.0
  0
LINE
  5
F0
330
CC
100
AcDbEntity
  8
AM_9
100
AcDbLine
 10
-0.0133
 20
2.257533333333333
 30
0.0
 11
0.5133
 21
2.257533333333333
 31
0.0
  0
LINE
  5
F1
330
CC
100
AcDbEntity
  8
AM_9
100
AcDbLine
 10
0.5133
 20
3.0133
 30
0.0
 11
0.5625000000000001
 21
3.0625
 31
0.0
  0
LINE
  5
F2
330
CC
100
AcDbEntity
  8
AM_9
100
AcDbLine
 10
-0.0625000000000001
 20
3.0625
 30
0.0
 11
-0.0133
 21
3.0133
 31
0.0
  0
LINE
  5
F3
330
CC
100
AcDbEntity
  8
AM_9
100
AcDbLine
 10
-0.0133
 20
3.0133
 30
0.0
 11
0.5133
 21
3.0133
 31
0.0
  0
LWPOLYLINE
  5
F4
330
CC
100
AcDbEntity
  8
AM_9
100
AcDbPolyline
 90
       16
 70
     0
 43
0.0
 10
0.0557352113645627
 20
2.240962040650285
 10
0.0854397359246826
 20
2.238240713540724
 10
0.1198403530499871
 20
2.235645149247013
 10
0.1611357962026676
 20
2.233323779266403
 10
0.2067748362844288
 20
2.231773467115404
 10
0.2495359210850542
 20
2.231292525916194
 10
0.2936271552126404
 20
2.231782452930967
 10
0.3338639028501796
 20
2.233101817930693
 10
0.3728809773506925
 20
2.235172889363511
 10
0.4085909028971855
 20
2.23774740067116
 10
0.440967199008946
 20
2.24063810182178
 10
0.4693302359234426
 20
2.243601645490085
 10
0.492328153422485
 20
2.246297639887808
 10
0.5092010684953014
 20
2.24844117210337
 10
0.5188341598920844
 20
2.24972740104254
 10
0.5208333333328912
 20
2.24999999999994
  0
LWPOLYLINE
  5
F5
330
CC
100
AcDbEntity
  8
AM_9
100
AcDbPolyline
 90
       16
 70
     0
 43
0.0
 10
0.5149488181216723
 20
1.004819891214921
 10
0.5205952357305508
 20
0.9612350181282083
 10
0.5183489265365608
 20
0.9153788040192268
 10
0.5075628958886963
 20
0.8692890937681831
 10
0.4885360165223571
 20
0.8251137778181078
 10
0.4618393565764864
 20
0.7846568450662028
 10
0.4280450151336189
 20
0.7489101138516935
 10
0.3895969310067849
 20
0.7204334824210551
 10
0.3463927518055662
 20
0.698848613993494
 10
0.3029627290059097
 20
0.6860077466515151
 10
0.2578368690660995
 20
0.6806889675079348
 10
0.21518222178112
 20
0.682922921084827
 10
0.1735216812491808
 20
0.6919417727237017
 10
0.1343727157788618
 20
0.7072830282267352
 10
0.0982802298005519
 20
0.728293606104793
 10
0.0490829723747021
 20
0.771648472251829
  0
LWPOLYLINE
  5
F6
330
CC
100
AcDbEntity
  8
AM_9
100
AcDbPolyline
 90
       18
 70
     0
 43
0.0
 10
-0.0007857599301309
 20
1.048627553247111
 10
0.0040951142986023
 20
1.059172018061535
 10
0.0283811851666734
 20
1.098863482832118
 10
0.059588846538541
 20
1.13323176035889
 10
0.0972503575170133
 20
1.16202493681386
 10
0.1381376372365244
 20
1.183183016440649
 10
0.1827954733237018
 20
1.197639748952636
 10
0.2264443162096659
 20
1.204430008401932
 10
0.2708204476168488
 20
1.204664506826899
 10
0.312520023580483
 20
1.198675843361116
 10
0.3524929952042342
 20
1.186929354302573
 10
0.3900789111316678
 20
1.169518463868775
 10
0.4239919356436845
 20
1.147141469842896
 10
0.455042125346482
 20
1.118683004646004
 10
0.4805907580077761
 20
1.086099236352993
 10
0.5011886831559724
 20
1.047629301160185
 10
0.5146063479729825
 20
1.006339788910266
 10
0.5149488181216723
 20
1.004819891214921
  0
LWPOLYLINE
  5
F7
330
CC
100
AcDbEntity
  8
AM_9
100
AcDbPolyline
 90
        3
 70
     0
 43
0.0
 10
-0.0145745843552324
 20
1.006478515082021
 10
-0.0121981777015068
 20
1.015969927057263
 10
-0.0007857599301309
 20
1.048627553247111
  0
LWPOLYLINE
  5
F8
330
CC
100
AcDbEntity
  8
AM_9
100
AcDbPolyline
 90
        5
 70
     0
 43
0.0
 10
-0.0008376616935689
 20
0.851044689193732
 10
-0.010891427397231
 20
0.8801378002185124
 10
-0.0194741609772193
 20
0.924625120130649
 10
-0.0200170210882892
 20
0.9708114462547965
 10
-0.0145745843552324
 20
1.006478515082021
  0
LWPOLYLINE
  5
F9
330
CC
100
AcDbEntity
  8
AM_9
100
AcDbPolyline
 90
        4
 70
     0
 43
0.0
 10
0.0490829723747021
 20
0.771648472251829
 10
0.0247633968889567
 20
0.8030400480951182
 10
0.0053593139840904
 20
0.8371084369274372
 10
-0.0008376616935689
 20
0.851044689193732
  0
LINE
  5
FA
330
CC
100
AcDbEntity
  8
AM_9
100
AcDbLine
 10
0.7499999999999999
 20
2.25
 30
0.0
 11
0.5199719466950165
 21
2.25
 31
0.0
  0
LINE
  5
FB
330
CC
100
AcDbEntity
  8
AM_9
100
AcDbLine
 10
-0.0198566473378543
 20
2.25
 30
0.0
 11
-0.25
 21
2.25
 31
0.0
  0
LINE
  5
FC
330
CC
100
AcDbEntity
  8
AM_9
100
AcDbLine
 10
-0.25
 20
-2.25
 30
0.0
 11
0.7499999999999999
 21
-2.25
 31
0.0
  0
LINE
  5
FD
330
CC
100
AcDbEntity
  8
AM_9
100
AcDbLine
 10
-0.0123285117364726
 20
2.248853791841468
 30
0.0
 11
-0.0208333333330312
 21
2.249999999999959
 31
0.0
  0
LINE
  5
FE
330
CC
100
AcDbEntity
  8
AM_9
100
AcDbLine
 10
0.0687810976080201
 20
2.239712317469307
 30
0.0
 11
0.051649026288079
 21
2.241370988118549
 31
0.0
  0
LWPOLYLINE
  5
FF
330
CC
100
AcDbEntity
  8
AM_9
100
AcDbPolyline
 90
        6
 70
     0
 43
0.0
 10
-0.0208333333330312
 20
2.249999999999959
 10
-0.0190805348615529
 20
2.249760890640092
 10
-0.0095578244584195
 20
2.248487999368756
 10
0.008696355065427
 20
2.246171986671709
 10
0.0294053454898519
 20
2.24374307594698
 10
0.0557352113645627
 20
2.240962040650285
  0
LINE
  5
100
330
CC
100
AcDbEntity
  8
AM_9
100
AcDbLine
 10
-0.25
 20
-3.0625
 30
0.0
 11
-0.25
 21
3.0625
 31
0.0
  0
LINE
  5
101
330
CC
100
AcDbEntity
  8
AM_9
100
AcDbLine
 10
-0.000304259951902
 20
3.05730622547592
 30
0.0
 11
-0.0624999999999648
 21
3.062499999999996
 31
0.0
  0
LWPOLYLINE
  5
102
330
CC
100
AcDbEntity
  8
AM_9
100
AcDbPolyline
 90
       38
 70
     0
 43
0.0
 10
0.0116692242230049
 20
1.117134448123157
 10
0.0443241243233932
 20
1.087585064665388
 10
0.0812493003113862
 20
1.0626952056183
 10
0.1277281214406815
 20
1.040612789425983
 10
0.1773928956726972
 20
1.025812289236124
 10
0.2307657157813856
 20
1.01863979004798
 10
0.2846647450617275
 20
1.019821053414429
 10
0.3384474712098911
 20
1.029663220791344
 10
0.3897070143951281
 20
1.047843778614473
 10
0.4365757556045732
 20
1.073798436903541
 10
0.4779770546222304
 20
1.106795106068807
 10
0.5114806880493654
 20
1.144711120729017
 10
0.5373349541683916
 20
1.187237142326993
 10
0.5538016480340933
 20
1.230854512730279
 10
0.5617939404305748
 20
1.276115161524302
 10
0.5610669083495523
 20
1.319724556296899
 10
0.5522846983609428
 20
1.362296344456282
 10
0.5358541551322258
 20
1.402238134251223
 10
0.5123977513666446
 20
1.439025734648666
 10
0.4817026949898104
 20
1.472588734701264
 10
0.4453240305479739
 20
1.501254431591668
 10
0.4022375095339777
 20
1.525351194563044
 10
0.3552664331476233
 20
1.543068849156442
 10
0.3034988663042464
 20
1.554343684277105
 10
0.2502910562653309
 20
1.558180005571719
 10
0.195845484767137
 20
1.554246667393414
 10
0.1429264032212546
 20
1.542528014786452
 10
0.0930530921162278
 20
1.523115579517615
 10
0.0477489502218138
 20
1.496488023177302
 10
0.0093748155520916
 20
1.463931133354641
 10
-0.0219240993926736
 20
1.42575921839867
 10
-0.0440382214220451
 20
1.384836968316625
 10
-0.0577832736618853
 20
1.340783922017594
 10
-0.0624492463097878
 20
1.297038560531353
 10
-0.0588287890596784
 20
1.252891921828291
 10
-0.0472792905440921
 20
1.210587598458019
 10
-0.0283361319965976
 20
1.170321621124607
 10
0.0116692241518169
 20
1.117134448017203
  0
LINE
  5
103
330
CC
100
AcDbEntity
  8
AM_9
100
AcDbLine
 10
-0.0625000000000001
 20
3.0625
 30
0.0
 11
-0.25
 21
3.0625
 31
0.0
  0
LINE
  5
104
330
CC
100
AcDbEntity
  8
AM_9
100
AcDbLine
 10
-0.25
 20
-3.0625
 30
0.0
 11
0.0000000000000004
 21
-3.0625
 31
0.0
  0
LINE
  5
105
330
CC
100
AcDbEntity
  8
AM_9
100
AcDbLine
 10
0.0323723187531719
 20
3.055032448740927
 30
0.0
 11
0.0693090130401541
 21
3.052841691395306
 31
0.0
  0
LINE
  5
106
330
CC
100
AcDbEntity
  8
AM_5
100
AcDbLine
 10
0.5625
 20
3.0625
 30
0.0
 11
0.5625
 21
2.25
 31
0.0
  0
LINE
  5
107
330
CC
100
AcDbEntity
  8
AM_5
100
AcDbLine
 10
-0.0625
 20
3.0625
 30
0.0
 11
-0.0625
 21
2.25
 31
0.0
  0
LINE
  5
108
330
CC
100
AcDbEntity
  8
AM_4
100
AcDbLine
 10
0.7499999999999999
 20
-2.895833333333333
 30
0.0
 11
0.7499999999999999
 21
2.895833333333333
 31
0.0
  0
ARC
  5
109
330
CC
100
AcDbEntity
  8
AM_4
100
AcDbCircle
 10
0.583333333333333
 20
2.895833333333333
 30
0.0
 40
0.1666666666666672
100
AcDbArc
 50
0.0
 51
90.0
  0
ARC
  5
10A
330
CC
100
AcDbEntity
  8
AM_4
100
AcDbCircle
 10
0.5833333333333326
 20
-2.895833333333333
 30
0.0
 40
0.1666666666666674
100
AcDbArc
 50
270.0
 51
0.0
  0
LINE
  5
10B
330
CC
100
AcDbEntity
  8
AM_4
100
AcDbLine
 10
0.5833333333333334
 20
-3.0625
 30
0.0
 11
0.5833333333333334
 21
3.0625
 31
0.0
  0
LINE
  5
10C
330
CC
100
AcDbEntity
  8
AM_4
100
AcDbLine
 10
0.0340385015950081
 20
3.054924941596102
 30
0.0
 11
-0.000304259951902
 21
3.05730622547592
 31
0.0
  0
LINE
  5
10D
330
CC
100
AcDbEntity
  8
AM_4
100
AcDbLine
 10
0.5833333333333334
 20
3.0625
 30
0.0
 11
0.5625000000000001
 21
3.0625
 31
0.0
  0
LINE
  5
10E
330
CC
100
AcDbEntity
  8
AM_4
100
AcDbLine
 10
0.0000000000000004
 20
-3.0625
 30
0.0
 11
0.5833333333333334
 21
-3.0625
 31
0.0
  0
LWPOLYLINE
  5
10F
330
CC
100
AcDbEntity
  8
AM_4
100
AcDbPolyline
 90
       16
 70
     0
 43
0.0
 10
0.5624999999998765
 20
3.062499999999988
 10
0.5620520099482302
 20
3.062458548663156
 10
0.5555213169262544
 20
3.061860919740621
 10
0.5409136039856931
 20
3.060569187987243
 10
0.5194118697080067
 20
3.058781310850605
 10
0.4906272373348022
 20
3.056600088806399
 10
0.4555823605350343
 20
3.054273705648242
 10
0.4144239602976434
 20
3.05200499234796
 10
0.3682265328602367
 20
3.050057277091168
 10
0.3176569727902901
 20
3.048653744949526
 10
0.2648537426537662
 20
3.048002821825299
 10
0.2101602477105212
 20
3.048207018850698
 10
0.1572984549489588
 20
3.049253539111513
 10
0.1055928740927762
 20
3.05108318230522
 10
0.0684564079847773
 20
3.05288770866852
 10
0.0340385015950081
 20
3.054924941596102
  0
ENDBLK
  5
CF
330
CC
100
AcDbEntity
  8
0
100
AcDbBlockEnd
  0
BLOCK
  5
112
330
110
100
AcDbEntity
  8
0
100
AcDbBlockBegin
  2
4_405015E_Inch_0_in_023474_2
 70
     2
 10
0.0
 20
0.0
 30
0.0
  3
4_405015E_Inch_0_in_023474_2
  1

  0
ATTDEF
  5
114
330
110
100
AcDbEntity
  8
AM_6
100
AcDbText
 10
2.877590742770461
 20
5.159999999999999
 30
0.0
 40
0.5
  1
405015E -Inch
100
AcDbAttributeDefinition
  3

  2
NN
 70
     8
280
     0
  0
ATTDEF
  5
115
330
110
100
AcDbEntity
  8
AM_6
100
AcDbText
 10
2.877590742770461
 20
4.659999999999999
 30
0.0
 40
0.5
  1
Grease Fitting
100
AcDbAttributeDefinition
  3

  2
NT
 70
     8
280
     0
  0
ATTDEF
  5
116
330
110
100
AcDbEntity
  8
AM_6
100
AcDbText
 10
2.877590742770461
 20
4.159999999999999
 30
0.0
 40
0.5
  1
405015E-Inch
100
AcDbAttributeDefinition
  3

  2
NB
 70
     8
280
     0
  0
ATTDEF
  5
117
330
110
100
AcDbEntity
  8
AM_6
100
AcDbText
 10
2.877590742770461
 20
3.659999999999999
 30
0.0
 40
0.5
  1
$MN.-Inch
100
AcDbAttributeDefinition
  3

  2
NBSYN
 70
     8
280
     0
  0
ATTDEF
  5
118
330
110
100
AcDbEntity
  8
AM_6
100
AcDbText
 10
2.877590742770461
 20
3.159999999999999
 30
0.0
 40
0.5
  1
405015E
100
AcDbAttributeDefinition
  3

  2
LINA
 70
     8
280
     0
  0
ATTDEF
  5
119
330
110
100
AcDbEntity
  8
AM_6
100
AcDbText
 10
2.877590742770461
 20
2.659999999999999
 30
0.0
 40
0.5
  1
405015E
100
AcDbAttributeDefinition
  3

  2
MN
 70
     8
280
     0
  0
ATTDEF
  5
11A
330
110
100
AcDbEntity
  8
AM_6
100
AcDbText
 10
2.877590742770461
 20
2.159999999999999
 30
0.0
 40
0.5
  1
1/8 x 27PTF
100
AcDbAttributeDefinition
  3

  2
T
 70
     8
280
     0
  0
ATTDEF
  5
11B
330
110
100
AcDbEntity
  8
AM_6
100
AcDbText
 10
2.877590742770461
 20
1.659999999999999
 30
0.0
 40
0.5
  1
baldor
100
AcDbAttributeDefinition
  3

  2
COMPANY
 70
     8
280
     0
  0
LINE
  5
11C
330
110
100
AcDbEntity
  8
AM_9
100
AcDbLine
 10
-2.27
 20
4.99
 30
0.0
 11
-2.27
 21
5.02
 31
0.0
  0
LINE
  5
11D
330
110
100
AcDbEntity
  8
AM_9
100
AcDbLine
 10
-2.48
 20
5.02
 30
0.0
 11
-2.48
 21
4.99
 31
0.0
  0
LINE
  5
11E
330
110
100
AcDbEntity
  8
AM_9
100
AcDbLine
 10
-2.59375
 20
4.885
 30
0.0
 11
-2.15625
 21
4.885
 31
0.0
  0
LINE
  5
11F
330
110
100
AcDbEntity
  8
AM_9
100
AcDbLine
 10
-2.122409257229539
 20
4.875932400303386
 30
0.0
 11
-2.15625
 21
4.885
 31
0.0
  0
LINE
  5
120
330
110
100
AcDbEntity
  8
AM_9
100
AcDbLine
 10
-2.15625
 20
4.785
 30
0.0
 11
-2.122409257229539
 21
4.794067599696614
 31
0.0
  0
LINE
  5
121
330
110
100
AcDbEntity
  8
AM_9
100
AcDbLine
 10
-2.627590742770461
 20
4.794067599696614
 30
0.0
 11
-2.59375
 21
4.785
 31
0.0
  0
LINE
  5
122
330
110
100
AcDbEntity
  8
AM_9
100
AcDbLine
 10
-2.59375
 20
4.885
 30
0.0
 11
-2.627590742770461
 21
4.875932400303386
 31
0.0
  0
LINE
  5
123
330
110
100
AcDbEntity
  8
AM_9
100
AcDbLine
 10
-2.48
 20
4.99
 30
0.0
 11
-2.493820090734898
 21
4.957753121618572
 31
0.0
  0
LINE
  5
124
330
110
100
AcDbEntity
  8
AM_9
100
AcDbLine
 10
-2.256179909265103
 20
4.957753121618572
 30
0.0
 11
-2.27
 21
4.99
 31
0.0
  0
LINE
  5
125
330
110
100
AcDbEntity
  8
AM_9
100
AcDbLine
 10
-2.48
 20
4.99
 30
0.0
 11
-2.27
 21
4.99
 31
0.0
  0
LINE
  5
126
330
110
100
AcDbEntity
  8
AM_9
100
AcDbLine
 10
-2.477677901933188
 20
5.159999999999999
 30
0.0
 11
-2.51
 21
5.079999999999999
 31
0.0
  0
LINE
  5
127
330
110
100
AcDbEntity
  8
AM_9
100
AcDbLine
 10
-2.24
 20
5.079999999999999
 30
0.0
 11
-2.272322098066812
 21
5.159999999999999
 31
0.0
  0
LINE
  5
128
330
110
100
AcDbEntity
  8
AM_9
100
AcDbLine
 10
-2.477677901933188
 20
5.159999999999999
 30
0.0
 11
-2.272322098066812
 21
5.159999999999999
 31
0.0
  0
LINE
  5
129
330
110
100
AcDbEntity
  8
AM_9
100
AcDbLine
 10
-2.27
 20
5.02
 30
0.0
 11
-2.24
 21
5.079999999999999
 31
0.0
  0
LINE
  5
12A
330
110
100
AcDbEntity
  8
AM_9
100
AcDbLine
 10
-2.51
 20
5.079999999999999
 30
0.0
 11
-2.48
 21
5.02
 31
0.0
  0
LINE
  5
12B
330
110
100
AcDbEntity
  8
AM_9
100
AcDbLine
 10
-2.51
 20
5.079999999999999
 30
0.0
 11
-2.24
 21
5.079999999999999
 31
0.0
  0
LINE
  5
12C
330
110
100
AcDbEntity
  8
AM_9
100
AcDbLine
 10
-2.48
 20
5.02
 30
0.0
 11
-2.27
 21
5.02
 31
0.0
  0
LINE
  5
12D
330
110
100
AcDbEntity
  8
AM_9
100
AcDbLine
 10
-2.493820090734898
 20
4.957753121618572
 30
0.0
 11
-2.547534053283016
 21
4.903318198540882
 31
0.0
  0
LINE
  5
12E
330
110
100
AcDbEntity
  8
AM_9
100
AcDbLine
 10
-2.202465946716984
 20
4.903318198540882
 30
0.0
 11
-2.256179909265102
 21
4.957753121618572
 31
0.0
  0
LINE
  5
12F
330
110
100
AcDbEntity
  8
AM_9
100
AcDbLine
 10
-2.493820090734898
 20
4.957753121618572
 30
0.0
 11
-2.256179909265103
 21
4.957753121618572
 31
0.0
  0
LINE
  5
130
330
110
100
AcDbEntity
  8
AM_9
100
AcDbLine
 10
-2.213097127527731
 20
4.52
 30
0.0
 11
-2.176382373218785
 21
4.556714754308946
 31
0.0
  0
LINE
  5
131
330
110
100
AcDbEntity
  8
AM_9
100
AcDbLine
 10
-2.573617626781215
 20
4.556714754308946
 30
0.0
 11
-2.536902872472269
 21
4.52
 31
0.0
  0
LINE
  5
132
330
110
100
AcDbEntity
  8
AM_9
100
AcDbLine
 10
-2.536902872472269
 20
4.52
 30
0.0
 11
-2.213097127527731
 21
4.52
 31
0.0
  0
LINE
  5
133
330
110
100
AcDbEntity
  8
AM_9
100
AcDbLine
 10
-2.176382373218785
 20
4.556714754308946
 30
0.0
 11
-2.16924810277693
 21
4.785
 31
0.0
  0
LINE
  5
134
330
110
100
AcDbEntity
  8
AM_9
100
AcDbLine
 10
-2.580751897223069
 20
4.785
 30
0.0
 11
-2.573617626781215
 21
4.556714754308946
 31
0.0
  0
LINE
  5
135
330
110
100
AcDbEntity
  8
AM_9
100
AcDbLine
 10
-2.573617626781215
 20
4.556714754308946
 30
0.0
 11
-2.176382373218785
 21
4.556714754308946
 31
0.0
  0
LINE
  5
136
330
110
100
AcDbEntity
  8
AM_9
100
AcDbLine
 10
-2.547534053283016
 20
4.903318198540882
 30
0.0
 11
-2.58875
 21
4.885
 31
0.0
  0
LINE
  5
137
330
110
100
AcDbEntity
  8
AM_9
100
AcDbLine
 10
-2.16125
 20
4.885
 30
0.0
 11
-2.202465946716984
 21
4.903318198540882
 31
0.0
  0
LINE
  5
138
330
110
100
AcDbEntity
  8
AM_9
100
AcDbLine
 10
-2.547534053283016
 20
4.903318198540882
 30
0.0
 11
-2.202465946716984
 21
4.903318198540882
 31
0.0
  0
LWPOLYLINE
  5
139
330
110
100
AcDbEntity
  8
AM_9
100
AcDbPolyline
 90
        4
 70
     0
 43
0.0
 10
-2.375
 20
4.785
 10
-2.423399816055899
 20
4.786417560717138
 10
-2.471799632111798
 20
4.790482412517844
 10
-2.50129537138523
 20
4.794067599696614
  0
LINE
  5
13A
330
110
100
AcDbEntity
  8
AM_9
100
AcDbLine
 10
-2.50129537138523
 20
4.875932400303386
 30
0.0
 11
-2.50129537138523
 21
4.794067599696614
 31
0.0
  0
LWPOLYLINE
  5
13B
330
110
100
AcDbEntity
  8
AM_9
100
AcDbPolyline
 90
        3
 70
     0
 43
0.0
 10
-2.627590742770461
 20
4.875932400303386
 10
-2.596158864423564
 20
4.88258547505038
 10
-2.564443057077846
 20
4.885
  0
LINE
  5
13C
330
110
100
AcDbEntity
  8
AM_9
100
AcDbLine
 10
-2.627590742770461
 20
4.875932400303386
 30
0.0
 11
-2.627590742770461
 21
4.794067599696614
 31
0.0
  0
LWPOLYLINE
  5
13D
330
110
100
AcDbEntity
  8
AM_9
100
AcDbPolyline
 90
        3
 70
     0
 43
0.0
 10
-2.564443057077846
 20
4.785
 10
-2.596016899924154
 20
4.787393380785034
 10
-2.627590742770461
 20
4.794067599696614
  0
LWPOLYLINE
  5
13E
330
110
100
AcDbEntity
  8
AM_9
100
AcDbPolyline
 90
        3
 70
     0
 43
0.0
 10
-2.50129537138523
 20
4.794067599696614
 10
-2.532727249732127
 20
4.78741452494962
 10
-2.564443057077846
 20
4.785
  0
LINE
  5
13F
330
110
100
AcDbEntity
  8
AM_9
100
AcDbLine
 10
-2.122409257229539
 20
4.875932400303386
 30
0.0
 11
-2.122409257229539
 21
4.794067599696614
 31
0.0
  0
LWPOLYLINE
  5
140
330
110
100
AcDbEntity
  8
AM_9
100
AcDbPolyline
 90
        3
 70
     0
 43
0.0
 10
-2.185556942922154
 20
4.885
 10
-2.153983100075846
 20
4.882606619214965
 10
-2.122409257229539
 20
4.875932400303386
  0
LINE
  5
141
330
110
100
AcDbEntity
  8
AM_9
100
AcDbLine
 10
-2.248704628614769
 20
4.875932400303386
 30
0.0
 11
-2.248704628614769
 21
4.794067599696614
 31
0.0
  0
LWPOLYLINE
  5
142
330
110
100
AcDbEntity
  8
AM_9
100
AcDbPolyline
 90
        3
 70
     0
 43
0.0
 10
-2.122409257229539
 20
4.794067599696614
 10
-2.153841135576436
 20
4.78741452494962
 10
-2.185556942922154
 20
4.785
  0
LWPOLYLINE
  5
143
330
110
100
AcDbEntity
  8
AM_9
100
AcDbPolyline
 90
        3
 70
     0
 43
0.0
 10
-2.375
 20
4.885
 10
-2.311852314307385
 20
4.882606619214965
 10
-2.248704628614769
 20
4.875932400303386
  0
LWPOLYLINE
  5
144
330
110
100
AcDbEntity
  8
AM_9
100
AcDbPolyline
 90
        3
 70
     0
 43
0.0
 10
-2.248704628614769
 20
4.875932400303386
 10
-2.217272750267873
 20
4.88258547505038
 10
-2.185556942922154
 20
4.885
  0
LWPOLYLINE
  5
145
330
110
100
AcDbEntity
  8
AM_9
100
AcDbPolyline
 90
        3
 70
     0
 43
0.0
 10
-2.185556942922154
 20
4.785
 10
-2.217130785768462
 20
4.787393380785034
 10
-2.248704628614769
 20
4.794067599696614
  0
LWPOLYLINE
  5
146
330
110
100
AcDbEntity
  8
AM_9
100
AcDbPolyline
 90
        3
 70
     0
 43
0.0
 10
-2.248704628614769
 20
4.794067599696614
 10
-2.311568385308563
 20
4.78741452494962
 10
-2.375
 20
4.785
  0
LWPOLYLINE
  5
147
330
110
100
AcDbEntity
  8
AM_9
100
AcDbPolyline
 90
        3
 70
     0
 43
0.0
 10
-2.564443057077846
 20
4.885
 10
-2.532869214231538
 20
4.882606619214965
 10
-2.50129537138523
 20
4.875932400303386
  0
LWPOLYLINE
  5
148
330
110
100
AcDbEntity
  8
AM_9
100
AcDbPolyline
 90
        4
 70
     0
 43
0.0
 10
-2.50129537138523
 20
4.875932400303386
 10
-2.471799632111798
 20
4.879517587482156
 10
-2.423542441247754
 20
4.883574171756928
 10
-2.375
 20
4.885
  0
LINE
  5
149
330
110
100
AcDbEntity
  8
AM_5
100
AcDbLine
 10
-2.206850875147652
 20
4.719870087748463
 30
0.0
 11
-2.213097127527731
 21
4.52
 31
0.0
  0
LINE
  5
14A
330
110
100
AcDbEntity
  8
AM_5
100
AcDbLine
 10
-2.16924810277693
 20
4.785
 30
0.0
 11
-2.206850875147652
 21
4.719870087748463
 31
0.0
  0
LINE
  5
14B
330
110
100
AcDbEntity
  8
AM_5
100
AcDbLine
 10
-2.578716485751556
 20
4.719870087748463
 30
0.0
 11
-2.171283514248443
 21
4.719870087748463
 31
0.0
  0
LINE
  5
14C
330
110
100
AcDbEntity
  8
AM_5
100
AcDbLine
 10
-2.543149124852348
 20
4.719870087748463
 30
0.0
 11
-2.536902872472269
 21
4.52
 31
0.0
  0
LINE
  5
14D
330
110
100
AcDbEntity
  8
AM_5
100
AcDbLine
 10
-2.580751897223069
 20
4.785
 30
0.0
 11
-2.543149124852348
 21
4.719870087748463
 31
0.0
  0
ENDBLK
  5
113
330
110
100
AcDbEntity
  8
0
100
AcDbBlockEnd
  0
BLOCK
  5
150
330
14E
100
AcDbEntity
  8
0
100
AcDbBlockBegin
  2
5_023530_Insert_0_in_023474_2
 70
     2
 10
0.0
 20
0.0
 30
0.0
  3
5_023530_Insert_0_in_023474_2
  1

  0
ATTDEF
  5
152
330
14E
100
AcDbEntity
  8
AM_6
100
AcDbText
 10
6.0625
 20
5.191999999999999
 30
0.0
 40
0.5
  1
S-1 Unit -Insert -Inch
100
AcDbAttributeDefinition
  3

  2
NN
 70
     8
280
     0
  0
ATTDEF
  5
153
330
14E
100
AcDbEntity
  8
AM_6
100
AcDbText
 10
6.0625
 20
4.691999999999999
 30
0.0
 40
0.5
  1
Double-Interlock Bearings
100
AcDbAttributeDefinition
  3

  2
NT
 70
     8
280
     0
  0
ATTDEF
  5
154
330
14E
100
AcDbEntity
  8
AM_6
100
AcDbText
 10
6.0625
 20
4.191999999999999
 30
0.0
 40
0.5
  1
023530-Insert
100
AcDbAttributeDefinition
  3

  2
NB
 70
     8
280
     0
  0
ATTDEF
  5
155
330
14E
100
AcDbEntity
  8
AM_6
100
AcDbText
 10
6.0625
 20
3.691999999999999
 30
0.0
 40
0.5
  1
$PN.-Insert
100
AcDbAttributeDefinition
  3

  2
NBSYN
 70
     8
280
     0
  0
ATTDEF
  5
156
330
14E
100
AcDbEntity
  8
AM_6
100
AcDbText
 10
6.0625
 20
3.191999999999999
 30
0.0
 40
0.5
  1
023530-Insert
100
AcDbAttributeDefinition
  3

  2
LINA
 70
     8
280
     0
  0
ATTDEF
  5
157
330
14E
100
AcDbEntity
  8
AM_6
100
AcDbText
 10
6.0625
 20
2.691999999999999
 30
0.0
 40
0.5
  1
3-15/16
100
AcDbAttributeDefinition
  3

  2
SS
 70
     8
280
     0
  0
ATTDEF
  5
158
330
14E
100
AcDbEntity
  8
AM_6
100
AcDbText
 10
6.0625
 20
2.191999999999999
 30
0.0
 40
0.5
  1
023530
100
AcDbAttributeDefinition
  3

  2
PN
 70
     8
280
     0
  0
ATTDEF
  5
159
330
14E
100
AcDbEntity
  8
AM_6
100
AcDbText
 10
6.0625
 20
1.691999999999999
 30
0.0
 40
0.5
  1
S1U-DI-315R
100
AcDbAttributeDefinition
  3

  2
DESCRIPTION
 70
     8
280
     0
  0
ATTDEF
  5
15A
330
14E
100
AcDbEntity
  8
AM_6
100
AcDbText
 10
6.0625
 20
1.191999999999999
 30
0.0
 40
0.5
  1
6-1/4
100
AcDbAttributeDefinition
  3

  2
A
 70
     8
280
     0
  0
ATTDEF
  5
15B
330
14E
100
AcDbEntity
  8
AM_6
100
AcDbText
 10
6.0625
 20
0.6919999999999993
 30
0.0
 40
0.5
  1
4-1/2
100
AcDbAttributeDefinition
  3

  2
B
 70
     8
280
     0
  0
ATTDEF
  5
15C
330
14E
100
AcDbEntity
  8
AM_6
100
AcDbText
 10
6.0625
 20
0.1919999999999993
 30
0.0
 40
0.5
  1
2-3/8
100
AcDbAttributeDefinition
  3

  2
C
 70
     8
280
     0
  0
ATTDEF
  5
15D
330
14E
100
AcDbEntity
  8
AM_6
100
AcDbText
 10
6.0625
 20
-0.3080000000000007
 30
0.0
 40
0.5
  1
7.438
100
AcDbAttributeDefinition
  3

  2
EM
 70
     8
280
     0
  0
ATTDEF
  5
15E
330
14E
100
AcDbEntity
  8
AM_6
100
AcDbText
 10
6.0625
 20
-0.8080000000000007
 30
0.0
 40
0.5
  1
7-9/16
100
AcDbAttributeDefinition
  3

  2
EC
 70
     8
280
     0
  0
ATTDEF
  5
15F
330
14E
100
AcDbEntity
  8
AM_6
100
AcDbText
 10
6.0625
 20
-1.308000000000001
 30
0.0
 40
0.5
  1
15/16
100
AcDbAttributeDefinition
  3

  2
H
 70
     8
280
     0
  0
ATTDEF
  5
160
330
14E
100
AcDbEntity
  8
AM_6
100
AcDbText
 10
6.0625
 20
-1.808000000000001
 30
0.0
 40
0.5
  1
7.997
100
AcDbAttributeDefinition
  3

  2
K
 70
     8
280
     0
  0
ATTDEF
  5
161
330
14E
100
AcDbEntity
  8
AM_6
100
AcDbText
 10
6.0625
 20
-2.308000000000001
 30
0.0
 40
0.5
  1
+0.000 to -0.003
100
AcDbAttributeDefinition
  3

  2
TOL
 70
     8
280
     0
  0
ATTDEF
  5
162
330
14E
100
AcDbEntity
  8
AM_6
100
AcDbText
 10
6.0625
 20
-2.808000000000001
 30
0.0
 40
0.5
  1
6
100
AcDbAttributeDefinition
  3

  2
L
 70
     8
280
     0
  0
ATTDEF
  5
163
330
14E
100
AcDbEntity
  8
AM_6
100
AcDbText
 10
6.0625
 20
-3.308000000000001
 30
0.0
 40
0.5
  1
5.16
100
AcDbAttributeDefinition
  3

  2
M
 70
     8
280
     0
  0
ATTDEF
  5
164
330
14E
100
AcDbEntity
  8
AM_6
100
AcDbText
 10
6.0625
 20
-3.808000000000001
 30
0.0
 40
0.5
  1
baldor
100
AcDbAttributeDefinition
  3

  2
COMPANY
 70
     8
280
     0
  0
LINE
  5
165
330
14E
100
AcDbEntity
  8
AM_9
100
AcDbLine
 10
-0.08
 20
0.9508809500184403
 30
0.0
 11
-0.08
 21
0.8319516694638531
 31
0.0
  0
LINE
  5
166
330
14E
100
AcDbEntity
  8
AM_9
100
AcDbLine
 10
0.5800000000000001
 20
0.8320090973733837
 30
0.0
 11
0.5800000000000001
 21
0.9508234954370164
 31
0.0
  0
LWPOLYLINE
  5
167
330
14E
100
AcDbEntity
  8
AM_9
100
AcDbPolyline
 90
       17
 70
     0
 43
0.0
 10
-0.0008505425391734
 20
1.021406953054808
 10
0.0143679103317346
 20
1.035670246175773
 10
0.0565431846030404
 20
1.066587286911592
 10
0.1042104478909078
 20
1.090880910022249
 10
0.1561777661168698
 20
1.107926550461136
 10
0.2108633817157907
 20
1.117395590222105
 10
0.2660302264827916
 20
1.118988372558898
 10
0.320740320311199
 20
1.112931684417978
 10
0.3730819542102044
 20
1.099378566437942
 10
0.4220038686824072
 20
1.078714923345489
 10
0.4665115073904958
 20
1.05102034880722
 10
0.5049940201205808
 20
1.017151886070753
 10
0.5366030618974889
 20
0.9773458558884249
 10
0.5600984615163633
 20
0.9329534646349602
 10
0.5746206170141395
 20
0.8852558198842155
 10
0.5799790383941851
 20
0.8353991737463262
 10
0.5799999993188313
 20
0.8320489192863847
  0
LWPOLYLINE
  5
168
330
14E
100
AcDbEntity
  8
AM_9
100
AcDbPolyline
 90
        6
 70
     0
 43
0.0
 10
-0.0799999989181251
 20
0.8320054848414363
 10
-0.0780311153919757
 20
0.8645125191401904
 10
-0.0675052331254846
 20
0.912571164679143
 10
-0.048289625252019
 20
0.9578138179112344
 10
-0.0206810504789509
 20
0.9992255440005521
 10
-0.0008505425391734
 20
1.021406953054808
  0
LWPOLYLINE
  5
169
330
14E
100
AcDbEntity
  8
AM_9
100
AcDbPolyline
 90
       10
 70
     0
 43
0.0
 10
0.5799999993188313
 20
0.8320489192863847
 10
0.5759795436021938
 20
0.7853951404888991
 10
0.5629978184465885
 20
0.7360937982102906
 10
0.5413283277385017
 20
0.6890200890057394
 10
0.5116980556505938
 20
0.6454831633652017
 10
0.4743562654312683
 20
0.606433176972671
 10
0.4307258727197028
 20
0.5735633145605322
 10
0.381573403038649
 20
0.547896606005327
 10
0.3286213422206271
 20
0.5304612790554131
 10
0.2500000000000001
 20
0.5211764455951712
  0
LWPOLYLINE
  5
16A
330
14E
100
AcDbEntity
  8
AM_9
100
AcDbPolyline
 90
       21
 70
     0
 43
0.0
 10
0.5799999988052635
 20
0.9508656390812033
 10
0.5779740394568436
 20
0.9838557987138689
 10
0.5673162693470927
 20
1.032132419329275
 10
0.5479146608892793
 20
1.077638087448723
 10
0.5200972858226279
 20
1.119293738316906
 10
0.4848107864665187
 20
1.155974339088606
 10
0.4425089310557744
 20
1.187003759664208
 10
0.3947494956441223
 20
1.211369544640846
 10
0.3427582322679069
 20
1.228419383126994
 10
0.288096912303112
 20
1.237827779064613
 10
0.2328362682246555
 20
1.239286300248901
 10
0.1780633073421609
 20
1.232988271536408
 10
0.1256042266878953
 20
1.219066562927685
 10
0.0766127498195621
 20
1.197930277826203
 10
0.0321887540829948
 20
1.169745602650391
 10
-0.0061547710208079
 20
1.135374453640431
 10
-0.0374882531966076
 20
1.095200640735685
 10
-0.0606903002905274
 20
1.050534773329087
 10
-0.0749257059370168
 20
1.002644890037912
 10
-0.079993799701043
 20
0.9527240823420596
 10
-0.0799999997515067
 20
0.9509026955013132
  0
LWPOLYLINE
  5
16B
330
14E
100
AcDbEntity
  8
AM_9
100
AcDbPolyline
 90
        6
 70
     0
 43
0.0
 10
-0.0007088409172334
 20
0.7520802976404529
 10
0.0274028751157247
 20
0.7245467656363989
 10
0.0713267282689803
 20
0.6921834139399324
 10
0.120622882027201
 20
0.6670944780324816
 10
0.1736349364516038
 20
0.6501981840910688
 10
0.2500000000000001
 20
0.6415265571449762
  0
LWPOLYLINE
  5
16C
330
14E
100
AcDbEntity
  8
AM_9
100
AcDbPolyline
 90
        5
 70
     0
 43
0.0
 10
-0.0732387152658712
 20
0.8902443391330812
 10
-0.0623695313957516
 20
0.8533773503322214
 10
-0.0403155344080145
 20
0.8064382935248676
 10
-0.0102697275617047
 20
0.76314735583973
 10
-0.0007088409172334
 20
0.7520802976404529
  0
LWPOLYLINE
  5
16D
330
14E
100
AcDbEntity
  8
AM_9
100
AcDbPolyline
 90
        3
 70
     0
 43
0.0
 10
-0.0799999997515067
 20
0.9509026955013132
 10
-0.0756913690604791
 20
0.9026391610941976
 10
-0.0732387152658712
 20
0.8902443391330812
  0
LINE
  5
16E
330
14E
100
AcDbEntity
  8
AM_9
100
AcDbLine
 10
-5.33
 20
0.95088095001844
 30
0.0
 11
-5.33
 21
0.8319516694638531
 31
0.0
  0
LINE
  5
16F
330
14E
100
AcDbEntity
  8
AM_9
100
AcDbLine
 10
-4.67
 20
0.8320090973733837
 30
0.0
 11
-4.67
 21
0.9508234954370164
 31
0.0
  0
LWPOLYLINE
  5
170
330
14E
100
AcDbEntity
  8
AM_9
100
AcDbPolyline
 90
       21
 70
     0
 43
0.0
 10
-5.329999998918125
 20
0.8320054848414363
 10
-5.328031115391975
 20
0.8645125191401904
 10
-5.317505233125484
 20
0.912571164679143
 10
-5.298289625252019
 20
0.9578138179112344
 10
-5.27068105047895
 20
0.9992255440005521
 10
-5.235632089668266
 20
1.035670246175773
 10
-5.19345681539696
 20
1.066587286911592
 10
-5.145789552109093
 20
1.090880910022249
 10
-5.09382223388313
 20
1.107926550461136
 10
-5.039136618284209
 20
1.117395590222105
 10
-4.983969773517209
 20
1.118988372558897
 10
-4.9292596796888
 20
1.112931684417978
 10
-4.876918045789797
 20
1.099378566437942
 10
-4.827996131317593
 20
1.078714923345489
 10
-4.783488492609504
 20
1.05102034880722
 10
-4.745005979879419
 20
1.017151886070753
 10
-4.713396938102512
 20
0.9773458558884246
 10
-4.689901538483637
 20
0.9329534646349601
 10
-4.675379382985861
 20
0.8852558198842152
 10
-4.670020961605815
 20
0.835399173746326
 10
-4.670000000681169
 20
0.832048919286385
  0
LWPOLYLINE
  5
171
330
14E
100
AcDbEntity
  8
AM_9
100
AcDbPolyline
 90
       10
 70
     0
 43
0.0
 10
-4.670000000681169
 20
0.832048919286385
 10
-4.674020456397806
 20
0.7853951404888989
 10
-4.687002181553411
 20
0.7360937982102903
 10
-4.708671672261499
 20
0.6890200890057392
 10
-4.738301944349406
 20
0.6454831633652016
 10
-4.775643734568732
 20
0.6064331769726707
 10
-4.819274127280297
 20
0.573563314560532
 10
-4.868426596961351
 20
0.5478966060053269
 10
-4.921378657779373
 20
0.5304612790554131
 10
-5.0
 20
0.5211764455951712
  0
LWPOLYLINE
  5
172
330
14E
100
AcDbEntity
  8
AM_9
100
AcDbPolyline
 90
       21
 70
     0
 43
0.0
 10
-4.670000001194736
 20
0.9508656390812036
 10
-4.672025960543156
 20
0.9838557987138687
 10
-4.682683730652908
 20
1.032132419329275
 10
-4.70208533911072
 20
1.077638087448723
 10
-4.729902714177372
 20
1.119293738316906
 10
-4.765189213533481
 20
1.155974339088606
 10
-4.807491068944226
 20
1.187003759664208
 10
-4.855250504355878
 20
1.211369544640846
 10
-4.907241767732093
 20
1.228419383126994
 10
-4.961903087696887
 20
1.237827779064613
 10
-5.017163731775345
 20
1.239286300248901
 10
-5.07193669265784
 20
1.232988271536408
 10
-5.124395773312106
 20
1.219066562927685
 10
-5.173387250180438
 20
1.197930277826203
 10
-5.217811245917005
 20
1.169745602650391
 10
-5.256154771020808
 20
1.135374453640431
 10
-5.287488253196607
 20
1.095200640735685
 10
-5.310690300290527
 20
1.050534773329088
 10
-5.324925705937017
 20
1.002644890037913
 10
-5.329993799701042
 20
0.9527240823420599
 10
-5.329999999751507
 20
0.9509026955013131
  0
LWPOLYLINE
  5
173
330
14E
100
AcDbEntity
  8
AM_9
100
AcDbPolyline
 90
        9
 70
     0
 43
0.0
 10
-5.323238715265871
 20
0.8902443391330809
 10
-5.312369531395752
 20
0.8533773503322214
 10
-5.290315534408015
 20
0.8064382935248676
 10
-5.260269727561704
 20
0.76314735583973
 10
-5.222597124884275
 20
0.7245467656363989
 10
-5.17867327173102
 20
0.6921834139399324
 10
-5.129377117972798
 20
0.6670944780324816
 10
-5.076365063548396
 20
0.6501981840910688
 10
-5.0
 20
0.6415265571449762
  0
LWPOLYLINE
  5
174
330
14E
100
AcDbEntity
  8
AM_9
100
AcDbPolyline
 90
        3
 70
     0
 43
0.0
 10
-5.329999999751507
 20
0.9509026955013131
 10
-5.325691369060479
 20
0.9026391610941978
 10
-5.323238715265871
 20
0.8902443391330809
  0
LINE
  5
175
330
14E
100
AcDbEntity
  8
AM_9
100
AcDbLine
 10
-0.08
 20
2.25
 30
0.0
 11
-0.08
 21
1.96875
 31
0.0
  0
LINE
  5
176
330
14E
100
AcDbEntity
  8
AM_9
100
AcDbLine
 10
0.5800000000000001
 20
1.96875
 30
0.0
 11
0.5800000000000001
 21
2.25
 31
0.0
  0
LINE
  5
177
330
14E
100
AcDbEntity
  8
AM_9
100
AcDbLine
 10
-5.33
 20
2.25
 30
0.0
 11
-5.33
 21
1.96875
 31
0.0
  0
LINE
  5
178
330
14E
100
AcDbEntity
  8
AM_9
100
AcDbLine
 10
-4.67
 20
1.96875
 30
0.0
 11
-4.67
 21
2.25
 31
0.0
  0
LINE
  5
179
330
14E
100
AcDbEntity
  8
AM_9
100
AcDbLine
 10
-1.962619326649881
 20
4.785
 30
0.0
 11
-2.787380674759411
 21
4.785
 31
0.0
  0
ARC
  5
17A
330
14E
100
AcDbEntity
  8
AM_9
100
AcDbCircle
 10
-2.787380674759412
 20
4.719000000000001
 30
0.0
 40
0.0659999999999989
100
AcDbArc
 50
90.0
 51
171.0000000000007
  0
ARC
  5
17B
330
14E
100
AcDbEntity
  8
AM_9
100
AcDbCircle
 10
-1.962619325240588
 20
4.719000000000001
 30
0.0
 40
0.0659999999999991
100
AcDbArc
 50
8.999999999999375
 51
90.0
  0
LINE
  5
17C
330
14E
100
AcDbEntity
  8
AM_9
100
AcDbLine
 10
-2.85256810523869
 20
4.729324674692656
 30
0.0
 11
-2.975502003095701
 21
3.953150590893047
 31
0.0
  0
LINE
  5
17D
330
14E
100
AcDbEntity
  8
AM_9
100
AcDbLine
 10
-1.774497996904299
 20
3.953150590893047
 30
0.0
 11
-1.89743189476131
 21
4.729324674692656
 31
0.0
  0
LINE
  5
17E
330
14E
100
AcDbEntity
  8
AM_9
100
AcDbLine
 10
-1.89743189476131
 20
4.729324674692656
 30
0.0
 11
-2.85256810523869
 21
4.729324674692656
 31
0.0
  0
LWPOLYLINE
  5
17F
330
14E
100
AcDbEntity
  8
AM_9
100
AcDbPolyline
 90
       20
 70
     0
 43
0.0
 10
-5.33
 20
1.96875
 10
-5.325520943106698
 20
1.968004178578154
 10
-5.311697830605692
 20
1.965765016502302
 10
-5.289721963257523
 20
1.962400412376076
 10
-5.258987088639963
 20
1.958098790812712
 10
-5.221685781372059
 20
1.953515074977037
 10
-5.176972066898713
 20
1.9489473248301
 10
-5.128231578680813
 20
1.945127219559423
 10
-5.074273673955636
 20
1.942316436923414
 10
-5.020219894536701
 20
1.941001135145231
 10
-4.963982237071503
 20
1.941229981673056
 10
-4.91090772163844
 20
1.942939524679977
 10
-4.858865176330057
 20
1.946020452346877
 10
-4.811923526652044
 20
1.949987005681577
 10
-4.76898709970858
 20
1.954595488227948
 10
-4.733148416510666
 20
1.959154493681079
 10
-4.703955838810584
 20
1.963343756929577
 10
-4.683860950591575
 20
1.96647411909256
 10
-4.672331920982639
 20
1.968360468132534
 10
-4.67000000000129
 20
1.968749999999784
  0
LWPOLYLINE
  5
180
330
14E
100
AcDbEntity
  8
AM_9
100
AcDbPolyline
 90
       20
 70
     0
 43
0.0
 10
-0.08
 20
1.96875
 10
-0.0755209431066975
 20
1.968004178578154
 10
-0.0616978306056929
 20
1.965765016502302
 10
-0.0397219632575227
 20
1.962400412376076
 10
-0.0089870886399629
 20
1.958098790812712
 10
0.0283142186279415
 20
1.953515074977037
 10
0.0730279331012867
 20
1.9489473248301
 10
0.121768421319187
 20
1.945127219559423
 10
0.1757263260443637
 20
1.942316436923414
 10
0.2297801054632997
 20
1.941001135145231
 10
0.2860177629284967
 20
1.941229981673056
 10
0.3390922783615598
 20
1.942939524679977
 10
0.3911348236699427
 20
1.946020452346877
 10
0.4380764733479563
 20
1.949987005681577
 10
0.48101290029142
 20
1.954595488227949
 10
0.5168515834893337
 20
1.959154493681079
 10
0.5460441611894165
 20
1.963343756929577
 10
0.5661390494084252
 20
1.966474119092561
 10
0.5776680790173607
 20
1.968360468132534
 10
0.5799999999987095
 20
1.968749999999784
  0
LWPOLYLINE
  5
181
330
14E
100
AcDbEntity
  8
AM_9
100
AcDbPolyline
 90
        6
 70
     0
 43
0.0
 10
-0.0004721789869142
 20
0.6323331340292263
 10
-0.0285258132915699
 20
0.6682588273735792
 10
-0.0543465293816152
 20
0.7147454972548832
 10
-0.0715293454055492
 20
0.7641082926750179
 10
-0.0793930797926906
 20
0.8143782723501716
 10
-0.0799999989181251
 20
0.8320054848414363
  0
LWPOLYLINE
  5
182
330
14E
100
AcDbEntity
  8
AM_9
100
AcDbPolyline
 90
        7
 70
     0
 43
0.0
 10
0.2500000000000001
 20
0.5211764455951712
 10
0.1950405067104811
 20
0.5257175976807377
 10
0.1416408303951462
 20
0.5390371906000321
 10
0.0913640529995119
 20
0.5607708418879074
 10
0.0455111418925197
 20
0.5900585050799412
 10
0.0050630871782279
 20
0.6263802226639684
 10
-0.0004721789869142
 20
0.6323331340292263
  0
LWPOLYLINE
  5
183
330
14E
100
AcDbEntity
  8
AM_9
100
AcDbPolyline
 90
       11
 70
     0
 43
0.0
 10
-5.0
 20
0.5211764455951712
 10
-5.054959493289519
 20
0.5257175976807377
 10
-5.108359169604854
 20
0.5390371906000321
 10
-5.158635947000488
 20
0.5607708418879076
 10
-5.204488858107481
 20
0.5900585050799416
 10
-5.244936912821773
 20
0.6263802226639688
 10
-5.27852581329157
 20
0.6682588273735796
 10
-5.304346529381616
 20
0.7147454972548833
 10
-5.321529345405549
 20
0.7641082926750179
 10
-5.32939307979269
 20
0.8143782723501716
 10
-5.329999998918125
 20
0.8320054848414363
  0
LINE
  5
184
330
14E
100
AcDbEntity
  8
AM_9
100
AcDbLine
 10
0.7500000000000002
 20
1.96875
 30
0.0
 11
0.5800000000000001
 21
1.96875
 31
0.0
  0
LINE
  5
185
330
14E
100
AcDbEntity
  8
AM_9
100
AcDbLine
 10
-0.0800000000000005
 20
1.96875
 30
0.0
 11
-4.67
 21
1.96875
 31
0.0
  0
LINE
  5
186
330
14E
100
AcDbEntity
  8
AM_9
100
AcDbLine
 10
-5.33
 20
1.96875
 30
0.0
 11
-5.499999999999999
 21
1.96875
 31
0.0
  0
LINE
  5
187
330
14E
100
AcDbEntity
  8
AM_9
100
AcDbLine
 10
-5.499999999999999
 20
-1.96875
 30
0.0
 11
0.7500000000000002
 21
-1.96875
 31
0.0
  0
LWPOLYLINE
  5
188
330
14E
100
AcDbEntity
  8
AM_9
100
AcDbPolyline
 90
        3
 70
     0
 43
0.0
 10
0.5734236921529358
 20
0.8910768007327743
 10
0.5794215624930024
 20
0.9336854096388378
 10
0.5799999988052635
 20
0.9508656390812033
  0
LWPOLYLINE
  5
189
330
14E
100
AcDbEntity
  8
AM_9
100
AcDbPolyline
 90
       10
 70
     0
 43
0.0
 10
0.2500000000000001
 20
0.6415265571449762
 10
0.3050622612143146
 20
0.6460418247264762
 10
0.3585643455107627
 20
0.6592930070427678
 10
0.4089436962947872
 20
0.6809344250376754
 10
0.4548794777375529
 20
0.7101253979294719
 10
0.4952962359988194
 20
0.7462817108212859
 10
0.5288330011607301
 20
0.7879978272721648
 10
0.5545460663861225
 20
0.8342696352803073
 10
0.5716294710526507
 20
0.8834438071145081
 10
0.5734236921529358
 20
0.8910768007327743
  0
LINE
  5
18A
330
14E
100
AcDbEntity
  8
AM_9
100
AcDbLine
 10
0.7500000000000002
 20
2.25
 30
0.0
 11
0.5800000000000001
 21
2.25
 31
0.0
  0
LINE
  5
18B
330
14E
100
AcDbEntity
  8
AM_9
100
AcDbLine
 10
-0.0799999999999994
 20
2.25
 30
0.0
 11
-0.2999999999999998
 21
2.25
 31
0.0
  0
LINE
  5
18C
330
14E
100
AcDbEntity
  8
AM_9
100
AcDbLine
 10
-0.2999999999999998
 20
-2.25
 30
0.0
 11
0.7500000000000002
 21
-2.25
 31
0.0
  0
LWPOLYLINE
  5
18D
330
14E
100
AcDbEntity
  8
AM_9
100
AcDbPolyline
 90
        5
 70
     0
 43
0.0
 10
-0.0005864051151127
 20
2.239730686138071
 10
-0.0274397084864441
 20
2.24289384319567
 10
-0.053251910174385
 20
2.246232784246641
 10
-0.0710401560099825
 20
2.248703355663195
 10
-0.08
 20
2.25
  0
LWPOLYLINE
  5
18E
330
14E
100
AcDbEntity
  8
AM_9
100
AcDbPolyline
 90
       17
 70
     0
 43
0.0
 10
0.5799999999993166
 20
2.2499999999999
 10
0.5795945279258242
 20
2.249940566512513
 10
0.5720659587600965
 20
2.248850035416337
 10
0.5559422295257777
 20
2.246597571397068
 10
0.5307710337741735
 20
2.243308354508273
 10
0.498394136882296
 20
2.239486469536599
 10
0.4580396372512673
 20
2.235370325173804
 10
0.4126620230389949
 20
2.231604564823065
 10
0.3612216547701088
 20
2.228445704182581
 10
0.3082479971212365
 20
2.226430512989039
 10
0.2520074392991812
 20
2.225669344222663
 10
0.1978227081815725
 20
2.226279962129989
 10
0.1435800026001963
 20
2.228211214370526
 10
0.0938435605864259
 20
2.231139805922149
 10
0.0471372098451484
 20
2.234894474383391
 10
0.0069428139847999
 20
2.238900800766668
 10
-0.0005864051151127
 20
2.239730686138071
  0
LWPOLYLINE
  5
18F
330
14E
100
AcDbEntity
  8
AM_9
100
AcDbPolyline
 90
        3
 70
     0
 43
0.0
 10
-4.676576307847064
 20
0.8910768007327727
 10
-4.670578437506997
 20
0.9336854096388378
 10
-4.670000001194736
 20
0.9508656390812036
  0
LWPOLYLINE
  5
190
330
14E
100
AcDbEntity
  8
AM_9
100
AcDbPolyline
 90
       10
 70
     0
 43
0.0
 10
-5.0
 20
0.6415265571449762
 10
-4.944937738785685
 20
0.6460418247264762
 10
-4.891435654489237
 20
0.6592930070427678
 10
-4.841056303705213
 20
0.6809344250376754
 10
-4.795120522262447
 20
0.7101253979294719
 10
-4.754703764001181
 20
0.7462817108212859
 10
-4.721166998839269
 20
0.787997827272165
 10
-4.695453933613877
 20
0.8342696352803076
 10
-4.678370528947349
 20
0.8834438071145082
 10
-4.676576307847064
 20
0.8910768007327727
  0
LINE
  5
191
330
14E
100
AcDbEntity
  8
AM_9
100
AcDbLine
 10
-4.45
 20
2.25
 30
0.0
 11
-4.67
 21
2.25
 31
0.0
  0
LINE
  5
192
330
14E
100
AcDbEntity
  8
AM_9
100
AcDbLine
 10
-5.33
 20
2.25
 30
0.0
 11
-5.5
 21
2.25
 31
0.0
  0
LINE
  5
193
330
14E
100
AcDbEntity
  8
AM_9
100
AcDbLine
 10
-5.5
 20
-2.25
 30
0.0
 11
-4.45
 21
-2.25
 31
0.0
  0
LWPOLYLINE
  5
194
330
14E
100
AcDbEntity
  8
AM_9
100
AcDbPolyline
 90
       20
 70
     0
 43
0.0
 10
-4.670000000000684
 20
2.2499999999999
 10
-4.670405472074176
 20
2.249940566512513
 10
-4.677934041239904
 20
2.248850035416337
 10
-4.694057770474222
 20
2.246597571397068
 10
-4.719228966225827
 20
2.243308354508273
 10
-4.751605863117704
 20
2.239486469536599
 10
-4.791960362748733
 20
2.235370325173804
 10
-4.837337976961004
 20
2.231604564823065
 10
-4.888778345229891
 20
2.228445704182581
 10
-4.941752002878763
 20
2.226430512989039
 10
-4.997992560700818
 20
2.225669344222663
 10
-5.052177291818428
 20
2.226279962129989
 10
-5.106419997399803
 20
2.228211214370526
 10
-5.156156439413574
 20
2.231139805922149
 10
-5.202862790154851
 20
2.234894474383391
 10
-5.2430571860152
 20
2.238900800766668
 10
-5.277439708486444
 20
2.242893843195671
 10
-5.303251910174385
 20
2.246232784246641
 10
-5.321040156009982
 20
2.248703355663195
 10
-5.33
 20
2.25
  0
LINE
  5
195
330
14E
100
AcDbEntity
  8
AM_9
100
AcDbLine
 10
-0.2999999999999998
 20
-3.076923076923077
 30
0.0
 11
-0.2999999999999998
 21
3.076923076923077
 31
0.0
  0
LINE
  5
196
330
14E
100
AcDbEntity
  8
AM_9
100
AcDbLine
 10
-0.2999999999999998
 20
-3.076923076923077
 30
0.0
 11
-0.1250000000000002
 21
-3.107780298547058
 31
0.0
  0
LINE
  5
197
330
14E
100
AcDbEntity
  8
AM_9
100
AcDbLine
 10
-0.1250000000000002
 20
3.107780298547058
 30
0.0
 11
-0.2999999999999998
 21
3.076923076923077
 31
0.0
  0
LINE
  5
198
330
14E
100
AcDbEntity
  8
AM_9
100
AcDbLine
 10
-4.45
 20
3.076923076923078
 30
0.0
 11
-4.625
 21
3.107780298547059
 31
0.0
  0
LINE
  5
199
330
14E
100
AcDbEntity
  8
AM_9
100
AcDbLine
 10
-4.625
 20
-3.107780298547059
 30
0.0
 11
-4.45
 21
-3.076923076923078
 31
0.0
  0
LINE
  5
19A
330
14E
100
AcDbEntity
  8
AM_9
100
AcDbLine
 10
-4.45
 20
3.076923076923078
 30
0.0
 11
-4.45
 21
-3.076923076923078
 31
0.0
  0
LINE
  5
19B
330
14E
100
AcDbEntity
  8
AM_9
100
AcDbLine
 10
-0.1249999999999996
 20
-3.653000000983476
 30
0.0
 11
-0.1249999999999996
 21
3.653000000983476
 31
0.0
  0
ARC
  5
19C
330
14E
100
AcDbEntity
  8
AM_9
100
AcDbCircle
 10
-0.1910000000000005
 20
3.653
 30
0.0
 40
0.0660000000000006
100
AcDbArc
 50
0.0
 51
90.0
  0
ARC
  5
19D
330
14E
100
AcDbEntity
  8
AM_9
100
AcDbCircle
 10
-0.1910000000000008
 20
-3.652999999999999
 30
0.0
 40
0.0660000000000012
100
AcDbArc
 50
270.0
 51
0.0
  0
LINE
  5
19E
330
14E
100
AcDbEntity
  8
AM_9
100
AcDbLine
 10
-0.1909999999999994
 20
-3.719
 30
0.0
 11
-0.1909999999999994
 21
3.719
 31
0.0
  0
LINE
  5
19F
330
14E
100
AcDbEntity
  8
AM_9
100
AcDbLine
 10
-0.1909999999999994
 20
3.719
 30
0.0
 11
-1.1875
 21
3.719
 31
0.0
  0
LINE
  5
1A0
330
14E
100
AcDbEntity
  8
AM_9
100
AcDbLine
 10
-1.1875
 20
-3.719
 30
0.0
 11
-0.1909999999999994
 21
-3.719
 31
0.0
  0
LINE
  5
1A1
330
14E
100
AcDbEntity
  8
AM_9
100
AcDbLine
 10
-3.5625
 20
3.78125
 30
0.0
 11
-4.558999999999999
 21
3.78125
 31
0.0
  0
LINE
  5
1A2
330
14E
100
AcDbEntity
  8
AM_9
100
AcDbLine
 10
-4.558999999999999
 20
-3.78125
 30
0.0
 11
-3.5625
 21
-3.78125
 31
0.0
  0
LINE
  5
1A3
330
14E
100
AcDbEntity
  8
AM_9
100
AcDbLine
 10
-4.558999999999999
 20
-3.78125
 30
0.0
 11
-4.558999999999999
 21
3.78125
 31
0.0
  0
ARC
  5
1A4
330
14E
100
AcDbEntity
  8
AM_9
100
AcDbCircle
 10
-4.559
 20
3.71525
 30
0.0
 40
0.0659999999999998
100
AcDbArc
 50
90.0
 51
180.0
  0
ARC
  5
1A5
330
14E
100
AcDbEntity
  8
AM_9
100
AcDbCircle
 10
-4.559
 20
-3.71525
 30
0.0
 40
0.0659999999999998
100
AcDbArc
 50
180.0
 51
270.0
  0
LINE
  5
1A6
330
14E
100
AcDbEntity
  8
AM_9
100
AcDbLine
 10
-1.1875
 20
-3.818094550950768
 30
0.0
 11
-1.1875
 21
3.818094550950775
 31
0.0
  0
ARC
  5
1A7
330
14E
100
AcDbEntity
  8
AM_9
100
AcDbCircle
 10
-2.375000000000009
 20
-0.0000000000000333
 30
0.0
 40
3.998500000000034
100
AcDbArc
 50
72.7233128974054
 51
81.36253662352388
  0
ARC
  5
1A8
330
14E
100
AcDbEntity
  8
AM_9
100
AcDbCircle
 10
-2.374999999999952
 20
-0.0000000000002034
 30
0.0
 40
3.998500000000208
100
AcDbArc
 50
98.63746337647626
 51
107.2766871025944
  0
ARC
  5
1A9
330
14E
100
AcDbEntity
  8
AM_9
100
AcDbCircle
 10
-2.374999999999998
 20
-0.0000000000001532
 30
0.0
 40
3.998499999999847
100
AcDbArc
 50
252.7233128974047
 51
287.2766871025952
  0
LINE
  5
1AA
330
14E
100
AcDbEntity
  8
AM_9
100
AcDbLine
 10
-1.774497996904298
 20
3.953150590893047
 30
0.0
 11
-2.975502003095699
 21
3.953150590893047
 31
0.0
  0
LINE
  5
1AB
330
14E
100
AcDbEntity
  8
AM_9
100
AcDbLine
 10
-3.5625
 20
-3.818094550950767
 30
0.0
 11
-3.5625
 21
3.818094550950774
 31
0.0
  0
LINE
  5
1AE
330
14E
100
AcDbEntity
  8
AM_7
100
AcDbLine
 10
1.0625
 20
0.0
 30
0.0
 11
-5.812499999999997
 21
0.0
 31
0.0
  0
LINE
  5
1AF
330
14E
100
AcDbEntity
  8
AM_7
100
AcDbLine
 10
0.2500000000000001
 20
-0.15
 30
0.0
 11
0.2500000000000001
 21
3.149999999999999
 31
0.0
  0
LINE
  5
1B0
330
14E
100
AcDbEntity
  8
AM_7
100
AcDbLine
 10
-5.0
 20
-0.15
 30
0.0
 11
-5.0
 21
3.149999999999999
 31
0.0
  0
LINE
  5
1B1
330
14E
100
AcDbEntity
  8
AM_7
100
AcDbLine
 10
-2.375
 20
5.191999999999999
 30
0.0
 11
-2.375
 21
2.516999999999999
 31
0.0
  0
ENDBLK
  5
151
330
14E
100
AcDbEntity
  8
0
100
AcDbBlockEnd
  0
BLOCK
  5
1B4
330
1B2
100
AcDbEntity
  8
0
100
AcDbBlockBegin
  2
6_023474H_0_in_023474_2
 70
     2
 10
0.0
 20
0.0
 30
0.0
  3
6_023474H_0_in_023474_2
  1

  0
ATTDEF
  5
1B6
330
1B2
100
AcDbEntity
  8
AM_6
100
AcDbText
 10
5.040624999999999
 20
8.00625
 30
0.0
 40
0.5
  1
F4B-DI Expansion -H -Inch
100
AcDbAttributeDefinition
  3

  2
NN
 70
     8
280
     0
  0
ATTDEF
  5
1B7
330
1B2
100
AcDbEntity
  8
AM_6
100
AcDbText
 10
5.040624999999999
 20
7.50625
 30
0.0
 40
0.5
  1
Double-Interlock Flange Bearings
100
AcDbAttributeDefinition
  3

  2
NT
 70
     8
280
     0
  0
ATTDEF
  5
1B8
330
1B2
100
AcDbEntity
  8
AM_6
100
AcDbText
 10
5.040624999999999
 20
7.00625
 30
0.0
 40
0.5
  1
023474H
100
AcDbAttributeDefinition
  3

  2
NB
 70
     8
280
     0
  0
ATTDEF
  5
1B9
330
1B2
100
AcDbEntity
  8
AM_6
100
AcDbText
 10
5.040624999999999
 20
6.50625
 30
0.0
 40
0.5
  1
$PN.H
100
AcDbAttributeDefinition
  3

  2
NBSYN
 70
     8
280
     0
  0
ATTDEF
  5
1BA
330
1B2
100
AcDbEntity
  8
AM_6
100
AcDbText
 10
5.040624999999999
 20
6.00625
 30
0.0
 40
0.5
  1
023474
100
AcDbAttributeDefinition
  3

  2
LINA
 70
     8
280
     0
  0
ATTDEF
  5
1BB
330
1B2
100
AcDbEntity
  8
AM_6
100
AcDbText
 10
5.040624999999999
 20
5.50625
 30
0.0
 40
0.5
  1
3-15/16
100
AcDbAttributeDefinition
  3

  2
SS
 70
     8
280
     0
  0
ATTDEF
  5
1BC
330
1B2
100
AcDbEntity
  8
AM_6
100
AcDbText
 10
5.040624999999999
 20
5.00625
 30
0.0
 40
0.5
  1
023474
100
AcDbAttributeDefinition
  3

  2
PN
 70
     8
280
     0
  0
ATTDEF
  5
1BD
330
1B2
100
AcDbEntity
  8
AM_6
100
AcDbText
 10
5.040624999999999
 20
4.50625
 30
0.0
 40
0.5
  1
F4B-DI-315RE
100
AcDbAttributeDefinition
  3

  2
DESCRIPTION
 70
     8
280
     0
  0
ATTDEF
  5
1BE
330
1B2
100
AcDbEntity
  8
AM_6
100
AcDbText
 10
5.040624999999999
 20
4.00625
 30
0.0
 40
0.5
  1
Expansion Type
100
AcDbAttributeDefinition
  3

  2
EF
 70
     8
280
     0
  0
ATTDEF
  5
1BF
330
1B2
100
AcDbEntity
  8
AM_6
100
AcDbText
 10
5.040624999999999
 20
3.50625
 30
0.0
 40
0.5
  1
6-1/4
100
AcDbAttributeDefinition
  3

  2
A
 70
     8
280
     0
  0
ATTDEF
  5
1C0
330
1B2
100
AcDbEntity
  8
AM_6
100
AcDbText
 10
5.040624999999999
 20
3.00625
 30
0.0
 40
0.5
  1
11-7/16
100
AcDbAttributeDefinition
  3

  2
B
 70
     8
280
     0
  0
ATTDEF
  5
1C1
330
1B2
100
AcDbEntity
  8
AM_6
100
AcDbText
 10
5.040624999999999
 20
2.50625
 30
0.0
 40
0.5
  1
4-5/8
100
AcDbAttributeDefinition
  3

  2
C
 70
     8
280
     0
  0
ATTDEF
  5
1C2
330
1B2
100
AcDbEntity
  8
AM_6
100
AcDbText
 10
5.040624999999999
 20
2.00625
 30
0.0
 40
0.5
  1
13
100
AcDbAttributeDefinition
  3

  2
D
 70
     8
280
     0
  0
ATTDEF
  5
1C3
330
1B2
100
AcDbEntity
  8
AM_6
100
AcDbText
 10
5.040624999999999
 20
1.50625
 30
0.0
 40
0.5
  1
3/4
100
AcDbAttributeDefinition
  3

  2
E
 70
     8
280
     0
  0
ATTDEF
  5
1C4
330
1B2
100
AcDbEntity
  8
AM_6
100
AcDbText
 10
5.040624999999999
 20
1.00625
 30
0.0
 40
0.5
  1
1
100
AcDbAttributeDefinition
  3

  2
F
 70
     8
280
     0
  0
ATTDEF
  5
1C5
330
1B2
100
AcDbEntity
  8
AM_6
100
AcDbText
 10
5.040624999999999
 20
0.5062499999999996
 30
0.0
 40
0.5
  1
12-7/8
100
AcDbAttributeDefinition
  3

  2
G
 70
     8
280
     0
  0
ATTDEF
  5
1C6
330
1B2
100
AcDbEntity
  8
AM_6
100
AcDbText
 10
5.040624999999999
 20
0.0062499999999996
 30
0.0
 40
0.5
  1
13/16
100
AcDbAttributeDefinition
  3

  2
H
 70
     8
280
     0
  0
ATTDEF
  5
1C7
330
1B2
100
AcDbEntity
  8
AM_6
100
AcDbText
 10
5.040624999999999
 20
-0.4937500000000004
 30
0.0
 40
0.5
  1
9-3/16
100
AcDbAttributeDefinition
  3

  2
J
 70
     8
280
     0
  0
ATTDEF
  5
1C8
330
1B2
100
AcDbEntity
  8
AM_6
100
AcDbText
 10
5.040624999999999
 20
-0.9937500000000004
 30
0.0
 40
0.5
  1
6
100
AcDbAttributeDefinition
  3

  2
L
 70
     8
280
     0
  0
ATTDEF
  5
1C9
330
1B2
100
AcDbEntity
  8
AM_6
100
AcDbText
 10
5.040624999999999
 20
-1.49375
 30
0.0
 40
0.5
  1
5/16
100
AcDbAttributeDefinition
  3

  2
T
 70
     8
280
     0
  0
ATTDEF
  5
1CA
330
1B2
100
AcDbEntity
  8
AM_6
100
AcDbText
 10
5.040624999999999
 20
-1.99375
 30
0.0
 40
0.5
  1
baldor
100
AcDbAttributeDefinition
  3

  2
COMPANY
 70
     8
280
     0
  0
LINE
  5
1CB
330
1B2
100
AcDbEntity
  8
AM_9
100
AcDbLine
 10
-3.671875
 20
5.479838709677419
 30
0.0
 11
-3.671875
 21
3.998499999999999
 31
0.0
  0
LINE
  5
1CC
330
1B2
100
AcDbEntity
  8
AM_9
100
AcDbLine
 10
-1.359375
 20
3.9985
 30
0.0
 11
-1.359375
 21
5.479838709677419
 31
0.0
  0
LWPOLYLINE
  5
1CD
330
1B2
100
AcDbEntity
  8
AM_9
100
AcDbPolyline
 90
       10
 70
     0
 43
0.0
 10
-0.2139512947488252
 20
-4.390145958858963
 10
-0.1854233653222071
 20
-4.390106030480998
 10
-0.1573300193160576
 20
-4.387613220317276
 10
-0.1056603605058151
 20
-4.375885324643126
 10
-0.0614081422267181
 20
-4.356026089239536
 10
-0.0411559873734138
 20
-4.341975635853832
 10
-0.0250027959899329
 20
-4.326643590949907
 10
-0.0110540194514649
 20
-4.307149565181702
 10
-0.0027587325972633
 20
-4.286855530534978
 10
0.0000000000000002
 20
-4.2660643531257
  0
ARC
  5
1CE
330
1B2
100
AcDbEntity
  8
AM_9
100
AcDbCircle
 10
-0.1999999999999986
 20
-4.621052573784539
 30
0.0
 40
0.1999999999999989
100
AcDbArc
 50
265.9999999999995
 51
0.0
  0
LWPOLYLINE
  5
1CF
330
1B2
100
AcDbEntity
  8
AM_9
100
AcDbPolyline
 90
        9
 70
     0
 43
0.0
 10
0.0000000000000002
 20
4.2660643531257
 10
-0.00843656268814
 20
4.302108116298435
 10
-0.0254358679573963
 20
4.327090927293682
 10
-0.0518048166305346
 20
4.349904619314454
 10
-0.0744522077504871
 20
4.363118044004354
 10
-0.1010514293314026
 20
4.374316673994433
 10
-0.1315354050016835
 20
4.382988462161451
 10
-0.1647791965796513
 20
4.388523160758903
 10
-0.2139512947488252
 20
4.390145958858962
  0
ARC
  5
1D0
330
1B2
100
AcDbEntity
  8
AM_9
100
AcDbCircle
 10
-0.1999999999999986
 20
4.621052573784539
 30
0.0
 40
0.1999999999999986
100
AcDbArc
 50
0.0
 51
94.00000000000053
  0
LINE
  5
1D1
330
1B2
100
AcDbEntity
  8
AM_9
100
AcDbLine
 10
-4.625
 20
-3.9985
 30
0.0
 11
0.0
 21
-3.9985
 31
0.0
  0
LINE
  5
1D2
330
1B2
100
AcDbEntity
  8
AM_9
100
AcDbLine
 10
0.0
 20
3.9985
 30
0.0
 11
-1.359375
 21
3.9985
 31
0.0
  0
LINE
  5
1D3
330
1B2
100
AcDbEntity
  8
AM_9
100
AcDbLine
 10
-3.671875
 20
3.9985
 30
0.0
 11
-4.625
 21
3.9985
 31
0.0
  0
LWPOLYLINE
  5
1D4
330
1B2
100
AcDbEntity
  8
AM_9
100
AcDbPolyline
 90
       23
 70
     0
 43
0.0
 10
-2.713584171463312
 20
3.832789587371898
 10
-2.67699702627184
 20
3.831079392670998
 10
-2.577409954627112
 20
3.828172614723411
 10
-2.484067206515714
 20
3.827808275845079
 10
-2.39094795193839
 20
3.829703977308606
 10
-2.295989795493699
 20
3.833974489649017
 10
-2.202660755487689
 20
3.840447214302412
 10
-2.115056360106953
 20
3.848579623410518
 10
-2.030131639307479
 20
3.858340574751861
 10
-1.946245704691736
 20
3.869792912649331
 10
-1.86625692459417
 20
3.882366170888093
 10
-1.790167763750624
 20
3.895816401055433
 10
-1.718979932264832
 20
3.90969711760985
 10
-1.651405559802394
 20
3.924024235445622
 10
-1.589902681211322
 20
3.938026155195453
 10
-1.535030102874392
 20
3.951284726435258
 10
-1.487002712145293
 20
3.963477261013548
 10
-1.445086442539436
 20
3.974560441318322
 10
-1.411169400319335
 20
3.983831115793687
 10
-1.388874851819361
 20
3.990068452514114
 10
-1.372737396948581
 20
3.994656463415673
 10
-1.362727597761865
 20
3.997530558027905
 10
-1.359375
 20
3.9985
  0
LWPOLYLINE
  5
1D5
330
1B2
100
AcDbEntity
  8
AM_9
100
AcDbPolyline
 90
       19
 70
     0
 43
0.0
 10
-3.671874999999295
 20
3.998499999999796
 10
-3.671702677387115
 20
3.99845017271102
 10
-3.66593287638762
 20
3.996783913704267
 10
-3.65206260316101
 20
3.992815875216178
 10
-3.631430828062208
 20
3.98699146982514
 10
-3.603742993550447
 20
3.979332727403961
 10
-3.568131047545732
 20
3.969741823712834
 10
-3.525564277483579
 20
3.958669666908828
 10
-3.476606785021597
 20
3.946463234510657
 10
-3.421407391367817
 20
3.933386572409582
 10
-3.358565504322342
 20
3.91939288661623
 10
-3.289924983844112
 20
3.905205327826053
 10
-3.21549529037052
 20
3.891133227005578
 10
-3.136113696973049
 20
3.877640314749592
 10
-3.049744591564727
 20
3.864763176860787
 10
-2.959253972002747
 20
3.853296621375029
 10
-2.868576991967896
 20
3.843916214100867
 10
-2.775279366561798
 20
3.836470849305988
 10
-2.713584171463312
 20
3.832789587371898
  0
LINE
  5
1D6
330
1B2
100
AcDbEntity
  8
AM_9
100
AcDbLine
 10
-0.2139512947488252
 20
-4.390145958858963
 30
0.0
 11
-0.2139512947488254
 21
-4.820565383836502
 31
0.0
  0
LINE
  5
1D7
330
1B2
100
AcDbEntity
  8
AM_9
100
AcDbLine
 10
-0.2139512947488252
 20
-4.390145958858963
 30
0.0
 11
-0.8125
 21
-4.364349001264255
 31
0.0
  0
LINE
  5
1D8
330
1B2
100
AcDbEntity
  8
AM_9
100
AcDbLine
 10
-0.8125
 20
4.364349001264253
 30
0.0
 11
-0.2139512947488252
 21
4.390145958858962
 31
0.0
  0
LINE
  5
1D9
330
1B2
100
AcDbEntity
  8
AM_9
100
AcDbLine
 10
-0.8125000000000001
 20
-4.778710781085372
 30
0.0
 11
-0.2139512947488254
 21
-4.820565383836502
 31
0.0
  0
LINE
  5
1DA
330
1B2
100
AcDbEntity
  8
AM_9
100
AcDbLine
 10
-0.2139512947488254
 20
4.820565383836502
 30
0.0
 11
-0.8125000000000001
 21
4.778710781085372
 31
0.0
  0
LINE
  5
1DB
330
1B2
100
AcDbEntity
  8
AM_9
100
AcDbLine
 10
-0.2139512947488254
 20
4.820565383836502
 30
0.0
 11
-0.2139512947488252
 21
4.390145958858962
 31
0.0
  0
LINE
  5
1DC
330
1B2
100
AcDbEntity
  8
AM_9
100
AcDbLine
 10
-0.8124999999999998
 20
4.09375
 30
0.0
 11
0.0000000000000003
 21
4.09375
 31
0.0
  0
LINE
  5
1DD
330
1B2
100
AcDbEntity
  8
AM_9
100
AcDbLine
 10
0.0000000000000003
 20
5.09375
 30
0.0
 11
-0.8124999999999998
 21
5.09375
 31
0.0
  0
LINE
  5
1DE
330
1B2
100
AcDbEntity
  8
AM_9
100
AcDbLine
 10
-0.8124999999999998
 20
-5.09375
 30
0.0
 11
0.0000000000000003
 21
-5.09375
 31
0.0
  0
LINE
  5
1DF
330
1B2
100
AcDbEntity
  8
AM_9
100
AcDbLine
 10
0.0000000000000003
 20
-4.09375
 30
0.0
 11
-0.8124999999999998
 21
-4.09375
 31
0.0
  0
LINE
  5
1E0
330
1B2
100
AcDbEntity
  8
AM_9
100
AcDbLine
 10
-0.8124999999999998
 20
-5.568028579257494
 30
0.0
 11
0.0000000000000002
 21
-5.568028579257494
 31
0.0
  0
LINE
  5
1E1
330
1B2
100
AcDbEntity
  8
AM_9
100
AcDbLine
 10
-0.8124999999999998
 20
5.568028579257492
 30
0.0
 11
0.0000000000000002
 21
5.568028579257492
 31
0.0
  0
LINE
  5
1E2
330
1B2
100
AcDbEntity
  8
AM_7
100
AcDbLine
 10
0.0406249999999997
 20
4.59375
 30
0.0
 11
-0.8531250000000004
 21
4.59375
 31
0.0
  0
LINE
  5
1E3
330
1B2
100
AcDbEntity
  8
AM_7
100
AcDbLine
 10
0.0406249999999997
 20
-4.59375
 30
0.0
 11
-0.8531250000000004
 21
-4.59375
 31
0.0
  0
LINE
  5
1E4
330
1B2
100
AcDbEntity
  8
AM_7
100
AcDbLine
 10
-2.515625
 20
-0.459375
 30
0.0
 11
-2.515625
 21
8.00625
 31
0.0
  0
LINE
  5
1E5
330
1B2
100
AcDbEntity
  8
AM_4
100
AcDbLine
 10
-4.110452586206896
 20
5.579838709677418
 30
0.0
 11
-4.110452586206896
 21
5.479838709677419
 31
0.0
  0
LINE
  5
1E6
330
1B2
100
AcDbEntity
  8
AM_4
100
AcDbLine
 10
-4.110452586206896
 20
5.579838709677418
 30
0.0
 11
-0.9207974137931033
 21
5.579838709677418
 31
0.0
  0
LINE
  5
1E7
330
1B2
100
AcDbEntity
  8
AM_4
100
AcDbLine
 10
-0.9207974137931033
 20
5.479838709677419
 30
0.0
 11
-0.9207974137931033
 21
5.579838709677418
 31
0.0
  0
LINE
  5
1E8
330
1B2
100
AcDbEntity
  8
AM_4
100
AcDbLine
 10
-4.21875
 20
4.429034350786297
 30
0.0
 11
-4.21875
 21
5.479838709677419
 31
0.0
  0
LINE
  5
1E9
330
1B2
100
AcDbEntity
  8
AM_4
100
AcDbLine
 10
-2.248600500499798
 20
5.679838709677418
 30
0.0
 11
-2.248600500499798
 21
5.579838709677418
 31
0.0
  0
LINE
  5
1EA
330
1B2
100
AcDbEntity
  8
AM_4
100
AcDbLine
 10
-2.782649499500202
 20
5.679838709677418
 30
0.0
 11
-2.248600500499798
 21
5.679838709677418
 31
0.0
  0
LINE
  5
1EB
330
1B2
100
AcDbEntity
  8
AM_4
100
AcDbLine
 10
-2.782649499500202
 20
5.679838709677418
 30
0.0
 11
-2.782649499500202
 21
5.579838709677418
 31
0.0
  0
LINE
  5
1EC
330
1B2
100
AcDbEntity
  8
AM_4
100
AcDbLine
 10
-2.382112750249899
 20
5.679838709677418
 30
0.0
 11
-2.382112750249899
 21
5.579838709677418
 31
0.0
  0
LINE
  5
1ED
330
1B2
100
AcDbEntity
  8
AM_4
100
AcDbLine
 10
-2.649137249750101
 20
5.679838709677418
 30
0.0
 11
-2.649137249750101
 21
5.579838709677418
 31
0.0
  0
LINE
  5
1EE
330
1B2
100
AcDbEntity
  8
AM_4
100
AcDbLine
 10
-1.38791159896973
 20
5.579838709677418
 30
0.0
 11
-1.38791159896973
 21
5.479838709677419
 31
0.0
  0
LINE
  5
1EF
330
1B2
100
AcDbEntity
  8
AM_4
100
AcDbLine
 10
-3.643338401030271
 20
5.579838709677418
 30
0.0
 11
-3.643338401030271
 21
5.479838709677419
 31
0.0
  0
LINE
  5
1F0
330
1B2
100
AcDbEntity
  8
AM_4
100
AcDbLine
 10
-2.188588113701222
 20
5.579838709677418
 30
0.0
 11
-2.188588113701222
 21
5.479838709677419
 31
0.0
  0
LINE
  5
1F1
330
1B2
100
AcDbEntity
  8
AM_4
100
AcDbLine
 10
-2.842661886298778
 20
5.579838709677418
 30
0.0
 11
-2.842661886298778
 21
5.479838709677419
 31
0.0
  0
LINE
  5
1F2
330
1B2
100
AcDbEntity
  8
AM_4
100
AcDbLine
 10
-0.9213543594251435
 20
4.559149707911516
 30
0.0
 11
-0.9213543594251433
 21
5.479838709677419
 31
0.0
  0
LINE
  5
1F3
330
1B2
100
AcDbEntity
  8
AM_4
100
AcDbLine
 10
-4.109895640574857
 20
4.325273124964141
 30
0.0
 11
-4.109895640574857
 21
5.479838709677419
 31
0.0
  0
LINE
  5
1F4
330
1B2
100
AcDbEntity
  8
AM_4
100
AcDbLine
 10
-0.8125
 20
5.479838709677419
 30
0.0
 11
-4.21875
 21
5.479838709677419
 31
0.0
  0
LINE
  5
1F5
330
1B2
100
AcDbEntity
  8
AM_4
100
AcDbLine
 10
-3.171701453141712
 20
3.794201594690607
 30
0.0
 11
-3.171701453141712
 21
5.479838709677419
 31
0.0
  0
LINE
  5
1F6
330
1B2
100
AcDbEntity
  8
AM_4
100
AcDbLine
 10
-3.523524273429143
 20
3.898038538361563
 30
0.0
 11
-3.523524273429143
 21
5.479838709677419
 31
0.0
  0
LINE
  5
1F7
330
1B2
100
AcDbEntity
  8
AM_4
100
AcDbLine
 10
-1.507725726570857
 20
4.063044222291437
 30
0.0
 11
-1.507725726570857
 21
5.479838709677419
 31
0.0
  0
LINE
  5
1F8
330
1B2
100
AcDbEntity
  8
AM_4
100
AcDbLine
 10
-1.859548546858284
 20
3.905259135854545
 30
0.0
 11
-1.859548546858284
 21
5.479838709677419
 31
0.0
  0
LINE
  5
1F9
330
1B2
100
AcDbEntity
  8
AM_4
100
AcDbLine
 10
-4.625
 20
4.418863301936972
 30
0.0
 11
-4.625
 21
-4.418863301936972
 31
0.0
  0
ARC
  5
1FA
330
1B2
100
AcDbEntity
  8
AM_4
100
AcDbCircle
 10
-4.525000000000001
 20
-4.418863301936974
 30
0.0
 40
0.0999999999999988
100
AcDbArc
 50
180.0
 51
266.0000000000005
  0
ARC
  5
1FB
330
1B2
100
AcDbEntity
  8
AM_4
100
AcDbCircle
 10
-4.525000000000001
 20
4.418863301936974
 30
0.0
 40
0.0999999999999984
100
AcDbArc
 50
93.99999999999953
 51
180.0
  0
LWPOLYLINE
  5
1FC
330
1B2
100
AcDbEntity
  8
AM_4
100
AcDbPolyline
 90
        7
 70
     0
 43
0.0
 10
-0.8125000000000001
 20
4.672908808147401
 10
-0.8154542995324285
 20
4.657344916500408
 10
-0.8243295379488785
 20
4.640345410431455
 10
-0.8393807895979685
 20
4.621755829045512
 10
-0.8604690397499049
 20
4.601988115770043
 10
-0.8879115406319368
 20
4.580956451257373
 10
-0.9213543594251435
 20
4.559149707911516
  0
LWPOLYLINE
  5
1FD
330
1B2
100
AcDbEntity
  8
AM_4
100
AcDbPolyline
 90
        4
 70
     0
 43
0.0
 10
-0.9213543594251439
 20
4.559149707911516
 10
-1.147436750771672
 20
4.402336354540285
 10
-1.364761639318333
 20
4.212018563307635
 10
-1.507725726570857
 20
4.063044222291438
  0
LWPOLYLINE
  5
1FE
330
1B2
100
AcDbEntity
  8
AM_4
100
AcDbPolyline
 90
        7
 70
     0
 43
0.0
 10
-1.507725726570857
 20
4.063044222291437
 10
-1.54905401709827
 20
4.023986427175214
 10
-1.602697650668778
 20
3.986528552721416
 10
-1.665217438717733
 20
3.954303417384142
 10
-1.73962383631075
 20
3.9274366794099
 10
-1.797492189682099
 20
3.913682829975098
 10
-1.859548546858284
 20
3.905259135854545
  0
LINE
  5
1FF
330
1B2
100
AcDbEntity
  8
AM_4
100
AcDbLine
 10
-1.859548546858284
 20
3.905259135854545
 30
0.0
 11
-3.171701453141712
 21
3.794201594690607
 31
0.0
  0
LWPOLYLINE
  5
200
330
1B2
100
AcDbEntity
  8
AM_4
100
AcDbPolyline
 90
        8
 70
     0
 43
0.0
 10
-3.171701453141712
 20
3.794201594690607
 10
-3.229666097383829
 20
3.792179705888176
 10
-3.286382196520974
 20
3.79585346707132
 10
-3.340055390683288
 20
3.805006480778661
 10
-3.38960833173426
 20
3.818946599605538
 10
-3.435805887251648
 20
3.837796973756983
 10
-3.475924003401022
 20
3.860138972216531
 10
-3.523524273429143
 20
3.898038538361563
  0
LWPOLYLINE
  5
201
330
1B2
100
AcDbEntity
  8
AM_4
100
AcDbPolyline
 90
        4
 70
     0
 43
0.0
 10
-3.523524273429143
 20
3.898038538361565
 10
-3.724753065549309
 20
4.078297014392075
 10
-3.934294019335334
 20
4.227517187599995
 10
-4.109895640574857
 20
4.325273124964142
  0
LWPOLYLINE
  5
202
330
1B2
100
AcDbEntity
  8
AM_4
100
AcDbPolyline
 90
        7
 70
     0
 43
0.0
 10
-4.109895640574857
 20
4.325273124964141
 10
-4.141862358086997
 20
4.342367009027405
 10
-4.168660264080433
 20
4.35976399576866
 10
-4.190274983054209
 20
4.377503624870855
 10
-4.206001761049318
 20
4.395129009356515
 10
-4.215526322322669
 20
4.412318361882555
 10
-4.21875
 20
4.429034350786297
  0
LINE
  5
203
330
1B2
100
AcDbEntity
  8
AM_4
100
AcDbLine
 10
-4.531975647374413
 20
-4.518619706962955
 30
0.0
 11
-0.8125000000000001
 21
-4.778710781085372
 31
0.0
  0
LINE
  5
204
330
1B2
100
AcDbEntity
  8
AM_4
100
AcDbLine
 10
-4.21875
 20
4.54052257790279
 30
0.0
 11
-4.531975647374413
 21
4.518619706962955
 31
0.0
  0
LINE
  5
205
330
1B2
100
AcDbEntity
  8
AM_4
100
AcDbLine
 10
-4.531975647374413
 20
4.518619706962955
 30
0.0
 11
-4.531975647374413
 21
-4.518619706962955
 31
0.0
  0
LINE
  5
206
330
1B2
100
AcDbEntity
  8
AM_4
100
AcDbLine
 10
-0.2139512947488251
 20
1.991097456117377
 30
0.0
 11
-0.2139512947488251
 21
-1.991097456117378
 31
0.0
  0
LINE
  5
207
330
1B2
100
AcDbEntity
  8
AM_4
100
AcDbLine
 10
-0.8124999999999998
 20
-5.718750000000002
 30
0.0
 11
-0.8124999999999999
 21
-1.946415814882645
 31
0.0
  0
LINE
  5
208
330
1B2
100
AcDbEntity
  8
AM_4
100
AcDbLine
 10
-0.8124999999999999
 20
-1.946415814882645
 30
0.0
 11
-0.2139512947488251
 21
-1.991097456117378
 31
0.0
  0
LWPOLYLINE
  5
209
330
1B2
100
AcDbEntity
  8
AM_4
100
AcDbPolyline
 90
        9
 70
     0
 43
0.0
 10
0.0000000000000003
 20
-1.77618181070264
 10
-0.0084365626881398
 20
-1.838611439813797
 10
-0.0254358679573959
 20
-1.881882937773454
 10
-0.0518048166305339
 20
-1.921397411461661
 10
-0.0744522077504859
 20
-1.944283734366551
 10
-0.101051429331401
 20
-1.963680330484532
 10
-0.1315354050016815
 20
-1.978700308182283
 10
-0.1647791965796488
 20
-1.988286687357651
 10
-0.2139512947488251
 20
-1.991097456117378
  0
LINE
  5
20A
330
1B2
100
AcDbEntity
  8
AM_4
100
AcDbLine
 10
-0.8124999999999999
 20
1.946415814882643
 30
0.0
 11
-0.8124999999999998
 21
5.71875
 31
0.0
  0
LINE
  5
20B
330
1B2
100
AcDbEntity
  8
AM_4
100
AcDbLine
 10
-0.2139512947488251
 20
1.991097456117377
 30
0.0
 11
-0.8124999999999999
 21
1.946415814882643
 31
0.0
  0
LWPOLYLINE
  5
20C
330
1B2
100
AcDbEntity
  8
AM_4
100
AcDbPolyline
 90
       10
 70
     0
 43
0.0
 10
-0.2139512947488251
 20
1.991097456117377
 10
-0.185423365322207
 20
1.991028298138077
 10
-0.1573300193160575
 20
1.986710624280888
 10
-0.105660360505815
 20
1.966397313107394
 10
-0.0614081422267179
 20
1.932000108388903
 10
-0.0411559873734136
 20
1.907664009255485
 10
-0.0250027959899328
 20
1.881108128497962
 10
-0.0110540194514647
 20
1.847343485423374
 10
-0.0027587325972631
 20
1.812193186324684
 10
0.0000000000000003
 20
1.776181810702638
  0
LINE
  5
20D
330
1B2
100
AcDbEntity
  8
AM_4
100
AcDbLine
 10
-0.8124999999999998
 20
-4.03125
 30
0.0
 11
0.0000000000000003
 21
-4.03125
 31
0.0
  0
LINE
  5
20E
330
1B2
100
AcDbEntity
  8
AM_4
100
AcDbLine
 10
-0.8124999999999998
 20
-5.718750000000002
 30
0.0
 11
0.0000000000000003
 21
-5.718750000000002
 31
0.0
  0
LINE
  5
20F
330
1B2
100
AcDbEntity
  8
AM_4
100
AcDbLine
 10
0.0000000000000003
 20
-5.718750000000002
 30
0.0
 11
0.0000000000000003
 21
5.71875
 31
0.0
  0
LINE
  5
210
330
1B2
100
AcDbEntity
  8
AM_4
100
AcDbLine
 10
-0.8124999999999998
 20
4.031249999999999
 30
0.0
 11
0.0000000000000003
 21
4.031249999999999
 31
0.0
  0
LINE
  5
211
330
1B2
100
AcDbEntity
  8
AM_4
100
AcDbLine
 10
0.0000000000000003
 20
5.71875
 30
0.0
 11
-0.8124999999999998
 21
5.71875
 31
0.0
  0
LINE
  5
212
330
1B2
100
AcDbEntity
  8
AM_4
100
AcDbLine
 10
-3.007425134594813
 20
1.5
 30
0.0
 11
-3.007425134594813
 21
1.0
 31
0.0
  0
LINE
  5
213
330
1B2
100
AcDbEntity
  8
AM_4
100
AcDbLine
 10
-3.296100269189626
 20
1.5
 30
0.0
 11
-3.296100269189626
 21
1.0
 31
0.0
  0
LINE
  5
214
330
1B2
100
AcDbEntity
  8
AM_4
100
AcDbLine
 10
-2.141399730810373
 20
1.5
 30
0.0
 11
-2.141399730810373
 21
1.0
 31
0.0
  0
LINE
  5
215
330
1B2
100
AcDbEntity
  8
AM_4
100
AcDbLine
 10
-3.296100269189626
 20
1.5
 30
0.0
 11
-2.141399730810373
 21
1.5
 31
0.0
  0
LINE
  5
216
330
1B2
100
AcDbEntity
  8
AM_4
100
AcDbLine
 10
-2.430074865405187
 20
1.5
 30
0.0
 11
-2.430074865405186
 21
1.0
 31
0.0
  0
LINE
  5
217
330
1B2
100
AcDbEntity
  8
AM_4
100
AcDbLine
 10
-4.218749999999999
 20
1.0
 30
0.0
 11
-4.218749999999999
 21
-1.0
 31
0.0
  0
LINE
  5
218
330
1B2
100
AcDbEntity
  8
AM_4
100
AcDbLine
 10
-4.218749999999999
 20
1.0
 30
0.0
 11
-1.21875
 21
1.0
 31
0.0
  0
LINE
  5
219
330
1B2
100
AcDbEntity
  8
AM_4
100
AcDbLine
 10
-4.218749999999999
 20
-1.0
 30
0.0
 11
-1.21875
 21
-1.0
 31
0.0
  0
LINE
  5
21A
330
1B2
100
AcDbEntity
  8
AM_4
100
AcDbLine
 10
-1.21875
 20
1.0
 30
0.0
 11
-1.21875
 21
-1.0
 31
0.0
  0
LINE
  5
21B
330
1B2
100
AcDbEntity
  8
AM_4
100
AcDbLine
 10
-2.03125
 20
1.0
 30
0.0
 11
-2.03125
 21
-1.0
 31
0.0
  0
LINE
  5
21C
330
1B2
100
AcDbEntity
  8
AM_4
100
AcDbLine
 10
-3.406249999999999
 20
1.0
 30
0.0
 11
-3.406249999999999
 21
-1.0
 31
0.0
  0
ENDBLK
  5
1B5
330
1B2
100
AcDbEntity
  8
0
100
AcDbBlockEnd
  0
ENDSEC
  0
SECTION
  2
ENTITIES
  0
INSERT
  5
6F
330
1F
100
AcDbEntity
  8
0
100
AcDbBlockReference
  2
1_023474_2
 10
0.0
 20
0.0
 30
0.0
  0
POINT
  5
21E
330
1F
100
AcDbEntity
  8
ConnectionPoints
100
AcDbPoint
 10
0.75
 20
0.0
 30
0.0
  0
POINT
  5
21F
330
1F
100
AcDbEntity
  8
ConnectionPoints
100
AcDbPoint
 10
-2.375
 20
4.785
 30
0.0000000000000001
  0
POINT
  5
220
330
1F
100
AcDbEntity
  8
ConnectionPoints
100
AcDbPoint
 10
-2.375
 20
0.0
 30
0.0000000000000001
  0
POINT
  5
221
330
1F
100
AcDbEntity
  8
ConnectionPoints
100
AcDbPoint
 10
0.75
 20
0.0
 30
0.0
  0
POINT
  5
222
330
1F
100
AcDbEntity
  8
ConnectionPoints
100
AcDbPoint
 10
-5.5
 20
0.0
 30
0.0000000000000003
  0
POINT
  5
223
330
1F
100
AcDbEntity
  8
ConnectionPoints
100
AcDbPoint
 10
-2.375
 20
4.785
 30
0.0000000000000001
  0
POINT
  5
224
330
1F
100
AcDbEntity
  8
ConnectionPoints
100
AcDbPoint
 10
-2.375
 20
4.785
 30
0.0000000000000001
  0
POINT
  5
225
330
1F
100
AcDbEntity
  8
ConnectionPoints
100
AcDbPoint
 10
-2.375
 20
0.0
 30
0.0000000000000001
  0
POINT
  5
226
330
1F
100
AcDbEntity
  8
ConnectionPoints
100
AcDbPoint
 10
-2.375
 20
0.0
 30
0.0000000000000001
  0
ENDSEC
  0
SECTION
  2
OBJECTS
  0
DICTIONARY
  5
C
330
0
100
AcDbDictionary
281
     1
  3
ACAD_DETAILVIEWSTYLE
350
22E
  3
ACAD_GROUP
350
D
  3
ACAD_LAYOUT
350
1A
  3
ACAD_MATERIAL
350
43
  3
ACAD_MLEADERSTYLE
350
6B
  3
ACAD_MLINESTYLE
350
17
  3
ACAD_PLOTSETTINGS
350
19
  3
ACAD_PLOTSTYLENAME
350
E
  3
ACAD_SCALELIST
350
47
  3
ACAD_SECTIONVIEWSTYLE
350
22F
  3
ACAD_TABLESTYLE
350
69
  3
ACAD_VISUALSTYLE
350
2A
  3
ACDB_RECOMPOSE_DATA
350
22B
  3
AcDbVariableDictionary
350
227
  0
SUN
  5
6D
330
29
100
AcDbSun
 90
        1
290
     0
 63
     7
421
 16777215
 40
1.0
291
     1
 91
  2455826
 92
 54000000
292
     0
 70
     2
 71
   256
280
     1
  0
DICTIONARY
  5
22E
102
{ACAD_REACTORS
330
C
102
}
330
C
100
AcDbDictionary
281
     1
  0
DICTIONARY
  5
D
102
{ACAD_REACTORS
330
C
102
}
330
C
100
AcDbDictionary
281
     1
  0
DICTIONARY
  5
1A
102
{ACAD_REACTORS
330
C
102
}
330
C
100
AcDbDictionary
281
     1
  3
Layout1
350
1E
  3
Layout2
350
26
  3
Model
350
22
  0
DICTIONARY
  5
43
102
{ACAD_REACTORS
330
C
102
}
330
C
100
AcDbDictionary
281
     1
  3
ByBlock
350
45
  3
ByLayer
350
44
  3
Global
350
46
  0
DICTIONARY
  5
6B
102
{ACAD_REACTORS
330
C
102
}
330
C
100
AcDbDictionary
281
     1
  3
Standard
350
6C
  0
DICTIONARY
  5
17
102
{ACAD_REACTORS
330
C
102
}
330
C
100
AcDbDictionary
281
     1
  3
Standard
350
18
  0
DICTIONARY
  5
19
102
{ACAD_REACTORS
330
C
102
}
330
C
100
AcDbDictionary
281
     1
  0
ACDBDICTIONARYWDFLT
  5
E
102
{ACAD_REACTORS
330
C
102
}
330
C
100
AcDbDictionary
281
     1
  3
Normal
350
F
100
AcDbDictionaryWithDefault
340
F
  0
DICTIONARY
  5
47
102
{ACAD_REACTORS
330
C
102
}
330
C
100
AcDbDictionary
281
     1
  3
A0
350
48
  3
A1
350
49
  3
A2
350
4A
  3
A3
350
4B
  3
A4
350
4C
  3
A5
350
4D
  3
A6
350
4E
  3
A7
350
4F
  3
A8
350
50
  3
A9
350
51
  3
B0
350
52
  3
B1
350
53
  3
B2
350
54
  3
B3
350
55
  3
B4
350
56
  3
B5
350
57
  3
B6
350
58
  3
B7
350
59
  3
B8
350
5A
  3
B9
350
5B
  3
C0
350
5C
  3
C1
350
5D
  3
C2
350
5E
  3
C3
350
5F
  3
C4
350
60
  3
C5
350
61
  3
C6
350
62
  3
C7
350
63
  3
C8
350
64
  3
C9
350
65
  3
D0
350
66
  3
D1
350
67
  3
D2
350
68
  0
DICTIONARY
  5
22F
102
{ACAD_REACTORS
330
C
102
}
330
C
100
AcDbDictionary
281
     1
  0
DICTIONARY
  5
69
102
{ACAD_REACTORS
330
C
102
}
330
C
100
AcDbDictionary
281
     1
  3
Standard
350
6A
  0
DICTIONARY
  5
2A
102
{ACAD_REACTORS
330
C
102
}
330
C
100
AcDbDictionary
281
     1
  3
2dWireframe
350
2F
  3
Basic
350
32
  3
Brighten
350
36
  3
ColorChange
350
3A
  3
Conceptual
350
34
  3
Dim
350
35
  3
EdgeColorOff
350
3D
  3
Facepattern
350
39
  3
Flat
350
2B
  3
FlatWithEdges
350
2C
  3
Gouraud
350
2D
  3
GouraudWithEdges
350
2E
  3
Hidden
350
31
  3
JitterOff
350
3B
  3
Linepattern
350
38
  3
OverhangOff
350
3C
  3
Realistic
350
33
  3
Shaded
350
42
  3
Shaded with edges
350
41
  3
Shades of Gray
350
3E
  3
Sketchy
350
3F
  3
Thicken
350
37
  3
Wireframe
350
30
  3
X-Ray
350
40
  0
XRECORD
  5
22B
102
{ACAD_REACTORS
330
C
102
}
330
C
100
AcDbXrecord
280
     1
 90
        1
330
6A
  0
DICTIONARY
  5
227
102
{ACAD_REACTORS
330
C
102
}
330
C
100
AcDbDictionary
281
     1
  3
CANNOSCALE
350
228
  3
CMLEADERSTYLE
350
22D
  3
CTABLESTYLE
350
22C
  0
LAYOUT
  5
1E
102
{ACAD_REACTORS
330
1A
102
}
330
1A
100
AcDbPlotSettings
  1

  2
none_device
  4

  6

 40
0.0
 41
0.0
 42
0.0
 43
0.0
 44
0.0
 45
0.0
 46
0.0
 47
0.0
 48
0.0
 49
0.0
140
0.0
141
0.0
142
1.0
143
1.0
 70
   688
 72
     0
 73
     0
 74
     5
  7

 75
    16
 76
     0
 77
     2
 78
   300
147
1.0
148
0.0
149
0.0
100
AcDbLayout
  1
Layout1
 70
     1
 71
     1
 10
0.0
 20
0.0
 11
12.0
 21
9.0
 12
0.0
 22
0.0
 32
0.0
 14
1.000000000000000E+20
 24
1.000000000000000E+20
 34
1.000000000000000E+20
 15
-1.000000000000000E+20
 25
-1.000000000000000E+20
 35
-1.000000000000000E+20
146
0.0
 13
0.0
 23
0.0
 33
0.0
 16
1.0
 26
0.0
 36
0.0
 17
0.0
 27
1.0
 37
0.0
 76
     0
330
1B
  0
LAYOUT
  5
26
102
{ACAD_REACTORS
330
1A
102
}
330
1A
100
AcDbPlotSettings
  1

  2
none_device
  4

  6

 40
0.0
 41
0.0
 42
0.0
 43
0.0
 44
0.0
 45
0.0
 46
0.0
 47
0.0
 48
0.0
 49
0.0
140
0.0
141
0.0
142
1.0
143
1.0
 70
   688
 72
     0
 73
     0
 74
     5
  7

 75
    16
 76
     0
 77
     2
 78
   300
147
1.0
148
0.0
149
0.0
100
AcDbLayout
  1
Layout2
 70
     1
 71
     2
 10
0.0
 20
0.0
 11
0.0
 21
0.0
 12
0.0
 22
0.0
 32
0.0
 14
0.0
 24
0.0
 34
0.0
 15
0.0
 25
0.0
 35
0.0
146
0.0
 13
0.0
 23
0.0
 33
0.0
 16
1.0
 26
0.0
 36
0.0
 17
0.0
 27
1.0
 37
0.0
 76
     0
330
23
  0
LAYOUT
  5
22
102
{ACAD_REACTORS
330
1A
102
}
330
1A
100
AcDbPlotSettings
  1

  2
none_device
  4
Letter_(8.50_x_11.00_Inches)
  6

 40
6.35
 41
6.35
 42
6.35000508
 43
6.35000508
 44
215.9
 45
279.4
 46
0.0
 47
0.0
 48
0.0
 49
0.0
140
0.0
141
0.0
142
1.0
143
1.0
 70
  1712
 72
     0
 73
     0
 74
     0
  7

 75
     0
 76
     0
 77
     2
 78
   300
147
1.0
148
0.0
149
0.0
100
AcDbLayout
  1
Model
 70
     1
 71
     0
 10
0.0
 20
0.0
 11
12.0
 21
9.0
 12
0.0
 22
0.0
 32
0.0
 14
1.000000000000000E+20
 24
1.000000000000000E+20
 34
1.000000000000000E+20
 15
-1.000000000000000E+20
 25
-1.000000000000000E+20
 35
-1.000000000000000E+20
146
0.0
 13
0.0
 23
0.0
 33
0.0
 16
1.0
 26
0.0
 36
0.0
 17
0.0
 27
1.0
 37
0.0
 76
     0
330
1F
331
29
  0
MATERIAL
  5
45
102
{ACAD_REACTORS
330
43
102
}
330
43
100
AcDbMaterial
  1
ByBlock
 72
     1
 94
      127
  0
MATERIAL
  5
44
102
{ACAD_REACTORS
330
43
102
}
330
43
100
AcDbMaterial
  1
ByLayer
 72
     1
 94
      127
  0
MATERIAL
  5
46
102
{ACAD_REACTORS
330
43
102
}
330
43
100
AcDbMaterial
  1
Global
 72
     1
 94
      127
  0
MLEADERSTYLE
  5
6C
102
{ACAD_REACTORS
330
6B
102
}
330
6B
100
AcDbMLeaderStyle
179
     2
170
     2
171
     1
172
     0
 90
        2
 40
0.0
 41
0.0
173
     1
 91
-1056964608
340
14
 92
       -2
290
     1
 42
0.09
291
     1
 43
0.36
  3
Standard
341
0
 44
0.18
300

342
11
174
     1
178
     6
175
     1
176
     0
 93
-1056964608
 45
0.18
292
     0
297
     0
 46
0.18
343
0
 94
-1056964608
 47
1.0
 49
1.0
140
1.0
293
     1
141
0.0
294
     1
177
     0
142
1.0
295
     0
296
     0
143
0.125
271
     0
272
     9
273
     9
298
     0
  0
MLINESTYLE
  5
18
102
{ACAD_REACTORS
330
17
102
}
330
17
100
AcDbMlineStyle
  2
Standard
 70
     0
  3

 62
   256
 51
90.0
 52
90.0
 71
     2
 49
0.5
 62
   256
  6
BYLAYER
 49
-0.5
 62
   256
  6
BYLAYER
  0
ACDBPLACEHOLDER
  5
F
102
{ACAD_REACTORS
330
E
102
}
330
E
  0
SCALE
  5
48
102
{ACAD_REACTORS
330
47
102
}
330
47
100
AcDbScale
 70
     0
300
1:1
140
1.0
141
1.0
290
     1
  0
SCALE
  5
49
102
{ACAD_REACTORS
330
47
102
}
330
47
100
AcDbScale
 70
     0
300
1:2
140
1.0
141
2.0
290
     0
  0
SCALE
  5
4A
102
{ACAD_REACTORS
330
47
102
}
330
47
100
AcDbScale
 70
     0
300
1:4
140
1.0
141
4.0
290
     0
  0
SCALE
  5
4B
102
{ACAD_REACTORS
330
47
102
}
330
47
100
AcDbScale
 70
     0
300
1:5
140
1.0
141
5.0
290
     0
  0
SCALE
  5
4C
102
{ACAD_REACTORS
330
47
102
}
330
47
100
AcDbScale
 70
     0
300
1:8
140
1.0
141
8.0
290
     0
  0
SCALE
  5
4D
102
{ACAD_REACTORS
330
47
102
}
330
47
100
AcDbScale
 70
     0
300
1:10
140
1.0
141
10.0
290
     0
  0
SCALE
  5
4E
102
{ACAD_REACTORS
330
47
102
}
330
47
100
AcDbScale
 70
     0
300
1:16
140
1.0
141
16.0
290
     0
  0
SCALE
  5
4F
102
{ACAD_REACTORS
330
47
102
}
330
47
100
AcDbScale
 70
     0
300
1:20
140
1.0
141
20.0
290
     0
  0
SCALE
  5
50
102
{ACAD_REACTORS
330
47
102
}
330
47
100
AcDbScale
 70
     0
300
1:30
140
1.0
141
30.0
290
     0
  0
SCALE
  5
51
102
{ACAD_REACTORS
330
47
102
}
330
47
100
AcDbScale
 70
     0
300
1:40
140
1.0
141
40.0
290
     0
  0
SCALE
  5
52
102
{ACAD_REACTORS
330
47
102
}
330
47
100
AcDbScale
 70
     0
300
1:50
140
1.0
141
50.0
290
     0
  0
SCALE
  5
53
102
{ACAD_REACTORS
330
47
102
}
330
47
100
AcDbScale
 70
     0
300
1:100
140
1.0
141
100.0
290
     0
  0
SCALE
  5
54
102
{ACAD_REACTORS
330
47
102
}
330
47
100
AcDbScale
 70
     0
300
2:1
140
2.0
141
1.0
290
     0
  0
SCALE
  5
55
102
{ACAD_REACTORS
330
47
102
}
330
47
100
AcDbScale
 70
     0
300
4:1
140
4.0
141
1.0
290
     0
  0
SCALE
  5
56
102
{ACAD_REACTORS
330
47
102
}
330
47
100
AcDbScale
 70
     0
300
8:1
140
8.0
141
1.0
290
     0
  0
SCALE
  5
57
102
{ACAD_REACTORS
330
47
102
}
330
47
100
AcDbScale
 70
     0
300
10:1
140
10.0
141
1.0
290
     0
  0
SCALE
  5
58
102
{ACAD_REACTORS
330
47
102
}
330
47
100
AcDbScale
 70
     0
300
100:1
140
100.0
141
1.0
290
     0
  0
SCALE
  5
59
102
{ACAD_REACTORS
330
47
102
}
330
47
100
AcDbScale
 70
     0
300
1/128" = 1'-0"
140
0.0078125
141
12.0
290
     0
  0
SCALE
  5
5A
102
{ACAD_REACTORS
330
47
102
}
330
47
100
AcDbScale
 70
     0
300
1/64" = 1'-0"
140
0.015625
141
12.0
290
     0
  0
SCALE
  5
5B
102
{ACAD_REACTORS
330
47
102
}
330
47
100
AcDbScale
 70
     0
300
1/32" = 1'-0"
140
0.03125
141
12.0
290
     0
  0
SCALE
  5
5C
102
{ACAD_REACTORS
330
47
102
}
330
47
100
AcDbScale
 70
     0
300
1/16" = 1'-0"
140
0.0625
141
12.0
290
     0
  0
SCALE
  5
5D
102
{ACAD_REACTORS
330
47
102
}
330
47
100
AcDbScale
 70
     0
300
3/32" = 1'-0"
140
0.09375
141
12.0
290
     0
  0
SCALE
  5
5E
102
{ACAD_REACTORS
330
47
102
}
330
47
100
AcDbScale
 70
     0
300
1/8" = 1'-0"
140
0.125
141
12.0
290
     0
  0
SCALE
  5
5F
102
{ACAD_REACTORS
330
47
102
}
330
47
100
AcDbScale
 70
     0
300
3/16" = 1'-0"
140
0.1875
141
12.0
290
     0
  0
SCALE
  5
60
102
{ACAD_REACTORS
330
47
102
}
330
47
100
AcDbScale
 70
     0
300
1/4" = 1'-0"
140
0.25
141
12.0
290
     0
  0
SCALE
  5
61
102
{ACAD_REACTORS
330
47
102
}
330
47
100
AcDbScale
 70
     0
300
3/8" = 1'-0"
140
0.375
141
12.0
290
     0
  0
SCALE
  5
62
102
{ACAD_REACTORS
330
47
102
}
330
47
100
AcDbScale
 70
     0
300
1/2" = 1'-0"
140
0.5
141
12.0
290
     0
  0
SCALE
  5
63
102
{ACAD_REACTORS
330
47
102
}
330
47
100
AcDbScale
 70
     0
300
3/4" = 1'-0"
140
0.75
141
12.0
290
     0
  0
SCALE
  5
64
102
{ACAD_REACTORS
330
47
102
}
330
47
100
AcDbScale
 70
     0
300
1" = 1'-0"
140
1.0
141
12.0
290
     0
  0
SCALE
  5
65
102
{ACAD_REACTORS
330
47
102
}
330
47
100
AcDbScale
 70
     0
300
1-1/2" = 1'-0"
140
1.5
141
12.0
290
     0
  0
SCALE
  5
66
102
{ACAD_REACTORS
330
47
102
}
330
47
100
AcDbScale
 70
     0
300
3" = 1'-0"
140
3.0
141
12.0
290
     0
  0
SCALE
  5
67
102
{ACAD_REACTORS
330
47
102
}
330
47
100
AcDbScale
 70
     0
300
6" = 1'-0"
140
6.0
141
12.0
290
     0
  0
SCALE
  5
68
102
{ACAD_REACTORS
330
47
102
}
330
47
100
AcDbScale
 70
     0
300
1'-0" = 1'-0"
140
12.0
141
12.0
290
     0
  0
TABLESTYLE
  5
6A
102
{ACAD_REACTORS
330
69
102
}
102
{ACAD_XDICTIONARY
360
229
102
}
330
69
100
AcDbTableStyle
  3
Standard
 70
     0
 71
     0
 40
0.06
 41
0.06
280
     0
281
     0
  7
Standard
140
0.18
170
     2
 62
     0
 63
   257
283
     0
 90
        4
 91
        0
  1

274
    -2
284
     1
 64
     0
275
    -2
285
     1
 65
     0
276
    -2
286
     1
 66
     0
277
    -2
287
     1
 67
     0
278
    -2
288
     1
 68
     0
279
    -2
289
     1
 69
     0
  7
Standard
140
0.25
170
     5
 62
     0
 63
   257
283
     0
 90
        4
 91
        0
  1

274
    -2
284
     1
 64
     0
275
    -2
285
     1
 65
     0
276
    -2
286
     1
 66
     0
277
    -2
287
     1
 67
     0
278
    -2
288
     1
 68
     0
279
    -2
289
     1
 69
     0
  7
Standard
140
0.18
170
     5
 62
     0
 63
   257
283
     0
 90
        4
 91
        0
  1

274
    -2
284
     1
 64
     0
275
    -2
285
     1
 65
     0
276
    -2
286
     1
 66
     0
277
    -2
287
     1
 67
     0
278
    -2
288
     1
 68
     0
279
    -2
289
     1
 69
     0
  0
VISUALSTYLE
  5
2F
102
{ACAD_REACTORS
330
2A
102
}
330
2A
100
AcDbVisualStyle
  2
2dWireframe
 70
     4
177
     3
291
     0
 70
    58
 90
        0
176
     1
 90
        2
176
     1
 90
        0
176
     1
 90
        0
176
     1
 40
0.6
176
     1
 40
30.0
176
     1
 62
     7
420
 16777215
176
     1
 90
        1
176
     1
 90
        4
176
     1
 62
     7
176
     1
 62
   257
176
     1
 90
        1
176
     1
 90
        1
176
     1
 40
1.0
176
     1
 90
        0
176
     1
 62
   257
176
     1
 40
1.0
176
     1
 90
        1
176
     1
 90
        6
176
     1
 90
        2
176
     1
 62
     7
176
     1
 90
        5
176
     1
 90
        0
176
     1
 90
        0
176
     1
290
     0
176
     1
 90
        1
176
     1
 40
0.0
176
     1
 90
        0
176
     1
290
     1
176
     1
290
     1
176
     1
290
     0
176
     1
290
     0
176
     1
290
     0
176
     1
290
     0
176
     1
290
     0
176
     1
290
     0
176
     1
290
     0
176
     1
 90
       50
176
     1
 40
0.0
176
     1
 40
1.0
176
     1
 90
        0
176
     1
 62
    18
420
        0
176
     1
 90
       50
176
     1
 90
        3
176
     1
 62
     5
420
      255
176
     1
290
     0
176
     1
 90
       50
176
     1
 90
       50
176
     1
 90
       50
176
     1
290
     0
176
     1
 90
       50
176
     1
 62
   256
176
     0
 40
1.0
176
     0
 90
        2
176
     1
  1
strokes_ogs.tif
176
     1
290
     0
176
     1
 40
1.0
176
     1
 40
1.0
176
     1
  0
VISUALSTYLE
  5
32
102
{ACAD_REACTORS
330
2A
102
}
330
2A
100
AcDbVisualStyle
  2
Basic
 70
     7
177
     3
291
     1
 70
    58
 90
        1
176
     1
 90
        0
176
     1
 90
        1
176
     1
 90
        0
176
     1
 40
0.6
176
     1
 40
30.0
176
     1
 62
     7
420
 16777215
176
     1
 90
        0
176
     1
 90
        4
176
     1
 62
     7
176
     1
 62
   257
176
     1
 90
        1
176
     1
 90
        1
176
     1
 40
1.0
176
     1
 90
        8
176
     1
 62
     7
176
     1
 40
1.0
176
     1
 90
        1
176
     1
 90
        6
176
     1
 90
        2
176
     1
 62
     7
176
     1
 90
        5
176
     1
 90
        0
176
     1
 90
        0
176
     1
290
     0
176
     1
 90
        1
176
     1
 40
0.0
176
     1
 90
        0
176
     1
290
     0
176
     1
290
     1
176
     1
290
     1
176
     1
290
     0
176
     1
290
     0
176
     1
290
     0
176
     1
290
     0
176
     1
290
     0
176
     1
290
     0
176
     1
 90
       50
176
     1
 40
0.0
176
     1
 40
1.0
176
     1
 90
        0
176
     1
 62
    18
420
        0
176
     1
 90
       50
176
     1
 90
        3
176
     1
 62
     5
420
      255
176
     1
290
     0
176
     1
 90
       50
176
     1
 90
       50
176
     1
 90
       50
176
     1
290
     0
176
     1
 90
       50
176
     1
 62
   256
176
     0
 40
1.0
176
     0
 90
        2
176
     1
  1
strokes_ogs.tif
176
     1
290
     0
176
     1
 40
1.0
176
     1
 40
1.0
176
     1
  0
VISUALSTYLE
  5
36
102
{ACAD_REACTORS
330
2A
102
}
330
2A
100
AcDbVisualStyle
  2
Brighten
 70
    12
177
     3
291
     1
 70
    58
 90
        2
176
     1
 90
        2
176
     1
 90
        0
176
     1
 90
        0
176
     1
 40
0.6
176
     1
 40
30.0
176
     1
 62
     7
420
 16777215
176
     1
 90
        1
176
     1
 90
        4
176
     1
 62
     7
176
     1
 62
   257
176
     1
 90
        1
176
     1
 90
        1
176
     1
 40
1.0
176
     1
 90
        8
176
     1
 62
     7
176
     1
 40
1.0
176
     1
 90
        1
176
     1
 90
        6
176
     1
 90
        2
176
     1
 62
     7
176
     1
 90
        5
176
     1
 90
        0
176
     1
 90
        0
176
     1
290
     0
176
     1
 90
        1
176
     1
 40
50.0
176
     1
 90
        0
176
     1
290
     0
176
     1
290
     1
176
     1
290
     1
176
     1
290
     0
176
     1
290
     0
176
     1
290
     0
176
     1
290
     0
176
     1
290
     0
176
     1
290
     0
176
     1
 90
       50
176
     1
 40
0.0
176
     1
 40
1.0
176
     1
 90
        0
176
     1
 62
    18
420
        0
176
     1
 90
       50
176
     1
 90
        3
176
     1
 62
     5
420
      255
176
     1
290
     0
176
     1
 90
       50
176
     1
 90
       50
176
     1
 90
       50
176
     1
290
     0
176
     1
 90
       50
176
     1
 62
   256
176
     0
 40
1.0
176
     0
 90
        2
176
     1
  1
strokes_ogs.tif
176
     1
290
     0
176
     1
 40
1.0
176
     1
 40
1.0
176
     1
  0
VISUALSTYLE
  5
3A
102
{ACAD_REACTORS
330
2A
102
}
330
2A
100
AcDbVisualStyle
  2
ColorChange
 70
    16
177
     3
291
     1
 70
    58
 90
        2
176
     1
 90
        2
176
     1
 90
        3
176
     1
 90
        0
176
     1
 40
0.6
176
     1
 40
30.0
176
     1
 62
     8
420
  8421504
176
     1
 90
        1
176
     1
 90
        4
176
     1
 62
     7
176
     1
 62
   257
176
     1
 90
        1
176
     1
 90
        1
176
     1
 40
1.0
176
     1
 90
        8
176
     1
 62
     8
420
  8421504
176
     1
 40
1.0
176
     1
 90
        1
176
     1
 90
        6
176
     1
 90
        2
176
     1
 62
     7
176
     1
 90
        5
176
     1
 90
        0
176
     1
 90
        0
176
     1
290
     0
176
     1
 90
        1
176
     1
 40
0.0
176
     1
 90
        0
176
     1
290
     0
176
     1
290
     1
176
     1
290
     1
176
     1
290
     0
176
     1
290
     0
176
     1
290
     0
176
     1
290
     0
176
     1
290
     0
176
     1
290
     0
176
     1
 90
       50
176
     1
 40
0.0
176
     1
 40
1.0
176
     1
 90
        0
176
     1
 62
    18
420
        0
176
     1
 90
       50
176
     1
 90
        3
176
     1
 62
     5
420
      255
176
     1
290
     0
176
     1
 90
       50
176
     1
 90
       50
176
     1
 90
       50
176
     1
290
     0
176
     1
 90
       50
176
     1
 62
   256
176
     0
 40
1.0
176
     0
 90
        2
176
     1
  1
strokes_ogs.tif
176
     1
290
     0
176
     1
 40
1.0
176
     1
 40
1.0
176
     1
  0
VISUALSTYLE
  5
34
102
{ACAD_REACTORS
330
2A
102
}
330
2A
100
AcDbVisualStyle
  2
Conceptual
 70
     9
177
     3
291
     0
 70
    58
 90
        3
176
     1
 90
        2
176
     1
 90
        0
176
     1
 90
        0
176
     1
 40
0.6
176
     1
 40
30.0
176
     1
 62
     7
420
 16777215
176
     1
 90
        2
176
     1
 90
        2
176
     1
 62
     7
176
     1
 62
   257
176
     1
 90
        1
176
     1
 90
        1
176
     1
 40
179.0
176
     1
 90
        8
176
     1
 62
     7
176
     1
 40
1.0
176
     1
 90
        1
176
     1
 90
        6
176
     1
 90
        2
176
     1
 62
     7
176
     1
 90
        3
176
     1
 90
        0
176
     1
 90
        0
176
     1
290
     0
176
     1
 90
        1
176
     1
 40
0.0
176
     1
 90
        0
176
     1
290
     0
176
     1
290
     1
176
     1
290
     1
176
     1
290
     0
176
     1
290
     0
176
     1
290
     0
176
     1
290
     0
176
     1
290
     0
176
     1
290
     0
176
     1
 90
       50
176
     1
 40
0.0
176
     1
 40
1.0
176
     1
 90
        0
176
     1
 62
    18
420
        0
176
     1
 90
       50
176
     1
 90
        3
176
     1
 62
     5
420
      255
176
     1
290
     0
176
     1
 90
       50
176
     1
 90
       50
176
     1
 90
       50
176
     1
290
     0
176
     1
 90
       50
176
     1
 62
   256
176
     0
 40
1.0
176
     0
 90
        2
176
     1
  1
strokes_ogs.tif
176
     1
290
     0
176
     1
 40
1.0
176
     1
 40
1.0
176
     1
  0
VISUALSTYLE
  5
35
102
{ACAD_REACTORS
330
2A
102
}
330
2A
100
AcDbVisualStyle
  2
Dim
 70
    11
177
     3
291
     1
 70
    58
 90
        2
176
     1
 90
        2
176
     1
 90
        0
176
     1
 90
        0
176
     1
 40
0.6
176
     1
 40
30.0
176
     1
 62
     7
420
 16777215
176
     1
 90
        1
176
     1
 90
        4
176
     1
 62
     7
176
     1
 62
   257
176
     1
 90
        1
176
     1
 90
        1
176
     1
 40
1.0
176
     1
 90
        8
176
     1
 62
     7
176
     1
 40
1.0
176
     1
 90
        1
176
     1
 90
        6
176
     1
 90
        2
176
     1
 62
     7
176
     1
 90
        5
176
     1
 90
        0
176
     1
 90
        0
176
     1
290
     0
176
     1
 90
        1
176
     1
 40
-50.0
176
     1
 90
        0
176
     1
290
     0
176
     1
290
     1
176
     1
290
     1
176
     1
290
     0
176
     1
290
     0
176
     1
290
     0
176
     1
290
     0
176
     1
290
     0
176
     1
290
     0
176
     1
 90
       50
176
     1
 40
0.0
176
     1
 40
1.0
176
     1
 90
        0
176
     1
 62
    18
420
        0
176
     1
 90
       50
176
     1
 90
        3
176
     1
 62
     5
420
      255
176
     1
290
     0
176
     1
 90
       50
176
     1
 90
       50
176
     1
 90
       50
176
     1
290
     0
176
     1
 90
       50
176
     1
 62
   256
176
     0
 40
1.0
176
     0
 90
        2
176
     1
  1
strokes_ogs.tif
176
     1
290
     0
176
     1
 40
1.0
176
     1
 40
1.0
176
     1
  0
VISUALSTYLE
  5
3D
102
{ACAD_REACTORS
330
2A
102
}
330
2A
100
AcDbVisualStyle
  2
EdgeColorOff
 70
    22
177
     3
291
     1
 70
    58
 90
        2
176
     0
 90
        2
176
     0
 90
        0
176
     0
 90
        0
176
     0
 40
0.6
176
     0
 40
30.0
176
     0
 62
     7
420
 16777215
176
     0
 90
        1
176
     0
 90
        4
176
     0
 62
     7
176
     0
 62
   257
176
     0
 90
        1
176
     0
 90
        1
176
     0
 40
1.0
176
     0
 90
        8
176
     2
 62
     7
176
     0
 40
1.0
176
     0
 90
        1
176
     0
 90
        6
176
     0
 90
        2
176
     0
 62
     7
176
     0
 90
        5
176
     0
 90
        0
176
     0
 90
        0
176
     0
290
     0
176
     0
 90
        1
176
     0
 40
0.0
176
     0
 90
        0
176
     0
290
     0
176
     0
290
     1
176
     0
290
     1
176
     0
290
     0
176
     0
290
     0
176
     0
290
     0
176
     0
290
     0
176
     0
290
     0
176
     0
290
     0
176
     0
 90
       50
176
     0
 40
0.0
176
     0
 40
1.0
176
     0
 90
        0
176
     0
 62
    18
420
        0
176
     0
 90
       50
176
     0
 90
        3
176
     0
 62
     5
420
      255
176
     0
290
     0
176
     0
 90
       50
176
     0
 90
       50
176
     0
 90
       50
176
     0
290
     0
176
     0
 90
       50
176
     0
 62
   256
176
     0
 40
1.0
176
     0
 90
        2
176
     0
  1
strokes_ogs.tif
176
     0
290
     0
176
     0
 40
1.0
176
     0
 40
1.0
176
     0
  0
VISUALSTYLE
  5
39
102
{ACAD_REACTORS
330
2A
102
}
330
2A
100
AcDbVisualStyle
  2
Facepattern
 70
    15
177
     3
291
     1
 70
    58
 90
        2
176
     1
 90
        2
176
     1
 90
        0
176
     1
 90
        0
176
     1
 40
0.6
176
     1
 40
30.0
176
     1
 62
     7
420
 16777215
176
     1
 90
        1
176
     1
 90
        4
176
     1
 62
     7
176
     1
 62
   257
176
     1
 90
        1
176
     1
 90
        1
176
     1
 40
1.0
176
     1
 90
        8
176
     1
 62
     7
176
     1
 40
1.0
176
     1
 90
        1
176
     1
 90
        6
176
     1
 90
        2
176
     1
 62
     7
176
     1
 90
        5
176
     1
 90
        0
176
     1
 90
        0
176
     1
290
     0
176
     1
 90
        1
176
     1
 40
0.0
176
     1
 90
        0
176
     1
290
     0
176
     1
290
     1
176
     1
290
     1
176
     1
290
     0
176
     1
290
     0
176
     1
290
     0
176
     1
290
     0
176
     1
290
     0
176
     1
290
     0
176
     1
 90
       50
176
     1
 40
0.0
176
     1
 40
1.0
176
     1
 90
        0
176
     1
 62
    18
420
        0
176
     1
 90
       50
176
     1
 90
        3
176
     1
 62
     5
420
      255
176
     1
290
     0
176
     1
 90
       50
176
     1
 90
       50
176
     1
 90
       50
176
     1
290
     0
176
     1
 90
       50
176
     1
 62
   256
176
     0
 40
1.0
176
     0
 90
        2
176
     1
  1
strokes_ogs.tif
176
     1
290
     0
176
     1
 40
1.0
176
     1
 40
1.0
176
     1
  0
VISUALSTYLE
  5
2B
102
{ACAD_REACTORS
330
2A
102
}
330
2A
100
AcDbVisualStyle
  2
Flat
 70
     0
177
     3
291
     1
 70
    58
 90
        2
176
     1
 90
        1
176
     1
 90
        1
176
     1
 90
        2
176
     1
 40
0.6
176
     1
 40
30.0
176
     1
 62
     7
420
 16777215
176
     1
 90
        0
176
     1
 90
        0
176
     1
 62
     7
176
     1
 62
   257
176
     1
 90
        1
176
     1
 90
        1
176
     1
 40
1.0
176
     1
 90
        8
176
     1
 62
     7
176
     1
 40
1.0
176
     1
 90
        1
176
     1
 90
        6
176
     1
 90
        2
176
     1
 62
     7
176
     1
 90
        5
176
     1
 90
        0
176
     1
 90
        0
176
     1
290
     0
176
     1
 90
       13
176
     1
 40
0.0
176
     1
 90
        0
176
     1
290
     0
176
     1
290
     1
176
     1
290
     1
176
     1
290
     0
176
     1
290
     0
176
     1
290
     0
176
     1
290
     0
176
     1
290
     0
176
     1
290
     0
176
     1
 90
       50
176
     1
 40
0.0
176
     1
 40
1.0
176
     1
 90
        0
176
     1
 62
    18
420
        0
176
     1
 90
       50
176
     1
 90
        3
176
     1
 62
     5
420
      255
176
     1
290
     0
176
     1
 90
       50
176
     1
 90
       50
176
     1
 90
       50
176
     1
290
     0
176
     1
 90
       50
176
     1
 62
   256
176
     0
 40
1.0
176
     0
 90
        2
176
     1
  1
strokes_ogs.tif
176
     1
290
     0
176
     1
 40
1.0
176
     1
 40
1.0
176
     1
  0
VISUALSTYLE
  5
2C
102
{ACAD_REACTORS
330
2A
102
}
330
2A
100
AcDbVisualStyle
  2
FlatWithEdges
 70
     1
177
     3
291
     1
 70
    58
 90
        2
176
     1
 90
        1
176
     1
 90
        1
176
     1
 90
        2
176
     1
 40
0.6
176
     1
 40
30.0
176
     1
 62
     7
420
 16777215
176
     1
 90
        1
176
     1
 90
        0
176
     1
 62
     7
176
     1
 62
   257
176
     1
 90
        1
176
     1
 90
        1
176
     1
 40
1.0
176
     1
 90
        0
176
     1
 62
   257
176
     1
 40
1.0
176
     1
 90
        1
176
     1
 90
        6
176
     1
 90
        2
176
     1
 62
     7
176
     1
 90
        5
176
     1
 90
        0
176
     1
 90
        0
176
     1
290
     0
176
     1
 90
       13
176
     1
 40
0.0
176
     1
 90
        0
176
     1
290
     0
176
     1
290
     1
176
     1
290
     1
176
     1
290
     0
176
     1
290
     0
176
     1
290
     0
176
     1
290
     0
176
     1
290
     0
176
     1
290
     0
176
     1
 90
       50
176
     1
 40
0.0
176
     1
 40
1.0
176
     1
 90
        0
176
     1
 62
    18
420
        0
176
     1
 90
       50
176
     1
 90
        3
176
     1
 62
     5
420
      255
176
     1
290
     0
176
     1
 90
       50
176
     1
 90
       50
176
     1
 90
       50
176
     1
290
     0
176
     1
 90
       50
176
     1
 62
   256
176
     0
 40
1.0
176
     0
 90
        2
176
     1
  1
strokes_ogs.tif
176
     1
290
     0
176
     1
 40
1.0
176
     1
 40
1.0
176
     1
  0
VISUALSTYLE
  5
2D
102
{ACAD_REACTORS
330
2A
102
}
330
2A
100
AcDbVisualStyle
  2
Gouraud
 70
     2
177
     3
291
     1
 70
    58
 90
        2
176
     1
 90
        2
176
     1
 90
        1
176
     1
 90
        2
176
     1
 40
0.6
176
     1
 40
30.0
176
     1
 62
     7
420
 16777215
176
     1
 90
        0
176
     1
 90
        0
176
     1
 62
     7
176
     1
 62
   257
176
     1
 90
        1
176
     1
 90
        1
176
     1
 40
1.0
176
     1
 90
        0
176
     1
 62
     7
176
     1
 40
1.0
176
     1
 90
        1
176
     1
 90
        6
176
     1
 90
        2
176
     1
 62
     7
176
     1
 90
        5
176
     1
 90
        0
176
     1
 90
        0
176
     1
290
     0
176
     1
 90
       13
176
     1
 40
0.0
176
     1
 90
        0
176
     1
290
     0
176
     1
290
     1
176
     1
290
     1
176
     1
290
     0
176
     1
290
     0
176
     1
290
     0
176
     1
290
     0
176
     1
290
     0
176
     1
290
     0
176
     1
 90
       50
176
     1
 40
0.0
176
     1
 40
1.0
176
     1
 90
        0
176
     1
 62
    18
420
        0
176
     1
 90
       50
176
     1
 90
        3
176
     1
 62
     5
420
      255
176
     1
290
     0
176
     1
 90
       50
176
     1
 90
       50
176
     1
 90
       50
176
     1
290
     0
176
     1
 90
       50
176
     1
 62
   256
176
     0
 40
1.0
176
     0
 90
        2
176
     1
  1
strokes_ogs.tif
176
     1
290
     0
176
     1
 40
1.0
176
     1
 40
1.0
176
     1
  0
VISUALSTYLE
  5
2E
102
{ACAD_REACTORS
330
2A
102
}
330
2A
100
AcDbVisualStyle
  2
GouraudWithEdges
 70
     3
177
     3
291
     1
 70
    58
 90
        2
176
     1
 90
        2
176
     1
 90
        1
176
     1
 90
        2
176
     1
 40
0.6
176
     1
 40
30.0
176
     1
 62
     7
420
 16777215
176
     1
 90
        1
176
     1
 90
        0
176
     1
 62
     7
176
     1
 62
   257
176
     1
 90
        1
176
     1
 90
        1
176
     1
 40
1.0
176
     1
 90
        0
176
     1
 62
   257
176
     1
 40
1.0
176
     1
 90
        1
176
     1
 90
        6
176
     1
 90
        2
176
     1
 62
     7
176
     1
 90
        5
176
     1
 90
        0
176
     1
 90
        0
176
     1
290
     0
176
     1
 90
       13
176
     1
 40
0.0
176
     1
 90
        0
176
     1
290
     0
176
     1
290
     1
176
     1
290
     1
176
     1
290
     0
176
     1
290
     0
176
     1
290
     0
176
     1
290
     0
176
     1
290
     0
176
     1
290
     0
176
     1
 90
       50
176
     1
 40
0.0
176
     1
 40
1.0
176
     1
 90
        0
176
     1
 62
    18
420
        0
176
     1
 90
       50
176
     1
 90
        3
176
     1
 62
     5
420
      255
176
     1
290
     0
176
     1
 90
       50
176
     1
 90
       50
176
     1
 90
       50
176
     1
290
     0
176
     1
 90
       50
176
     1
 62
   256
176
     0
 40
1.0
176
     0
 90
        2
176
     1
  1
strokes_ogs.tif
176
     1
290
     0
176
     1
 40
1.0
176
     1
 40
1.0
176
     1
  0
VISUALSTYLE
  5
31
102
{ACAD_REACTORS
330
2A
102
}
330
2A
100
AcDbVisualStyle
  2
Hidden
 70
     6
177
     3
291
     0
 70
    58
 90
        1
176
     1
 90
        2
176
     1
 90
        2
176
     1
 90
        0
176
     1
 40
0.6
176
     1
 40
30.0
176
     1
 62
     7
420
 16777215
176
     1
 90
        2
176
     1
 90
        2
176
     1
 62
     7
176
     1
 62
   257
176
     1
 90
        2
176
     1
 90
        1
176
     1
 40
40.0
176
     1
 90
        0
176
     1
 62
   257
176
     1
 40
1.0
176
     1
 90
        1
176
     1
 90
        6
176
     1
 90
        2
176
     1
 62
     7
176
     1
 90
        3
176
     1
 90
        0
176
     1
 90
        0
176
     1
290
     0
176
     1
 90
        1
176
     1
 40
0.0
176
     1
 90
        0
176
     1
290
     0
176
     1
290
     1
176
     1
290
     1
176
     1
290
     0
176
     1
290
     0
176
     1
290
     0
176
     1
290
     0
176
     1
290
     0
176
     1
290
     0
176
     1
 90
       50
176
     1
 40
0.0
176
     1
 40
1.0
176
     1
 90
        0
176
     1
 62
    18
420
        0
176
     1
 90
       50
176
     1
 90
        3
176
     1
 62
     5
420
      255
176
     1
290
     0
176
     1
 90
       50
176
     1
 90
       50
176
     1
 90
       50
176
     1
290
     0
176
     1
 90
       50
176
     1
 62
   256
176
     0
 40
1.0
176
     0
 90
        2
176
     1
  1
strokes_ogs.tif
176
     1
290
     0
176
     1
 40
1.0
176
     1
 40
1.0
176
     1
  0
VISUALSTYLE
  5
3B
102
{ACAD_REACTORS
330
2A
102
}
330
2A
100
AcDbVisualStyle
  2
JitterOff
 70
    20
177
     3
291
     1
 70
    58
 90
        2
176
     0
 90
        2
176
     0
 90
        0
176
     0
 90
        0
176
     0
 40
0.6
176
     0
 40
30.0
176
     0
 62
     7
420
 16777215
176
     0
 90
        1
176
     0
 90
        4
176
     0
 62
     7
176
     0
 62
   257
176
     0
 90
        1
176
     0
 90
        1
176
     0
 40
1.0
176
     0
 90
       10
176
     2
 62
     7
176
     0
 40
1.0
176
     0
 90
        1
176
     0
 90
        6
176
     0
 90
        2
176
     0
 62
     7
176
     0
 90
        5
176
     0
 90
        0
176
     0
 90
        0
176
     0
290
     0
176
     0
 90
        1
176
     0
 40
0.0
176
     0
 90
        0
176
     0
290
     0
176
     0
290
     1
176
     0
290
     1
176
     0
290
     0
176
     0
290
     0
176
     0
290
     0
176
     0
290
     0
176
     0
290
     0
176
     0
290
     0
176
     0
 90
       50
176
     0
 40
0.0
176
     0
 40
1.0
176
     0
 90
        0
176
     0
 62
    18
420
        0
176
     0
 90
       50
176
     0
 90
        3
176
     0
 62
     5
420
      255
176
     0
290
     0
176
     0
 90
       50
176
     0
 90
       50
176
     0
 90
       50
176
     0
290
     0
176
     0
 90
       50
176
     0
 62
   256
176
     0
 40
1.0
176
     0
 90
        2
176
     0
  1
strokes_ogs.tif
176
     0
290
     0
176
     0
 40
1.0
176
     0
 40
1.0
176
     0
  0
VISUALSTYLE
  5
38
102
{ACAD_REACTORS
330
2A
102
}
330
2A
100
AcDbVisualStyle
  2
Linepattern
 70
    14
177
     3
291
     1
 70
    58
 90
        2
176
     1
 90
        2
176
     1
 90
        0
176
     1
 90
        0
176
     1
 40
0.6
176
     1
 40
30.0
176
     1
 62
     7
420
 16777215
176
     1
 90
        1
176
     1
 90
        4
176
     1
 62
     7
176
     1
 62
   257
176
     1
 90
        7
176
     1
 90
        7
176
     1
 40
1.0
176
     1
 90
        8
176
     1
 62
     7
176
     1
 40
1.0
176
     1
 90
        1
176
     1
 90
        6
176
     1
 90
        2
176
     1
 62
     7
176
     1
 90
        5
176
     1
 90
        0
176
     1
 90
        0
176
     1
290
     0
176
     1
 90
        1
176
     1
 40
0.0
176
     1
 90
        0
176
     1
290
     0
176
     1
290
     1
176
     1
290
     1
176
     1
290
     0
176
     1
290
     0
176
     1
290
     0
176
     1
290
     0
176
     1
290
     0
176
     1
290
     0
176
     1
 90
       50
176
     1
 40
0.0
176
     1
 40
1.0
176
     1
 90
        0
176
     1
 62
    18
420
        0
176
     1
 90
       50
176
     1
 90
        3
176
     1
 62
     5
420
      255
176
     1
290
     0
176
     1
 90
       50
176
     1
 90
       50
176
     1
 90
       50
176
     1
290
     0
176
     1
 90
       50
176
     1
 62
   256
176
     0
 40
1.0
176
     0
 90
        2
176
     1
  1
strokes_ogs.tif
176
     1
290
     0
176
     1
 40
1.0
176
     1
 40
1.0
176
     1
  0
VISUALSTYLE
  5
3C
102
{ACAD_REACTORS
330
2A
102
}
330
2A
100
AcDbVisualStyle
  2
OverhangOff
 70
    21
177
     3
291
     1
 70
    58
 90
        2
176
     0
 90
        2
176
     0
 90
        0
176
     0
 90
        0
176
     0
 40
0.6
176
     0
 40
30.0
176
     0
 62
     7
420
 16777215
176
     0
 90
        1
176
     0
 90
        4
176
     0
 62
     7
176
     0
 62
   257
176
     0
 90
        1
176
     0
 90
        1
176
     0
 40
1.0
176
     0
 90
        9
176
     2
 62
     7
176
     0
 40
1.0
176
     0
 90
        1
176
     0
 90
        6
176
     0
 90
        2
176
     0
 62
     7
176
     0
 90
        5
176
     0
 90
        0
176
     0
 90
        0
176
     0
290
     0
176
     0
 90
        1
176
     0
 40
0.0
176
     0
 90
        0
176
     0
290
     0
176
     0
290
     1
176
     0
290
     1
176
     0
290
     0
176
     0
290
     0
176
     0
290
     0
176
     0
290
     0
176
     0
290
     0
176
     0
290
     0
176
     0
 90
       50
176
     0
 40
0.0
176
     0
 40
1.0
176
     0
 90
        0
176
     0
 62
    18
420
        0
176
     0
 90
       50
176
     0
 90
        3
176
     0
 62
     5
420
      255
176
     0
290
     0
176
     0
 90
       50
176
     0
 90
       50
176
     0
 90
       50
176
     0
290
     0
176
     0
 90
       50
176
     0
 62
   256
176
     0
 40
1.0
176
     0
 90
        2
176
     0
  1
strokes_ogs.tif
176
     0
290
     0
176
     0
 40
1.0
176
     0
 40
1.0
176
     0
  0
VISUALSTYLE
  5
33
102
{ACAD_REACTORS
330
2A
102
}
330
2A
100
AcDbVisualStyle
  2
Realistic
 70
     8
177
     3
291
     0
 70
    58
 90
        2
176
     1
 90
        3
176
     1
 90
        0
176
     1
 90
        2
176
     1
 40
0.6
176
     1
 40
30.0
176
     1
 62
     7
420
 16777215
176
     1
 90
        0
176
     1
 90
        0
176
     1
 62
     7
176
     1
 62
   257
176
     1
 90
        1
176
     1
 90
        1
176
     1
 40
1.0
176
     1
 90
        8
176
     1
 62
   257
176
     1
 40
1.0
176
     1
 90
        1
176
     1
 90
        6
176
     1
 90
        2
176
     1
 62
     7
176
     1
 90
        3
176
     1
 90
        0
176
     1
 90
        0
176
     1
290
     0
176
     1
 90
       13
176
     1
 40
0.0
176
     1
 90
        0
176
     1
290
     0
176
     1
290
     1
176
     1
290
     1
176
     1
290
     0
176
     1
290
     0
176
     1
290
     0
176
     1
290
     0
176
     1
290
     0
176
     1
290
     0
176
     1
 90
       50
176
     1
 40
0.0
176
     1
 40
1.0
176
     1
 90
        0
176
     1
 62
    18
420
        0
176
     1
 90
       50
176
     1
 90
        3
176
     1
 62
     5
420
      255
176
     1
290
     0
176
     1
 90
       50
176
     1
 90
       50
176
     1
 90
       50
176
     1
290
     0
176
     1
 90
       50
176
     1
 62
   256
176
     0
 40
1.0
176
     0
 90
        2
176
     1
  1
strokes_ogs.tif
176
     1
290
     0
176
     1
 40
1.0
176
     1
 40
1.0
176
     1
  0
VISUALSTYLE
  5
42
102
{ACAD_REACTORS
330
2A
102
}
330
2A
100
AcDbVisualStyle
  2
Shaded
 70
    27
177
     3
291
     0
 70
    58
 90
        2
176
     1
 90
        2
176
     1
 90
        1
176
     1
 90
        2
176
     1
 40
0.6
176
     1
 40
30.0
176
     1
 62
     7
420
 16777215
176
     1
 90
        0
176
     1
 90
        4
176
     1
 62
     7
176
     1
 62
   257
176
     1
 90
        1
176
     1
 90
        1
176
     1
 40
1.0
176
     1
 90
        8
176
     1
 62
   257
176
     1
 40
1.0
176
     1
 90
        1
176
     1
 90
        6
176
     1
 90
        2
176
     1
 62
     8
420
  7895160
176
     1
 90
        3
176
     1
 90
        0
176
     1
 90
        0
176
     1
290
     0
176
     1
 90
        5
176
     1
 40
0.0
176
     1
 90
        0
176
     1
290
     0
176
     1
290
     1
176
     1
290
     1
176
     1
290
     0
176
     1
290
     0
176
     1
290
     0
176
     1
290
     0
176
     1
290
     0
176
     1
290
     0
176
     1
 90
       50
176
     1
 40
0.0
176
     1
 40
1.0
176
     1
 90
        0
176
     1
 62
    18
420
        0
176
     1
 90
       50
176
     1
 90
        3
176
     1
 62
     5
420
      255
176
     1
290
     0
176
     1
 90
       50
176
     1
 90
       50
176
     1
 90
       50
176
     1
290
     0
176
     1
 90
       50
176
     1
 62
   256
176
     0
 40
1.0
176
     0
 90
        2
176
     1
  1
strokes_ogs.tif
176
     1
290
     0
176
     1
 40
1.0
176
     1
 40
1.0
176
     1
  0
VISUALSTYLE
  5
41
102
{ACAD_REACTORS
330
2A
102
}
330
2A
100
AcDbVisualStyle
  2
Shaded with edges
 70
    26
177
     3
291
     0
 70
    58
 90
        2
176
     1
 90
        2
176
     1
 90
        1
176
     1
 90
        2
176
     1
 40
0.6
176
     1
 40
30.0
176
     1
 62
     7
420
 16777215
176
     1
 90
        1
176
     1
 90
       10
176
     1
 62
     7
176
     1
 62
   257
176
     1
 90
        2
176
     1
 90
        1
176
     1
 40
1.0
176
     1
 90
        8
176
     1
 62
   257
176
     1
 40
1.0
176
     1
 90
        1
176
     1
 90
        6
176
     1
 90
        2
176
     1
 62
     7
176
     1
 90
        3
176
     1
 90
        0
176
     1
 90
        0
176
     1
290
     0
176
     1
 90
        5
176
     1
 40
0.0
176
     1
 90
        0
176
     1
290
     0
176
     1
290
     1
176
     1
290
     1
176
     1
290
     0
176
     1
290
     0
176
     1
290
     0
176
     1
290
     0
176
     1
290
     0
176
     1
290
     0
176
     1
 90
       50
176
     1
 40
0.0
176
     1
 40
1.0
176
     1
 90
        0
176
     1
 62
    18
420
        0
176
     1
 90
       50
176
     1
 90
        3
176
     1
 62
     5
420
      255
176
     1
290
     0
176
     1
 90
       50
176
     1
 90
       50
176
     1
 90
       50
176
     1
290
     0
176
     1
 90
       50
176
     1
 62
   256
176
     0
 40
1.0
176
     0
 90
        2
176
     1
  1
strokes_ogs.tif
176
     1
290
     0
176
     1
 40
1.0
176
     1
 40
1.0
176
     1
  0
VISUALSTYLE
  5
3E
102
{ACAD_REACTORS
330
2A
102
}
330
2A
100
AcDbVisualStyle
  2
Shades of Gray
 70
    23
177
     3
291
     0
 70
    58
 90
        2
176
     1
 90
        2
176
     1
 90
        3
176
     1
 90
        0
176
     1
 40
0.6
176
     1
 40
30.0
176
     1
 62
     7
420
 16777215
176
     1
 90
        2
176
     1
 90
        2
176
     1
 62
     7
176
     1
 62
     7
176
     1
 90
        1
176
     1
 90
        1
176
     1
 40
40.0
176
     1
 90
        8
176
     1
 62
     7
176
     1
 40
1.0
176
     1
 90
        1
176
     1
 90
        6
176
     1
 90
        2
176
     1
 62
     7
176
     1
 90
        3
176
     1
 90
        0
176
     1
 90
        0
176
     1
290
     0
176
     1
 90
        1
176
     1
 40
0.0
176
     1
 90
        0
176
     1
290
     0
176
     1
290
     1
176
     1
290
     1
176
     1
290
     0
176
     1
290
     0
176
     1
290
     0
176
     1
290
     0
176
     1
290
     0
176
     1
290
     0
176
     1
 90
       50
176
     1
 40
0.0
176
     1
 40
1.0
176
     1
 90
        0
176
     1
 62
    18
420
        0
176
     1
 90
       50
176
     1
 90
        3
176
     1
 62
     5
420
      255
176
     1
290
     0
176
     1
 90
       50
176
     1
 90
       50
176
     1
 90
       50
176
     1
290
     0
176
     1
 90
       50
176
     1
 62
   256
176
     0
 40
1.0
176
     0
 90
        2
176
     1
  1
strokes_ogs.tif
176
     1
290
     0
176
     1
 40
1.0
176
     1
 40
1.0
176
     1
  0
VISUALSTYLE
  5
3F
102
{ACAD_REACTORS
330
2A
102
}
330
2A
100
AcDbVisualStyle
  2
Sketchy
 70
    24
177
     3
291
     0
 70
    58
 90
        1
176
     1
 90
        2
176
     1
 90
        2
176
     1
 90
        0
176
     1
 40
0.6
176
     1
 40
30.0
176
     1
 62
     7
420
 16777215
176
     1
 90
        2
176
     1
 90
        2
176
     1
 62
     7
176
     1
 62
     7
176
     1
 90
        1
176
     1
 90
        1
176
     1
 40
40.0
176
     1
 90
       11
176
     1
 62
     7
176
     1
 40
1.0
176
     1
 90
        1
176
     1
 90
        6
176
     1
 90
        2
176
     1
 62
     7
176
     1
 90
        6
176
     1
 90
        0
176
     1
 90
        0
176
     1
290
     0
176
     1
 90
        1
176
     1
 40
0.0
176
     1
 90
        0
176
     1
290
     0
176
     1
290
     1
176
     1
290
     1
176
     1
290
     0
176
     1
290
     0
176
     1
290
     0
176
     1
290
     0
176
     1
290
     0
176
     1
290
     0
176
     1
 90
       50
176
     1
 40
0.0
176
     1
 40
1.0
176
     1
 90
        0
176
     1
 62
    18
420
        0
176
     1
 90
       50
176
     1
 90
        3
176
     1
 62
     5
420
      255
176
     1
290
     0
176
     1
 90
       50
176
     1
 90
       50
176
     1
 90
       50
176
     1
290
     0
176
     1
 90
       50
176
     1
 62
   256
176
     0
 40
1.0
176
     0
 90
        2
176
     1
  1
strokes_ogs.tif
176
     1
290
     0
176
     1
 40
1.0
176
     1
 40
1.0
176
     1
  0
VISUALSTYLE
  5
37
102
{ACAD_REACTORS
330
2A
102
}
330
2A
100
AcDbVisualStyle
  2
Thicken
 70
    13
177
     3
291
     1
 70
    58
 90
        2
176
     1
 90
        2
176
     1
 90
        0
176
     1
 90
        0
176
     1
 40
0.6
176
     1
 40
30.0
176
     1
 62
     7
420
 16777215
176
     1
 90
        1
176
     1
 90
        4
176
     1
 62
     7
176
     1
 62
   257
176
     1
 90
        1
176
     1
 90
        1
176
     1
 40
1.0
176
     1
 90
       12
176
     1
 62
     7
176
     1
 40
1.0
176
     1
 90
        1
176
     1
 90
        6
176
     1
 90
        2
176
     1
 62
     7
176
     1
 90
        5
176
     1
 90
        0
176
     1
 90
        0
176
     1
290
     0
176
     1
 90
        1
176
     1
 40
0.0
176
     1
 90
        0
176
     1
290
     0
176
     1
290
     1
176
     1
290
     1
176
     1
290
     0
176
     1
290
     0
176
     1
290
     0
176
     1
290
     0
176
     1
290
     0
176
     1
290
     0
176
     1
 90
       50
176
     1
 40
0.0
176
     1
 40
1.0
176
     1
 90
        0
176
     1
 62
    18
420
        0
176
     1
 90
       50
176
     1
 90
        3
176
     1
 62
     5
420
      255
176
     1
290
     0
176
     1
 90
       50
176
     1
 90
       50
176
     1
 90
       50
176
     1
290
     0
176
     1
 90
       50
176
     1
 62
   256
176
     0
 40
1.0
176
     0
 90
        2
176
     1
  1
strokes_ogs.tif
176
     1
290
     0
176
     1
 40
1.0
176
     1
 40
1.0
176
     1
  0
VISUALSTYLE
  5
30
102
{ACAD_REACTORS
330
2A
102
}
330
2A
100
AcDbVisualStyle
  2
Wireframe
 70
     5
177
     3
291
     0
 70
    58
 90
        0
176
     1
 90
        2
176
     1
 90
        0
176
     1
 90
        0
176
     1
 40
0.6
176
     1
 40
30.0
176
     1
 62
     7
420
 16777215
176
     1
 90
        1
176
     1
 90
        4
176
     1
 62
     7
176
     1
 62
   257
176
     1
 90
        1
176
     1
 90
        1
176
     1
 40
1.0
176
     1
 90
        0
176
     1
 62
   257
176
     1
 40
1.0
176
     1
 90
        1
176
     1
 90
        6
176
     1
 90
        2
176
     1
 62
     7
176
     1
 90
        3
176
     1
 90
        0
176
     1
 90
        0
176
     1
290
     0
176
     1
 90
        1
176
     1
 40
0.0
176
     1
 90
        0
176
     1
290
     0
176
     1
290
     1
176
     1
290
     1
176
     1
290
     0
176
     1
290
     0
176
     1
290
     0
176
     1
290
     0
176
     1
290
     0
176
     1
290
     0
176
     1
 90
       50
176
     1
 40
0.0
176
     1
 40
1.0
176
     1
 90
        0
176
     1
 62
    18
420
        0
176
     1
 90
       50
176
     1
 90
        3
176
     1
 62
     5
420
      255
176
     1
290
     0
176
     1
 90
       50
176
     1
 90
       50
176
     1
 90
       50
176
     1
290
     0
176
     1
 90
       50
176
     1
 62
   256
176
     0
 40
1.0
176
     0
 90
        2
176
     1
  1
strokes_ogs.tif
176
     1
290
     0
176
     1
 40
1.0
176
     1
 40
1.0
176
     1
  0
VISUALSTYLE
  5
40
102
{ACAD_REACTORS
330
2A
102
}
330
2A
100
AcDbVisualStyle
  2
X-Ray
 70
    25
177
     3
291
     0
 70
    58
 90
        2
176
     1
 90
        2
176
     1
 90
        1
176
     1
 90
        1
176
     1
 40
0.5
176
     1
 40
30.0
176
     1
 62
     7
420
 16777215
176
     1
 90
        1
176
     1
 90
        0
176
     1
 62
     7
176
     1
 62
   257
176
     1
 90
        1
176
     1
 90
        1
176
     1
 40
1.0
176
     1
 90
        8
176
     1
 62
     7
176
     1
 40
1.0
176
     1
 90
        1
176
     1
 90
        6
176
     1
 90
        2
176
     1
 62
     7
176
     1
 90
        3
176
     1
 90
        0
176
     1
 90
        0
176
     1
290
     0
176
     1
 90
       13
176
     1
 40
0.0
176
     1
 90
        0
176
     1
290
     0
176
     1
290
     1
176
     1
290
     1
176
     1
290
     0
176
     1
290
     0
176
     1
290
     0
176
     1
290
     0
176
     1
290
     0
176
     1
290
     0
176
     1
 90
       50
176
     1
 40
0.0
176
     1
 40
1.0
176
     1
 90
        0
176
     1
 62
    18
420
        0
176
     1
 90
       50
176
     1
 90
        3
176
     1
 62
     5
420
      255
176
     1
290
     0
176
     1
 90
       50
176
     1
 90
       50
176
     1
 90
       50
176
     1
290
     0
176
     1
 90
       50
176
     1
 62
   256
176
     0
 40
1.0
176
     0
 90
        2
176
     1
  1
strokes_ogs.tif
176
     1
290
     0
176
     1
 40
1.0
176
     1
 40
1.0
176
     1
  0
DICTIONARYVAR
  5
228
102
{ACAD_REACTORS
330
227
102
}
330
227
100
DictionaryVariables
280
     0
  1
1:1
  0
DICTIONARYVAR
  5
22D
102
{ACAD_REACTORS
330
227
102
}
330
227
100
DictionaryVariables
280
     0
  1
Standard
  0
DICTIONARYVAR
  5
22C
102
{ACAD_REACTORS
330
227
102
}
330
227
100
DictionaryVariables
280
     0
  1
Standard
  0
DICTIONARY
  5
229
330
6A
100
AcDbDictionary
280
     1
281
     1
  3
ACAD_ROUNDTRIP_2008_TABLESTYLE_CELLSTYLEMAP
360
22A
  0
CELLSTYLEMAP
  5
22A
102
{ACAD_REACTORS
330
229
102
}
330
229
100
AcDbCellStyleMap
 90
        3
300
CELLSTYLE
  1
TABLEFORMAT_BEGIN
 90
        5
170
     1
 91
        0
 92
    32768
 62
   257
 93
        1
300
CONTENTFORMAT
  1
CONTENTFORMAT_BEGIN
 90
        0
 91
        0
 92
        4
 93
        0
300

 40
0.0
140
1.0
 94
        5
 62
     0
340
11
144
0.25
309
CONTENTFORMAT_END
171
     1
301
MARGIN
  1
CELLMARGIN_BEGIN
 40
0.06
 40
0.06
 40
0.06
 40
0.06
 40
0.06
 40
0.06
309
CELLMARGIN_END
 94
        6
 95
        1
302
GRIDFORMAT
  1
GRIDFORMAT_BEGIN
 90
        0
 91
        1
 62
     0
 92
       -2
340
14
 93
        0
 40
0.045
309
GRIDFORMAT_END
 95
        2
302
GRIDFORMAT
  1
GRIDFORMAT_BEGIN
 90
        0
 91
        1
 62
     0
 92
       -2
340
14
 93
        0
 40
0.045
309
GRIDFORMAT_END
 95
        4
302
GRIDFORMAT
  1
GRIDFORMAT_BEGIN
 90
        0
 91
        1
 62
     0
 92
       -2
340
14
 93
        0
 40
0.045
309
GRIDFORMAT_END
 95
        8
302
GRIDFORMAT
  1
GRIDFORMAT_BEGIN
 90
        0
 91
        1
 62
     0
 92
       -2
340
14
 93
        0
 40
0.045
309
GRIDFORMAT_END
 95
       16
302
GRIDFORMAT
  1
GRIDFORMAT_BEGIN
 90
        0
 91
        1
 62
     0
 92
       -2
340
14
 93
        0
 40
0.045
309
GRIDFORMAT_END
 95
       32
302
GRIDFORMAT
  1
GRIDFORMAT_BEGIN
 90
        0
 91
        1
 62
     0
 92
       -2
340
14
 93
        0
 40
0.045
309
GRIDFORMAT_END
309
TABLEFORMAT_END
  1
CELLSTYLE_BEGIN
 90
        1
 91
        1
300
_TITLE
309
CELLSTYLE_END
300
CELLSTYLE
  1
TABLEFORMAT_BEGIN
 90
        5
170
     1
 91
        0
 92
        0
 62
   257
 93
        1
300
CONTENTFORMAT
  1
CONTENTFORMAT_BEGIN
 90
        0
 91
        0
 92
        4
 93
        0
300

 40
0.0
140
1.0
 94
        5
 62
     0
340
11
144
0.18
309
CONTENTFORMAT_END
171
     1
301
MARGIN
  1
CELLMARGIN_BEGIN
 40
0.06
 40
0.06
 40
0.06
 40
0.06
 40
0.06
 40
0.06
309
CELLMARGIN_END
 94
        6
 95
        1
302
GRIDFORMAT
  1
GRIDFORMAT_BEGIN
 90
        0
 91
        1
 62
     0
 92
       -2
340
14
 93
        0
 40
0.045
309
GRIDFORMAT_END
 95
        2
302
GRIDFORMAT
  1
GRIDFORMAT_BEGIN
 90
        0
 91
        1
 62
     0
 92
       -2
340
14
 93
        0
 40
0.045
309
GRIDFORMAT_END
 95
        4
302
GRIDFORMAT
  1
GRIDFORMAT_BEGIN
 90
        0
 91
        1
 62
     0
 92
       -2
340
14
 93
        0
 40
0.045
309
GRIDFORMAT_END
 95
        8
302
GRIDFORMAT
  1
GRIDFORMAT_BEGIN
 90
        0
 91
        1
 62
     0
 92
       -2
340
14
 93
        0
 40
0.045
309
GRIDFORMAT_END
 95
       16
302
GRIDFORMAT
  1
GRIDFORMAT_BEGIN
 90
        0
 91
        1
 62
     0
 92
       -2
340
14
 93
        0
 40
0.045
309
GRIDFORMAT_END
 95
       32
302
GRIDFORMAT
  1
GRIDFORMAT_BEGIN
 90
        0
 91
        1
 62
     0
 92
       -2
340
14
 93
        0
 40
0.045
309
GRIDFORMAT_END
309
TABLEFORMAT_END
  1
CELLSTYLE_BEGIN
 90
        2
 91
        1
300
_HEADER
309
CELLSTYLE_END
300
CELLSTYLE
  1
TABLEFORMAT_BEGIN
 90
        5
170
     1
 91
        0
 92
        0
 62
   257
 93
        1
300
CONTENTFORMAT
  1
CONTENTFORMAT_BEGIN
 90
        0
 91
        0
 92
        4
 93
        0
300

 40
0.0
140
1.0
 94
        2
 62
     0
340
11
144
0.18
309
CONTENTFORMAT_END
171
     1
301
MARGIN
  1
CELLMARGIN_BEGIN
 40
0.06
 40
0.06
 40
0.06
 40
0.06
 40
0.06
 40
0.06
309
CELLMARGIN_END
 94
        6
 95
        1
302
GRIDFORMAT
  1
GRIDFORMAT_BEGIN
 90
        0
 91
        1
 62
     0
 92
       -2
340
14
 93
        0
 40
0.045
309
GRIDFORMAT_END
 95
        2
302
GRIDFORMAT
  1
GRIDFORMAT_BEGIN
 90
        0
 91
        1
 62
     0
 92
       -2
340
14
 93
        0
 40
0.045
309
GRIDFORMAT_END
 95
        4
302
GRIDFORMAT
  1
GRIDFORMAT_BEGIN
 90
        0
 91
        1
 62
     0
 92
       -2
340
14
 93
        0
 40
0.045
309
GRIDFORMAT_END
 95
        8
302
GRIDFORMAT
  1
GRIDFORMAT_BEGIN
 90
        0
 91
        1
 62
     0
 92
       -2
340
14
 93
        0
 40
0.045
309
GRIDFORMAT_END
 95
       16
302
GRIDFORMAT
  1
GRIDFORMAT_BEGIN
 90
        0
 91
        1
 62
     0
 92
       -2
340
14
 93
        0
 40
0.045
309
GRIDFORMAT_END
 95
       32
302
GRIDFORMAT
  1
GRIDFORMAT_BEGIN
 90
        0
 91
        1
 62
     0
 92
       -2
340
14
 93
        0
 40
0.045
309
GRIDFORMAT_END
309
TABLEFORMAT_END
  1
CELLSTYLE_BEGIN
 90
        3
 91
        2
300
_DATA
309
CELLSTYLE_END
  0
ENDSEC
  0
EOF