0
SECTION
  2
HEADER
  9
$ACADVER
  1
AC1027
  9
$ACADMAINTVER
 70
     8
  9
$DWGCODEPAGE
  3
ANSI_1252
  9
$REQUIREDVERSIONS
160
                 0
  9
$COMMENTS
  1
File was created by Cadenas
  9
$CUSTOMPROPERTYTAG
  1
NN
  9
$CUSTOMPROPERTY
  1
Double-Interlock 4-Bolt Flange  Expansion Inch Bore
  9
$CUSTOMPROPERTYTAG
  1
NT
  9
$CUSTOMPROPERTY
  1
Double-Interlock Flange Bearings
  9
$CUSTOMPROPERTYTAG
  1
NB
  9
$CUSTOMPROPERTY
  1
023464
  9
$CUSTOMPROPERTYTAG
  1
NBSYN
  9
$CUSTOMPROPERTY
  1
$PN.
  9
$CUSTOMPROPERTYTAG
  1
LINA
  9
$CUSTOMPROPERTY
  1
023464
  9
$CUSTOMPROPERTYTAG
  1
SS
  9
$CUSTOMPROPERTY
  1
2-7/16
  9
$CUSTOMPROPERTYTAG
  1
PN
  9
$CUSTOMPROPERTY
  1
023464
  9
$CUSTOMPROPERTYTAG
  1
DESCRIPTION
  9
$CUSTOMPROPERTY
  1
F4B-DI-207RE
  9
$CUSTOMPROPERTYTAG
  1
EF
  9
$CUSTOMPROPERTY
  1
Expansion Type
  9
$CUSTOMPROPERTYTAG
  1
A
  9
$CUSTOMPROPERTY
  1
4
  9
$CUSTOMPROPERTYTAG
  1
B
  9
$CUSTOMPROPERTY
  1
7-5/8
  9
$CUSTOMPROPERTYTAG
  1
C
  9
$CUSTOMPROPERTY
  1
2-15/16
  9
$CUSTOMPROPERTYTAG
  1
D
  9
$CUSTOMPROPERTY
  1
8-1/2
  9
$CUSTOMPROPERTYTAG
  1
E
  9
$CUSTOMPROPERTY
  1
7/16
  9
$CUSTOMPROPERTYTAG
  1
F
  9
$CUSTOMPROPERTY
  1
5/8
  9
$CUSTOMPROPERTYTAG
  1
G
  9
$CUSTOMPROPERTY
  1
8-9/16
  9
$CUSTOMPROPERTYTAG
  1
H
  9
$CUSTOMPROPERTY
  1
5/8
  9
$CUSTOMPROPERTYTAG
  1
J
  9
$CUSTOMPROPERTY
  1
6
  9
$CUSTOMPROPERTYTAG
  1
L
  9
$CUSTOMPROPERTY
  1
4-1/16
  9
$CUSTOMPROPERTYTAG
  1
T
  9
$CUSTOMPROPERTY
  1
5/16
  9
$CUSTOMPROPERTYTAG
  1
COMPANY
  9
$CUSTOMPROPERTY
  1
baldor
  9
$INSBASE
 10
0.0
 20
0.0
 30
0.0
  9
$EXTMIN
 10
1.000000000000000E+20
 20
1.000000000000000E+20
 30
1.000000000000000E+20
  9
$EXTMAX
 10
-1.000000000000000E+20
 20
-1.000000000000000E+20
 30
-1.000000000000000E+20
  9
$LIMMIN
 10
0.0
 20
0.0
  9
$LIMMAX
 10
12.0
 20
9.0
  9
$ORTHOMODE
 70
     0
  9
$REGENMODE
 70
     1
  9
$FILLMODE
 70
     1
  9
$QTEXTMODE
 70
     0
  9
$MIRRTEXT
 70
     1
  9
$LTSCALE
 40
1.0
  9
$ATTMODE
 70
     1
  9
$TEXTSIZE
 40
0.2
  9
$TRACEWID
 40
0.05
  9
$TEXTSTYLE
  7
Standard
  9
$CLAYER
  8
0
  9
$CELTYPE
  6
ByLayer
  9
$CECOLOR
 62
   256
  9
$CELTSCALE
 40
1.0
  9
$DISPSILH
 70
     0
  9
$DIMSCALE
 40
1.0
  9
$DIMASZ
 40
0.18
  9
$DIMEXO
 40
0.0625
  9
$DIMDLI
 40
0.38
  9
$DIMRND
 40
0.0
  9
$DIMDLE
 40
0.0
  9
$DIMEXE
 40
0.18
  9
$DIMTP
 40
0.0
  9
$DIMTM
 40
0.0
  9
$DIMTXT
 40
0.18
  9
$DIMCEN
 40
0.09
  9
$DIMTSZ
 40
0.0
  9
$DIMTOL
 70
     0
  9
$DIMLIM
 70
     0
  9
$DIMTIH
 70
     1
  9
$DIMTOH
 70
     1
  9
$DIMSE1
 70
     0
  9
$DIMSE2
 70
     0
  9
$DIMTAD
 70
     0
  9
$DIMZIN
 70
     0
  9
$DIMBLK
  1

  9
$DIMASO
 70
     1
  9
$DIMSHO
 70
     1
  9
$DIMPOST
  1

  9
$DIMAPOST
  1

  9
$DIMALT
 70
     0
  9
$DIMALTD
 70
     2
  9
$DIMALTF
 40
25.4
  9
$DIMLFAC
 40
1.0
  9
$DIMTOFL
 70
     0
  9
$DIMTVP
 40
0.0
  9
$DIMTIX
 70
     0
  9
$DIMSOXD
 70
     0
  9
$DIMSAH
 70
     0
  9
$DIMBLK1
  1

  9
$DIMBLK2
  1

  9
$DIMSTYLE
  2
Standard
  9
$DIMCLRD
 70
     0
  9
$DIMCLRE
 70
     0
  9
$DIMCLRT
 70
     0
  9
$DIMTFAC
 40
1.0
  9
$DIMGAP
 40
0.09
  9
$DIMJUST
 70
     0
  9
$DIMSD1
 70
     0
  9
$DIMSD2
 70
     0
  9
$DIMTOLJ
 70
     1
  9
$DIMTZIN
 70
     0
  9
$DIMALTZ
 70
     0
  9
$DIMALTTZ
 70
     0
  9
$DIMUPT
 70
     0
  9
$DIMDEC
 70
     4
  9
$DIMTDEC
 70
     4
  9
$DIMALTU
 70
     2
  9
$DIMALTTD
 70
     2
  9
$DIMTXSTY
  7
Standard
  9
$DIMAUNIT
 70
     0
  9
$DIMADEC
 70
     0
  9
$DIMALTRND
 40
0.0
  9
$DIMAZIN
 70
     0
  9
$DIMDSEP
 70
    46
  9
$DIMATFIT
 70
     3
  9
$DIMFRAC
 70
     0
  9
$DIMLDRBLK
  1

  9
$DIMLUNIT
 70
     2
  9
$DIMLWD
 70
    -2
  9
$DIMLWE
 70
    -2
  9
$DIMTMOVE
 70
     0
  9
$DIMFXL
 40
1.0
  9
$DIMFXLON
 70
     0
  9
$DIMJOGANG
 40
0.7853981633974483
  9
$DIMTFILL
 70
     0
  9
$DIMTFILLCLR
 70
     0
  9
$DIMARCSYM
 70
     0
  9
$DIMLTYPE
  6

  9
$DIMLTEX1
  6

  9
$DIMLTEX2
  6

  9
$DIMTXTDIRECTION
 70
     0
  9
$LUNITS
 70
     2
  9
$LUPREC
 70
     4
  9
$SKETCHINC
 40
0.1
  9
$FILLETRAD
 40
0.5
  9
$AUNITS
 70
     0
  9
$AUPREC
 70
     0
  9
$MENU
  1
.
  9
$ELEVATION
 40
0.0
  9
$PELEVATION
 40
0.0
  9
$THICKNESS
 40
0.0
  9
$LIMCHECK
 70
     0
  9
$CHAMFERA
 40
0.0
  9
$CHAMFERB
 40
0.0
  9
$CHAMFERC
 40
0.0
  9
$CHAMFERD
 40
0.0
  9
$SKPOLY
 70
     0
  9
$TDCREATE
 40
2458168.9793725
  9
$TDUCREATE
 40
2458168.937705833
  9
$TDUPDATE
 40
2458168.979372674
  9
$TDUUPDATE
 40
2458168.937706007
  9
$TDINDWG
 40
0.0000000116
  9
$TDUSRTIMER
 40
0.0000000116
  9
$USRTIMER
 70
     1
  9
$ANGBASE
 50
0.0
  9
$ANGDIR
 70
     0
  9
$PDMODE
 70
     0
  9
$PDSIZE
 40
0.0
  9
$PLINEWID
 40
0.0
  9
$SPLFRAME
 70
     0
  9
$SPLINETYPE
 70
     6
  9
$SPLINESEGS
 70
     8
  9
$HANDSEED
  5
204
  9
$SURFTAB1
 70
     6
  9
$SURFTAB2
 70
     6
  9
$SURFTYPE
 70
     6
  9
$SURFU
 70
     6
  9
$SURFV
 70
     6
  9
$UCSBASE
  2

  9
$UCSNAME
  2

  9
$UCSORG
 10
0.0
 20
0.0
 30
0.0
  9
$UCSXDIR
 10
1.0
 20
0.0
 30
0.0
  9
$UCSYDIR
 10
0.0
 20
1.0
 30
0.0
  9
$UCSORTHOREF
  2

  9
$UCSORTHOVIEW
 70
     0
  9
$UCSORGTOP
 10
0.0
 20
0.0
 30
0.0
  9
$UCSORGBOTTOM
 10
0.0
 20
0.0
 30
0.0
  9
$UCSORGLEFT
 10
0.0
 20
0.0
 30
0.0
  9
$UCSORGRIGHT
 10
0.0
 20
0.0
 30
0.0
  9
$UCSORGFRONT
 10
0.0
 20
0.0
 30
0.0
  9
$UCSORGBACK
 10
0.0
 20
0.0
 30
0.0
  9
$PUCSBASE
  2

  9
$PUCSNAME
  2

  9
$PUCSORG
 10
0.0
 20
0.0
 30
0.0
  9
$PUCSXDIR
 10
1.0
 20
0.0
 30
0.0
  9
$PUCSYDIR
 10
0.0
 20
1.0
 30
0.0
  9
$PUCSORTHOREF
  2

  9
$PUCSORTHOVIEW
 70
     0
  9
$PUCSORGTOP
 10
0.0
 20
0.0
 30
0.0
  9
$PUCSORGBOTTOM
 10
0.0
 20
0.0
 30
0.0
  9
$PUCSORGLEFT
 10
0.0
 20
0.0
 30
0.0
  9
$PUCSORGRIGHT
 10
0.0
 20
0.0
 30
0.0
  9
$PUCSORGFRONT
 10
0.0
 20
0.0
 30
0.0
  9
$PUCSORGBACK
 10
0.0
 20
0.0
 30
0.0
  9
$USERI1
 70
     0
  9
$USERI2
 70
     0
  9
$USERI3
 70
     0
  9
$USERI4
 70
     0
  9
$USERI5
 70
     0
  9
$USERR1
 40
0.0
  9
$USERR2
 40
0.0
  9
$USERR3
 40
0.0
  9
$USERR4
 40
0.0
  9
$USERR5
 40
0.0
  9
$WORLDVIEW
 70
     1
  9
$SHADEDGE
 70
     3
  9
$SHADEDIF
 70
    70
  9
$TILEMODE
 70
     1
  9
$MAXACTVP
 70
    64
  9
$PINSBASE
 10
0.0
 20
0.0
 30
0.0
  9
$PLIMCHECK
 70
     0
  9
$PEXTMIN
 10
1.000000000000000E+20
 20
1.000000000000000E+20
 30
1.000000000000000E+20
  9
$PEXTMAX
 10
-1.000000000000000E+20
 20
-1.000000000000000E+20
 30
-1.000000000000000E+20
  9
$PLIMMIN
 10
0.0
 20
0.0
  9
$PLIMMAX
 10
12.0
 20
9.0
  9
$UNITMODE
 70
     0
  9
$VISRETAIN
 70
     1
  9
$PLINEGEN
 70
     0
  9
$PSLTSCALE
 70
     1
  9
$TREEDEPTH
 70
  3020
  9
$CMLSTYLE
  2
Standard
  9
$CMLJUST
 70
     0
  9
$CMLSCALE
 40
1.0
  9
$PROXYGRAPHICS
 70
     1
  9
$MEASUREMENT
 70
     0
  9
$CELWEIGHT
370
    -1
  9
$ENDCAPS
280
     0
  9
$JOINSTYLE
280
     0
  9
$LWDISPLAY
290
     0
  9
$INSUNITS
 70
     1
  9
$HYPERLINKBASE
  1

  9
$STYLESHEET
  1

  9
$XEDIT
290
     1
  9
$CEPSNTYPE
380
     0
  9
$PSTYLEMODE
290
     1
  9
$FINGERPRINTGUID
  2
{132A7A13-BCC9-4A3A-B920-5824961E0489}
  9
$VERSIONGUID
  2
{FAEB1C32-E019-11D5-929B-00C0DF256EC4}
  9
$EXTNAMES
290
     1
  9
$PSVPSCALE
 40
0.0
  9
$OLESTARTUP
290
     0
  9
$SORTENTS
280
   127
  9
$INDEXCTL
280
     0
  9
$HIDETEXT
280
     1
  9
$XCLIPFRAME
280
     2
  9
$HALOGAP
280
     0
  9
$OBSCOLOR
 70
   257
  9
$OBSLTYPE
280
     0
  9
$INTERSECTIONDISPLAY
280
     0
  9
$INTERSECTIONCOLOR
 70
   257
  9
$DIMASSOC
280
     2
  9
$PROJECTNAME
  1

  9
$CAMERADISPLAY
290
     0
  9
$LENSLENGTH
 40
50.0
  9
$CAMERAHEIGHT
 40
0.0
  9
$STEPSPERSEC
 40
2.0
  9
$STEPSIZE
 40
6.0
  9
$3DDWFPREC
 40
2.0
  9
$PSOLWIDTH
 40
0.25
  9
$PSOLHEIGHT
 40
4.0
  9
$LOFTANG1
 40
1.570796326794897
  9
$LOFTANG2
 40
1.570796326794897
  9
$LOFTMAG1
 40
0.0
  9
$LOFTMAG2
 40
0.0
  9
$LOFTPARAM
 70
     7
  9
$LOFTNORMALS
280
     1
  9
$LATITUDE
 40
37.795
  9
$LONGITUDE
 40
-122.394
  9
$NORTHDIRECTION
 40
0.0
  9
$TIMEZONE
 70
 -8000
  9
$LIGHTGLYPHDISPLAY
280
     1
  9
$TILEMODELIGHTSYNCH
280
     1
  9
$CMATERIAL
347
44
  9
$SOLIDHIST
280
     0
  9
$SHOWHIST
280
     1
  9
$DWFFRAME
280
     2
  9
$DGNFRAME
280
     2
  9
$REALWORLDSCALE
290
     1
  9
$INTERFERECOLOR
 62
   256
  9
$CSHADOW
280
     0
  9
$SHADOWPLANELOCATION
 40
0.0
  0
ENDSEC
  0
SECTION
  2
CLASSES
  0
CLASS
  1
ACDBDICTIONARYWDFLT
  2
AcDbDictionaryWithDefault
  3
ObjectDBX Classes
 90
        0
 91
        4
280
     0
281
     0
  0
CLASS
  1
VISUALSTYLE
  2
AcDbVisualStyle
  3
ObjectDBX Classes
 90
     4095
 91
        4
280
     0
281
     0
  0
CLASS
  1
MATERIAL
  2
AcDbMaterial
  3
ObjectDBX Classes
 90
     1153
 91
        4
280
     0
281
     0
  0
CLASS
  1
SCALE
  2
AcDbScale
  3
ObjectDBX Classes
 90
     1153
 91
        4
280
     0
281
     0
  0
CLASS
  1
TABLESTYLE
  2
AcDbTableStyle
  3
ObjectDBX Classes
 90
     4095
 91
        4
280
     0
281
     0
  0
CLASS
  1
MLEADERSTYLE
  2
AcDbMLeaderStyle
  3
ACDB_MLEADERSTYLE_CLASS
 90
     4095
 91
        4
280
     0
281
     0
  0
CLASS
  1
SUN
  2
AcDbSun
  3
SCENEOE
 90
     1153
 91
        4
280
     0
281
     0
  0
CLASS
  1
DICTIONARYVAR
  2
AcDbDictionaryVar
  3
ObjectDBX Classes
 90
        0
 91
        4
280
     0
281
     0
  0
CLASS
  1
CELLSTYLEMAP
  2
AcDbCellStyleMap
  3
ObjectDBX Classes
 90
     1152
 91
        4
280
     0
281
     0
  0
ENDSEC
  0
SECTION
  2
TABLES
  0
TABLE
  2
VPORT
  5
8
330
0
100
AcDbSymbolTable
 70
     1
  0
VPORT
  5
29
330
8
100
AcDbSymbolTableRecord
100
AcDbViewportTableRecord
  2
*Active
 70
     0
 10
0.0
 20
0.0
 11
1.0
 21
1.0
 12
0.0
 22
-1.5625
 13
0.0
 23
0.0
 14
0.5
 24
0.5
 15
0.5
 25
0.5
 16
0.0
 26
0.0
 36
1.0
 17
0.0
 27
0.0
 37
0.0
 40
4.487999999999999
 41
1.946022727272728
 42
50.0
 43
0.0
 44
0.0
 50
0.0
 51
0.0
 71
     0
 72
   100
 73
     1
 74
     3
 75
     0
 76
     0
 77
     0
 78
     0
281
     0
 65
     1
110
0.0
120
0.0
130
0.0
111
1.0
121
0.0
131
0.0
112
0.0
122
1.0
132
0.0
 79
     0
146
0.0
348
2F
 60
     3
 61
     5
292
     1
282
     1
141
0.0
142
0.0
 63
   250
361
6D
  0
ENDTAB
  0
TABLE
  2
LTYPE
  5
5
330
0
100
AcDbSymbolTable
 70
     3
  0
LTYPE
  5
14
330
5
100
AcDbSymbolTableRecord
100
AcDbLinetypeTableRecord
  2
ByBlock
 70
     0
  3

 72
    65
 73
     0
 40
0.0
  0
LTYPE
  5
15
330
5
100
AcDbSymbolTableRecord
100
AcDbLinetypeTableRecord
  2
ByLayer
 70
     0
  3

 72
    65
 73
     0
 40
0.0
  0
LTYPE
  5
16
330
5
100
AcDbSymbolTableRecord
100
AcDbLinetypeTableRecord
  2
Continuous
 70
     0
  3
Solid line
 72
    65
 73
     0
 40
0.0
  0
LTYPE
  5
9D
330
5
100
AcDbSymbolTableRecord
100
AcDbLinetypeTableRecord
  2
Dashed
 70
     0
  3

 72
    65
 73
     2
 40
2.0
 49
1.0
 74
     0
 49
-1.0
 74
     0
  0
LTYPE
  5
B1
330
5
100
AcDbSymbolTableRecord
100
AcDbLinetypeTableRecord
  2
Center
 70
     0
  3

 72
    65
 73
     4
 40
1.5
 49
0.45
 74
     0
 49
-0.5
 74
     0
 49
0.05
 74
     0
 49
-0.5
 74
     0
  0
ENDTAB
  0
TABLE
  2
LAYER
  5
2
330
0
100
AcDbSymbolTable
 70
     7
  0
LAYER
  5
10
330
2
100
AcDbSymbolTableRecord
100
AcDbLayerTableRecord
  2
0
 70
     0
 62
     7
  6
Continuous
370
    -3
390
F
347
46
348
0
  0
LAYER
  5
72
330
2
100
AcDbSymbolTableRecord
100
AcDbLayerTableRecord
  2
AM_6
 70
     0
 62
    -2
  6
Continuous
370
    35
390
F
347
46
348
0
  0
LAYER
  5
9E
330
2
100
AcDbSymbolTableRecord
100
AcDbLayerTableRecord
  2
AM_9
 70
     0
 62
     6
  6
Dashed
370
    25
390
F
347
46
348
0
  0
LAYER
  5
AE
330
2
100
AcDbSymbolTableRecord
100
AcDbLayerTableRecord
  2
AM_5
 70
     0
 62
     3
  6
Continuous
370
    25
390
F
347
46
348
0
  0
LAYER
  5
B2
330
2
100
AcDbSymbolTableRecord
100
AcDbLayerTableRecord
  2
AM_7
 70
     0
 62
     7
  6
Center
370
    25
390
F
347
46
348
0
  0
LAYER
  5
B4
330
2
100
AcDbSymbolTableRecord
100
AcDbLayerTableRecord
  2
AM_4
 70
     0
 62
     7
  6
Continuous
370
    50
390
F
347
46
348
0
  0
LAYER
  5
1F1
330
2
100
AcDbSymbolTableRecord
100
AcDbLayerTableRecord
  2
ConnectionPoints
 70
     0
 62
     7
  6
Continuous
370
    50
390
F
347
46
348
0
  0
ENDTAB
  0
TABLE
  2
STYLE
  5
3
330
0
100
AcDbSymbolTable
 70
     1
  0
STYLE
  5
11
330
3
100
AcDbSymbolTableRecord
100
AcDbTextStyleTableRecord
  2
Standard
 70
     0
 40
0.0
 41
1.0
 50
0.0
 71
     0
 42
0.2
  3
txt
  4

  0
ENDTAB
  0
TABLE
  2
VIEW
  5
6
330
0
100
AcDbSymbolTable
 70
     0
  0
ENDTAB
  0
TABLE
  2
UCS
  5
7
330
0
100
AcDbSymbolTable
 70
     0
  0
ENDTAB
  0
TABLE
  2
APPID
  5
9
330
0
100
AcDbSymbolTable
 70
     1
  0
APPID
  5
12
330
9
100
AcDbSymbolTableRecord
100
AcDbRegAppTableRecord
  2
ACAD
 70
     0
  0
ENDTAB
  0
TABLE
  2
DIMSTYLE
  5
A
330
0
100
AcDbSymbolTable
 70
     1
100
AcDbDimStyleTable
  0
DIMSTYLE
105
27
330
A
100
AcDbSymbolTableRecord
100
AcDbDimStyleTableRecord
  2
Standard
 70
     0
178
     0
340
11
  0
ENDTAB
  0
TABLE
  2
BLOCK_RECORD
  5
1
330
0
100
AcDbSymbolTable
 70
     7
  0
BLOCK_RECORD
  5
1F
330
1
100
AcDbSymbolTableRecord
100
AcDbBlockTableRecord
  2
*Model_Space
340
22
 70
     0
280
     1
281
     0
  0
BLOCK_RECORD
  5
1B
330
1
100
AcDbSymbolTableRecord
100
AcDbBlockTableRecord
  2
*Paper_Space
340
1E
 70
     0
280
     1
281
     0
  0
BLOCK_RECORD
  5
23
330
1
100
AcDbSymbolTableRecord
100
AcDbBlockTableRecord
  2
*Paper_Space0
340
26
 70
     0
280
     1
281
     0
  0
BLOCK_RECORD
  5
6E
330
1
100
AcDbSymbolTableRecord
100
AcDbBlockTableRecord
  2
1_023464_4
340
0
102
{BLKREFS
331
6F
102
}
 70
     0
280
     1
281
     0
  0
BLOCK_RECORD
  5
88
330
1
100
AcDbSymbolTableRecord
100
AcDbBlockTableRecord
  2
2_2_7_16C_1_0_in_023464_4
340
0
102
{BLKREFS
331
89
102
}
 70
     0
280
     1
281
     0
  0
BLOCK_RECORD
  5
C3
330
1
100
AcDbSymbolTableRecord
100
AcDbBlockTableRecord
  2
3_2_7_16C_2_0_in_023464_4
340
0
102
{BLKREFS
331
C4
102
}
 70
     0
280
     1
281
     0
  0
BLOCK_RECORD
  5
FE
330
1
100
AcDbSymbolTableRecord
100
AcDbBlockTableRecord
  2
4_405015E_Inch_0_in_023464_4
340
0
102
{BLKREFS
331
FF
102
}
 70
     0
280
     1
281
     0
  0
BLOCK_RECORD
  5
11C
330
1
100
AcDbSymbolTableRecord
100
AcDbBlockTableRecord
  2
5_023520_Insert_0_in_023464_4
340
0
102
{BLKREFS
331
11D
102
}
 70
     0
280
     1
281
     0
  0
BLOCK_RECORD
  5
16E
330
1
100
AcDbSymbolTableRecord
100
AcDbBlockTableRecord
  2
6_023464H_0_in_023464_4
340
0
102
{BLKREFS
331
16F
102
}
 70
     0
280
     1
281
     0
  0
ENDTAB
  0
ENDSEC
  0
SECTION
  2
BLOCKS
  0
BLOCK
  5
20
330
1F
100
AcDbEntity
  8
0
100
AcDbBlockBegin
  2
*Model_Space
 70
     0
 10
0.0
 20
0.0
 30
0.0
  3
*Model_Space
  1

  0
ENDBLK
  5
21
330
1F
100
AcDbEntity
  8
0
100
AcDbBlockEnd
  0
BLOCK
  5
1C
330
1B
100
AcDbEntity
 67
     1
  8
0
100
AcDbBlockBegin
  2
*Paper_Space
 70
     0
 10
0.0
 20
0.0
 30
0.0
  3
*Paper_Space
  1

  0
ENDBLK
  5
1D
330
1B
100
AcDbEntity
 67
     1
  8
0
100
AcDbBlockEnd
  0
BLOCK
  5
24
330
23
100
AcDbEntity
  8
0
100
AcDbBlockBegin
  2
*Paper_Space0
 70
     0
 10
0.0
 20
0.0
 30
0.0
  3
*Paper_Space0
  1

  0
ENDBLK
  5
25
330
23
100
AcDbEntity
  8
0
100
AcDbBlockEnd
  0
BLOCK
  5
70
330
6E
100
AcDbEntity
  8
0
100
AcDbBlockBegin
  2
1_023464_4
 70
     2
 10
0.0
 20
0.0
 30
0.0
  3
1_023464_4
  1

  0
ATTDEF
  5
73
330
6E
100
AcDbEntity
  8
AM_6
100
AcDbText
 10
9.28125
 20
0.6375
 30
0.0
 40
0.5
  1
Double-Interlock 4-Bolt Flange  Expansion Inch Bore
100
AcDbAttributeDefinition
  3

  2
NN
 70
     8
280
     0
  0
ATTDEF
  5
74
330
6E
100
AcDbEntity
  8
AM_6
100
AcDbText
 10
9.28125
 20
0.1375
 30
0.0
 40
0.5
  1
Double-Interlock Flange Bearings
100
AcDbAttributeDefinition
  3

  2
NT
 70
     8
280
     0
  0
ATTDEF
  5
75
330
6E
100
AcDbEntity
  8
AM_6
100
AcDbText
 10
9.28125
 20
-0.3625
 30
0.0
 40
0.5
  1
023464
100
AcDbAttributeDefinition
  3

  2
NB
 70
     8
280
     0
  0
ATTDEF
  5
76
330
6E
100
AcDbEntity
  8
AM_6
100
AcDbText
 10
9.28125
 20
-0.8625
 30
0.0
 40
0.5
  1
$PN.
100
AcDbAttributeDefinition
  3

  2
NBSYN
 70
     8
280
     0
  0
ATTDEF
  5
77
330
6E
100
AcDbEntity
  8
AM_6
100
AcDbText
 10
9.28125
 20
-1.3625
 30
0.0
 40
0.5
  1
023464
100
AcDbAttributeDefinition
  3

  2
LINA
 70
     8
280
     0
  0
ATTDEF
  5
78
330
6E
100
AcDbEntity
  8
AM_6
100
AcDbText
 10
9.28125
 20
-1.8625
 30
0.0
 40
0.5
  1
2-7/16
100
AcDbAttributeDefinition
  3

  2
SS
 70
     8
280
     0
  0
ATTDEF
  5
79
330
6E
100
AcDbEntity
  8
AM_6
100
AcDbText
 10
9.28125
 20
-2.3625
 30
0.0
 40
0.5
  1
023464
100
AcDbAttributeDefinition
  3

  2
PN
 70
     8
280
     0
  0
ATTDEF
  5
7A
330
6E
100
AcDbEntity
  8
AM_6
100
AcDbText
 10
9.28125
 20
-2.8625
 30
0.0
 40
0.5
  1
F4B-DI-207RE
100
AcDbAttributeDefinition
  3

  2
DESCRIPTION
 70
     8
280
     0
  0
ATTDEF
  5
7B
330
6E
100
AcDbEntity
  8
AM_6
100
AcDbText
 10
9.28125
 20
-3.3625
 30
0.0
 40
0.5
  1
Expansion Type
100
AcDbAttributeDefinition
  3

  2
EF
 70
     8
280
     0
  0
ATTDEF
  5
7C
330
6E
100
AcDbEntity
  8
AM_6
100
AcDbText
 10
9.28125
 20
-3.8625
 30
0.0
 40
0.5
  1
4
100
AcDbAttributeDefinition
  3

  2
A
 70
     8
280
     0
  0
ATTDEF
  5
7D
330
6E
100
AcDbEntity
  8
AM_6
100
AcDbText
 10
9.28125
 20
-4.3625
 30
0.0
 40
0.5
  1
7-5/8
100
AcDbAttributeDefinition
  3

  2
B
 70
     8
280
     0
  0
ATTDEF
  5
7E
330
6E
100
AcDbEntity
  8
AM_6
100
AcDbText
 10
9.28125
 20
-4.8625
 30
0.0
 40
0.5
  1
2-15/16
100
AcDbAttributeDefinition
  3

  2
C
 70
     8
280
     0
  0
ATTDEF
  5
7F
330
6E
100
AcDbEntity
  8
AM_6
100
AcDbText
 10
9.28125
 20
-5.3625
 30
0.0
 40
0.5
  1
8-1/2
100
AcDbAttributeDefinition
  3

  2
D
 70
     8
280
     0
  0
ATTDEF
  5
80
330
6E
100
AcDbEntity
  8
AM_6
100
AcDbText
 10
9.28125
 20
-5.8625
 30
0.0
 40
0.5
  1
7/16
100
AcDbAttributeDefinition
  3

  2
E
 70
     8
280
     0
  0
ATTDEF
  5
81
330
6E
100
AcDbEntity
  8
AM_6
100
AcDbText
 10
9.28125
 20
-6.3625
 30
0.0
 40
0.5
  1
5/8
100
AcDbAttributeDefinition
  3

  2
F
 70
     8
280
     0
  0
ATTDEF
  5
82
330
6E
100
AcDbEntity
  8
AM_6
100
AcDbText
 10
9.28125
 20
-6.8625
 30
0.0
 40
0.5
  1
8-9/16
100
AcDbAttributeDefinition
  3

  2
G
 70
     8
280
     0
  0
ATTDEF
  5
83
330
6E
100
AcDbEntity
  8
AM_6
100
AcDbText
 10
9.28125
 20
-7.3625
 30
0.0
 40
0.5
  1
5/8
100
AcDbAttributeDefinition
  3

  2
H
 70
     8
280
     0
  0
ATTDEF
  5
84
330
6E
100
AcDbEntity
  8
AM_6
100
AcDbText
 10
9.28125
 20
-7.8625
 30
0.0
 40
0.5
  1
6
100
AcDbAttributeDefinition
  3

  2
J
 70
     8
280
     0
  0
ATTDEF
  5
85
330
6E
100
AcDbEntity
  8
AM_6
100
AcDbText
 10
9.28125
 20
-8.3625
 30
0.0
 40
0.5
  1
4-1/16
100
AcDbAttributeDefinition
  3

  2
L
 70
     8
280
     0
  0
ATTDEF
  5
86
330
6E
100
AcDbEntity
  8
AM_6
100
AcDbText
 10
9.28125
 20
-8.8625
 30
0.0
 40
0.5
  1
5/16
100
AcDbAttributeDefinition
  3

  2
T
 70
     8
280
     0
  0
ATTDEF
  5
87
330
6E
100
AcDbEntity
  8
AM_6
100
AcDbText
 10
9.28125
 20
-9.3625
 30
0.0
 40
0.5
  1
baldor
100
AcDbAttributeDefinition
  3

  2
COMPANY
 70
     8
280
     0
  0
INSERT
  5
89
330
6E
100
AcDbEntity
  8
0
100
AcDbBlockReference
  2
2_2_7_16C_1_0_in_023464_4
 10
0.0
 20
0.0
 30
0.0
  0
INSERT
  5
C4
330
6E
100
AcDbEntity
  8
0
100
AcDbBlockReference
  2
3_2_7_16C_2_0_in_023464_4
 10
0.0
 20
0.0
 30
0.0
  0
INSERT
  5
FF
330
6E
100
AcDbEntity
  8
0
100
AcDbBlockReference
  2
4_405015E_Inch_0_in_023464_4
 10
0.0
 20
0.0
 30
0.0
  0
INSERT
  5
11D
330
6E
100
AcDbEntity
  8
0
100
AcDbBlockReference
  2
5_023520_Insert_0_in_023464_4
 10
0.0
 20
0.0
 30
0.0
  0
INSERT
  5
16F
330
6E
100
AcDbEntity
  8
0
100
AcDbBlockReference
  2
6_023464H_0_in_023464_4
 10
0.0
 20
0.0
 30
0.0
  0
ENDBLK
  5
71
330
6E
100
AcDbEntity
  8
0
100
AcDbBlockEnd
  0
BLOCK
  5
8A
330
88
100
AcDbEntity
  8
0
100
AcDbBlockBegin
  2
2_2_7_16C_1_0_in_023464_4
 70
     2
 10
0.0
 20
0.0
 30
0.0
  3
2_2_7_16C_1_0_in_023464_4
  1

  0
ATTDEF
  5
8C
330
88
100
AcDbEntity
  8
AM_6
100
AcDbText
 10
7.03125
 20
-2.942499999999999
 30
0.0
 40
0.5
  1
E-Type Collar -Inch
100
AcDbAttributeDefinition
  3

  2
NN
 70
     8
280
     0
  0
ATTDEF
  5
8D
330
88
100
AcDbEntity
  8
AM_6
100
AcDbText
 10
7.03125
 20
-3.442499999999999
 30
0.0
 40
0.5
  1
E-Type Bearings
100
AcDbAttributeDefinition
  3

  2
NT
 70
     8
280
     0
  0
ATTDEF
  5
8E
330
88
100
AcDbEntity
  8
AM_6
100
AcDbText
 10
7.03125
 20
-3.942499999999999
 30
0.0
 40
0.5
  1
2-7/16C
100
AcDbAttributeDefinition
  3

  2
NB
 70
     8
280
     0
  0
ATTDEF
  5
8F
330
88
100
AcDbEntity
  8
AM_6
100
AcDbText
 10
7.03125
 20
-4.442499999999999
 30
0.0
 40
0.5
  1
$BORE.C
100
AcDbAttributeDefinition
  3

  2
NBSYN
 70
     8
280
     0
  0
ATTDEF
  5
90
330
88
100
AcDbEntity
  8
AM_6
100
AcDbText
 10
7.03125
 20
-4.942499999999999
 30
0.0
 40
0.5
  1
2-7/16C
100
AcDbAttributeDefinition
  3

  2
LINA
 70
     8
280
     0
  0
ATTDEF
  5
91
330
88
100
AcDbEntity
  8
AM_6
100
AcDbText
 10
7.03125
 20
-5.442499999999999
 30
0.0
 40
0.5
  1
2-7/16
100
AcDbAttributeDefinition
  3

  2
BORE
 70
     8
280
     0
  0
ATTDEF
  5
92
330
88
100
AcDbEntity
  8
AM_6
100
AcDbText
 10
7.03125
 20
-5.942499999999999
 30
0.0
 40
0.5
  1
4.06250
100
AcDbAttributeDefinition
  3

  2
L
 70
     8
280
     0
  0
ATTDEF
  5
93
330
88
100
AcDbEntity
  8
AM_6
100
AcDbText
 10
7.03125
 20
-6.442499999999999
 30
0.0
 40
0.5
  1
4.00
100
AcDbAttributeDefinition
  3

  2
A
 70
     8
280
     0
  0
ATTDEF
  5
94
330
88
100
AcDbEntity
  8
AM_6
100
AcDbText
 10
7.03125
 20
-6.942499999999999
 30
0.0
 40
0.5
  1
1.70
100
AcDbAttributeDefinition
  3

  2
B
 70
     8
280
     0
  0
ATTDEF
  5
95
330
88
100
AcDbEntity
  8
AM_6
100
AcDbText
 10
7.03125
 20
-7.442499999999999
 30
0.0
 40
0.5
  1
2.94
100
AcDbAttributeDefinition
  3

  2
C
 70
     8
280
     0
  0
ATTDEF
  5
96
330
88
100
AcDbEntity
  8
AM_6
100
AcDbText
 10
7.03125
 20
-7.942499999999999
 30
0.0
 40
0.5
  1
4.12
100
AcDbAttributeDefinition
  3

  2
D
 70
     8
280
     0
  0
ATTDEF
  5
97
330
88
100
AcDbEntity
  8
AM_6
100
AcDbText
 10
7.03125
 20
-8.442499999999999
 30
0.0
 40
0.5
  1
0.41
100
AcDbAttributeDefinition
  3

  2
E
 70
     8
280
     0
  0
ATTDEF
  5
98
330
88
100
AcDbEntity
  8
AM_6
100
AcDbText
 10
7.03125
 20
-8.942499999999999
 30
0.0
 40
0.5
  1
0.31
100
AcDbAttributeDefinition
  3

  2
F
 70
     8
280
     0
  0
ATTDEF
  5
99
330
88
100
AcDbEntity
  8
AM_6
100
AcDbText
 10
7.03125
 20
-9.442499999999999
 30
0.0
 40
0.5
  1
3/8-16
100
AcDbAttributeDefinition
  3

  2
CS
 70
     8
280
     0
  0
ATTDEF
  5
9A
330
88
100
AcDbEntity
  8
AM_6
100
AcDbText
 10
7.03125
 20
-9.942499999999999
 30
0.0
 40
0.5
  1
0.3750
100
AcDbAttributeDefinition
  3

  2
NDM
 70
     8
280
     0
  0
ATTDEF
  5
9B
330
88
100
AcDbEntity
  8
AM_6
100
AcDbText
 10
7.03125
 20
-10.4425
 30
0.0
 40
0.5
  1
0.3070
100
AcDbAttributeDefinition
  3

  2
KDM
 70
     8
280
     0
  0
ATTDEF
  5
9C
330
88
100
AcDbEntity
  8
AM_6
100
AcDbText
 10
7.03125
 20
-10.9425
 30
0.0
 40
0.5
  1
baldor
100
AcDbAttributeDefinition
  3

  2
COMPANY
 70
     8
280
     0
  0
LINE
  5
9F
330
88
100
AcDbEntity
  8
AM_9
100
AcDbLine
 10
-1.370573096629555
 20
-3.38842226453218
 30
0.0
 11
-1.362906385868103
 21
-3.39798485002136
 31
0.0
  0
LINE
  5
A0
330
88
100
AcDbEntity
  8
AM_9
100
AcDbLine
 10
-1.36295273212775
 20
-3.107072957046594
 30
0.0
 11
-1.370573096629555
 21
-3.11657773546782
 31
0.0
  0
LWPOLYLINE
  5
A1
330
88
100
AcDbEntity
  8
AM_9
100
AcDbPolyline
 90
       26
 70
     0
 43
0.0
 10
-1.362873204807985
 20
-3.398026236101257
 10
-1.362462345954449
 20
-3.398533645202895
 10
-1.35205770697695
 20
-3.40842226568134
 10
-1.3403708001452
 20
-3.413962694819541
 10
-1.327851187873999
 20
-3.414704694987161
 10
-1.314537222344843
 20
-3.410390339424635
 10
-1.301465804033895
 20
-3.401253413306858
 10
-1.288464554091272
 20
-3.386964619652971
 10
-1.277002033017087
 20
-3.369023936179177
 10
-1.266683017796866
 20
-3.346540770599332
 10
-1.258998482867989
 20
-3.322722462372668
 10
-1.25337074974391
 20
-3.295731656816433
 10
-1.250600673249956
 20
-3.26990785885086
 10
-1.250238705874108
 20
-3.242721677539698
 10
-1.252192382069649
 20
-3.217751116569448
 10
-1.256391810001666
 20
-3.193061129721632
 10
-1.262451768848385
 20
-3.170471313926026
 10
-1.270374592102961
 20
-3.149505878699983
 10
-1.279913429159371
 20
-3.130846267382885
 10
-1.290800691489185
 20
-3.115043745800934
 10
-1.302804648843792
 20
-3.102581910056273
 10
-1.315484559991998
 20
-3.094136785972304
 10
-1.328312606040832
 20
-3.090237211153408
 10
-1.341051086762332
 20
-3.091222583874341
 10
-1.352855379338819
 20
-3.097153510283507
 10
-1.362875698899839
 20
-3.106976874535657
  0
LWPOLYLINE
  5
A2
330
88
100
AcDbEntity
  8
AM_9
100
AcDbPolyline
 90
        3
 70
     0
 43
0.0
 10
-1.369445046646015
 20
-3.116567561316982
 10
-1.37170335566938
 20
-3.120596508212432
 10
-1.37867939095409
 20
-3.136139819734366
  0
LWPOLYLINE
  5
A3
330
88
100
AcDbEntity
  8
AM_9
100
AcDbPolyline
 90
        3
 70
     0
 43
0.0
 10
-1.362875698899839
 20
-3.106976874535657
 10
-1.363894497986691
 20
-3.108278789329425
 10
-1.369445046646015
 20
-3.116567561316982
  0
LINE
  5
A4
330
88
100
AcDbEntity
  8
AM_9
100
AcDbLine
 10
-1.34029327085915
 20
-3.09885
 30
0.0
 11
-1.810259173827005
 21
-3.09885
 31
0.0
  0
LINE
  5
A5
330
88
100
AcDbEntity
  8
AM_9
100
AcDbLine
 10
-1.810259173827005
 20
-3.40615
 30
0.0
 11
-1.34029327085915
 21
-3.40615
 31
0.0
  0
LINE
  5
A6
330
88
100
AcDbEntity
  8
AM_9
100
AcDbLine
 10
-1.7799793480566
 20
-3.11657773546782
 30
0.0
 11
-1.80256701771527
 21
-3.088404438100399
 31
0.0
  0
LINE
  5
A7
330
88
100
AcDbEntity
  8
AM_9
100
AcDbLine
 10
-1.802470904091718
 20
-3.416475680666243
 30
0.0
 11
-1.7799793480566
 21
-3.38842226453218
 31
0.0
  0
ELLIPSE
  5
A8
330
88
100
AcDbEntity
  8
AM_9
100
AcDbEllipse
 10
-1.810259173826973
 20
-3.252499999999962
 30
0.0
 11
9.408349034447029E-18
 21
0.153649999999959
 31
0.0
210
0.0
220
0.0
230
1.0
 40
0.4226182617406283
 41
3.435945437202735
 42
5.969320891532281
  0
LINE
  5
A9
330
88
100
AcDbEntity
  8
AM_9
100
AcDbLine
 10
-1.367900163902115
 20
-3.390956741329317
 30
0.0
 11
-1.362873204807985
 21
-3.398026236101257
 31
0.0
  0
LWPOLYLINE
  5
AA
330
88
100
AcDbEntity
  8
AM_9
100
AcDbPolyline
 90
       13
 70
     0
 43
0.0
 10
-1.37867939095409
 20
-3.136139819734366
 10
-1.38445021253979
 20
-3.154002292455359
 10
-1.38920542594763
 20
-3.174661958540253
 10
-1.392997618372285
 20
-3.199423525823132
 10
-1.395332131980906
 20
-3.226740172729329
 10
-1.396025305058809
 20
-3.252509687192519
 10
-1.395287707913192
 20
-3.279065268728922
 10
-1.393249701567533
 20
-3.303397011353681
 10
-1.389827776579407
 20
-3.326983942158416
 10
-1.385121881316344
 20
-3.348491999372009
 10
-1.379015632740046
 20
-3.367967316343778
 10
-1.371450423993502
 20
-3.384875933542748
 10
-1.367900163902115
 20
-3.390956741329317
  0
LWPOLYLINE
  5
AB
330
88
100
AcDbEntity
  8
AM_9
100
AcDbPolyline
 90
       38
 70
     0
 43
0.0
 10
0.115463758015112
 20
-3.131789438370362
 10
0.0954869710184424
 20
-3.117205728926732
 10
0.073642732824236
 20
-3.105577262917381
 10
0.0459412551689487
 20
-3.095895802571748
 10
0.0170257037550205
 20
-3.090795237646095
 10
-0.0132511754251189
 20
-3.090497315861997
 10
-0.0431592134287635
 20
-3.095179019343002
 10
-0.0720625216794593
 20
-3.104902011676164
 10
-0.0988777176528344
 20
-3.119374026234256
 10
-0.1223277423615726
 20
-3.137961621957355
 10
-0.1421423975132657
 20
-3.160369816854495
 10
-0.1568815306104206
 20
-3.184775405848487
 10
-0.1670453927447243
 20
-3.21142174398531
 10
-0.1719330790009004
 20
-3.237672826139211
 10
-0.1722133112313979
 20
-3.264377379624312
 10
-0.1680752122644727
 20
-3.289620896206091
 10
-0.1598540220420834
 20
-3.313836015025139
 10
-0.1476669329082631
 20
-3.336574159602232
 10
-0.1320351739173431
 20
-3.357091196266355
 10
-0.1123692014990254
 20
-3.375755087034343
 10
-0.0900023711020569
 20
-3.391099152053088
 10
-0.0639702535400369
 20
-3.403378021810584
 10
-0.0362940754374333
 20
-3.411354740441031
 10
-0.0064648574969388
 20
-3.414870073700271
 10
0.0235413774448953
 20
-3.413476259825302
 10
0.0533552478282702
 20
-3.406998321371627
 10
0.0816412611616096
 20
-3.395620512588065
 10
0.1072995041985754
 20
-3.379688425922101
 10
0.1297865355447693
 20
-3.359553118707598
 10
0.1476284367093394
 20
-3.336618876585749
 10
0.1611061512073883
 20
-3.310872362384885
 10
0.1691898510753803
 20
-3.284823361674164
 10
0.1725865419711775
 20
-3.257753692110982
 10
0.1712703175082134
 20
-3.231975178627994
 10
0.1656735967177618
 20
-3.206782242319744
 10
0.1560499737114328
 20
-3.183082022152444
 10
0.1427684943432054
 20
-3.161229825610207
 10
0.1154637580151119
 20
-3.131789438370362
  0
LINE
  5
AC
330
88
100
AcDbEntity
  8
AM_9
100
AcDbLine
 10
1.47
 20
-3.5625
 30
0.0
 11
1.47
 21
-2.942499999999999
 31
0.0
  0
LINE
  5
AD
330
88
100
AcDbEntity
  8
AM_9
100
AcDbLine
 10
-1.47
 20
-2.942499999999999
 30
0.0
 11
-1.47
 21
-3.5625
 31
0.0
  0
ARC
  5
AF
330
88
100
AcDbEntity
  8
AM_5
100
AcDbCircle
 10
0.0000000000000048
 20
-3.252500000000003
 30
0.0
 40
0.1874999999999992
100
AcDbArc
 50
74.99999999999991
 51
14.99999999999982
  0
ELLIPSE
  5
B0
330
88
100
AcDbEntity
  8
AM_9
100
AcDbEllipse
 10
-1.34029327085915
 20
-3.2525
 30
0.0
 11
9.408349034449531E-18
 21
0.1536499999999998
 31
0.0
210
0.0
220
0.0
230
1.0
 40
0.4226182617406995
 41
0.0
 42
6.283185307179586
  0
LINE
  5
B3
330
88
100
AcDbEntity
  8
AM_7
100
AcDbLine
 10
-0.1613325000000003
 20
-3.2525
 30
0.0
 11
0.1613324999999997
 21
-3.2525
 31
0.0
  0
ELLIPSE
  5
B5
330
88
100
AcDbEntity
  8
AM_4
100
AcDbEllipse
 10
-1.810259173827005
 20
-3.2525
 30
0.0
 11
9.408349034449531E-18
 21
0.1536499999999998
 31
0.0
210
0.0
220
0.0
230
1.0
 40
0.4226182617406995
 41
5.969320891531937
 42
9.71913074438282
  0
LWPOLYLINE
  5
B6
330
88
100
AcDbEntity
  8
AM_4
100
AcDbPolyline
 90
       14
 70
     0
 43
0.0
 10
-1.802676519056852
 20
-3.088267858588129
 10
-1.793191929829587
 20
-3.101925463588468
 10
-1.782794173879321
 20
-3.121934434832375
 10
-1.773795809897735
 20
-3.145478565855643
 10
-1.766449265987611
 20
-3.172415778195619
 10
-1.76120725719569
 20
-3.201825310202632
 10
-1.758320798124271
 20
-3.233411222254347
 10
-1.75806854890056
 20
-3.265498300078744
 10
-1.760563638816824
 20
-3.298126909860949
 10
-1.76561909530709
 20
-3.328776361523807
 10
-1.773334332484615
 20
-3.358090139331721
 10
-1.782817890373044
 20
-3.383118678455015
 10
-1.794386881303864
 20
-3.405009445242505
 10
-1.802672831715434
 20
-3.416727541772862
  0
LWPOLYLINE
  5
B7
330
88
100
AcDbEntity
  8
AM_4
100
AcDbPolyline
 90
       19
 70
     0
 43
0.0
 10
-1.802672831715434
 20
-3.416727541772862
 10
-1.806449287334581
 20
-3.421173086421112
 10
-1.819698207107732
 20
-3.432874684485277
 10
-1.83227615764313
 20
-3.438798446041334
 10
-1.84511224211045
 20
-3.439712569883759
 10
-1.8567379709122
 20
-3.435710707418949
 10
-1.86789584198873
 20
-3.426814332177368
 10
-1.877768151237835
 20
-3.413743718571203
 10
-1.886668537963406
 20
-3.396250826504633
 10
-1.89422926648122
 20
-3.375038461047463
 10
-1.900458328352772
 20
-3.350131956711834
 10
-1.905150170536732
 20
-3.322314879758542
 10
-1.90823581274623
 20
-3.291884049422908
 10
-1.90955989547709
 20
-3.260234896910504
 10
-1.909061460200018
 20
-3.227482529195974
 10
-1.906726123126247
 20
-3.195902547964574
 10
-1.90241342418352
 20
-3.165048637863365
 10
-1.897797335183478
 20
-3.14309339081973
 10
-1.891946184002538
 20
-3.122752264086141
  0
CIRCLE
  5
B8
330
88
100
AcDbEntity
  8
AM_4
100
AcDbCircle
 10
-0.0000000000000003
 20
-3.2525
 30
0.0
 40
0.15365
  0
LINE
  5
B9
330
88
100
AcDbEntity
  8
AM_4
100
AcDbLine
 10
-1.927916666666667
 20
-3.5625
 30
0.0
 11
1.927916666666667
 21
-3.5625
 31
0.0
  0
ARC
  5
BA
330
88
100
AcDbEntity
  8
AM_4
100
AcDbCircle
 10
1.927916666666666
 20
-3.459166666666666
 30
0.0
 40
0.1033333333333344
100
AcDbArc
 50
270.0
 51
0.0
  0
ARC
  5
BB
330
88
100
AcDbEntity
  8
AM_4
100
AcDbCircle
 10
-1.927916666666666
 20
-3.459166666666666
 30
0.0
 40
0.1033333333333339
100
AcDbArc
 50
180.0
 51
270.0
  0
LWPOLYLINE
  5
BC
330
88
100
AcDbEntity
  8
AM_4
100
AcDbPolyline
 90
       10
 70
     0
 43
0.0
 10
-1.891946184002538
 20
-3.122752264086141
 10
-1.884712173628251
 20
-3.104327149903503
 10
-1.876138588548587
 20
-3.088698283976797
 10
-1.865536486771414
 20
-3.075837203180141
 10
-1.85348247423293
 20
-3.067669120628458
 10
-1.841494273987911
 20
-3.065005059238462
 10
-1.828742096365317
 20
-3.06736929297898
 10
-1.816571778332058
 20
-3.074366795369221
 10
-1.804432125733052
 20
-3.086136036420325
 10
-1.802676519056852
 20
-3.088267858588129
  0
LWPOLYLINE
  5
BD
330
88
100
AcDbEntity
  8
AM_4
100
AcDbPolyline
 90
       38
 70
     0
 43
0.0
 10
0.1161553818841237
 20
-3.109570705293375
 10
0.1351815022929657
 20
-3.129172137683651
 10
0.1511437031903744
 20
-3.151347159619536
 10
0.1652392070476755
 20
-3.179240961797477
 10
0.1746550120120629
 20
-3.209055141894785
 10
0.1791940866831498
 20
-3.241013000457021
 10
0.1784404953312634
 20
-3.273285716259739
 10
0.1722088860774059
 20
-3.305454677460486
 10
0.1606812621175197
 20
-3.33611408782087
 10
0.1441721929914884
 20
-3.364160044583945
 10
0.1230986283501908
 20
-3.388943637532695
 10
0.0986997544355586
 20
-3.409063918051434
 10
0.0711663045117517
 20
-3.424620635656467
 10
0.0425943756185721
 20
-3.434616596303496
 10
0.0127215538605451
 20
-3.439528004913196
 10
-0.016418002255032
 20
-3.439193637668491
 10
-0.045087927265738
 20
-3.43398251129042
 10
-0.0722167934788395
 20
-3.424123849402899
 10
-0.0973799059230367
 20
-3.409989732026093
 10
-0.1204210135138516
 20
-3.391504317200677
 10
-0.1402086621841668
 20
-3.369566043113323
 10
-0.1568455251870621
 20
-3.343672056482903
 10
-0.1691175811535862
 20
-3.315433056551788
 10
-0.1769085386040724
 20
-3.284410891950673
 10
-0.179548969929005
 20
-3.252526945247891
 10
-0.1768010904485046
 20
-3.219956111866257
 10
-0.1686807205988352
 20
-3.188302672949686
 10
-0.1552884806177304
 20
-3.158477436697594
 10
-0.1370163987341716
 20
-3.131383334006796
 10
-0.1147782590643858
 20
-3.108390720485193
 10
-0.0888833475921634
 20
-3.089619115011542
 10
-0.0612169234370842
 20
-3.076275085782116
 10
-0.0316487786534309
 20
-3.067940523298933
 10
-0.0023606784758789
 20
-3.065036631114293
 10
0.0269964029531151
 20
-3.067134957275815
 10
0.0549987485517138
 20
-3.074045326578184
 10
0.081486143098476
 20
-3.085449818905222
 10
0.1161553818956806
 20
-3.109570705266322
  0
LINE
  5
BE
330
88
100
AcDbEntity
  8
AM_4
100
AcDbLine
 10
2.03125
 20
-3.459166666666666
 30
0.0
 11
2.03125
 21
-2.942499999999999
 31
0.0
  0
LINE
  5
BF
330
88
100
AcDbEntity
  8
AM_4
100
AcDbLine
 10
-2.03125
 20
-2.942499999999999
 30
0.0
 11
-2.03125
 21
-3.459166666666666
 31
0.0
  0
LINE
  5
C0
330
88
100
AcDbEntity
  8
AM_4
100
AcDbLine
 10
-2.03125
 20
-3.459166666666666
 30
0.0
 11
2.03125
 21
-3.459166666666666
 31
0.0
  0
LINE
  5
C1
330
88
100
AcDbEntity
  8
AM_4
100
AcDbLine
 10
-2.03125
 20
-2.942499999999999
 30
0.0
 11
2.03125
 21
-2.942499999999999
 31
0.0
  0
CIRCLE
  5
C2
330
88
100
AcDbEntity
  8
AM_5
100
AcDbCircle
 10
0.0000000000000049
 20
-3.252500000000004
 30
0.0
 40
0.1874999999999994
  0
ENDBLK
  5
8B
330
88
100
AcDbEntity
  8
0
100
AcDbBlockEnd
  0
BLOCK
  5
C5
330
C3
100
AcDbEntity
  8
0
100
AcDbBlockBegin
  2
3_2_7_16C_2_0_in_023464_4
 70
     2
 10
0.0
 20
0.0
 30
0.0
  3
3_2_7_16C_2_0_in_023464_4
  1

  0
ATTDEF
  5
C7
330
C3
100
AcDbEntity
  8
AM_6
100
AcDbText
 10
7.03125
 20
0.4375000000000001
 30
0.0
 40
0.5
  1
E-Type Collar -Inch
100
AcDbAttributeDefinition
  3

  2
NN
 70
     8
280
     0
  0
ATTDEF
  5
C8
330
C3
100
AcDbEntity
  8
AM_6
100
AcDbText
 10
7.03125
 20
-0.0624999999999999
 30
0.0
 40
0.5
  1
E-Type Bearings
100
AcDbAttributeDefinition
  3

  2
NT
 70
     8
280
     0
  0
ATTDEF
  5
C9
330
C3
100
AcDbEntity
  8
AM_6
100
AcDbText
 10
7.03125
 20
-0.5625
 30
0.0
 40
0.5
  1
2-7/16C
100
AcDbAttributeDefinition
  3

  2
NB
 70
     8
280
     0
  0
ATTDEF
  5
CA
330
C3
100
AcDbEntity
  8
AM_6
100
AcDbText
 10
7.03125
 20
-1.0625
 30
0.0
 40
0.5
  1
$BORE.C
100
AcDbAttributeDefinition
  3

  2
NBSYN
 70
     8
280
     0
  0
ATTDEF
  5
CB
330
C3
100
AcDbEntity
  8
AM_6
100
AcDbText
 10
7.03125
 20
-1.5625
 30
0.0
 40
0.5
  1
2-7/16C
100
AcDbAttributeDefinition
  3

  2
LINA
 70
     8
280
     0
  0
ATTDEF
  5
CC
330
C3
100
AcDbEntity
  8
AM_6
100
AcDbText
 10
7.03125
 20
-2.0625
 30
0.0
 40
0.5
  1
2-7/16
100
AcDbAttributeDefinition
  3

  2
BORE
 70
     8
280
     0
  0
ATTDEF
  5
CD
330
C3
100
AcDbEntity
  8
AM_6
100
AcDbText
 10
7.03125
 20
-2.5625
 30
0.0
 40
0.5
  1
4.06250
100
AcDbAttributeDefinition
  3

  2
L
 70
     8
280
     0
  0
ATTDEF
  5
CE
330
C3
100
AcDbEntity
  8
AM_6
100
AcDbText
 10
7.03125
 20
-3.0625
 30
0.0
 40
0.5
  1
4.00
100
AcDbAttributeDefinition
  3

  2
A
 70
     8
280
     0
  0
ATTDEF
  5
CF
330
C3
100
AcDbEntity
  8
AM_6
100
AcDbText
 10
7.03125
 20
-3.5625
 30
0.0
 40
0.5
  1
1.70
100
AcDbAttributeDefinition
  3

  2
B
 70
     8
280
     0
  0
ATTDEF
  5
D0
330
C3
100
AcDbEntity
  8
AM_6
100
AcDbText
 10
7.03125
 20
-4.0625
 30
0.0
 40
0.5
  1
2.94
100
AcDbAttributeDefinition
  3

  2
C
 70
     8
280
     0
  0
ATTDEF
  5
D1
330
C3
100
AcDbEntity
  8
AM_6
100
AcDbText
 10
7.03125
 20
-4.5625
 30
0.0
 40
0.5
  1
4.12
100
AcDbAttributeDefinition
  3

  2
D
 70
     8
280
     0
  0
ATTDEF
  5
D2
330
C3
100
AcDbEntity
  8
AM_6
100
AcDbText
 10
7.03125
 20
-5.0625
 30
0.0
 40
0.5
  1
0.41
100
AcDbAttributeDefinition
  3

  2
E
 70
     8
280
     0
  0
ATTDEF
  5
D3
330
C3
100
AcDbEntity
  8
AM_6
100
AcDbText
 10
7.03125
 20
-5.5625
 30
0.0
 40
0.5
  1
0.31
100
AcDbAttributeDefinition
  3

  2
F
 70
     8
280
     0
  0
ATTDEF
  5
D4
330
C3
100
AcDbEntity
  8
AM_6
100
AcDbText
 10
7.03125
 20
-6.0625
 30
0.0
 40
0.5
  1
3/8-16
100
AcDbAttributeDefinition
  3

  2
CS
 70
     8
280
     0
  0
ATTDEF
  5
D5
330
C3
100
AcDbEntity
  8
AM_6
100
AcDbText
 10
7.03125
 20
-6.5625
 30
0.0
 40
0.5
  1
0.3750
100
AcDbAttributeDefinition
  3

  2
NDM
 70
     8
280
     0
  0
ATTDEF
  5
D6
330
C3
100
AcDbEntity
  8
AM_6
100
AcDbText
 10
7.03125
 20
-7.0625
 30
0.0
 40
0.5
  1
0.3070
100
AcDbAttributeDefinition
  3

  2
KDM
 70
     8
280
     0
  0
ATTDEF
  5
D7
330
C3
100
AcDbEntity
  8
AM_6
100
AcDbText
 10
7.03125
 20
-7.5625
 30
0.0
 40
0.5
  1
baldor
100
AcDbAttributeDefinition
  3

  2
COMPANY
 70
     8
280
     0
  0
LINE
  5
D8
330
C3
100
AcDbEntity
  8
AM_9
100
AcDbLine
 10
-1.370573096629555
 20
-0.0084222645321798
 30
0.0
 11
-1.362943640073036
 21
-0.0179383833512862
 31
0.0
  0
LINE
  5
D9
330
C3
100
AcDbEntity
  8
AM_9
100
AcDbLine
 10
-1.363002366930393
 20
0.2728651341298842
 30
0.0
 11
-1.370573096629555
 21
0.2634222645321799
 31
0.0
  0
LWPOLYLINE
  5
DA
330
C3
100
AcDbEntity
  8
AM_9
100
AcDbPolyline
 90
       26
 70
     0
 43
0.0
 10
-1.362870758955027
 20
-0.0180292862159808
 10
-1.361722345582696
 20
-0.0194227370826187
 10
-1.351034063993259
 20
-0.0291041974282513
 10
-1.339378458226266
 20
-0.0342047623539047
 10
-1.326614256010011
 20
-0.0345026841380024
 10
-1.313458235211241
 20
-0.0298209806569971
 10
-1.300212399266798
 20
-0.0200979883238354
 10
-1.287467625967342
 20
-0.0056259737657435
 10
-1.275952008629166
 20
0.012961621957355
 10
-1.265957458711346
 20
0.0353698168544951
 10
-1.258363344261785
 20
0.0597754058484877
 10
-1.253046103606412
 20
0.0864217439853107
 10
-1.250467930555332
 20
0.1126728261392116
 10
-1.25031793696678
 20
0.1393773796243124
 10
-1.252504891835033
 20
0.164620896206091
 10
-1.256814525415928
 20
0.1888360150251394
 10
-1.263126712121886
 20
0.2115741596022322
 10
-1.271086964458086
 20
0.2320911962663558
 10
-1.280883691376679
 20
0.2507550870343431
 10
-1.291736354734563
 20
0.2660991520530881
 10
-1.30397260176277
 20
0.278378021810585
 10
-1.316527776949461
 20
0.2863547404410316
 10
-1.329523629178863
 20
0.289870073700271
 10
-1.342050610996702
 20
0.2884762598253023
 10
-1.353939848551234
 20
0.2819983213716279
 10
-1.362874446005801
 20
0.2730246881227262
  0
LWPOLYLINE
  5
DB
330
C3
100
AcDbEntity
  8
AM_9
100
AcDbPolyline
 90
       12
 70
     0
 43
0.0
 10
-1.36686003016131
 20
0.267557899570466
 10
-1.374063062848139
 20
0.2546884259221016
 10
-1.381919814639623
 20
0.2345531187075989
 10
-1.387927446125511
 20
0.211618876585749
 10
-1.3923335231575
 20
0.185872362384886
 10
-1.394923028277636
 20
0.159823361674165
 10
-1.395996704930882
 20
0.1327536921109817
 10
-1.395582298384876
 20
0.1069751786279939
 10
-1.393800834805258
 20
0.0817822423197445
 10
-1.390694314034126
 20
0.0580820221524446
 10
-1.38631075514024
 20
0.0362298256102075
 10
-1.376953389882087
 20
0.0067894383703624
  0
LWPOLYLINE
  5
DC
330
C3
100
AcDbEntity
  8
AM_9
100
AcDbPolyline
 90
        3
 70
     0
 43
0.0
 10
-1.362874446005801
 20
0.2730246881227262
 10
-1.364719250926726
 20
0.2706205125880651
 10
-1.36686003016131
 20
0.267557899570466
  0
LINE
  5
DD
330
C3
100
AcDbEntity
  8
AM_9
100
AcDbLine
 10
-1.34029327085915
 20
0.2811500000000001
 30
0.0
 11
-1.810259173827005
 21
0.2811500000000001
 31
0.0
  0
LINE
  5
DE
330
C3
100
AcDbEntity
  8
AM_9
100
AcDbLine
 10
-1.810259173827005
 20
-0.02615
 30
0.0
 11
-1.34029327085915
 21
-0.02615
 31
0.0
  0
ELLIPSE
  5
DF
330
C3
100
AcDbEntity
  8
AM_9
100
AcDbEllipse
 10
-1.810259173827005
 20
0.1274999999999997
 30
0.0
 11
9.408349034449574E-18
 21
0.1536500000000005
 31
0.0
210
0.0
220
0.0
230
1.0
 40
0.4226182617406991
 41
2.549559876620731
 42
5.963956861193666
  0
LINE
  5
E0
330
C3
100
AcDbEntity
  8
AM_9
100
AcDbLine
 10
-1.779979348056599
 20
0.2634222645321798
 30
0.0
 11
-1.802459817752674
 21
0.2914618528242687
 31
0.0
  0
LINE
  5
E1
330
C3
100
AcDbEntity
  8
AM_9
100
AcDbLine
 10
-1.802597943379028
 20
-0.0366341350651604
 30
0.0
 11
-1.779979348056599
 21
-0.0084222645321797
 31
0.0
  0
LWPOLYLINE
  5
E2
330
C3
100
AcDbEntity
  8
AM_9
100
AcDbPolyline
 90
        4
 70
     0
 43
0.0
 10
-1.781615713811275
 20
-0.0003757219627099
 10
-1.789487825006163
 20
-0.0166092795148068
 10
-1.801610646351019
 20
-0.0353808849884572
 10
-1.802671871123749
 20
-0.0367263434330266
  0
LWPOLYLINE
  5
E3
330
C3
100
AcDbEntity
  8
AM_9
100
AcDbPolyline
 90
        8
 70
     0
 43
0.0
 10
-1.802671871123749
 20
-0.0367263434330266
 10
-1.814227513381392
 20
-0.0487249142178833
 10
-1.82733886885887
 20
-0.0570594767010662
 10
-1.839935961991675
 20
-0.0599633688857064
 10
-1.852184268010817
 20
-0.0578650427241841
 10
-1.86350411931482
 20
-0.0509546734218152
 10
-1.873893304784371
 20
-0.039550181094778
 10
-1.887014651317992
 20
-0.0154292947295344
  0
LWPOLYLINE
  5
E4
330
C3
100
AcDbEntity
  8
AM_9
100
AcDbPolyline
 90
       39
 70
     0
 43
0.0
 10
0.1203997891174559
 20
0.0111398197343663
 10
0.1372296735781099
 20
0.0290022924553589
 10
0.1515019595327723
 20
0.0496619585402538
 10
0.1631682951265879
 20
0.0744235258231328
 10
0.1704843477765815
 20
0.1017401727293295
 10
0.1726772085485035
 20
0.1275096871925199
 10
0.1703441373534054
 20
0.1540652687289219
 10
0.1639532413147669
 20
0.1783970113536809
 10
0.153398690079932
 20
0.2019839421584163
 10
0.1392226520825704
 20
0.2234919993720093
 10
0.1213664561682598
 20
0.2429673163437779
 10
0.1000066657426069
 20
0.2598759335427476
 10
0.075607946107076
 20
0.2735336452028953
 10
0.0485346204402687
 20
0.2834222656813402
 10
0.0194379493571086
 20
0.2889626948195413
 10
-0.010382953140129
 20
0.2897046949871614
 10
-0.0407534256545697
 20
0.2853903394246348
 10
-0.0693814756037808
 20
0.2762534133068585
 10
-0.0968140168912338
 20
0.2619646196529709
 10
-0.1202208485808603
 20
0.2440239361791775
 10
-0.1407203522010082
 20
0.2215407705993324
 10
-0.1556576988351689
 20
0.1977224623726688
 10
-0.1664282947795951
 20
0.1707316568164335
 10
-0.1716792036591166
 20
0.1449078588508605
 10
-0.1723629232003229
 20
0.1177216775396981
 10
-0.1686660074888896
 20
0.0927511165694486
 10
-0.1606637967266609
 20
0.0680611297216325
 10
-0.1489786988876099
 20
0.0454713139260266
 10
-0.1334463894552753
 20
0.0245058786999835
 10
-0.1143411119970392
 20
0.0058462673828856
 10
-0.0919564811328839
 20
-0.0099562541990655
 10
-0.0664994555385473
 20
-0.0224180899437264
 10
-0.0386345759420243
 20
-0.0308632140276959
 10
-0.0093066036627583
 20
-0.0347627888465922
 10
0.0210966932899491
 20
-0.0337774161256589
 10
0.050569237637768
 20
-0.0278464897164919
 10
0.0794294786535839
 20
-0.0167212106705743
 10
0.1007080854076407
 20
-0.004403491787568
 10
0.1203997891174559
 20
0.0111398197343663
  0
LWPOLYLINE
  5
E5
330
C3
100
AcDbEntity
  8
AM_9
100
AcDbPolyline
 90
        3
 70
     0
 43
0.0
 10
-1.369890792338246
 20
-0.0076701038975283
 10
-1.369812117787199
 20
-0.0077942710732677
 10
-1.362870758955027
 20
-0.0180292862159808
  0
LINE
  5
E6
330
C3
100
AcDbEntity
  8
AM_9
100
AcDbLine
 10
-1.37375496260651
 20
-0.0003583791748348
 30
0.0
 11
-1.369890792338246
 21
-0.0076701038975283
 31
0.0
  0
LINE
  5
E7
330
C3
100
AcDbEntity
  8
AM_9
100
AcDbLine
 10
-1.376953389882087
 20
0.0067894383703624
 30
0.0
 11
-1.37375496260651
 21
-0.0003583791748348
 31
0.0
  0
LINE
  5
E8
330
C3
100
AcDbEntity
  8
AM_9
100
AcDbLine
 10
-1.47
 20
0.4375
 30
0.0
 11
-1.47
 21
-0.1825
 31
0.0
  0
LINE
  5
E9
330
C3
100
AcDbEntity
  8
AM_9
100
AcDbLine
 10
1.47
 20
-0.1825
 30
0.0
 11
1.47
 21
0.4375
 31
0.0
  0
LINE
  5
EA
330
C3
100
AcDbEntity
  8
AM_9
100
AcDbLine
 10
2.03125
 20
-0.1825
 30
0.0
 11
-2.03125
 21
-0.1825
 31
0.0
  0
LINE
  5
EB
330
C3
100
AcDbEntity
  8
AM_9
100
AcDbLine
 10
-1.887014651317992
 20
-0.0154292947295344
 30
0.0
 11
-1.892610724949046
 21
-0.0002316310551448
 31
0.0
  0
LINE
  5
EC
330
C3
100
AcDbEntity
  8
AM_9
100
AcDbLine
 10
-2.03125
 20
0.0000000000000003
 30
0.0
 11
-2.03125
 21
-0.1825
 31
0.0
  0
LINE
  5
ED
330
C3
100
AcDbEntity
  8
AM_9
100
AcDbLine
 10
2.03125
 20
-0.1825
 30
0.0
 11
2.03125
 21
0.0000000000000002
 31
0.0
  0
LWPOLYLINE
  5
EE
330
C3
100
AcDbEntity
  8
AM_9
100
AcDbPolyline
 90
       12
 70
     0
 43
0.0
 10
0.1295672609967952
 20
-0.0022477358571911
 10
0.1099674871199902
 20
-0.020672850096497
 10
0.0873191595039918
 20
-0.0363017160232026
 10
0.0601136960051178
 20
-0.0491627968198588
 10
0.0301638020553841
 20
-0.0573308793715413
 10
0.0013179010444531
 20
-0.0599949407615375
 10
-0.0284305359368665
 20
-0.05763070702102
 10
-0.0559989826088774
 20
-0.0506332046307784
 10
-0.082762273561879
 20
-0.0388639635796748
 10
-0.1069355111822404
 20
-0.0230745364115321
 10
-0.1288116649832947
 20
-0.0030655651676242
 10
-0.1314352194817863
 20
-0.000182596844663
  0
ARC
  5
EF
330
C3
100
AcDbEntity
  8
AM_9
100
AcDbCircle
 10
0.0
 20
0.1275000000000003
 30
0.0
 40
0.1536500000000001
100
AcDbArc
 50
236.0790205462629
 51
303.9209794537371
  0
ELLIPSE
  5
F0
330
C3
100
AcDbEntity
  8
AM_9
100
AcDbEllipse
 10
-1.34029327085915
 20
0.1274999999999998
 30
0.0
 11
9.408349034449559E-18
 21
0.1536500000000003
 31
0.0
210
0.0
220
0.0
230
1.0
 40
0.4226182617406997
 41
0.0
 42
6.283185307179586
  0
LINE
  5
F1
330
C3
100
AcDbEntity
  8
AM_7
100
AcDbLine
 10
-0.1613325000000001
 20
0.1275000000000001
 30
0.0
 11
0.1613325
 21
0.1275000000000001
 31
0.0
  0
ELLIPSE
  5
F2
330
C3
100
AcDbEntity
  8
AM_4
100
AcDbEllipse
 10
-1.810259173827005
 20
0.1275000000000001
 30
0.0
 11
9.408349034449545E-18
 21
0.1536500000000001
 31
0.0
210
0.0
220
0.0
230
1.0
 40
0.4226182617406989
 41
5.963956861193661
 42
8.832745183800316
  0
LWPOLYLINE
  5
F3
330
C3
100
AcDbEntity
  8
AM_4
100
AcDbPolyline
 90
       13
 70
     0
 43
0.0
 10
-1.802667808376442
 20
0.291721274760351
 10
-1.797666409885437
 20
0.2849897320260933
 10
-1.786806986054667
 20
0.2665043172006773
 10
-1.777292084543533
 20
0.2445660431133233
 10
-1.769156066844676
 20
0.2186720564829038
 10
-1.763073842876829
 20
0.1904330565517885
 10
-1.759179044164696
 20
0.1594108919506735
 10
-1.75785094021359
 20
0.127526945247891
 10
-1.759233086603205
 20
0.094956111866257
 10
-1.763291504257725
 20
0.0633026729496869
 10
-1.76992291719397
 20
0.0334774366975944
 10
-1.778839084917835
 20
0.0063833340067964
 10
-1.781615713811275
 20
-0.0003757219627099
  0
LWPOLYLINE
  5
F4
330
C3
100
AcDbEntity
  8
AM_4
100
AcDbPolyline
 90
       19
 70
     0
 43
0.0
 10
-1.892610724949046
 20
-0.0002316310551448
 10
-1.893986413770786
 20
0.0041721376836517
 10
-1.899710319952293
 20
0.026347159619536
 10
-1.904670274286224
 20
0.054240961797478
 10
-1.90793220942022
 20
0.0840551418947848
 10
-1.909492391333913
 20
0.1160130004570218
 10
-1.909232699005737
 20
0.148285716259739
 10
-1.907089767313368
 20
0.1804546774604868
 10
-1.903075617493279
 20
0.2111140878208702
 10
-1.897224641635173
 20
0.2391600445839449
 10
-1.889577750228797
 20
0.2639436375326961
 10
-1.880473785063584
 20
0.2840639180514346
 10
-1.869883648384874
 20
0.2996206356564667
 10
-1.858531271037803
 20
0.3096165963034957
 10
-1.846277948433218
 20
0.3145280049131961
 10
-1.833936344974624
 20
0.3141936376684918
 10
-1.821429128373169
 20
0.3089825112904204
 10
-1.809251931031054
 20
0.2991238494028998
 10
-1.802667808376442
 20
0.291721274760351
  0
LINE
  5
F5
330
C3
100
AcDbEntity
  8
AM_4
100
AcDbLine
 10
-2.03125
 20
0.3341666666666666
 30
0.0
 11
-2.03125
 21
0.0000000000000003
 31
0.0
  0
LINE
  5
F6
330
C3
100
AcDbEntity
  8
AM_4
100
AcDbLine
 10
2.03125
 20
0.0000000000000002
 30
0.0
 11
2.03125
 21
0.3341666666666666
 31
0.0
  0
LINE
  5
F7
330
C3
100
AcDbEntity
  8
AM_4
100
AcDbLine
 10
1.927916666666667
 20
0.4375
 30
0.0
 11
-1.927916666665317
 21
0.4375
 31
0.0
  0
LINE
  5
F8
330
C3
100
AcDbEntity
  8
AM_4
100
AcDbLine
 10
2.03125
 20
0.3341666666666666
 30
0.0
 11
-2.03125
 21
0.3341666666666666
 31
0.0
  0
ARC
  5
F9
330
C3
100
AcDbEntity
  8
AM_4
100
AcDbCircle
 10
-1.927916666666667
 20
0.3341666666666668
 30
0.0
 40
0.1033333333333332
100
AcDbArc
 50
90.0
 51
180.0
  0
ARC
  5
FA
330
C3
100
AcDbEntity
  8
AM_4
100
AcDbCircle
 10
1.927916666666667
 20
0.3341666666666666
 30
0.0
 40
0.1033333333333335
100
AcDbArc
 50
0.0
 51
90.0
  0
LWPOLYLINE
  5
FB
330
C3
100
AcDbEntity
  8
AM_4
100
AcDbPolyline
 90
       29
 70
     0
 43
0.0
 10
-0.1314352194817863
 20
-0.000182596844663
 10
-0.1473887528126832
 20
0.020478565855643
 10
-0.1623233500196552
 20
0.0474157781956196
 10
-0.1728568736360702
 20
0.0768253102026318
 10
-0.1786145498976475
 20
0.1084112222543479
 10
-0.1791163026833939
 20
0.1404983000787441
 10
-0.1741433002515942
 20
0.1731269098609498
 10
-0.1639982505278063
 20
0.2037763615238081
 10
-0.1483329199821384
 20
0.2330901393317214
 10
-0.1287622758477004
 20
0.2581186784550152
 10
-0.1043921278349535
 20
0.2800094452425054
 10
-0.0783636795888751
 20
0.2961730864211128
 10
-0.0489898099924172
 20
0.3078746844852775
 10
-0.0202778723639901
 20
0.3137984460413339
 10
0.0099298765264778
 20
0.3147125698837588
 10
0.0381552079961663
 20
0.3107107074189492
 10
0.0660950973848305
 20
0.3018143321773686
 10
0.0915775702846385
 20
0.2887437185712033
 10
0.1152222506188437
 20
0.2712508265046334
 10
0.135851918614775
 20
0.2500384610474632
 10
0.1532536310803199
 20
0.2251319567118345
 10
0.1666193779775132
 20
0.1973148797585424
 10
0.17553706284074
 20
0.1668840494229079
 10
0.1793958786732864
 20
0.1352348969105047
 10
0.1779409728618023
 20
0.1024825291959747
 10
0.1711610207365659
 20
0.0709025479645739
 10
0.1587953401032176
 20
0.0400486378633654
 10
0.1457731833775861
 20
0.0180933908197304
 10
0.1295672609967952
 20
-0.0022477358571911
  0
ARC
  5
FC
330
C3
100
AcDbEntity
  8
AM_4
100
AcDbCircle
 10
0.0
 20
0.1275000000000001
 30
0.0
 40
0.15365
100
AcDbArc
 50
303.9209794537371
 51
236.0790205462629
  0
CIRCLE
  5
FD
330
C3
100
AcDbEntity
  8
AM_5
100
AcDbCircle
 10
0.0
 20
0.1275000000000002
 30
0.0
 40
0.1875
  0
ENDBLK
  5
C6
330
C3
100
AcDbEntity
  8
0
100
AcDbBlockEnd
  0
BLOCK
  5
100
330
FE
100
AcDbEntity
  8
0
100
AcDbBlockBegin
  2
4_405015E_Inch_0_in_023464_4
 70
     2
 10
0.0
 20
0.0
 30
0.0
  3
4_405015E_Inch_0_in_023464_4
  1

  0
ATTDEF
  5
102
330
FE
100
AcDbEntity
  8
AM_6
100
AcDbText
 10
5.21875
 20
-1.309909257229539
 30
0.0
 40
0.5
  1
405015E -Inch
100
AcDbAttributeDefinition
  3

  2
NN
 70
     8
280
     0
  0
ATTDEF
  5
103
330
FE
100
AcDbEntity
  8
AM_6
100
AcDbText
 10
5.21875
 20
-1.809909257229539
 30
0.0
 40
0.5
  1
Grease Fitting
100
AcDbAttributeDefinition
  3

  2
NT
 70
     8
280
     0
  0
ATTDEF
  5
104
330
FE
100
AcDbEntity
  8
AM_6
100
AcDbText
 10
5.21875
 20
-2.309909257229538
 30
0.0
 40
0.5
  1
405015E-Inch
100
AcDbAttributeDefinition
  3

  2
NB
 70
     8
280
     0
  0
ATTDEF
  5
105
330
FE
100
AcDbEntity
  8
AM_6
100
AcDbText
 10
5.21875
 20
-2.809909257229538
 30
0.0
 40
0.5
  1
$MN.-Inch
100
AcDbAttributeDefinition
  3

  2
NBSYN
 70
     8
280
     0
  0
ATTDEF
  5
106
330
FE
100
AcDbEntity
  8
AM_6
100
AcDbText
 10
5.21875
 20
-3.309909257229538
 30
0.0
 40
0.5
  1
405015E
100
AcDbAttributeDefinition
  3

  2
LINA
 70
     8
280
     0
  0
ATTDEF
  5
107
330
FE
100
AcDbEntity
  8
AM_6
100
AcDbText
 10
5.21875
 20
-3.809909257229538
 30
0.0
 40
0.5
  1
405015E
100
AcDbAttributeDefinition
  3

  2
MN
 70
     8
280
     0
  0
ATTDEF
  5
108
330
FE
100
AcDbEntity
  8
AM_6
100
AcDbText
 10
5.21875
 20
-4.309909257229538
 30
0.0
 40
0.5
  1
1/8 x 27PTF
100
AcDbAttributeDefinition
  3

  2
T
 70
     8
280
     0
  0
ATTDEF
  5
109
330
FE
100
AcDbEntity
  8
AM_6
100
AcDbText
 10
5.21875
 20
-4.809909257229538
 30
0.0
 40
0.5
  1
baldor
100
AcDbAttributeDefinition
  3

  2
COMPANY
 70
     8
280
     0
  0
CIRCLE
  5
10A
330
FE
100
AcDbEntity
  8
AM_9
100
AcDbCircle
 10
0.0
 20
-1.5625
 30
0.0
 40
0.161902872472269
  0
CIRCLE
  5
10B
330
FE
100
AcDbEntity
  8
AM_9
100
AcDbCircle
 10
0.0
 20
-1.5625
 30
0.0
 40
0.1986176267812154
  0
CIRCLE
  5
10C
330
FE
100
AcDbEntity
  8
AM_9
100
AcDbCircle
 10
0.0
 20
-1.5625
 30
0.0
 40
0.2057518972230696
  0
LINE
  5
10D
330
FE
100
AcDbEntity
  8
AM_9
100
AcDbLine
 10
-0.21875
 20
-1.436204628614769
 30
0.0
 11
-0.21875
 21
-1.68879537138523
 31
0.0
  0
LINE
  5
10E
330
FE
100
AcDbEntity
  8
AM_9
100
AcDbLine
 10
-0.21875
 20
-1.68879537138523
 30
0.0
 11
0.0
 21
-1.815090742770461
 31
0.0
  0
LINE
  5
10F
330
FE
100
AcDbEntity
  8
AM_9
100
AcDbLine
 10
0.0
 20
-1.309909257229539
 30
0.0
 11
-0.21875
 21
-1.436204628614769
 31
0.0
  0
LINE
  5
110
330
FE
100
AcDbEntity
  8
AM_9
100
AcDbLine
 10
0.21875
 20
-1.688795371385231
 30
0.0
 11
0.21875
 21
-1.436204628614769
 31
0.0
  0
LINE
  5
111
330
FE
100
AcDbEntity
  8
AM_9
100
AcDbLine
 10
0.21875
 20
-1.436204628614769
 30
0.0
 11
0.0
 21
-1.309909257229539
 31
0.0
  0
LINE
  5
112
330
FE
100
AcDbEntity
  8
AM_9
100
AcDbLine
 10
0.0
 20
-1.815090742770461
 30
0.0
 11
0.21875
 21
-1.688795371385231
 31
0.0
  0
CIRCLE
  5
113
330
FE
100
AcDbEntity
  8
AM_9
100
AcDbCircle
 10
0.0
 20
-1.5625
 30
0.0
 40
0.21375
  0
CIRCLE
  5
114
330
FE
100
AcDbEntity
  8
AM_9
100
AcDbCircle
 10
0.0
 20
-1.5625
 30
0.0
 40
0.1725340532830154
  0
CIRCLE
  5
115
330
FE
100
AcDbEntity
  8
AM_9
100
AcDbCircle
 10
0.0
 20
-1.5625
 30
0.0
 40
0.1188200907348975
  0
CIRCLE
  5
116
330
FE
100
AcDbEntity
  8
AM_9
100
AcDbCircle
 10
0.0
 20
-1.5625
 30
0.0
 40
0.105
  0
CIRCLE
  5
117
330
FE
100
AcDbEntity
  8
AM_9
100
AcDbCircle
 10
0.0
 20
-1.5625
 30
0.0
 40
0.1026779019331875
  0
CIRCLE
  5
118
330
FE
100
AcDbEntity
  8
AM_9
100
AcDbCircle
 10
0.0
 20
-1.5625
 30
0.0
 40
0.135
  0
ARC
  5
119
330
FE
100
AcDbEntity
  8
AM_5
100
AcDbCircle
 10
0.0
 20
-1.5625
 30
0.0
 40
0.2025000049999998
100
AcDbArc
 50
75.0
 51
14.99999999999994
  0
CIRCLE
  5
11A
330
FE
100
AcDbEntity
  8
AM_9
100
AcDbCircle
 10
0.0
 20
-1.562499999999999
 30
0.0
 40
0.2187499999999989
  0
ARC
  5
11B
330
FE
100
AcDbEntity
  8
AM_5
100
AcDbCircle
 10
0.0000000000000001
 20
-1.5625
 30
0.0
 40
0.2025000050000003
100
AcDbArc
 50
255.0
 51
195.0000000000001
  0
ENDBLK
  5
101
330
FE
100
AcDbEntity
  8
0
100
AcDbBlockEnd
  0
BLOCK
  5
11E
330
11C
100
AcDbEntity
  8
0
100
AcDbBlockBegin
  2
5_023520_Insert_0_in_023464_4
 70
     2
 10
0.0
 20
0.0
 30
0.0
  3
5_023520_Insert_0_in_023464_4
  1

  0
ATTDEF
  5
120
330
11C
100
AcDbEntity
  8
AM_6
100
AcDbText
 10
7.591163228739673
 20
0.6375
 30
0.0
 40
0.5
  1
S-1 Unit -Insert -Inch
100
AcDbAttributeDefinition
  3

  2
NN
 70
     8
280
     0
  0
ATTDEF
  5
121
330
11C
100
AcDbEntity
  8
AM_6
100
AcDbText
 10
7.591163228739673
 20
0.1375
 30
0.0
 40
0.5
  1
Double-Interlock Bearings
100
AcDbAttributeDefinition
  3

  2
NT
 70
     8
280
     0
  0
ATTDEF
  5
122
330
11C
100
AcDbEntity
  8
AM_6
100
AcDbText
 10
7.591163228739673
 20
-0.3625
 30
0.0
 40
0.5
  1
023520-Insert
100
AcDbAttributeDefinition
  3

  2
NB
 70
     8
280
     0
  0
ATTDEF
  5
123
330
11C
100
AcDbEntity
  8
AM_6
100
AcDbText
 10
7.591163228739673
 20
-0.8625
 30
0.0
 40
0.5
  1
$PN.-Insert
100
AcDbAttributeDefinition
  3

  2
NBSYN
 70
     8
280
     0
  0
ATTDEF
  5
124
330
11C
100
AcDbEntity
  8
AM_6
100
AcDbText
 10
7.591163228739673
 20
-1.3625
 30
0.0
 40
0.5
  1
023520-Insert
100
AcDbAttributeDefinition
  3

  2
LINA
 70
     8
280
     0
  0
ATTDEF
  5
125
330
11C
100
AcDbEntity
  8
AM_6
100
AcDbText
 10
7.591163228739673
 20
-1.8625
 30
0.0
 40
0.5
  1
2-7/16
100
AcDbAttributeDefinition
  3

  2
SS
 70
     8
280
     0
  0
ATTDEF
  5
126
330
11C
100
AcDbEntity
  8
AM_6
100
AcDbText
 10
7.591163228739673
 20
-2.3625
 30
0.0
 40
0.5
  1
023520
100
AcDbAttributeDefinition
  3

  2
PN
 70
     8
280
     0
  0
ATTDEF
  5
127
330
11C
100
AcDbEntity
  8
AM_6
100
AcDbText
 10
7.591163228739673
 20
-2.8625
 30
0.0
 40
0.5
  1
S1U-DI-207R
100
AcDbAttributeDefinition
  3

  2
DESCRIPTION
 70
     8
280
     0
  0
ATTDEF
  5
128
330
11C
100
AcDbEntity
  8
AM_6
100
AcDbText
 10
7.591163228739673
 20
-3.3625
 30
0.0
 40
0.5
  1
4
100
AcDbAttributeDefinition
  3

  2
A
 70
     8
280
     0
  0
ATTDEF
  5
129
330
11C
100
AcDbEntity
  8
AM_6
100
AcDbText
 10
7.591163228739673
 20
-3.8625
 30
0.0
 40
0.5
  1
2-3/4
100
AcDbAttributeDefinition
  3

  2
B
 70
     8
280
     0
  0
ATTDEF
  5
12A
330
11C
100
AcDbEntity
  8
AM_6
100
AcDbText
 10
7.591163228739673
 20
-4.3625
 30
0.0
 40
0.5
  1
1-7/16
100
AcDbAttributeDefinition
  3

  2
C
 70
     8
280
     0
  0
ATTDEF
  5
12B
330
11C
100
AcDbEntity
  8
AM_6
100
AcDbText
 10
7.591163228739673
 20
-4.8625
 30
0.0
 40
0.5
  1
4.812
100
AcDbAttributeDefinition
  3

  2
EM
 70
     8
280
     0
  0
ATTDEF
  5
12C
330
11C
100
AcDbEntity
  8
AM_6
100
AcDbText
 10
7.591163228739673
 20
-5.3625
 30
0.0
 40
0.5
  1
4-7/8
100
AcDbAttributeDefinition
  3

  2
EC
 70
     8
280
     0
  0
ATTDEF
  5
12D
330
11C
100
AcDbEntity
  8
AM_6
100
AcDbText
 10
7.591163228739673
 20
-5.8625
 30
0.0
 40
0.5
  1
11/16
100
AcDbAttributeDefinition
  3

  2
H
 70
     8
280
     0
  0
ATTDEF
  5
12E
330
11C
100
AcDbEntity
  8
AM_6
100
AcDbText
 10
7.591163228739673
 20
-6.3625
 30
0.0
 40
0.5
  1
5.1865
100
AcDbAttributeDefinition
  3

  2
K
 70
     8
280
     0
  0
ATTDEF
  5
12F
330
11C
100
AcDbEntity
  8
AM_6
100
AcDbText
 10
7.591163228739673
 20
-6.8625
 30
0.0
 40
0.5
  1
+0.000 to -0.002
100
AcDbAttributeDefinition
  3

  2
TOL
 70
     8
280
     0
  0
ATTDEF
  5
130
330
11C
100
AcDbEntity
  8
AM_6
100
AcDbText
 10
7.591163228739673
 20
-7.3625
 30
0.0
 40
0.5
  1
4-1/16
100
AcDbAttributeDefinition
  3

  2
L
 70
     8
280
     0
  0
ATTDEF
  5
131
330
11C
100
AcDbEntity
  8
AM_6
100
AcDbText
 10
7.591163228739673
 20
-7.8625
 30
0.0
 40
0.5
  1
3.41
100
AcDbAttributeDefinition
  3

  2
M
 70
     8
280
     0
  0
ATTDEF
  5
132
330
11C
100
AcDbEntity
  8
AM_6
100
AcDbText
 10
7.591163228739673
 20
-8.3625
 30
0.0
 40
0.5
  1
baldor
100
AcDbAttributeDefinition
  3

  2
COMPANY
 70
     8
280
     0
  0
LINE
  5
133
330
11C
100
AcDbEntity
  8
AM_9
100
AcDbLine
 10
-1.332262887960291
 20
-0.0774999999999999
 30
0.0
 11
-1.104458266192005
 21
-0.0774999999999999
 31
0.0
  0
LINE
  5
134
330
11C
100
AcDbEntity
  8
AM_9
100
AcDbLine
 10
-1.104534722396004
 20
0.3324999999999998
 30
0.0
 11
-1.33218711039985
 21
0.3324999999999998
 31
0.0
  0
LWPOLYLINE
  5
135
330
11C
100
AcDbEntity
  8
AM_9
100
AcDbPolyline
 90
       21
 70
     0
 43
0.0
 10
-1.104569619821105
 20
-0.0774999993300068
 10
-1.094931128467441
 20
-0.0762779550432931
 10
-1.079821545021566
 20
-0.0697415840385552
 10
-1.064650438772503
 20
-0.0578080466516476
 10
-1.049902755151483
 20
-0.0406611327557423
 10
-1.036230031545063
 20
-0.0188926999001547
 10
-1.024091098813451
 20
0.0073047190635541
 10
-1.014196028176798
 20
0.0369144575011451
 10
-1.00706247855446
 20
0.0691967514712669
 10
-1.003023764245674
 20
0.10316858579052
 10
-1.002342510102828
 20
0.1374371831167644
 10
-1.004927446644613
 20
0.1714226148383957
 10
-1.010650638802965
 20
0.203935670341081
 10
-1.019176584577287
 20
0.2343252373057164
 10
-1.030245646176242
 20
0.2619754209787627
 10
-1.043241419139136
 20
0.2858837536347789
 10
-1.057772927911255
 20
0.3055247745074404
 10
-1.073087194259603
 20
0.3201258413560082
 10
-1.088511874315733
 20
0.3291525137441237
 10
-1.103570798769614
 20
0.3324866214598201
 10
-1.104556991204387
 20
0.3324999995680452
  0
LWPOLYLINE
  5
136
330
11C
100
AcDbEntity
  8
AM_9
100
AcDbPolyline
 90
       10
 70
     0
 43
0.0
 10
-1.104556991204387
 20
0.3324999995680452
 10
-1.117594432479565
 20
0.3300076840368911
 10
-1.130430134903845
 20
0.3219495515227794
 10
-1.141774276191843
 20
0.3084953083492256
 10
-1.151515378289319
 20
0.2900963151161152
 10
-1.159642084529728
 20
0.2669053256398158
 10
-1.166050827977469
 20
0.2398071141211986
 10
-1.170784598892302
 20
0.2092757055888539
 10
-1.173863421450654
 20
0.1763823912792295
 10
-1.175461567401798
 20
0.1274999999999999
  0
LWPOLYLINE
  5
137
330
11C
100
AcDbEntity
  8
AM_9
100
AcDbPolyline
 90
        8
 70
     0
 43
0.0
 10
-1.256622334621575
 20
-0.0003820463253723
 10
-1.259984413163226
 20
-0.0080596989194401
 10
-1.272632178715926
 20
-0.0318514244875389
 10
-1.28677451853363
 20
-0.0512623291188041
 10
-1.301747191318942
 20
-0.0656185366281311
 10
-1.316938967536531
 20
-0.0744060511464665
 10
-1.33188092404375
 20
-0.0774979095017046
 10
-1.332269890195177
 20
-0.077499999910733
  0
LWPOLYLINE
  5
138
330
11C
100
AcDbEntity
  8
AM_9
100
AcDbPolyline
 90
       15
 70
     0
 43
0.0
 10
-1.33227992806566
 20
0.3324999992356992
 10
-1.322484519753496
 20
0.3312302090596957
 10
-1.307476580024336
 20
0.3245836120127157
 10
-1.292535745256103
 20
0.3124945934244477
 10
-1.278146616819186
 20
0.2951733379457527
 10
-1.264903732586876
 20
0.2732066530083684
 10
-1.253274252271301
 20
0.2469038894765394
 10
-1.243858159770483
 20
0.217217634597043
 10
-1.237124383126524
 20
0.1849152246583423
 10
-1.233357859461284
 20
0.1509634608322694
 10
-1.232790325309992
 20
0.1166162742281217
 10
-1.235350877507819
 20
0.0825780734548367
 10
-1.240935527503694
 20
0.049967286314386
 10
-1.249234697637844
 20
0.0195200233592408
 10
-1.256622334621575
 20
-0.0003820463253723
  0
LWPOLYLINE
  5
139
330
11C
100
AcDbEntity
  8
AM_9
100
AcDbPolyline
 90
        5
 70
     0
 43
0.0
 10
-1.392034048488397
 20
-0.0004363571867134
 10
-1.396004047691731
 20
0.0169068233569115
 10
-1.40101409445907
 20
0.0475577272755434
 10
-1.404270457600155
 20
0.080500707716885
 10
-1.405890623028544
 20
0.1274999999999999
  0
LWPOLYLINE
  5
13A
330
11C
100
AcDbEntity
  8
AM_9
100
AcDbPolyline
 90
        7
 70
     0
 43
0.0
 10
-1.332269890195177
 20
-0.077499999910733
 10
-1.345975800620107
 20
-0.074765850087044
 10
-1.359002493254403
 20
-0.0664233888714795
 10
-1.370647220752903
 20
-0.0526479146981681
 10
-1.380753620768268
 20
-0.0339019015349251
 10
-1.389245449046793
 20
-0.0104353961912954
 10
-1.392034048488397
 20
-0.0004363571867134
  0
LINE
  5
13B
330
11C
100
AcDbEntity
  8
AM_9
100
AcDbLine
 10
-1.332262887960291
 20
-3.4575
 30
0.0
 11
-1.104458266192005
 21
-3.4575
 31
0.0
  0
LINE
  5
13C
330
11C
100
AcDbEntity
  8
AM_9
100
AcDbLine
 10
-1.104534722396004
 20
-3.0475
 30
0.0
 11
-1.33218711039985
 21
-3.0475
 31
0.0
  0
LWPOLYLINE
  5
13D
330
11C
100
AcDbEntity
  8
AM_9
100
AcDbPolyline
 90
       21
 70
     0
 43
0.0
 10
-1.104569619821105
 20
-3.457499999330007
 10
-1.094931128467441
 20
-3.456277955043293
 10
-1.079821545021566
 20
-3.449741584038555
 10
-1.064650438772503
 20
-3.437808046651648
 10
-1.049902755151483
 20
-3.420661132755742
 10
-1.036230031545063
 20
-3.398892699900155
 10
-1.024091098813451
 20
-3.372695280936446
 10
-1.014196028176798
 20
-3.343085542498855
 10
-1.00706247855446
 20
-3.310803248528733
 10
-1.003023764245674
 20
-3.27683141420948
 10
-1.002342510102828
 20
-3.242562816883236
 10
-1.004927446644613
 20
-3.208577385161604
 10
-1.010650638802965
 20
-3.176064329658919
 10
-1.019176584577287
 20
-3.145674762694284
 10
-1.030245646176242
 20
-3.118024579021237
 10
-1.043241419139136
 20
-3.094116246365221
 10
-1.057772927911255
 20
-3.07447522549256
 10
-1.073087194259603
 20
-3.059874158643991
 10
-1.088511874315733
 20
-3.050847486255877
 10
-1.103570798769614
 20
-3.04751337854018
 10
-1.104556991204387
 20
-3.047500000431955
  0
LWPOLYLINE
  5
13E
330
11C
100
AcDbEntity
  8
AM_9
100
AcDbPolyline
 90
       10
 70
     0
 43
0.0
 10
-1.104556991204387
 20
-3.047500000431955
 10
-1.117594432479565
 20
-3.049992315963109
 10
-1.130430134903845
 20
-3.058050448477221
 10
-1.141774276191843
 20
-3.071504691650774
 10
-1.151515378289319
 20
-3.089903684883884
 10
-1.159642084529728
 20
-3.113094674360185
 10
-1.166050827977469
 20
-3.140192885878801
 10
-1.170784598892302
 20
-3.170724294411146
 10
-1.173863421450654
 20
-3.203617608720771
 10
-1.175461567401798
 20
-3.2525
  0
LWPOLYLINE
  5
13F
330
11C
100
AcDbEntity
  8
AM_9
100
AcDbPolyline
 90
       21
 70
     0
 43
0.0
 10
-1.33227992806566
 20
-3.047500000764301
 10
-1.322484519753496
 20
-3.048769790940304
 10
-1.307476580024336
 20
-3.055416387987284
 10
-1.292535745256103
 20
-3.067505406575552
 10
-1.278146616819186
 20
-3.084826662054247
 10
-1.264903732586876
 20
-3.106793346991632
 10
-1.253274252271301
 20
-3.133096110523461
 10
-1.243858159770483
 20
-3.162782365402957
 10
-1.237124383126524
 20
-3.195084775341657
 10
-1.233357859461284
 20
-3.22903653916773
 10
-1.232790325309992
 20
-3.263383725771878
 10
-1.235350877507819
 20
-3.297421926545164
 10
-1.240935527503694
 20
-3.330032713685614
 10
-1.249234697637844
 20
-3.360479976640759
 10
-1.259984413163226
 20
-3.38805969891944
 10
-1.272632178715926
 20
-3.411851424487539
 10
-1.28677451853363
 20
-3.431262329118804
 10
-1.301747191318942
 20
-3.445618536628131
 10
-1.316938967536531
 20
-3.454406051146466
 10
-1.33188092404375
 20
-3.457497909501705
 10
-1.332269890195177
 20
-3.457499999910733
  0
LWPOLYLINE
  5
140
330
11C
100
AcDbEntity
  8
AM_9
100
AcDbPolyline
 90
       10
 70
     0
 43
0.0
 10
-1.332269890195177
 20
-3.457499999910733
 10
-1.345975800620107
 20
-3.454765850087044
 10
-1.359002493254403
 20
-3.44642338887148
 10
-1.370647220752903
 20
-3.432647914698168
 10
-1.380753620768268
 20
-3.413901901534925
 10
-1.389245449046793
 20
-3.390435396191295
 10
-1.396004047691731
 20
-3.363093176643089
 10
-1.40101409445907
 20
-3.332442272724457
 10
-1.404270457600155
 20
-3.299499292283115
 10
-1.405890623028544
 20
-3.2525
  0
LWPOLYLINE
  5
141
330
11C
100
AcDbEntity
  8
AM_9
100
AcDbPolyline
 90
        7
 70
     0
 43
0.0
 10
-1.162772707154383
 20
-0.0000337770316892
 10
-1.155572673945597
 20
-0.0246510933655206
 10
-1.146526644412504
 20
-0.0455178899181043
 10
-1.135694217158819
 20
-0.0615600354140118
 10
-1.12327713357505
 20
-0.0722360596504451
 10
-1.109606067799191
 20
-0.0771224383398146
 10
-1.104569619821105
 20
-0.0774999993300068
  0
LWPOLYLINE
  5
142
330
11C
100
AcDbEntity
  8
AM_9
100
AcDbPolyline
 90
        6
 70
     0
 43
0.0
 10
-1.175461567401798
 20
0.1274999999999999
 10
-1.174688387641965
 20
0.0933604064873899
 10
-1.172365911505428
 20
0.0601897837753838
 10
-1.168446841157104
 20
0.0289591471807433
 10
-1.162894738545294
 20
0.0004763050049503
 10
-1.162772707154383
 20
-0.0000337770316892
  0
LWPOLYLINE
  5
143
330
11C
100
AcDbEntity
  8
AM_9
100
AcDbPolyline
 90
       11
 70
     0
 43
0.0
 10
-1.175461567401798
 20
-3.2525
 10
-1.174688387641965
 20
-3.28663959351261
 10
-1.172365911505428
 20
-3.319810216224616
 10
-1.168446841157104
 20
-3.351040852819257
 10
-1.162894738545294
 20
-3.37952369499505
 10
-1.155572673945597
 20
-3.404651093365521
 10
-1.146526644412504
 20
-3.425517889918104
 10
-1.135694217158819
 20
-3.441560035414012
 10
-1.12327713357505
 20
-3.452236059650445
 10
-1.109606067799191
 20
-3.457122438339814
 10
-1.104569619821105
 20
-3.457499999330007
  0
LINE
  5
144
330
11C
100
AcDbEntity
  8
AM_9
100
AcDbLine
 10
-1.21875
 20
0.4374999999999999
 30
0.0
 11
-1.21875
 21
-3.5625
 31
0.0
  0
LINE
  5
145
330
11C
100
AcDbEntity
  8
AM_9
100
AcDbLine
 10
1.21875
 20
-3.5625
 30
0.0
 11
1.21875
 21
0.4374999999999999
 31
0.0
  0
LWPOLYLINE
  5
146
330
11C
100
AcDbEntity
  8
AM_9
100
AcDbPolyline
 90
        6
 70
     0
 43
0.0
 10
0.1604667006192264
 20
-0.0000752248376604
 10
0.1383167812360361
 20
-0.0238058757236564
 10
0.1105975159300158
 20
-0.0451070377189468
 10
0.0804191508910079
 20
-0.0610676540925545
 10
0.0470046437876768
 20
-0.0720383759139921
 10
0.0
 20
-0.0774999999999999
  0
LWPOLYLINE
  5
147
330
11C
100
AcDbEntity
  8
AM_9
100
AcDbPolyline
 90
       29
 70
     0
 43
0.0
 10
-0.1601855147927572
 20
-0.0004281081333551
 10
-0.1732762596272026
 20
0.0179539464444005
 10
-0.189053116251305
 20
0.0482288246859515
 10
-0.19982058024179
 20
0.0817098732057406
 10
-0.2046384715487067
 20
0.1153305315560145
 10
-0.2037294275611152
 20
0.1502886012212309
 10
-0.1972360132667687
 20
0.1833834060399958
 10
-0.1849967719098501
 20
0.2158243702662798
 10
-0.1679708723513857
 20
0.2450193007191351
 10
-0.1457133216555274
 20
0.2716964905679498
 10
-0.1198236665071457
 20
0.2938348699004038
 10
-0.0897209782840249
 20
0.3118234821062077
 10
-0.0579116372603069
 20
0.3241500502665346
 10
-0.0234709854816228
 20
0.3311519404290602
 10
0.0103822621415713
 20
0.3322369254258344
 10
0.0449171230672785
 20
0.3275186292707731
 10
0.0770935778455117
 20
0.3174515208019614
 10
0.1079865678828581
 20
0.3017524064593681
 10
0.1352135925565483
 20
0.2815853152897825
 10
0.159355601684475
 20
0.2564604288600922
 10
0.1785374247792571
 20
0.2282441708149464
 10
0.1931195866985981
 20
0.1962737248763121
 10
0.2018402835971685
 20
0.1633538689323006
 10
0.2049979448699192
 20
0.1284179319743702
 10
0.2023647542478387
 20
0.0947355949510472
 10
0.1939234596592642
 20
0.0610267588139275
 10
0.1803971037204798
 20
0.0301250290410185
 10
0.1614081261730249
 20
0.001117972775743
 10
0.1604667006192264
 20
-0.0000752248376604
  0
LWPOLYLINE
  5
148
330
11C
100
AcDbEntity
  8
AM_9
100
AcDbPolyline
 90
        7
 70
     0
 43
0.0
 10
0.0
 20
-0.0774999999999999
 10
-0.0337425799948701
 20
-0.0747039522247025
 10
-0.0674851599897402
 20
-0.0660736376192771
 10
-0.0983873802480853
 20
-0.0523469443941672
 10
-0.1273567962895678
 20
-0.0331401146627379
 10
-0.1521420832116215
 20
-0.0098964574362383
 10
-0.1601855147927572
 20
-0.0004281081333551
  0
LWPOLYLINE
  5
149
330
11C
100
AcDbEntity
  8
AM_9
100
AcDbPolyline
 90
       11
 70
     0
 43
0.0
 10
-1.405890623028544
 20
0.1274999999999999
 10
-1.405035365780322
 20
0.1617253229041283
 10
-1.402479054278472
 20
0.1949813713220969
 10
-1.398194231252277
 20
0.2262975669450573
 10
-1.392184934276705
 20
0.2548495165637668
 10
-1.384379043130069
 20
0.2799507440714556
 10
-1.374865411534359
 20
0.3007739941171064
 10
-1.363655882634404
 20
0.316726374366815
 10
-1.350979522916502
 20
0.327319507838594
 10
-1.337158605461955
 20
0.3321461228374489
 10
-1.33227992806566
 20
0.3324999992356992
  0
LINE
  5
14A
330
11C
100
AcDbEntity
  8
AM_9
100
AcDbLine
 10
-1.47
 20
0.4374999999999999
 30
0.0
 11
-1.47
 21
-0.2135000000000001
 31
0.0
  0
LINE
  5
14B
330
11C
100
AcDbEntity
  8
AM_9
100
AcDbLine
 10
1.47
 20
-0.2135000000000001
 30
0.0
 11
1.47
 21
0.4374999999999999
 31
0.0
  0
LWPOLYLINE
  5
14C
330
11C
100
AcDbEntity
  8
AM_9
100
AcDbPolyline
 90
       38
 70
     0
 43
0.0
 10
0.0
 20
-3.4575
 10
-0.0337425799948701
 20
-3.454703952224703
 10
-0.0674851599897402
 20
-3.446073637619277
 10
-0.0983873802480853
 20
-3.432346944394168
 10
-0.1273567962895678
 20
-3.413140114662738
 10
-0.1521420832116215
 20
-3.389896457436238
 10
-0.1732762596272026
 20
-3.362046053555599
 10
-0.189053116251305
 20
-3.331771175314048
 10
-0.19982058024179
 20
-3.29829012679426
 10
-0.2046384715487067
 20
-3.264669468443985
 10
-0.2037294275611152
 20
-3.229711398778769
 10
-0.1972360132667687
 20
-3.196616593960004
 10
-0.1849967719098501
 20
-3.16417562973372
 10
-0.1679708723513857
 20
-3.134980699280865
 10
-0.1457133216555274
 20
-3.10830350943205
 10
-0.1198236665071457
 20
-3.086165130099596
 10
-0.0897209782840249
 20
-3.068176517893792
 10
-0.0579116372603069
 20
-3.055849949733465
 10
-0.0234709854816228
 20
-3.04884805957094
 10
0.0103822621415713
 20
-3.047763074574165
 10
0.0449171230672785
 20
-3.052481370729227
 10
0.0770935778455117
 20
-3.062548479198038
 10
0.1079865678828581
 20
-3.078247593540632
 10
0.1352135925565483
 20
-3.098414684710217
 10
0.159355601684475
 20
-3.123539571139908
 10
0.1785374247792571
 20
-3.151755829185054
 10
0.1931195866985981
 20
-3.183726275123688
 10
0.2018402835971685
 20
-3.216646131067699
 10
0.2049979448699192
 20
-3.25158206802563
 10
0.2023647542478387
 20
-3.285264405048953
 10
0.1939234596592642
 20
-3.318973241186073
 10
0.1803971037204798
 20
-3.349874970958981
 10
0.1614081261730249
 20
-3.378882027224257
 10
0.1383167812360361
 20
-3.403805875723656
 10
0.1105975159300158
 20
-3.425107037718947
 10
0.0804191508910079
 20
-3.441067654092554
 10
0.0470046437876768
 20
-3.452038375913992
 10
0.0
 20
-3.4575
  0
LWPOLYLINE
  5
14D
330
11C
100
AcDbEntity
  8
AM_9
100
AcDbPolyline
 90
       11
 70
     0
 43
0.0
 10
-1.405890623028544
 20
-3.2525
 10
-1.405035365780322
 20
-3.218274677095872
 10
-1.402479054278472
 20
-3.185018628677903
 10
-1.398194231252277
 20
-3.153702433054943
 10
-1.392184934276705
 20
-3.125150483436233
 10
-1.384379043130069
 20
-3.100049255928544
 10
-1.374865411534359
 20
-3.079226005882894
 10
-1.363655882634404
 20
-3.063273625633185
 10
-1.350979522916502
 20
-3.052680492161406
 10
-1.337158605461955
 20
-3.047853877162551
 10
-1.33227992806566
 20
-3.047500000764301
  0
LINE
  5
14E
330
11C
100
AcDbEntity
  8
AM_9
100
AcDbLine
 10
-1.47
 20
-2.942499999999999
 30
0.0
 11
-1.47
 21
-3.5625
 31
0.0
  0
LINE
  5
14F
330
11C
100
AcDbEntity
  8
AM_9
100
AcDbLine
 10
-1.47
 20
-2.9115
 30
0.0
 11
-1.47
 21
-2.9375
 31
0.0
  0
LINE
  5
150
330
11C
100
AcDbEntity
  8
AM_9
100
AcDbLine
 10
1.47
 20
-2.9375
 30
0.0
 11
1.47
 21
-2.9115
 31
0.0
  0
LINE
  5
151
330
11C
100
AcDbEntity
  8
AM_9
100
AcDbLine
 10
1.47
 20
-3.5625
 30
0.0
 11
1.47
 21
-2.942499999999999
 31
0.0
  0
LINE
  5
152
330
11C
100
AcDbEntity
  8
AM_9
100
AcDbLine
 10
-2.083333333333333
 20
-2.9115
 30
0.0
 11
-2.087917834831753
 21
-2.9375
 31
0.0
  0
LINE
  5
153
330
11C
100
AcDbEntity
  8
AM_9
100
AcDbLine
 10
2.087917834831753
 20
-2.9375
 30
0.0
 11
2.083333333333333
 21
-2.9115
 31
0.0
  0
LINE
  5
154
330
11C
100
AcDbEntity
  8
AM_9
100
AcDbLine
 10
-2.083333333333333
 20
-2.9115
 30
0.0
 11
2.083333333333333
 21
-2.9115
 31
0.0
  0
LINE
  5
155
330
11C
100
AcDbEntity
  8
AM_9
100
AcDbLine
 10
2.083333333333333
 20
-0.2135000000000001
 30
0.0
 11
-2.083333333333333
 21
-0.2135000000000001
 31
0.0
  0
LINE
  5
156
330
11C
100
AcDbEntity
  8
AM_9
100
AcDbLine
 10
2.083333333333333
 20
-0.2135000000000001
 30
0.0
 11
2.087917834831754
 21
-0.1875000000000001
 31
0.0
  0
LINE
  5
157
330
11C
100
AcDbEntity
  8
AM_9
100
AcDbLine
 10
-2.087917834831754
 20
-0.1875000000000001
 30
0.0
 11
-2.083333333333333
 21
-0.2135000000000001
 31
0.0
  0
LINE
  5
158
330
11C
100
AcDbEntity
  8
AM_9
100
AcDbLine
 10
2.365
 20
-0.1875000000000001
 30
0.0
 11
-2.364999999990764
 21
-0.1875000000000001
 31
0.0
  0
ARC
  5
159
330
11C
100
AcDbEntity
  8
AM_9
100
AcDbCircle
 10
-2.365
 20
-0.2285000000000003
 30
0.0
 40
0.0410000000000002
100
AcDbArc
 50
90.0
 51
180.0
  0
ARC
  5
15A
330
11C
100
AcDbEntity
  8
AM_9
100
AcDbCircle
 10
2.365
 20
-0.2285000000000003
 30
0.0
 40
0.0410000000000004
100
AcDbArc
 50
0.0
 51
90.0
  0
LINE
  5
15B
330
11C
100
AcDbEntity
  8
AM_9
100
AcDbLine
 10
2.406
 20
-0.2285
 30
0.0
 11
-2.406
 21
-0.2285
 31
0.0
  0
LINE
  5
15C
330
11C
100
AcDbEntity
  8
AM_9
100
AcDbLine
 10
-2.406
 20
-0.2285
 30
0.0
 11
-2.406
 21
-0.84375
 31
0.0
  0
LINE
  5
15D
330
11C
100
AcDbEntity
  8
AM_9
100
AcDbLine
 10
2.406
 20
-0.84375
 30
0.0
 11
2.406
 21
-0.2285
 31
0.0
  0
LINE
  5
15E
330
11C
100
AcDbEntity
  8
AM_9
100
AcDbLine
 10
-2.4375
 20
-2.28125
 30
0.0
 11
-2.4375
 21
-2.8965
 31
0.0
  0
LINE
  5
15F
330
11C
100
AcDbEntity
  8
AM_9
100
AcDbLine
 10
2.4375
 20
-2.8965
 30
0.0
 11
2.4375
 21
-2.28125
 31
0.0
  0
LINE
  5
160
330
11C
100
AcDbEntity
  8
AM_9
100
AcDbLine
 10
2.4375
 20
-2.8965
 30
0.0
 11
-2.4375
 21
-2.8965
 31
0.0
  0
ARC
  5
161
330
11C
100
AcDbEntity
  8
AM_9
100
AcDbCircle
 10
-2.396500000000001
 20
-2.896500000000001
 30
0.0
 40
0.0409999999999995
100
AcDbArc
 50
180.0
 51
270.0
  0
ARC
  5
162
330
11C
100
AcDbEntity
  8
AM_9
100
AcDbCircle
 10
2.396500000000001
 20
-2.896500000000001
 30
0.0
 40
0.0409999999999995
100
AcDbArc
 50
270.0
 51
0.0
  0
LINE
  5
163
330
11C
100
AcDbEntity
  8
AM_9
100
AcDbLine
 10
2.491654871766954
 20
-0.84375
 30
0.0
 11
-2.491654871766952
 21
-0.84375
 31
0.0
  0
LINE
  5
164
330
11C
100
AcDbEntity
  8
AM_9
100
AcDbLine
 10
2.491654871766955
 20
-2.28125
 30
0.0
 11
-2.491654871766953
 21
-2.28125
 31
0.0
  0
ARC
  5
165
330
11C
100
AcDbEntity
  8
AM_9
100
AcDbCircle
 10
-0.0000000000000462
 20
-1.562500000000003
 30
0.0
 40
2.593249999999954
100
AcDbArc
 50
163.9091114233999
 51
196.0908885766
  0
ARC
  5
166
330
11C
100
AcDbEntity
  8
AM_9
100
AcDbCircle
 10
0.0000000000000488
 20
-1.562500000000002
 30
0.0
 40
2.593249999999951
100
AcDbArc
 50
343.9091114234
 51
16.09088857660009
  0
CIRCLE
  5
167
330
11C
100
AcDbEntity
  8
AM_9
100
AcDbCircle
 10
0.0
 20
-1.562500000000001
 30
0.0
 40
0.4191160419784279
  0
CIRCLE
  5
168
330
11C
100
AcDbEntity
  8
AM_9
100
AcDbCircle
 10
0.0
 20
-1.5625
 30
0.0
 40
0.3492279138603985
  0
CIRCLE
  5
169
330
11C
100
AcDbEntity
  8
AM_9
100
AcDbCircle
 10
0.0
 20
-1.5625
 30
0.0
 40
0.3087326918959979
  0
LINE
  5
16A
330
11C
100
AcDbEntity
  8
AM_7
100
AcDbLine
 10
-0.4400718440773493
 20
-1.562500000000001
 30
0.0
 11
0.4400718440773493
 21
-1.562500000000001
 31
0.0
  0
LINE
  5
16B
330
11C
100
AcDbEntity
  8
AM_7
100
AcDbLine
 10
0.0
 20
0.6375
 30
0.0
 11
0.0
 21
-3.7625
 31
0.0
  0
LINE
  5
16C
330
11C
100
AcDbEntity
  8
AM_4
100
AcDbLine
 10
-1.47
 20
-2.9375
 30
0.0
 11
-1.47
 21
-2.942499999999999
 31
0.0
  0
LINE
  5
16D
330
11C
100
AcDbEntity
  8
AM_4
100
AcDbLine
 10
1.47
 20
-2.942499999999999
 30
0.0
 11
1.47
 21
-2.9375
 31
0.0
  0
ENDBLK
  5
11F
330
11C
100
AcDbEntity
  8
0
100
AcDbBlockEnd
  0
BLOCK
  5
170
330
16E
100
AcDbEntity
  8
0
100
AcDbBlockBegin
  2
6_023464H_0_in_023464_4
 70
     2
 10
0.0
 20
0.0
 30
0.0
  3
6_023464H_0_in_023464_4
  1

  0
ATTDEF
  5
172
330
16E
100
AcDbEntity
  8
AM_6
100
AcDbText
 10
9.28125
 20
0.0312499999999998
 30
0.0
 40
0.5
  1
F4B-DI Expansion -H -Inch
100
AcDbAttributeDefinition
  3

  2
NN
 70
     8
280
     0
  0
ATTDEF
  5
173
330
16E
100
AcDbEntity
  8
AM_6
100
AcDbText
 10
9.28125
 20
-0.4687500000000002
 30
0.0
 40
0.5
  1
Double-Interlock Flange Bearings
100
AcDbAttributeDefinition
  3

  2
NT
 70
     8
280
     0
  0
ATTDEF
  5
174
330
16E
100
AcDbEntity
  8
AM_6
100
AcDbText
 10
9.28125
 20
-0.9687500000000002
 30
0.0
 40
0.5
  1
023464H
100
AcDbAttributeDefinition
  3

  2
NB
 70
     8
280
     0
  0
ATTDEF
  5
175
330
16E
100
AcDbEntity
  8
AM_6
100
AcDbText
 10
9.28125
 20
-1.46875
 30
0.0
 40
0.5
  1
$PN.H
100
AcDbAttributeDefinition
  3

  2
NBSYN
 70
     8
280
     0
  0
ATTDEF
  5
176
330
16E
100
AcDbEntity
  8
AM_6
100
AcDbText
 10
9.28125
 20
-1.96875
 30
0.0
 40
0.5
  1
023464
100
AcDbAttributeDefinition
  3

  2
LINA
 70
     8
280
     0
  0
ATTDEF
  5
177
330
16E
100
AcDbEntity
  8
AM_6
100
AcDbText
 10
9.28125
 20
-2.46875
 30
0.0
 40
0.5
  1
2-7/16
100
AcDbAttributeDefinition
  3

  2
SS
 70
     8
280
     0
  0
ATTDEF
  5
178
330
16E
100
AcDbEntity
  8
AM_6
100
AcDbText
 10
9.28125
 20
-2.96875
 30
0.0
 40
0.5
  1
023464
100
AcDbAttributeDefinition
  3

  2
PN
 70
     8
280
     0
  0
ATTDEF
  5
179
330
16E
100
AcDbEntity
  8
AM_6
100
AcDbText
 10
9.28125
 20
-3.46875
 30
0.0
 40
0.5
  1
F4B-DI-207RE
100
AcDbAttributeDefinition
  3

  2
DESCRIPTION
 70
     8
280
     0
  0
ATTDEF
  5
17A
330
16E
100
AcDbEntity
  8
AM_6
100
AcDbText
 10
9.28125
 20
-3.96875
 30
0.0
 40
0.5
  1
Expansion Type
100
AcDbAttributeDefinition
  3

  2
EF
 70
     8
280
     0
  0
ATTDEF
  5
17B
330
16E
100
AcDbEntity
  8
AM_6
100
AcDbText
 10
9.28125
 20
-4.46875
 30
0.0
 40
0.5
  1
4
100
AcDbAttributeDefinition
  3

  2
A
 70
     8
280
     0
  0
ATTDEF
  5
17C
330
16E
100
AcDbEntity
  8
AM_6
100
AcDbText
 10
9.28125
 20
-4.96875
 30
0.0
 40
0.5
  1
7-5/8
100
AcDbAttributeDefinition
  3

  2
B
 70
     8
280
     0
  0
ATTDEF
  5
17D
330
16E
100
AcDbEntity
  8
AM_6
100
AcDbText
 10
9.28125
 20
-5.46875
 30
0.0
 40
0.5
  1
2-15/16
100
AcDbAttributeDefinition
  3

  2
C
 70
     8
280
     0
  0
ATTDEF
  5
17E
330
16E
100
AcDbEntity
  8
AM_6
100
AcDbText
 10
9.28125
 20
-5.96875
 30
0.0
 40
0.5
  1
8-1/2
100
AcDbAttributeDefinition
  3

  2
D
 70
     8
280
     0
  0
ATTDEF
  5
17F
330
16E
100
AcDbEntity
  8
AM_6
100
AcDbText
 10
9.28125
 20
-6.46875
 30
0.0
 40
0.5
  1
7/16
100
AcDbAttributeDefinition
  3

  2
E
 70
     8
280
     0
  0
ATTDEF
  5
180
330
16E
100
AcDbEntity
  8
AM_6
100
AcDbText
 10
9.28125
 20
-6.96875
 30
0.0
 40
0.5
  1
5/8
100
AcDbAttributeDefinition
  3

  2
F
 70
     8
280
     0
  0
ATTDEF
  5
181
330
16E
100
AcDbEntity
  8
AM_6
100
AcDbText
 10
9.28125
 20
-7.46875
 30
0.0
 40
0.5
  1
8-9/16
100
AcDbAttributeDefinition
  3

  2
G
 70
     8
280
     0
  0
ATTDEF
  5
182
330
16E
100
AcDbEntity
  8
AM_6
100
AcDbText
 10
9.28125
 20
-7.96875
 30
0.0
 40
0.5
  1
5/8
100
AcDbAttributeDefinition
  3

  2
H
 70
     8
280
     0
  0
ATTDEF
  5
183
330
16E
100
AcDbEntity
  8
AM_6
100
AcDbText
 10
9.28125
 20
-8.46875
 30
0.0
 40
0.5
  1
6
100
AcDbAttributeDefinition
  3

  2
J
 70
     8
280
     0
  0
ATTDEF
  5
184
330
16E
100
AcDbEntity
  8
AM_6
100
AcDbText
 10
9.28125
 20
-8.96875
 30
0.0
 40
0.5
  1
4-1/16
100
AcDbAttributeDefinition
  3

  2
L
 70
     8
280
     0
  0
ATTDEF
  5
185
330
16E
100
AcDbEntity
  8
AM_6
100
AcDbText
 10
9.28125
 20
-9.46875
 30
0.0
 40
0.5
  1
5/16
100
AcDbAttributeDefinition
  3

  2
T
 70
     8
280
     0
  0
ATTDEF
  5
186
330
16E
100
AcDbEntity
  8
AM_6
100
AcDbText
 10
9.28125
 20
-9.96875
 30
0.0
 40
0.5
  1
baldor
100
AcDbAttributeDefinition
  3

  2
COMPANY
 70
     8
280
     0
  0
LWPOLYLINE
  5
187
330
16E
100
AcDbEntity
  8
AM_9
100
AcDbPolyline
 90
        9
 70
     0
 43
0.0
 10
2.905909739866861
 20
-0.1337195592180162
 10
2.904372654705507
 20
-0.0989364433440864
 10
2.897176963197108
 20
-0.0671944128150758
 10
2.884989592476274
 20
-0.0398825173723498
 10
2.874215152867167
 20
-0.0246741890096141
 10
2.86233000055515
 20
-0.013181464730722
 10
2.849558435931757
 20
-0.0052636597540701
 10
2.836357438556544
 20
-0.0009400618786361
 10
2.826503349751586
 20
0.0000000000000001
  0
ARC
  5
188
330
16E
100
AcDbEntity
  8
AM_9
100
AcDbCircle
 10
3.023848648089019
 20
-0.1250000000000015
 30
0.0
 40
0.1250000000000014
100
AcDbArc
 50
356.0000000000006
 51
90.0
  0
LWPOLYLINE
  5
189
330
16E
100
AcDbEntity
  8
AM_9
100
AcDbPolyline
 90
       11
 70
     0
 43
0.0
 10
-2.826503349751586
 20
0.0000000000000001
 10
-2.841133307411013
 20
-0.002089565585675
 10
-2.855449689924121
 20
-0.008416017739161
 10
-2.868328563005795
 20
-0.0184151889823922
 10
-2.880216648496595
 20
-0.0324382663169857
 10
-2.888642703188272
 20
-0.0465635293583001
 10
-2.895808343099854
 20
-0.0632124716965106
 10
-2.900582103898603
 20
-0.0790392116839048
 10
-2.90398658818548
 20
-0.0962091093593901
 10
-2.905827643171345
 20
-0.1147862268042733
 10
-2.905909739866861
 20
-0.1337195592180162
  0
ARC
  5
18A
330
16E
100
AcDbEntity
  8
AM_9
100
AcDbCircle
 10
-3.023848648089019
 20
-0.1250000000000013
 30
0.0
 40
0.1250000000000014
100
AcDbArc
 50
90.0
 51
183.9999999999997
  0
LINE
  5
18B
330
16E
100
AcDbEntity
  8
AM_9
100
AcDbLine
 10
2.59325
 20
-2.9375
 30
0.0
 11
2.59325
 21
0.0
 31
0.0
  0
LINE
  5
18C
330
16E
100
AcDbEntity
  8
AM_9
100
AcDbLine
 10
-2.59325
 20
0.0
 30
0.0
 11
-2.59325
 21
-2.9375
 31
0.0
  0
LINE
  5
18D
330
16E
100
AcDbEntity
  8
AM_9
100
AcDbLine
 10
-2.88422951770996
 20
-0.6249999999999999
 30
0.0
 11
-2.905909739866861
 21
-0.1337195592180162
 31
0.0
  0
LINE
  5
18E
330
16E
100
AcDbEntity
  8
AM_9
100
AcDbLine
 10
2.905909739866861
 20
-0.1337195592180162
 30
0.0
 11
3.148544154371498
 21
-0.1337195592180163
 31
0.0
  0
LINE
  5
18F
330
16E
100
AcDbEntity
  8
AM_9
100
AcDbLine
 10
2.905909739866861
 20
-0.1337195592180162
 30
0.0
 11
2.884229517709961
 21
-0.6249999999999999
 31
0.0
  0
LINE
  5
190
330
16E
100
AcDbEntity
  8
AM_9
100
AcDbLine
 10
3.114190479377412
 20
-0.625
 30
0.0
 11
3.148544154371498
 21
-0.1337195592180163
 31
0.0
  0
LINE
  5
191
330
16E
100
AcDbEntity
  8
AM_9
100
AcDbLine
 10
-3.148544154371498
 20
-0.1337195592180163
 30
0.0
 11
-3.114190479377412
 21
-0.625
 31
0.0
  0
LINE
  5
192
330
16E
100
AcDbEntity
  8
AM_9
100
AcDbLine
 10
-3.148544154371498
 20
-0.1337195592180163
 30
0.0
 11
-2.905909739866861
 21
-0.1337195592180162
 31
0.0
  0
LINE
  5
193
330
16E
100
AcDbEntity
  8
AM_9
100
AcDbLine
 10
-2.6875
 20
-0.6249999999999999
 30
0.0
 11
-2.6875
 21
0.0000000000000002
 31
0.0
  0
LINE
  5
194
330
16E
100
AcDbEntity
  8
AM_9
100
AcDbLine
 10
-3.3125
 20
0.0000000000000002
 30
0.0
 11
-3.3125
 21
-0.6249999999999999
 31
0.0
  0
LINE
  5
195
330
16E
100
AcDbEntity
  8
AM_9
100
AcDbLine
 10
3.3125
 20
-0.6249999999999999
 30
0.0
 11
3.3125
 21
0.0000000000000002
 31
0.0
  0
LINE
  5
196
330
16E
100
AcDbEntity
  8
AM_9
100
AcDbLine
 10
2.6875
 20
0.0000000000000002
 30
0.0
 11
2.6875
 21
-0.6249999999999999
 31
0.0
  0
CIRCLE
  5
197
330
16E
100
AcDbEntity
  8
AM_9
100
AcDbCircle
 10
0.0
 20
-1.625
 30
0.0
 40
0.734375
  0
LINE
  5
198
330
16E
100
AcDbEntity
  8
AM_9
100
AcDbLine
 10
0.1613359247604584
 20
-2.625
 30
0.0
 11
-0.1613359247604584
 21
-2.625
 31
0.0
  0
LINE
  5
199
330
16E
100
AcDbEntity
  8
AM_9
100
AcDbLine
 10
0.1613359247604567
 20
-0.6249999999999998
 30
0.0
 11
-0.1613359247604568
 21
-0.6249999999999998
 31
0.0
  0
LINE
  5
19A
330
16E
100
AcDbEntity
  8
AM_9
100
AcDbLine
 10
3.703645640574856
 20
-0.6249999999999999
 30
0.0
 11
3.703645640574856
 21
0.0000000000000002
 31
0.0
  0
LINE
  5
19B
330
16E
100
AcDbEntity
  8
AM_9
100
AcDbLine
 10
-3.703645640574855
 20
-0.6249999999999999
 30
0.0
 11
-3.703645640574855
 21
0.0000000000000002
 31
0.0
  0
LINE
  5
19C
330
16E
100
AcDbEntity
  8
AM_7
100
AcDbLine
 10
-0.77109375
 20
-1.625
 30
0.0
 11
0.77109375
 21
-1.625
 31
0.0
  0
LINE
  5
19D
330
16E
100
AcDbEntity
  8
AM_7
100
AcDbLine
 10
3.0
 20
0.0312499999999998
 30
0.0
 11
3.0
 21
-0.6562500000000001
 31
0.0
  0
LINE
  5
19E
330
16E
100
AcDbEntity
  8
AM_7
100
AcDbLine
 10
-3.0
 20
0.0312499999999998
 30
0.0
 11
-3.0
 21
-0.6562500000000001
 31
0.0
  0
LINE
  5
19F
330
16E
100
AcDbEntity
  8
AM_4
100
AcDbLine
 10
2.907929629466377
 20
-2.625
 30
0.0
 11
3.65625
 21
-2.625
 31
0.0
  0
ARC
  5
1A0
330
16E
100
AcDbEntity
  8
AM_4
100
AcDbCircle
 10
3.656249999999999
 20
-1.999999999999999
 30
0.0
 40
0.6250000000000007
100
AcDbArc
 50
270.0
 51
0.0
  0
LINE
  5
1A1
330
16E
100
AcDbEntity
  8
AM_4
100
AcDbLine
 10
4.28125
 20
-1.999999999999999
 30
0.0
 11
4.28125
 21
-1.5625
 31
0.0
  0
ARC
  5
1A2
330
16E
100
AcDbEntity
  8
AM_4
100
AcDbCircle
 10
3.656249999999997
 20
-1.562500000000003
 30
0.0
 40
0.6250000000000031
100
AcDbArc
 50
0.0
 51
90.0
  0
LINE
  5
1A3
330
16E
100
AcDbEntity
  8
AM_4
100
AcDbLine
 10
3.65625
 20
-0.9375
 30
0.0
 11
3.028519683751492
 21
-0.9375
 31
0.0
  0
LINE
  5
1A4
330
16E
100
AcDbEntity
  8
AM_4
100
AcDbLine
 10
-3.028519683751492
 20
-0.9375
 30
0.0
 11
-3.65625
 21
-0.9375
 31
0.0
  0
ARC
  5
1A5
330
16E
100
AcDbEntity
  8
AM_4
100
AcDbCircle
 10
-3.656249999999999
 20
-1.562500000000001
 30
0.0
 40
0.6250000000000007
100
AcDbArc
 50
90.0
 51
180.0
  0
LINE
  5
1A6
330
16E
100
AcDbEntity
  8
AM_4
100
AcDbLine
 10
-4.28125
 20
-1.562500000000001
 30
0.0
 11
-4.28125
 21
-1.999999999999999
 31
0.0
  0
ARC
  5
1A7
330
16E
100
AcDbEntity
  8
AM_4
100
AcDbCircle
 10
-3.65625
 20
-2.0
 30
0.0
 40
0.6249999999999996
100
AcDbArc
 50
180.0
 51
270.0
  0
LINE
  5
1A8
330
16E
100
AcDbEntity
  8
AM_4
100
AcDbLine
 10
-3.65625
 20
-2.625
 30
0.0
 11
-2.907929629466377
 21
-2.625
 31
0.0
  0
LINE
  5
1A9
330
16E
100
AcDbEntity
  8
AM_4
100
AcDbLine
 10
-4.002949889635557
 20
-1.961671959121758
 30
0.0
 11
-3.690449889635557
 21
-2.142093918243516
 31
0.0
  0
LINE
  5
1AA
330
16E
100
AcDbEntity
  8
AM_4
100
AcDbLine
 10
-4.002949889635557
 20
-1.600828040878242
 30
0.0
 11
-4.002949889635557
 21
-1.961671959121758
 31
0.0
  0
LINE
  5
1AB
330
16E
100
AcDbEntity
  8
AM_4
100
AcDbLine
 10
-3.690449889635557
 20
-2.142093918243516
 30
0.0
 11
-3.377949889635557
 21
-1.961671959121758
 31
0.0
  0
LINE
  5
1AC
330
16E
100
AcDbEntity
  8
AM_4
100
AcDbLine
 10
-3.690449889635557
 20
-1.420406081756484
 30
0.0
 11
-4.002949889635557
 21
-1.600828040878242
 31
0.0
  0
LINE
  5
1AD
330
16E
100
AcDbEntity
  8
AM_4
100
AcDbLine
 10
-3.377949889635557
 20
-1.961671959121758
 30
0.0
 11
-3.377949889635557
 21
-1.600828040878242
 31
0.0
  0
LINE
  5
1AE
330
16E
100
AcDbEntity
  8
AM_4
100
AcDbLine
 10
-3.377949889635557
 20
-1.600828040878242
 30
0.0
 11
-3.690449889635557
 21
-1.420406081756484
 31
0.0
  0
LINE
  5
1AF
330
16E
100
AcDbEntity
  8
AM_4
100
AcDbLine
 10
3.690449889635557
 20
-1.420406081756484
 30
0.0
 11
3.377949889635557
 21
-1.600828040878242
 31
0.0
  0
LINE
  5
1B0
330
16E
100
AcDbEntity
  8
AM_4
100
AcDbLine
 10
3.377949889635557
 20
-1.600828040878242
 30
0.0
 11
3.377949889635557
 21
-1.961671959121758
 31
0.0
  0
LINE
  5
1B1
330
16E
100
AcDbEntity
  8
AM_4
100
AcDbLine
 10
3.377949889635557
 20
-1.961671959121758
 30
0.0
 11
3.690449889635557
 21
-2.142093918243516
 31
0.0
  0
LINE
  5
1B2
330
16E
100
AcDbEntity
  8
AM_4
100
AcDbLine
 10
3.690449889635557
 20
-2.142093918243516
 30
0.0
 11
4.002949889635557
 21
-1.961671959121758
 31
0.0
  0
LINE
  5
1B3
330
16E
100
AcDbEntity
  8
AM_4
100
AcDbLine
 10
4.002949889635557
 20
-1.961671959121758
 30
0.0
 11
4.002949889635557
 21
-1.600828040878242
 31
0.0
  0
LINE
  5
1B4
330
16E
100
AcDbEntity
  8
AM_4
100
AcDbLine
 10
4.002949889635557
 20
-1.600828040878242
 30
0.0
 11
3.690449889635557
 21
-1.420406081756484
 31
0.0
  0
LINE
  5
1B5
330
16E
100
AcDbEntity
  8
AM_4
100
AcDbLine
 10
-2.894202533874439
 20
-2.9375
 30
0.0
 11
2.894202533866581
 21
-2.9375
 31
0.0
  0
ARC
  5
1B6
330
16E
100
AcDbEntity
  8
AM_4
100
AcDbCircle
 10
2.89420253387444
 20
-2.875
 30
0.0
 40
0.0624999999999996
100
AcDbArc
 50
270.0
 51
356.0000000000003
  0
ARC
  5
1B7
330
16E
100
AcDbEntity
  8
AM_4
100
AcDbCircle
 10
-2.89420253387444
 20
-2.875
 30
0.0
 40
0.0624999999999996
100
AcDbArc
 50
183.9999999999997
 51
270.0
  0
LINE
  5
1B8
330
16E
100
AcDbEntity
  8
AM_4
100
AcDbLine
 10
-3.028519683751492
 20
-0.9375
 30
0.0
 11
-2.907929629466377
 21
-2.625
 31
0.0
  0
LINE
  5
1B9
330
16E
100
AcDbEntity
  8
AM_4
100
AcDbLine
 10
2.907929629466377
 20
-2.625
 30
0.0
 11
3.028519683751492
 21
-0.9375
 31
0.0
  0
LINE
  5
1BA
330
16E
100
AcDbEntity
  8
AM_4
100
AcDbLine
 10
-2.956550287015678
 20
-2.879359779609008
 30
0.0
 11
2.956550287015678
 21
-2.879359779609008
 31
0.0
  0
LINE
  5
1BB
330
16E
100
AcDbEntity
  8
AM_4
100
AcDbLine
 10
2.956550287015678
 20
-2.879359779609008
 30
0.0
 11
2.97433685549039
 21
-2.625
 31
0.0
  0
LINE
  5
1BC
330
16E
100
AcDbEntity
  8
AM_4
100
AcDbLine
 10
3.092338350645064
 20
-0.9375
 30
0.0
 11
3.114190479377412
 21
-0.625
 31
0.0
  0
LINE
  5
1BD
330
16E
100
AcDbEntity
  8
AM_4
100
AcDbLine
 10
-3.114190479377412
 20
-0.625
 30
0.0
 11
-3.092338350645064
 21
-0.9375
 31
0.0
  0
LINE
  5
1BE
330
16E
100
AcDbEntity
  8
AM_4
100
AcDbLine
 10
-2.97433685549039
 20
-2.625
 30
0.0
 11
-2.956550287015678
 21
-2.879359779609008
 31
0.0
  0
LINE
  5
1BF
330
16E
100
AcDbEntity
  8
AM_4
100
AcDbLine
 10
-1.21203088895203
 20
-0.1337195592180161
 30
0.0
 11
1.212030888952031
 21
-0.1337195592180161
 31
0.0
  0
ARC
  5
1C0
330
16E
100
AcDbEntity
  8
AM_4
100
AcDbCircle
 10
-1.401785714285713
 20
-1.819578040878241
 30
0.0
 40
0.3125000000000011
100
AcDbArc
 50
180.0
 51
239.9999999999999
  0
LINE
  5
1C1
330
16E
100
AcDbEntity
  8
AM_4
100
AcDbLine
 10
-0.1613359247604584
 20
-2.625
 30
0.0
 11
-0.4642857142857116
 21
-2.625
 31
0.0
  0
ARC
  5
1C2
330
16E
100
AcDbEntity
  8
AM_4
100
AcDbCircle
 10
-1.401785714285713
 20
-1.430421959121759
 30
0.0
 40
0.3125000000000012
100
AcDbArc
 50
120.0000000000001
 51
180.0
  0
LINE
  5
1C3
330
16E
100
AcDbEntity
  8
AM_4
100
AcDbLine
 10
-0.7767857142857147
 20
-2.541265877365274
 30
0.0
 11
-1.558035714285714
 21
-2.090210979560879
 31
0.0
  0
ARC
  5
1C4
330
16E
100
AcDbEntity
  8
AM_4
100
AcDbCircle
 10
-0.4642857142857119
 20
-1.99999999999999
 30
0.0
 40
0.6250000000000097
100
AcDbArc
 50
240.0000000000002
 51
270.0
  0
LINE
  5
1C5
330
16E
100
AcDbEntity
  8
AM_4
100
AcDbLine
 10
-1.558035714285714
 20
-1.159789020439121
 30
0.0
 11
-0.7767857142857144
 21
-0.7087341226347256
 31
0.0
  0
LINE
  5
1C6
330
16E
100
AcDbEntity
  8
AM_4
100
AcDbLine
 10
-1.714285714285714
 20
-1.819578040878241
 30
0.0
 11
-1.714285714285714
 21
-1.430421959121758
 31
0.0
  0
LINE
  5
1C7
330
16E
100
AcDbEntity
  8
AM_4
100
AcDbLine
 10
-0.1613359247604568
 20
-0.6249999999999998
 30
0.0
 11
-0.4642857142857145
 21
-0.6249999999999998
 31
0.0
  0
ARC
  5
1C8
330
16E
100
AcDbEntity
  8
AM_4
100
AcDbCircle
 10
-0.4642857142857145
 20
-1.25
 30
0.0
 40
0.6249999999999998
100
AcDbArc
 50
90.0
 51
120.0
  0
ARC
  5
1C9
330
16E
100
AcDbEntity
  8
AM_4
100
AcDbCircle
 10
1.401785714285713
 20
-1.430421959121759
 30
0.0
 40
0.3125000000000013
100
AcDbArc
 50
0.0
 51
59.99999999999986
  0
LINE
  5
1CA
330
16E
100
AcDbEntity
  8
AM_4
100
AcDbLine
 10
0.4642857142857149
 20
-2.625
 30
0.0
 11
0.1613359247604584
 21
-2.625
 31
0.0
  0
ARC
  5
1CB
330
16E
100
AcDbEntity
  8
AM_4
100
AcDbCircle
 10
0.4642857142857144
 20
-1.249999999999999
 30
0.0
 40
0.6249999999999989
100
AcDbArc
 50
59.99999999999991
 51
90.0
  0
ARC
  5
1CC
330
16E
100
AcDbEntity
  8
AM_4
100
AcDbCircle
 10
0.4642857142857151
 20
-2.000000000000003
 30
0.0
 40
0.6249999999999973
100
AcDbArc
 50
270.0
 51
300.0000000000001
  0
LINE
  5
1CD
330
16E
100
AcDbEntity
  8
AM_4
100
AcDbLine
 10
1.558035714285714
 20
-2.090210979560879
 30
0.0
 11
0.7767857142857149
 21
-2.541265877365274
 31
0.0
  0
ARC
  5
1CE
330
16E
100
AcDbEntity
  8
AM_4
100
AcDbCircle
 10
1.401785714285713
 20
-1.819578040878241
 30
0.0
 40
0.3125000000000008
100
AcDbArc
 50
300.0000000000001
 51
0.0
  0
LINE
  5
1CF
330
16E
100
AcDbEntity
  8
AM_4
100
AcDbLine
 10
1.714285714285714
 20
-1.430421959121758
 30
0.0
 11
1.714285714285714
 21
-1.81957804087824
 31
0.0
  0
LINE
  5
1D0
330
16E
100
AcDbEntity
  8
AM_4
100
AcDbLine
 10
0.7767857142857146
 20
-0.7087341226347259
 30
0.0
 11
1.558035714285714
 21
-1.159789020439121
 31
0.0
  0
LINE
  5
1D1
330
16E
100
AcDbEntity
  8
AM_4
100
AcDbLine
 10
0.464285714285715
 20
-0.6249999999999998
 30
0.0
 11
0.1613359247604567
 21
-0.6249999999999998
 31
0.0
  0
LINE
  5
1D2
330
16E
100
AcDbEntity
  8
AM_4
100
AcDbLine
 10
-0.7162504033570635
 20
-0.9087495966429364
 30
0.0
 11
-1.224788189740579
 21
-1.417287383026452
 31
0.0
  0
LINE
  5
1D3
330
16E
100
AcDbEntity
  8
AM_4
100
AcDbLine
 10
1.224788189740578
 20
-1.417287383026451
 30
0.0
 11
0.7162504033570631
 21
-0.9087495966429362
 31
0.0
  0
ARC
  5
1D4
330
16E
100
AcDbEntity
  8
AM_4
100
AcDbCircle
 10
1.017075572767029
 20
-1.625
 30
0.0
 40
0.2937500000000005
100
AcDbArc
 50
315.0000000000001
 51
44.99999999999995
  0
LINE
  5
1D5
330
16E
100
AcDbEntity
  8
AM_4
100
AcDbLine
 10
-1.224788189740578
 20
-1.832712616973548
 30
0.0
 11
-0.7162504033570631
 21
-2.341250403357063
 31
0.0
  0
LINE
  5
1D6
330
16E
100
AcDbEntity
  8
AM_4
100
AcDbLine
 10
0.716250403357063
 20
-2.341250403357063
 30
0.0
 11
1.224788189740578
 21
-1.832712616973548
 31
0.0
  0
ARC
  5
1D7
330
16E
100
AcDbEntity
  8
AM_4
100
AcDbCircle
 10
-1.017075572767028
 20
-1.625
 30
0.0
 40
0.2937500000000015
100
AcDbArc
 50
135.0000000000003
 51
224.9999999999998
  0
ARC
  5
1D8
330
16E
100
AcDbEntity
  8
AM_4
100
AcDbCircle
 10
0.0000000000000002
 20
-1.625000000000001
 30
0.0
 40
1.012931034482758
100
AcDbArc
 50
224.9999999999999
 51
315.0000000000001
  0
ARC
  5
1D9
330
16E
100
AcDbEntity
  8
AM_4
100
AcDbCircle
 10
-0.0000000000000001
 20
-1.625
 30
0.0
 40
1.012931034482759
100
AcDbArc
 50
45.00000000000004
 51
135.0
  0
LINE
  5
1DA
330
16E
100
AcDbEntity
  8
AM_4
100
AcDbLine
 10
3.812499999999999
 20
0.0000000000000002
 30
0.0
 11
-3.812499999999998
 21
0.0000000000000002
 31
0.0
  0
LINE
  5
1DB
330
16E
100
AcDbEntity
  8
AM_4
100
AcDbLine
 10
3.812499999999999
 20
-0.6249999999999999
 30
0.0
 11
1.1744796426569
 21
-0.6249999999999999
 31
0.0
  0
LINE
  5
1DC
330
16E
100
AcDbEntity
  8
AM_4
100
AcDbLine
 10
1.1744796426569
 20
-0.6249999999999999
 30
0.0
 11
1.212030888952031
 21
-0.1337195592180161
 31
0.0
  0
LWPOLYLINE
  5
1DD
330
16E
100
AcDbEntity
  8
AM_4
100
AcDbPolyline
 90
       11
 70
     0
 43
0.0
 10
1.074494984472969
 20
0.0000000000000002
 10
1.099834815628563
 20
-0.002089565585675
 10
1.124631518698745
 20
-0.0084160177391613
 10
1.146938381220435
 20
-0.0184151889823925
 10
1.167529149295224
 20
-0.032438266316986
 10
1.182123504128562
 20
-0.0465635293583005
 10
1.194534756524166
 20
-0.0632124716965109
 10
1.202803152770779
 20
-0.0790392116839051
 10
1.208699892529219
 20
-0.0962091093593903
 10
1.211888693304265
 20
-0.1147862268042733
 10
1.212030888952031
 20
-0.1337195592180161
  0
LINE
  5
1DE
330
16E
100
AcDbEntity
  8
AM_4
100
AcDbLine
 10
-1.174479642656899
 20
-0.6249999999999999
 30
0.0
 11
-3.812499999999998
 21
-0.6249999999999999
 31
0.0
  0
LINE
  5
1DF
330
16E
100
AcDbEntity
  8
AM_4
100
AcDbLine
 10
-1.21203088895203
 20
-0.1337195592180161
 30
0.0
 11
-1.174479642656899
 21
-0.6249999999999999
 31
0.0
  0
LWPOLYLINE
  5
1E0
330
16E
100
AcDbEntity
  8
AM_4
100
AcDbPolyline
 90
        9
 70
     0
 43
0.0
 10
-1.21203088895203
 20
-0.1337195592180161
 10
-1.209368579357006
 20
-0.0989364433440854
 10
-1.196905276068867
 20
-0.0671944128150749
 10
-1.175796130769705
 20
-0.0398825173723492
 10
-1.157409547456046
 20
-0.0248502935316424
 10
-1.136548566283541
 20
-0.0131814647307214
 10
-1.114646720419872
 20
-0.0053192221534971
 10
-1.091562769299223
 20
-0.0009400618786359
 10
-1.074494984472968
 20
0.0000000000000002
  0
LINE
  5
1E1
330
16E
100
AcDbEntity
  8
AM_4
100
AcDbLine
 10
1.215111315863963
 20
-1.709798320787226
 30
0.0
 11
1.215111315863963
 21
-1.540201679212774
 31
0.0
  0
LINE
  5
1E2
330
16E
100
AcDbEntity
  8
AM_4
100
AcDbLine
 10
0.9213613158639631
 20
-1.709798320787226
 30
0.0
 11
1.068236315863963
 21
-1.794596641574452
 31
0.0
  0
LINE
  5
1E3
330
16E
100
AcDbEntity
  8
AM_4
100
AcDbLine
 10
1.068236315863963
 20
-1.794596641574452
 30
0.0
 11
1.215111315863963
 21
-1.709798320787226
 31
0.0
  0
LINE
  5
1E4
330
16E
100
AcDbEntity
  8
AM_4
100
AcDbLine
 10
1.215111315863963
 20
-1.540201679212774
 30
0.0
 11
1.068236315863963
 21
-1.455403358425547
 31
0.0
  0
LINE
  5
1E5
330
16E
100
AcDbEntity
  8
AM_4
100
AcDbLine
 10
0.9213613158639631
 20
-1.540201679212774
 30
0.0
 11
0.9213613158639631
 21
-1.709798320787226
 31
0.0
  0
LINE
  5
1E6
330
16E
100
AcDbEntity
  8
AM_4
100
AcDbLine
 10
1.068236315863963
 20
-1.455403358425547
 30
0.0
 11
0.9213613158639631
 21
-1.540201679212774
 31
0.0
  0
LINE
  5
1E7
330
16E
100
AcDbEntity
  8
AM_4
100
AcDbLine
 10
-1.215111315863963
 20
-1.540201679212774
 30
0.0
 11
-1.215111315863963
 21
-1.709798320787226
 31
0.0
  0
LINE
  5
1E8
330
16E
100
AcDbEntity
  8
AM_4
100
AcDbLine
 10
-1.215111315863963
 20
-1.709798320787226
 30
0.0
 11
-1.068236315863963
 21
-1.794596641574453
 31
0.0
  0
LINE
  5
1E9
330
16E
100
AcDbEntity
  8
AM_4
100
AcDbLine
 10
-1.068236315863963
 20
-1.794596641574453
 30
0.0
 11
-0.9213613158639631
 21
-1.709798320787226
 31
0.0
  0
LINE
  5
1EA
330
16E
100
AcDbEntity
  8
AM_4
100
AcDbLine
 10
-0.9213613158639631
 20
-1.709798320787226
 30
0.0
 11
-0.9213613158639631
 21
-1.540201679212774
 31
0.0
  0
LINE
  5
1EB
330
16E
100
AcDbEntity
  8
AM_4
100
AcDbLine
 10
-0.9213613158639631
 20
-1.540201679212774
 30
0.0
 11
-1.068236315863963
 21
-1.455403358425547
 31
0.0
  0
LINE
  5
1EC
330
16E
100
AcDbEntity
  8
AM_4
100
AcDbLine
 10
-1.068236315863963
 20
-1.455403358425547
 30
0.0
 11
-1.215111315863963
 21
-1.540201679212774
 31
0.0
  0
LINE
  5
1ED
330
16E
100
AcDbEntity
  8
AM_4
100
AcDbLine
 10
2.59375
 20
-0.6249999999999998
 30
0.0
 11
2.59375
 21
0.0000000000000002
 31
0.0
  0
LINE
  5
1EE
330
16E
100
AcDbEntity
  8
AM_4
100
AcDbLine
 10
3.812499999999999
 20
-0.6249999999999999
 30
0.0
 11
3.812499999999999
 21
0.0000000000000002
 31
0.0
  0
LINE
  5
1EF
330
16E
100
AcDbEntity
  8
AM_4
100
AcDbLine
 10
-2.59375
 20
-0.6249999999999998
 30
0.0
 11
-2.59375
 21
0.0000000000000002
 31
0.0
  0
LINE
  5
1F0
330
16E
100
AcDbEntity
  8
AM_4
100
AcDbLine
 10
-3.812499999999998
 20
0.0000000000000002
 30
0.0
 11
-3.812499999999998
 21
-0.6249999999999999
 31
0.0
  0
ENDBLK
  5
171
330
16E
100
AcDbEntity
  8
0
100
AcDbBlockEnd
  0
ENDSEC
  0
SECTION
  2
ENTITIES
  0
INSERT
  5
6F
330
1F
100
AcDbEntity
  8
0
100
AcDbBlockReference
  2
1_023464_4
 10
0.0
 20
0.0
 30
0.0
  0
POINT
  5
1F2
330
1F
100
AcDbEntity
  8
ConnectionPoints
100
AcDbPoint
 10
0.0
 20
0.4375
 30
0.0
  0
POINT
  5
1F3
330
1F
100
AcDbEntity
  8
ConnectionPoints
100
AcDbPoint
 10
0.0
 20
-1.5625
 30
3.035
  0
POINT
  5
1F4
330
1F
100
AcDbEntity
  8
ConnectionPoints
100
AcDbPoint
 10
0.0
 20
-1.5625
 30
0.0000000000000001
  0
POINT
  5
1F5
330
1F
100
AcDbEntity
  8
ConnectionPoints
100
AcDbPoint
 10
0.0
 20
0.4375
 30
0.0
  0
POINT
  5
1F6
330
1F
100
AcDbEntity
  8
ConnectionPoints
100
AcDbPoint
 10
0.0
 20
-3.5625
 30
0.0000000000000002
  0
POINT
  5
1F7
330
1F
100
AcDbEntity
  8
ConnectionPoints
100
AcDbPoint
 10
0.0
 20
-1.5625
 30
3.035
  0
POINT
  5
1F8
330
1F
100
AcDbEntity
  8
ConnectionPoints
100
AcDbPoint
 10
0.0
 20
-1.5625
 30
3.035
  0
POINT
  5
1F9
330
1F
100
AcDbEntity
  8
ConnectionPoints
100
AcDbPoint
 10
0.0
 20
-1.5625
 30
0.0000000000000001
  0
POINT
  5
1FA
330
1F
100
AcDbEntity
  8
ConnectionPoints
100
AcDbPoint
 10
0.0
 20
-1.5625
 30
0.0000000000000001
  0
ENDSEC
  0
SECTION
  2
OBJECTS
  0
DICTIONARY
  5
C
330
0
100
AcDbDictionary
281
     1
  3
ACAD_DETAILVIEWSTYLE
350
202
  3
ACAD_GROUP
350
D
  3
ACAD_LAYOUT
350
1A
  3
ACAD_MATERIAL
350
43
  3
ACAD_MLEADERSTYLE
350
6B
  3
ACAD_MLINESTYLE
350
17
  3
ACAD_PLOTSETTINGS
350
19
  3
ACAD_PLOTSTYLENAME
350
E
  3
ACAD_SCALELIST
350
47
  3
ACAD_SECTIONVIEWSTYLE
350
203
  3
ACAD_TABLESTYLE
350
69
  3
ACAD_VISUALSTYLE
350
2A
  3
ACDB_RECOMPOSE_DATA
350
1FF
  3
AcDbVariableDictionary
350
1FB
  0
SUN
  5
6D
330
29
100
AcDbSun
 90
        1
290
     0
 63
     7
421
 16777215
 40
1.0
291
     1
 91
  2455826
 92
 54000000
292
     0
 70
     2
 71
   256
280
     1
  0
DICTIONARY
  5
202
102
{ACAD_REACTORS
330
C
102
}
330
C
100
AcDbDictionary
281
     1
  0
DICTIONARY
  5
D
102
{ACAD_REACTORS
330
C
102
}
330
C
100
AcDbDictionary
281
     1
  0
DICTIONARY
  5
1A
102
{ACAD_REACTORS
330
C
102
}
330
C
100
AcDbDictionary
281
     1
  3
Layout1
350
1E
  3
Layout2
350
26
  3
Model
350
22
  0
DICTIONARY
  5
43
102
{ACAD_REACTORS
330
C
102
}
330
C
100
AcDbDictionary
281
     1
  3
ByBlock
350
45
  3
ByLayer
350
44
  3
Global
350
46
  0
DICTIONARY
  5
6B
102
{ACAD_REACTORS
330
C
102
}
330
C
100
AcDbDictionary
281
     1
  3
Standard
350
6C
  0
DICTIONARY
  5
17
102
{ACAD_REACTORS
330
C
102
}
330
C
100
AcDbDictionary
281
     1
  3
Standard
350
18
  0
DICTIONARY
  5
19
102
{ACAD_REACTORS
330
C
102
}
330
C
100
AcDbDictionary
281
     1
  0
ACDBDICTIONARYWDFLT
  5
E
102
{ACAD_REACTORS
330
C
102
}
330
C
100
AcDbDictionary
281
     1
  3
Normal
350
F
100
AcDbDictionaryWithDefault
340
F
  0
DICTIONARY
  5
47
102
{ACAD_REACTORS
330
C
102
}
330
C
100
AcDbDictionary
281
     1
  3
A0
350
48
  3
A1
350
49
  3
A2
350
4A
  3
A3
350
4B
  3
A4
350
4C
  3
A5
350
4D
  3
A6
350
4E
  3
A7
350
4F
  3
A8
350
50
  3
A9
350
51
  3
B0
350
52
  3
B1
350
53
  3
B2
350
54
  3
B3
350
55
  3
B4
350
56
  3
B5
350
57
  3
B6
350
58
  3
B7
350
59
  3
B8
350
5A
  3
B9
350
5B
  3
C0
350
5C
  3
C1
350
5D
  3
C2
350
5E
  3
C3
350
5F
  3
C4
350
60
  3
C5
350
61
  3
C6
350
62
  3
C7
350
63
  3
C8
350
64
  3
C9
350
65
  3
D0
350
66
  3
D1
350
67
  3
D2
350
68
  0
DICTIONARY
  5
203
102
{ACAD_REACTORS
330
C
102
}
330
C
100
AcDbDictionary
281
     1
  0
DICTIONARY
  5
69
102
{ACAD_REACTORS
330
C
102
}
330
C
100
AcDbDictionary
281
     1
  3
Standard
350
6A
  0
DICTIONARY
  5
2A
102
{ACAD_REACTORS
330
C
102
}
330
C
100
AcDbDictionary
281
     1
  3
2dWireframe
350
2F
  3
Basic
350
32
  3
Brighten
350
36
  3
ColorChange
350
3A
  3
Conceptual
350
34
  3
Dim
350
35
  3
EdgeColorOff
350
3D
  3
Facepattern
350
39
  3
Flat
350
2B
  3
FlatWithEdges
350
2C
  3
Gouraud
350
2D
  3
GouraudWithEdges
350
2E
  3
Hidden
350
31
  3
JitterOff
350
3B
  3
Linepattern
350
38
  3
OverhangOff
350
3C
  3
Realistic
350
33
  3
Shaded
350
42
  3
Shaded with edges
350
41
  3
Shades of Gray
350
3E
  3
Sketchy
350
3F
  3
Thicken
350
37
  3
Wireframe
350
30
  3
X-Ray
350
40
  0
XRECORD
  5
1FF
102
{ACAD_REACTORS
330
C
102
}
330
C
100
AcDbXrecord
280
     1
 90
        1
330
6A
  0
DICTIONARY
  5
1FB
102
{ACAD_REACTORS
330
C
102
}
330
C
100
AcDbDictionary
281
     1
  3
CANNOSCALE
350
1FC
  3
CMLEADERSTYLE
350
201
  3
CTABLESTYLE
350
200
  0
LAYOUT
  5
1E
102
{ACAD_REACTORS
330
1A
102
}
330
1A
100
AcDbPlotSettings
  1

  2
none_device
  4

  6

 40
0.0
 41
0.0
 42
0.0
 43
0.0
 44
0.0
 45
0.0
 46
0.0
 47
0.0
 48
0.0
 49
0.0
140
0.0
141
0.0
142
1.0
143
1.0
 70
   688
 72
     0
 73
     0
 74
     5
  7

 75
    16
 76
     0
 77
     2
 78
   300
147
1.0
148
0.0
149
0.0
100
AcDbLayout
  1
Layout1
 70
     1
 71
     1
 10
0.0
 20
0.0
 11
12.0
 21
9.0
 12
0.0
 22
0.0
 32
0.0
 14
1.000000000000000E+20
 24
1.000000000000000E+20
 34
1.000000000000000E+20
 15
-1.000000000000000E+20
 25
-1.000000000000000E+20
 35
-1.000000000000000E+20
146
0.0
 13
0.0
 23
0.0
 33
0.0
 16
1.0
 26
0.0
 36
0.0
 17
0.0
 27
1.0
 37
0.0
 76
     0
330
1B
  0
LAYOUT
  5
26
102
{ACAD_REACTORS
330
1A
102
}
330
1A
100
AcDbPlotSettings
  1

  2
none_device
  4

  6

 40
0.0
 41
0.0
 42
0.0
 43
0.0
 44
0.0
 45
0.0
 46
0.0
 47
0.0
 48
0.0
 49
0.0
140
0.0
141
0.0
142
1.0
143
1.0
 70
   688
 72
     0
 73
     0
 74
     5
  7

 75
    16
 76
     0
 77
     2
 78
   300
147
1.0
148
0.0
149
0.0
100
AcDbLayout
  1
Layout2
 70
     1
 71
     2
 10
0.0
 20
0.0
 11
0.0
 21
0.0
 12
0.0
 22
0.0
 32
0.0
 14
0.0
 24
0.0
 34
0.0
 15
0.0
 25
0.0
 35
0.0
146
0.0
 13
0.0
 23
0.0
 33
0.0
 16
1.0
 26
0.0
 36
0.0
 17
0.0
 27
1.0
 37
0.0
 76
     0
330
23
  0
LAYOUT
  5
22
102
{ACAD_REACTORS
330
1A
102
}
330
1A
100
AcDbPlotSettings
  1

  2
none_device
  4
Letter_(8.50_x_11.00_Inches)
  6

 40
6.35
 41
6.35
 42
6.35000508
 43
6.35000508
 44
215.9
 45
279.4
 46
0.0
 47
0.0
 48
0.0
 49
0.0
140
0.0
141
0.0
142
1.0
143
1.0
 70
  1712
 72
     0
 73
     0
 74
     0
  7

 75
     0
 76
     0
 77
     2
 78
   300
147
1.0
148
0.0
149
0.0
100
AcDbLayout
  1
Model
 70
     1
 71
     0
 10
0.0
 20
0.0
 11
12.0
 21
9.0
 12
0.0
 22
0.0
 32
0.0
 14
1.000000000000000E+20
 24
1.000000000000000E+20
 34
1.000000000000000E+20
 15
-1.000000000000000E+20
 25
-1.000000000000000E+20
 35
-1.000000000000000E+20
146
0.0
 13
0.0
 23
0.0
 33
0.0
 16
1.0
 26
0.0
 36
0.0
 17
0.0
 27
1.0
 37
0.0
 76
     0
330
1F
331
29
  0
MATERIAL
  5
45
102
{ACAD_REACTORS
330
43
102
}
330
43
100
AcDbMaterial
  1
ByBlock
 72
     1
 94
      127
  0
MATERIAL
  5
44
102
{ACAD_REACTORS
330
43
102
}
330
43
100
AcDbMaterial
  1
ByLayer
 72
     1
 94
      127
  0
MATERIAL
  5
46
102
{ACAD_REACTORS
330
43
102
}
330
43
100
AcDbMaterial
  1
Global
 72
     1
 94
      127
  0
MLEADERSTYLE
  5
6C
102
{ACAD_REACTORS
330
6B
102
}
330
6B
100
AcDbMLeaderStyle
179
     2
170
     2
171
     1
172
     0
 90
        2
 40
0.0
 41
0.0
173
     1
 91
-1056964608
340
14
 92
       -2
290
     1
 42
0.09
291
     1
 43
0.36
  3
Standard
341
0
 44
0.18
300

342
11
174
     1
178
     6
175
     1
176
     0
 93
-1056964608
 45
0.18
292
     0
297
     0
 46
0.18
343
0
 94
-1056964608
 47
1.0
 49
1.0
140
1.0
293
     1
141
0.0
294
     1
177
     0
142
1.0
295
     0
296
     0
143
0.125
271
     0
272
     9
273
     9
298
     0
  0
MLINESTYLE
  5
18
102
{ACAD_REACTORS
330
17
102
}
330
17
100
AcDbMlineStyle
  2
Standard
 70
     0
  3

 62
   256
 51
90.0
 52
90.0
 71
     2
 49
0.5
 62
   256
  6
BYLAYER
 49
-0.5
 62
   256
  6
BYLAYER
  0
ACDBPLACEHOLDER
  5
F
102
{ACAD_REACTORS
330
E
102
}
330
E
  0
SCALE
  5
48
102
{ACAD_REACTORS
330
47
102
}
330
47
100
AcDbScale
 70
     0
300
1:1
140
1.0
141
1.0
290
     1
  0
SCALE
  5
49
102
{ACAD_REACTORS
330
47
102
}
330
47
100
AcDbScale
 70
     0
300
1:2
140
1.0
141
2.0
290
     0
  0
SCALE
  5
4A
102
{ACAD_REACTORS
330
47
102
}
330
47
100
AcDbScale
 70
     0
300
1:4
140
1.0
141
4.0
290
     0
  0
SCALE
  5
4B
102
{ACAD_REACTORS
330
47
102
}
330
47
100
AcDbScale
 70
     0
300
1:5
140
1.0
141
5.0
290
     0
  0
SCALE
  5
4C
102
{ACAD_REACTORS
330
47
102
}
330
47
100
AcDbScale
 70
     0
300
1:8
140
1.0
141
8.0
290
     0
  0
SCALE
  5
4D
102
{ACAD_REACTORS
330
47
102
}
330
47
100
AcDbScale
 70
     0
300
1:10
140
1.0
141
10.0
290
     0
  0
SCALE
  5
4E
102
{ACAD_REACTORS
330
47
102
}
330
47
100
AcDbScale
 70
     0
300
1:16
140
1.0
141
16.0
290
     0
  0
SCALE
  5
4F
102
{ACAD_REACTORS
330
47
102
}
330
47
100
AcDbScale
 70
     0
300
1:20
140
1.0
141
20.0
290
     0
  0
SCALE
  5
50
102
{ACAD_REACTORS
330
47
102
}
330
47
100
AcDbScale
 70
     0
300
1:30
140
1.0
141
30.0
290
     0
  0
SCALE
  5
51
102
{ACAD_REACTORS
330
47
102
}
330
47
100
AcDbScale
 70
     0
300
1:40
140
1.0
141
40.0
290
     0
  0
SCALE
  5
52
102
{ACAD_REACTORS
330
47
102
}
330
47
100
AcDbScale
 70
     0
300
1:50
140
1.0
141
50.0
290
     0
  0
SCALE
  5
53
102
{ACAD_REACTORS
330
47
102
}
330
47
100
AcDbScale
 70
     0
300
1:100
140
1.0
141
100.0
290
     0
  0
SCALE
  5
54
102
{ACAD_REACTORS
330
47
102
}
330
47
100
AcDbScale
 70
     0
300
2:1
140
2.0
141
1.0
290
     0
  0
SCALE
  5
55
102
{ACAD_REACTORS
330
47
102
}
330
47
100
AcDbScale
 70
     0
300
4:1
140
4.0
141
1.0
290
     0
  0
SCALE
  5
56
102
{ACAD_REACTORS
330
47
102
}
330
47
100
AcDbScale
 70
     0
300
8:1
140
8.0
141
1.0
290
     0
  0
SCALE
  5
57
102
{ACAD_REACTORS
330
47
102
}
330
47
100
AcDbScale
 70
     0
300
10:1
140
10.0
141
1.0
290
     0
  0
SCALE
  5
58
102
{ACAD_REACTORS
330
47
102
}
330
47
100
AcDbScale
 70
     0
300
100:1
140
100.0
141
1.0
290
     0
  0
SCALE
  5
59
102
{ACAD_REACTORS
330
47
102
}
330
47
100
AcDbScale
 70
     0
300
1/128" = 1'-0"
140
0.0078125
141
12.0
290
     0
  0
SCALE
  5
5A
102
{ACAD_REACTORS
330
47
102
}
330
47
100
AcDbScale
 70
     0
300
1/64" = 1'-0"
140
0.015625
141
12.0
290
     0
  0
SCALE
  5
5B
102
{ACAD_REACTORS
330
47
102
}
330
47
100
AcDbScale
 70
     0
300
1/32" = 1'-0"
140
0.03125
141
12.0
290
     0
  0
SCALE
  5
5C
102
{ACAD_REACTORS
330
47
102
}
330
47
100
AcDbScale
 70
     0
300
1/16" = 1'-0"
140
0.0625
141
12.0
290
     0
  0
SCALE
  5
5D
102
{ACAD_REACTORS
330
47
102
}
330
47
100
AcDbScale
 70
     0
300
3/32" = 1'-0"
140
0.09375
141
12.0
290
     0
  0
SCALE
  5
5E
102
{ACAD_REACTORS
330
47
102
}
330
47
100
AcDbScale
 70
     0
300
1/8" = 1'-0"
140
0.125
141
12.0
290
     0
  0
SCALE
  5
5F
102
{ACAD_REACTORS
330
47
102
}
330
47
100
AcDbScale
 70
     0
300
3/16" = 1'-0"
140
0.1875
141
12.0
290
     0
  0
SCALE
  5
60
102
{ACAD_REACTORS
330
47
102
}
330
47
100
AcDbScale
 70
     0
300
1/4" = 1'-0"
140
0.25
141
12.0
290
     0
  0
SCALE
  5
61
102
{ACAD_REACTORS
330
47
102
}
330
47
100
AcDbScale
 70
     0
300
3/8" = 1'-0"
140
0.375
141
12.0
290
     0
  0
SCALE
  5
62
102
{ACAD_REACTORS
330
47
102
}
330
47
100
AcDbScale
 70
     0
300
1/2" = 1'-0"
140
0.5
141
12.0
290
     0
  0
SCALE
  5
63
102
{ACAD_REACTORS
330
47
102
}
330
47
100
AcDbScale
 70
     0
300
3/4" = 1'-0"
140
0.75
141
12.0
290
     0
  0
SCALE
  5
64
102
{ACAD_REACTORS
330
47
102
}
330
47
100
AcDbScale
 70
     0
300
1" = 1'-0"
140
1.0
141
12.0
290
     0
  0
SCALE
  5
65
102
{ACAD_REACTORS
330
47
102
}
330
47
100
AcDbScale
 70
     0
300
1-1/2" = 1'-0"
140
1.5
141
12.0
290
     0
  0
SCALE
  5
66
102
{ACAD_REACTORS
330
47
102
}
330
47
100
AcDbScale
 70
     0
300
3" = 1'-0"
140
3.0
141
12.0
290
     0
  0
SCALE
  5
67
102
{ACAD_REACTORS
330
47
102
}
330
47
100
AcDbScale
 70
     0
300
6" = 1'-0"
140
6.0
141
12.0
290
     0
  0
SCALE
  5
68
102
{ACAD_REACTORS
330
47
102
}
330
47
100
AcDbScale
 70
     0
300
1'-0" = 1'-0"
140
12.0
141
12.0
290
     0
  0
TABLESTYLE
  5
6A
102
{ACAD_REACTORS
330
69
102
}
102
{ACAD_XDICTIONARY
360
1FD
102
}
330
69
100
AcDbTableStyle
  3
Standard
 70
     0
 71
     0
 40
0.06
 41
0.06
280
     0
281
     0
  7
Standard
140
0.18
170
     2
 62
     0
 63
   257
283
     0
 90
        4
 91
        0
  1

274
    -2
284
     1
 64
     0
275
    -2
285
     1
 65
     0
276
    -2
286
     1
 66
     0
277
    -2
287
     1
 67
     0
278
    -2
288
     1
 68
     0
279
    -2
289
     1
 69
     0
  7
Standard
140
0.25
170
     5
 62
     0
 63
   257
283
     0
 90
        4
 91
        0
  1

274
    -2
284
     1
 64
     0
275
    -2
285
     1
 65
     0
276
    -2
286
     1
 66
     0
277
    -2
287
     1
 67
     0
278
    -2
288
     1
 68
     0
279
    -2
289
     1
 69
     0
  7
Standard
140
0.18
170
     5
 62
     0
 63
   257
283
     0
 90
        4
 91
        0
  1

274
    -2
284
     1
 64
     0
275
    -2
285
     1
 65
     0
276
    -2
286
     1
 66
     0
277
    -2
287
     1
 67
     0
278
    -2
288
     1
 68
     0
279
    -2
289
     1
 69
     0
  0
VISUALSTYLE
  5
2F
102
{ACAD_REACTORS
330
2A
102
}
330
2A
100
AcDbVisualStyle
  2
2dWireframe
 70
     4
177
     3
291
     0
 70
    58
 90
        0
176
     1
 90
        2
176
     1
 90
        0
176
     1
 90
        0
176
     1
 40
0.6
176
     1
 40
30.0
176
     1
 62
     7
420
 16777215
176
     1
 90
        1
176
     1
 90
        4
176
     1
 62
     7
176
     1
 62
   257
176
     1
 90
        1
176
     1
 90
        1
176
     1
 40
1.0
176
     1
 90
        0
176
     1
 62
   257
176
     1
 40
1.0
176
     1
 90
        1
176
     1
 90
        6
176
     1
 90
        2
176
     1
 62
     7
176
     1
 90
        5
176
     1
 90
        0
176
     1
 90
        0
176
     1
290
     0
176
     1
 90
        1
176
     1
 40
0.0
176
     1
 90
        0
176
     1
290
     1
176
     1
290
     1
176
     1
290
     0
176
     1
290
     0
176
     1
290
     0
176
     1
290
     0
176
     1
290
     0
176
     1
290
     0
176
     1
290
     0
176
     1
 90
       50
176
     1
 40
0.0
176
     1
 40
1.0
176
     1
 90
        0
176
     1
 62
    18
420
        0
176
     1
 90
       50
176
     1
 90
        3
176
     1
 62
     5
420
      255
176
     1
290
     0
176
     1
 90
       50
176
     1
 90
       50
176
     1
 90
       50
176
     1
290
     0
176
     1
 90
       50
176
     1
 62
   256
176
     0
 40
1.0
176
     0
 90
        2
176
     1
  1
strokes_ogs.tif
176
     1
290
     0
176
     1
 40
1.0
176
     1
 40
1.0
176
     1
  0
VISUALSTYLE
  5
32
102
{ACAD_REACTORS
330
2A
102
}
330
2A
100
AcDbVisualStyle
  2
Basic
 70
     7
177
     3
291
     1
 70
    58
 90
        1
176
     1
 90
        0
176
     1
 90
        1
176
     1
 90
        0
176
     1
 40
0.6
176
     1
 40
30.0
176
     1
 62
     7
420
 16777215
176
     1
 90
        0
176
     1
 90
        4
176
     1
 62
     7
176
     1
 62
   257
176
     1
 90
        1
176
     1
 90
        1
176
     1
 40
1.0
176
     1
 90
        8
176
     1
 62
     7
176
     1
 40
1.0
176
     1
 90
        1
176
     1
 90
        6
176
     1
 90
        2
176
     1
 62
     7
176
     1
 90
        5
176
     1
 90
        0
176
     1
 90
        0
176
     1
290
     0
176
     1
 90
        1
176
     1
 40
0.0
176
     1
 90
        0
176
     1
290
     0
176
     1
290
     1
176
     1
290
     1
176
     1
290
     0
176
     1
290
     0
176
     1
290
     0
176
     1
290
     0
176
     1
290
     0
176
     1
290
     0
176
     1
 90
       50
176
     1
 40
0.0
176
     1
 40
1.0
176
     1
 90
        0
176
     1
 62
    18
420
        0
176
     1
 90
       50
176
     1
 90
        3
176
     1
 62
     5
420
      255
176
     1
290
     0
176
     1
 90
       50
176
     1
 90
       50
176
     1
 90
       50
176
     1
290
     0
176
     1
 90
       50
176
     1
 62
   256
176
     0
 40
1.0
176
     0
 90
        2
176
     1
  1
strokes_ogs.tif
176
     1
290
     0
176
     1
 40
1.0
176
     1
 40
1.0
176
     1
  0
VISUALSTYLE
  5
36
102
{ACAD_REACTORS
330
2A
102
}
330
2A
100
AcDbVisualStyle
  2
Brighten
 70
    12
177
     3
291
     1
 70
    58
 90
        2
176
     1
 90
        2
176
     1
 90
        0
176
     1
 90
        0
176
     1
 40
0.6
176
     1
 40
30.0
176
     1
 62
     7
420
 16777215
176
     1
 90
        1
176
     1
 90
        4
176
     1
 62
     7
176
     1
 62
   257
176
     1
 90
        1
176
     1
 90
        1
176
     1
 40
1.0
176
     1
 90
        8
176
     1
 62
     7
176
     1
 40
1.0
176
     1
 90
        1
176
     1
 90
        6
176
     1
 90
        2
176
     1
 62
     7
176
     1
 90
        5
176
     1
 90
        0
176
     1
 90
        0
176
     1
290
     0
176
     1
 90
        1
176
     1
 40
50.0
176
     1
 90
        0
176
     1
290
     0
176
     1
290
     1
176
     1
290
     1
176
     1
290
     0
176
     1
290
     0
176
     1
290
     0
176
     1
290
     0
176
     1
290
     0
176
     1
290
     0
176
     1
 90
       50
176
     1
 40
0.0
176
     1
 40
1.0
176
     1
 90
        0
176
     1
 62
    18
420
        0
176
     1
 90
       50
176
     1
 90
        3
176
     1
 62
     5
420
      255
176
     1
290
     0
176
     1
 90
       50
176
     1
 90
       50
176
     1
 90
       50
176
     1
290
     0
176
     1
 90
       50
176
     1
 62
   256
176
     0
 40
1.0
176
     0
 90
        2
176
     1
  1
strokes_ogs.tif
176
     1
290
     0
176
     1
 40
1.0
176
     1
 40
1.0
176
     1
  0
VISUALSTYLE
  5
3A
102
{ACAD_REACTORS
330
2A
102
}
330
2A
100
AcDbVisualStyle
  2
ColorChange
 70
    16
177
     3
291
     1
 70
    58
 90
        2
176
     1
 90
        2
176
     1
 90
        3
176
     1
 90
        0
176
     1
 40
0.6
176
     1
 40
30.0
176
     1
 62
     8
420
  8421504
176
     1
 90
        1
176
     1
 90
        4
176
     1
 62
     7
176
     1
 62
   257
176
     1
 90
        1
176
     1
 90
        1
176
     1
 40
1.0
176
     1
 90
        8
176
     1
 62
     8
420
  8421504
176
     1
 40
1.0
176
     1
 90
        1
176
     1
 90
        6
176
     1
 90
        2
176
     1
 62
     7
176
     1
 90
        5
176
     1
 90
        0
176
     1
 90
        0
176
     1
290
     0
176
     1
 90
        1
176
     1
 40
0.0
176
     1
 90
        0
176
     1
290
     0
176
     1
290
     1
176
     1
290
     1
176
     1
290
     0
176
     1
290
     0
176
     1
290
     0
176
     1
290
     0
176
     1
290
     0
176
     1
290
     0
176
     1
 90
       50
176
     1
 40
0.0
176
     1
 40
1.0
176
     1
 90
        0
176
     1
 62
    18
420
        0
176
     1
 90
       50
176
     1
 90
        3
176
     1
 62
     5
420
      255
176
     1
290
     0
176
     1
 90
       50
176
     1
 90
       50
176
     1
 90
       50
176
     1
290
     0
176
     1
 90
       50
176
     1
 62
   256
176
     0
 40
1.0
176
     0
 90
        2
176
     1
  1
strokes_ogs.tif
176
     1
290
     0
176
     1
 40
1.0
176
     1
 40
1.0
176
     1
  0
VISUALSTYLE
  5
34
102
{ACAD_REACTORS
330
2A
102
}
330
2A
100
AcDbVisualStyle
  2
Conceptual
 70
     9
177
     3
291
     0
 70
    58
 90
        3
176
     1
 90
        2
176
     1
 90
        0
176
     1
 90
        0
176
     1
 40
0.6
176
     1
 40
30.0
176
     1
 62
     7
420
 16777215
176
     1
 90
        2
176
     1
 90
        2
176
     1
 62
     7
176
     1
 62
   257
176
     1
 90
        1
176
     1
 90
        1
176
     1
 40
179.0
176
     1
 90
        8
176
     1
 62
     7
176
     1
 40
1.0
176
     1
 90
        1
176
     1
 90
        6
176
     1
 90
        2
176
     1
 62
     7
176
     1
 90
        3
176
     1
 90
        0
176
     1
 90
        0
176
     1
290
     0
176
     1
 90
        1
176
     1
 40
0.0
176
     1
 90
        0
176
     1
290
     0
176
     1
290
     1
176
     1
290
     1
176
     1
290
     0
176
     1
290
     0
176
     1
290
     0
176
     1
290
     0
176
     1
290
     0
176
     1
290
     0
176
     1
 90
       50
176
     1
 40
0.0
176
     1
 40
1.0
176
     1
 90
        0
176
     1
 62
    18
420
        0
176
     1
 90
       50
176
     1
 90
        3
176
     1
 62
     5
420
      255
176
     1
290
     0
176
     1
 90
       50
176
     1
 90
       50
176
     1
 90
       50
176
     1
290
     0
176
     1
 90
       50
176
     1
 62
   256
176
     0
 40
1.0
176
     0
 90
        2
176
     1
  1
strokes_ogs.tif
176
     1
290
     0
176
     1
 40
1.0
176
     1
 40
1.0
176
     1
  0
VISUALSTYLE
  5
35
102
{ACAD_REACTORS
330
2A
102
}
330
2A
100
AcDbVisualStyle
  2
Dim
 70
    11
177
     3
291
     1
 70
    58
 90
        2
176
     1
 90
        2
176
     1
 90
        0
176
     1
 90
        0
176
     1
 40
0.6
176
     1
 40
30.0
176
     1
 62
     7
420
 16777215
176
     1
 90
        1
176
     1
 90
        4
176
     1
 62
     7
176
     1
 62
   257
176
     1
 90
        1
176
     1
 90
        1
176
     1
 40
1.0
176
     1
 90
        8
176
     1
 62
     7
176
     1
 40
1.0
176
     1
 90
        1
176
     1
 90
        6
176
     1
 90
        2
176
     1
 62
     7
176
     1
 90
        5
176
     1
 90
        0
176
     1
 90
        0
176
     1
290
     0
176
     1
 90
        1
176
     1
 40
-50.0
176
     1
 90
        0
176
     1
290
     0
176
     1
290
     1
176
     1
290
     1
176
     1
290
     0
176
     1
290
     0
176
     1
290
     0
176
     1
290
     0
176
     1
290
     0
176
     1
290
     0
176
     1
 90
       50
176
     1
 40
0.0
176
     1
 40
1.0
176
     1
 90
        0
176
     1
 62
    18
420
        0
176
     1
 90
       50
176
     1
 90
        3
176
     1
 62
     5
420
      255
176
     1
290
     0
176
     1
 90
       50
176
     1
 90
       50
176
     1
 90
       50
176
     1
290
     0
176
     1
 90
       50
176
     1
 62
   256
176
     0
 40
1.0
176
     0
 90
        2
176
     1
  1
strokes_ogs.tif
176
     1
290
     0
176
     1
 40
1.0
176
     1
 40
1.0
176
     1
  0
VISUALSTYLE
  5
3D
102
{ACAD_REACTORS
330
2A
102
}
330
2A
100
AcDbVisualStyle
  2
EdgeColorOff
 70
    22
177
     3
291
     1
 70
    58
 90
        2
176
     0
 90
        2
176
     0
 90
        0
176
     0
 90
        0
176
     0
 40
0.6
176
     0
 40
30.0
176
     0
 62
     7
420
 16777215
176
     0
 90
        1
176
     0
 90
        4
176
     0
 62
     7
176
     0
 62
   257
176
     0
 90
        1
176
     0
 90
        1
176
     0
 40
1.0
176
     0
 90
        8
176
     2
 62
     7
176
     0
 40
1.0
176
     0
 90
        1
176
     0
 90
        6
176
     0
 90
        2
176
     0
 62
     7
176
     0
 90
        5
176
     0
 90
        0
176
     0
 90
        0
176
     0
290
     0
176
     0
 90
        1
176
     0
 40
0.0
176
     0
 90
        0
176
     0
290
     0
176
     0
290
     1
176
     0
290
     1
176
     0
290
     0
176
     0
290
     0
176
     0
290
     0
176
     0
290
     0
176
     0
290
     0
176
     0
290
     0
176
     0
 90
       50
176
     0
 40
0.0
176
     0
 40
1.0
176
     0
 90
        0
176
     0
 62
    18
420
        0
176
     0
 90
       50
176
     0
 90
        3
176
     0
 62
     5
420
      255
176
     0
290
     0
176
     0
 90
       50
176
     0
 90
       50
176
     0
 90
       50
176
     0
290
     0
176
     0
 90
       50
176
     0
 62
   256
176
     0
 40
1.0
176
     0
 90
        2
176
     0
  1
strokes_ogs.tif
176
     0
290
     0
176
     0
 40
1.0
176
     0
 40
1.0
176
     0
  0
VISUALSTYLE
  5
39
102
{ACAD_REACTORS
330
2A
102
}
330
2A
100
AcDbVisualStyle
  2
Facepattern
 70
    15
177
     3
291
     1
 70
    58
 90
        2
176
     1
 90
        2
176
     1
 90
        0
176
     1
 90
        0
176
     1
 40
0.6
176
     1
 40
30.0
176
     1
 62
     7
420
 16777215
176
     1
 90
        1
176
     1
 90
        4
176
     1
 62
     7
176
     1
 62
   257
176
     1
 90
        1
176
     1
 90
        1
176
     1
 40
1.0
176
     1
 90
        8
176
     1
 62
     7
176
     1
 40
1.0
176
     1
 90
        1
176
     1
 90
        6
176
     1
 90
        2
176
     1
 62
     7
176
     1
 90
        5
176
     1
 90
        0
176
     1
 90
        0
176
     1
290
     0
176
     1
 90
        1
176
     1
 40
0.0
176
     1
 90
        0
176
     1
290
     0
176
     1
290
     1
176
     1
290
     1
176
     1
290
     0
176
     1
290
     0
176
     1
290
     0
176
     1
290
     0
176
     1
290
     0
176
     1
290
     0
176
     1
 90
       50
176
     1
 40
0.0
176
     1
 40
1.0
176
     1
 90
        0
176
     1
 62
    18
420
        0
176
     1
 90
       50
176
     1
 90
        3
176
     1
 62
     5
420
      255
176
     1
290
     0
176
     1
 90
       50
176
     1
 90
       50
176
     1
 90
       50
176
     1
290
     0
176
     1
 90
       50
176
     1
 62
   256
176
     0
 40
1.0
176
     0
 90
        2
176
     1
  1
strokes_ogs.tif
176
     1
290
     0
176
     1
 40
1.0
176
     1
 40
1.0
176
     1
  0
VISUALSTYLE
  5
2B
102
{ACAD_REACTORS
330
2A
102
}
330
2A
100
AcDbVisualStyle
  2
Flat
 70
     0
177
     3
291
     1
 70
    58
 90
        2
176
     1
 90
        1
176
     1
 90
        1
176
     1
 90
        2
176
     1
 40
0.6
176
     1
 40
30.0
176
     1
 62
     7
420
 16777215
176
     1
 90
        0
176
     1
 90
        0
176
     1
 62
     7
176
     1
 62
   257
176
     1
 90
        1
176
     1
 90
        1
176
     1
 40
1.0
176
     1
 90
        8
176
     1
 62
     7
176
     1
 40
1.0
176
     1
 90
        1
176
     1
 90
        6
176
     1
 90
        2
176
     1
 62
     7
176
     1
 90
        5
176
     1
 90
        0
176
     1
 90
        0
176
     1
290
     0
176
     1
 90
       13
176
     1
 40
0.0
176
     1
 90
        0
176
     1
290
     0
176
     1
290
     1
176
     1
290
     1
176
     1
290
     0
176
     1
290
     0
176
     1
290
     0
176
     1
290
     0
176
     1
290
     0
176
     1
290
     0
176
     1
 90
       50
176
     1
 40
0.0
176
     1
 40
1.0
176
     1
 90
        0
176
     1
 62
    18
420
        0
176
     1
 90
       50
176
     1
 90
        3
176
     1
 62
     5
420
      255
176
     1
290
     0
176
     1
 90
       50
176
     1
 90
       50
176
     1
 90
       50
176
     1
290
     0
176
     1
 90
       50
176
     1
 62
   256
176
     0
 40
1.0
176
     0
 90
        2
176
     1
  1
strokes_ogs.tif
176
     1
290
     0
176
     1
 40
1.0
176
     1
 40
1.0
176
     1
  0
VISUALSTYLE
  5
2C
102
{ACAD_REACTORS
330
2A
102
}
330
2A
100
AcDbVisualStyle
  2
FlatWithEdges
 70
     1
177
     3
291
     1
 70
    58
 90
        2
176
     1
 90
        1
176
     1
 90
        1
176
     1
 90
        2
176
     1
 40
0.6
176
     1
 40
30.0
176
     1
 62
     7
420
 16777215
176
     1
 90
        1
176
     1
 90
        0
176
     1
 62
     7
176
     1
 62
   257
176
     1
 90
        1
176
     1
 90
        1
176
     1
 40
1.0
176
     1
 90
        0
176
     1
 62
   257
176
     1
 40
1.0
176
     1
 90
        1
176
     1
 90
        6
176
     1
 90
        2
176
     1
 62
     7
176
     1
 90
        5
176
     1
 90
        0
176
     1
 90
        0
176
     1
290
     0
176
     1
 90
       13
176
     1
 40
0.0
176
     1
 90
        0
176
     1
290
     0
176
     1
290
     1
176
     1
290
     1
176
     1
290
     0
176
     1
290
     0
176
     1
290
     0
176
     1
290
     0
176
     1
290
     0
176
     1
290
     0
176
     1
 90
       50
176
     1
 40
0.0
176
     1
 40
1.0
176
     1
 90
        0
176
     1
 62
    18
420
        0
176
     1
 90
       50
176
     1
 90
        3
176
     1
 62
     5
420
      255
176
     1
290
     0
176
     1
 90
       50
176
     1
 90
       50
176
     1
 90
       50
176
     1
290
     0
176
     1
 90
       50
176
     1
 62
   256
176
     0
 40
1.0
176
     0
 90
        2
176
     1
  1
strokes_ogs.tif
176
     1
290
     0
176
     1
 40
1.0
176
     1
 40
1.0
176
     1
  0
VISUALSTYLE
  5
2D
102
{ACAD_REACTORS
330
2A
102
}
330
2A
100
AcDbVisualStyle
  2
Gouraud
 70
     2
177
     3
291
     1
 70
    58
 90
        2
176
     1
 90
        2
176
     1
 90
        1
176
     1
 90
        2
176
     1
 40
0.6
176
     1
 40
30.0
176
     1
 62
     7
420
 16777215
176
     1
 90
        0
176
     1
 90
        0
176
     1
 62
     7
176
     1
 62
   257
176
     1
 90
        1
176
     1
 90
        1
176
     1
 40
1.0
176
     1
 90
        0
176
     1
 62
     7
176
     1
 40
1.0
176
     1
 90
        1
176
     1
 90
        6
176
     1
 90
        2
176
     1
 62
     7
176
     1
 90
        5
176
     1
 90
        0
176
     1
 90
        0
176
     1
290
     0
176
     1
 90
       13
176
     1
 40
0.0
176
     1
 90
        0
176
     1
290
     0
176
     1
290
     1
176
     1
290
     1
176
     1
290
     0
176
     1
290
     0
176
     1
290
     0
176
     1
290
     0
176
     1
290
     0
176
     1
290
     0
176
     1
 90
       50
176
     1
 40
0.0
176
     1
 40
1.0
176
     1
 90
        0
176
     1
 62
    18
420
        0
176
     1
 90
       50
176
     1
 90
        3
176
     1
 62
     5
420
      255
176
     1
290
     0
176
     1
 90
       50
176
     1
 90
       50
176
     1
 90
       50
176
     1
290
     0
176
     1
 90
       50
176
     1
 62
   256
176
     0
 40
1.0
176
     0
 90
        2
176
     1
  1
strokes_ogs.tif
176
     1
290
     0
176
     1
 40
1.0
176
     1
 40
1.0
176
     1
  0
VISUALSTYLE
  5
2E
102
{ACAD_REACTORS
330
2A
102
}
330
2A
100
AcDbVisualStyle
  2
GouraudWithEdges
 70
     3
177
     3
291
     1
 70
    58
 90
        2
176
     1
 90
        2
176
     1
 90
        1
176
     1
 90
        2
176
     1
 40
0.6
176
     1
 40
30.0
176
     1
 62
     7
420
 16777215
176
     1
 90
        1
176
     1
 90
        0
176
     1
 62
     7
176
     1
 62
   257
176
     1
 90
        1
176
     1
 90
        1
176
     1
 40
1.0
176
     1
 90
        0
176
     1
 62
   257
176
     1
 40
1.0
176
     1
 90
        1
176
     1
 90
        6
176
     1
 90
        2
176
     1
 62
     7
176
     1
 90
        5
176
     1
 90
        0
176
     1
 90
        0
176
     1
290
     0
176
     1
 90
       13
176
     1
 40
0.0
176
     1
 90
        0
176
     1
290
     0
176
     1
290
     1
176
     1
290
     1
176
     1
290
     0
176
     1
290
     0
176
     1
290
     0
176
     1
290
     0
176
     1
290
     0
176
     1
290
     0
176
     1
 90
       50
176
     1
 40
0.0
176
     1
 40
1.0
176
     1
 90
        0
176
     1
 62
    18
420
        0
176
     1
 90
       50
176
     1
 90
        3
176
     1
 62
     5
420
      255
176
     1
290
     0
176
     1
 90
       50
176
     1
 90
       50
176
     1
 90
       50
176
     1
290
     0
176
     1
 90
       50
176
     1
 62
   256
176
     0
 40
1.0
176
     0
 90
        2
176
     1
  1
strokes_ogs.tif
176
     1
290
     0
176
     1
 40
1.0
176
     1
 40
1.0
176
     1
  0
VISUALSTYLE
  5
31
102
{ACAD_REACTORS
330
2A
102
}
330
2A
100
AcDbVisualStyle
  2
Hidden
 70
     6
177
     3
291
     0
 70
    58
 90
        1
176
     1
 90
        2
176
     1
 90
        2
176
     1
 90
        0
176
     1
 40
0.6
176
     1
 40
30.0
176
     1
 62
     7
420
 16777215
176
     1
 90
        2
176
     1
 90
        2
176
     1
 62
     7
176
     1
 62
   257
176
     1
 90
        2
176
     1
 90
        1
176
     1
 40
40.0
176
     1
 90
        0
176
     1
 62
   257
176
     1
 40
1.0
176
     1
 90
        1
176
     1
 90
        6
176
     1
 90
        2
176
     1
 62
     7
176
     1
 90
        3
176
     1
 90
        0
176
     1
 90
        0
176
     1
290
     0
176
     1
 90
        1
176
     1
 40
0.0
176
     1
 90
        0
176
     1
290
     0
176
     1
290
     1
176
     1
290
     1
176
     1
290
     0
176
     1
290
     0
176
     1
290
     0
176
     1
290
     0
176
     1
290
     0
176
     1
290
     0
176
     1
 90
       50
176
     1
 40
0.0
176
     1
 40
1.0
176
     1
 90
        0
176
     1
 62
    18
420
        0
176
     1
 90
       50
176
     1
 90
        3
176
     1
 62
     5
420
      255
176
     1
290
     0
176
     1
 90
       50
176
     1
 90
       50
176
     1
 90
       50
176
     1
290
     0
176
     1
 90
       50
176
     1
 62
   256
176
     0
 40
1.0
176
     0
 90
        2
176
     1
  1
strokes_ogs.tif
176
     1
290
     0
176
     1
 40
1.0
176
     1
 40
1.0
176
     1
  0
VISUALSTYLE
  5
3B
102
{ACAD_REACTORS
330
2A
102
}
330
2A
100
AcDbVisualStyle
  2
JitterOff
 70
    20
177
     3
291
     1
 70
    58
 90
        2
176
     0
 90
        2
176
     0
 90
        0
176
     0
 90
        0
176
     0
 40
0.6
176
     0
 40
30.0
176
     0
 62
     7
420
 16777215
176
     0
 90
        1
176
     0
 90
        4
176
     0
 62
     7
176
     0
 62
   257
176
     0
 90
        1
176
     0
 90
        1
176
     0
 40
1.0
176
     0
 90
       10
176
     2
 62
     7
176
     0
 40
1.0
176
     0
 90
        1
176
     0
 90
        6
176
     0
 90
        2
176
     0
 62
     7
176
     0
 90
        5
176
     0
 90
        0
176
     0
 90
        0
176
     0
290
     0
176
     0
 90
        1
176
     0
 40
0.0
176
     0
 90
        0
176
     0
290
     0
176
     0
290
     1
176
     0
290
     1
176
     0
290
     0
176
     0
290
     0
176
     0
290
     0
176
     0
290
     0
176
     0
290
     0
176
     0
290
     0
176
     0
 90
       50
176
     0
 40
0.0
176
     0
 40
1.0
176
     0
 90
        0
176
     0
 62
    18
420
        0
176
     0
 90
       50
176
     0
 90
        3
176
     0
 62
     5
420
      255
176
     0
290
     0
176
     0
 90
       50
176
     0
 90
       50
176
     0
 90
       50
176
     0
290
     0
176
     0
 90
       50
176
     0
 62
   256
176
     0
 40
1.0
176
     0
 90
        2
176
     0
  1
strokes_ogs.tif
176
     0
290
     0
176
     0
 40
1.0
176
     0
 40
1.0
176
     0
  0
VISUALSTYLE
  5
38
102
{ACAD_REACTORS
330
2A
102
}
330
2A
100
AcDbVisualStyle
  2
Linepattern
 70
    14
177
     3
291
     1
 70
    58
 90
        2
176
     1
 90
        2
176
     1
 90
        0
176
     1
 90
        0
176
     1
 40
0.6
176
     1
 40
30.0
176
     1
 62
     7
420
 16777215
176
     1
 90
        1
176
     1
 90
        4
176
     1
 62
     7
176
     1
 62
   257
176
     1
 90
        7
176
     1
 90
        7
176
     1
 40
1.0
176
     1
 90
        8
176
     1
 62
     7
176
     1
 40
1.0
176
     1
 90
        1
176
     1
 90
        6
176
     1
 90
        2
176
     1
 62
     7
176
     1
 90
        5
176
     1
 90
        0
176
     1
 90
        0
176
     1
290
     0
176
     1
 90
        1
176
     1
 40
0.0
176
     1
 90
        0
176
     1
290
     0
176
     1
290
     1
176
     1
290
     1
176
     1
290
     0
176
     1
290
     0
176
     1
290
     0
176
     1
290
     0
176
     1
290
     0
176
     1
290
     0
176
     1
 90
       50
176
     1
 40
0.0
176
     1
 40
1.0
176
     1
 90
        0
176
     1
 62
    18
420
        0
176
     1
 90
       50
176
     1
 90
        3
176
     1
 62
     5
420
      255
176
     1
290
     0
176
     1
 90
       50
176
     1
 90
       50
176
     1
 90
       50
176
     1
290
     0
176
     1
 90
       50
176
     1
 62
   256
176
     0
 40
1.0
176
     0
 90
        2
176
     1
  1
strokes_ogs.tif
176
     1
290
     0
176
     1
 40
1.0
176
     1
 40
1.0
176
     1
  0
VISUALSTYLE
  5
3C
102
{ACAD_REACTORS
330
2A
102
}
330
2A
100
AcDbVisualStyle
  2
OverhangOff
 70
    21
177
     3
291
     1
 70
    58
 90
        2
176
     0
 90
        2
176
     0
 90
        0
176
     0
 90
        0
176
     0
 40
0.6
176
     0
 40
30.0
176
     0
 62
     7
420
 16777215
176
     0
 90
        1
176
     0
 90
        4
176
     0
 62
     7
176
     0
 62
   257
176
     0
 90
        1
176
     0
 90
        1
176
     0
 40
1.0
176
     0
 90
        9
176
     2
 62
     7
176
     0
 40
1.0
176
     0
 90
        1
176
     0
 90
        6
176
     0
 90
        2
176
     0
 62
     7
176
     0
 90
        5
176
     0
 90
        0
176
     0
 90
        0
176
     0
290
     0
176
     0
 90
        1
176
     0
 40
0.0
176
     0
 90
        0
176
     0
290
     0
176
     0
290
     1
176
     0
290
     1
176
     0
290
     0
176
     0
290
     0
176
     0
290
     0
176
     0
290
     0
176
     0
290
     0
176
     0
290
     0
176
     0
 90
       50
176
     0
 40
0.0
176
     0
 40
1.0
176
     0
 90
        0
176
     0
 62
    18
420
        0
176
     0
 90
       50
176
     0
 90
        3
176
     0
 62
     5
420
      255
176
     0
290
     0
176
     0
 90
       50
176
     0
 90
       50
176
     0
 90
       50
176
     0
290
     0
176
     0
 90
       50
176
     0
 62
   256
176
     0
 40
1.0
176
     0
 90
        2
176
     0
  1
strokes_ogs.tif
176
     0
290
     0
176
     0
 40
1.0
176
     0
 40
1.0
176
     0
  0
VISUALSTYLE
  5
33
102
{ACAD_REACTORS
330
2A
102
}
330
2A
100
AcDbVisualStyle
  2
Realistic
 70
     8
177
     3
291
     0
 70
    58
 90
        2
176
     1
 90
        3
176
     1
 90
        0
176
     1
 90
        2
176
     1
 40
0.6
176
     1
 40
30.0
176
     1
 62
     7
420
 16777215
176
     1
 90
        0
176
     1
 90
        0
176
     1
 62
     7
176
     1
 62
   257
176
     1
 90
        1
176
     1
 90
        1
176
     1
 40
1.0
176
     1
 90
        8
176
     1
 62
   257
176
     1
 40
1.0
176
     1
 90
        1
176
     1
 90
        6
176
     1
 90
        2
176
     1
 62
     7
176
     1
 90
        3
176
     1
 90
        0
176
     1
 90
        0
176
     1
290
     0
176
     1
 90
       13
176
     1
 40
0.0
176
     1
 90
        0
176
     1
290
     0
176
     1
290
     1
176
     1
290
     1
176
     1
290
     0
176
     1
290
     0
176
     1
290
     0
176
     1
290
     0
176
     1
290
     0
176
     1
290
     0
176
     1
 90
       50
176
     1
 40
0.0
176
     1
 40
1.0
176
     1
 90
        0
176
     1
 62
    18
420
        0
176
     1
 90
       50
176
     1
 90
        3
176
     1
 62
     5
420
      255
176
     1
290
     0
176
     1
 90
       50
176
     1
 90
       50
176
     1
 90
       50
176
     1
290
     0
176
     1
 90
       50
176
     1
 62
   256
176
     0
 40
1.0
176
     0
 90
        2
176
     1
  1
strokes_ogs.tif
176
     1
290
     0
176
     1
 40
1.0
176
     1
 40
1.0
176
     1
  0
VISUALSTYLE
  5
42
102
{ACAD_REACTORS
330
2A
102
}
330
2A
100
AcDbVisualStyle
  2
Shaded
 70
    27
177
     3
291
     0
 70
    58
 90
        2
176
     1
 90
        2
176
     1
 90
        1
176
     1
 90
        2
176
     1
 40
0.6
176
     1
 40
30.0
176
     1
 62
     7
420
 16777215
176
     1
 90
        0
176
     1
 90
        4
176
     1
 62
     7
176
     1
 62
   257
176
     1
 90
        1
176
     1
 90
        1
176
     1
 40
1.0
176
     1
 90
        8
176
     1
 62
   257
176
     1
 40
1.0
176
     1
 90
        1
176
     1
 90
        6
176
     1
 90
        2
176
     1
 62
     8
420
  7895160
176
     1
 90
        3
176
     1
 90
        0
176
     1
 90
        0
176
     1
290
     0
176
     1
 90
        5
176
     1
 40
0.0
176
     1
 90
        0
176
     1
290
     0
176
     1
290
     1
176
     1
290
     1
176
     1
290
     0
176
     1
290
     0
176
     1
290
     0
176
     1
290
     0
176
     1
290
     0
176
     1
290
     0
176
     1
 90
       50
176
     1
 40
0.0
176
     1
 40
1.0
176
     1
 90
        0
176
     1
 62
    18
420
        0
176
     1
 90
       50
176
     1
 90
        3
176
     1
 62
     5
420
      255
176
     1
290
     0
176
     1
 90
       50
176
     1
 90
       50
176
     1
 90
       50
176
     1
290
     0
176
     1
 90
       50
176
     1
 62
   256
176
     0
 40
1.0
176
     0
 90
        2
176
     1
  1
strokes_ogs.tif
176
     1
290
     0
176
     1
 40
1.0
176
     1
 40
1.0
176
     1
  0
VISUALSTYLE
  5
41
102
{ACAD_REACTORS
330
2A
102
}
330
2A
100
AcDbVisualStyle
  2
Shaded with edges
 70
    26
177
     3
291
     0
 70
    58
 90
        2
176
     1
 90
        2
176
     1
 90
        1
176
     1
 90
        2
176
     1
 40
0.6
176
     1
 40
30.0
176
     1
 62
     7
420
 16777215
176
     1
 90
        1
176
     1
 90
       10
176
     1
 62
     7
176
     1
 62
   257
176
     1
 90
        2
176
     1
 90
        1
176
     1
 40
1.0
176
     1
 90
        8
176
     1
 62
   257
176
     1
 40
1.0
176
     1
 90
        1
176
     1
 90
        6
176
     1
 90
        2
176
     1
 62
     7
176
     1
 90
        3
176
     1
 90
        0
176
     1
 90
        0
176
     1
290
     0
176
     1
 90
        5
176
     1
 40
0.0
176
     1
 90
        0
176
     1
290
     0
176
     1
290
     1
176
     1
290
     1
176
     1
290
     0
176
     1
290
     0
176
     1
290
     0
176
     1
290
     0
176
     1
290
     0
176
     1
290
     0
176
     1
 90
       50
176
     1
 40
0.0
176
     1
 40
1.0
176
     1
 90
        0
176
     1
 62
    18
420
        0
176
     1
 90
       50
176
     1
 90
        3
176
     1
 62
     5
420
      255
176
     1
290
     0
176
     1
 90
       50
176
     1
 90
       50
176
     1
 90
       50
176
     1
290
     0
176
     1
 90
       50
176
     1
 62
   256
176
     0
 40
1.0
176
     0
 90
        2
176
     1
  1
strokes_ogs.tif
176
     1
290
     0
176
     1
 40
1.0
176
     1
 40
1.0
176
     1
  0
VISUALSTYLE
  5
3E
102
{ACAD_REACTORS
330
2A
102
}
330
2A
100
AcDbVisualStyle
  2
Shades of Gray
 70
    23
177
     3
291
     0
 70
    58
 90
        2
176
     1
 90
        2
176
     1
 90
        3
176
     1
 90
        0
176
     1
 40
0.6
176
     1
 40
30.0
176
     1
 62
     7
420
 16777215
176
     1
 90
        2
176
     1
 90
        2
176
     1
 62
     7
176
     1
 62
     7
176
     1
 90
        1
176
     1
 90
        1
176
     1
 40
40.0
176
     1
 90
        8
176
     1
 62
     7
176
     1
 40
1.0
176
     1
 90
        1
176
     1
 90
        6
176
     1
 90
        2
176
     1
 62
     7
176
     1
 90
        3
176
     1
 90
        0
176
     1
 90
        0
176
     1
290
     0
176
     1
 90
        1
176
     1
 40
0.0
176
     1
 90
        0
176
     1
290
     0
176
     1
290
     1
176
     1
290
     1
176
     1
290
     0
176
     1
290
     0
176
     1
290
     0
176
     1
290
     0
176
     1
290
     0
176
     1
290
     0
176
     1
 90
       50
176
     1
 40
0.0
176
     1
 40
1.0
176
     1
 90
        0
176
     1
 62
    18
420
        0
176
     1
 90
       50
176
     1
 90
        3
176
     1
 62
     5
420
      255
176
     1
290
     0
176
     1
 90
       50
176
     1
 90
       50
176
     1
 90
       50
176
     1
290
     0
176
     1
 90
       50
176
     1
 62
   256
176
     0
 40
1.0
176
     0
 90
        2
176
     1
  1
strokes_ogs.tif
176
     1
290
     0
176
     1
 40
1.0
176
     1
 40
1.0
176
     1
  0
VISUALSTYLE
  5
3F
102
{ACAD_REACTORS
330
2A
102
}
330
2A
100
AcDbVisualStyle
  2
Sketchy
 70
    24
177
     3
291
     0
 70
    58
 90
        1
176
     1
 90
        2
176
     1
 90
        2
176
     1
 90
        0
176
     1
 40
0.6
176
     1
 40
30.0
176
     1
 62
     7
420
 16777215
176
     1
 90
        2
176
     1
 90
        2
176
     1
 62
     7
176
     1
 62
     7
176
     1
 90
        1
176
     1
 90
        1
176
     1
 40
40.0
176
     1
 90
       11
176
     1
 62
     7
176
     1
 40
1.0
176
     1
 90
        1
176
     1
 90
        6
176
     1
 90
        2
176
     1
 62
     7
176
     1
 90
        6
176
     1
 90
        0
176
     1
 90
        0
176
     1
290
     0
176
     1
 90
        1
176
     1
 40
0.0
176
     1
 90
        0
176
     1
290
     0
176
     1
290
     1
176
     1
290
     1
176
     1
290
     0
176
     1
290
     0
176
     1
290
     0
176
     1
290
     0
176
     1
290
     0
176
     1
290
     0
176
     1
 90
       50
176
     1
 40
0.0
176
     1
 40
1.0
176
     1
 90
        0
176
     1
 62
    18
420
        0
176
     1
 90
       50
176
     1
 90
        3
176
     1
 62
     5
420
      255
176
     1
290
     0
176
     1
 90
       50
176
     1
 90
       50
176
     1
 90
       50
176
     1
290
     0
176
     1
 90
       50
176
     1
 62
   256
176
     0
 40
1.0
176
     0
 90
        2
176
     1
  1
strokes_ogs.tif
176
     1
290
     0
176
     1
 40
1.0
176
     1
 40
1.0
176
     1
  0
VISUALSTYLE
  5
37
102
{ACAD_REACTORS
330
2A
102
}
330
2A
100
AcDbVisualStyle
  2
Thicken
 70
    13
177
     3
291
     1
 70
    58
 90
        2
176
     1
 90
        2
176
     1
 90
        0
176
     1
 90
        0
176
     1
 40
0.6
176
     1
 40
30.0
176
     1
 62
     7
420
 16777215
176
     1
 90
        1
176
     1
 90
        4
176
     1
 62
     7
176
     1
 62
   257
176
     1
 90
        1
176
     1
 90
        1
176
     1
 40
1.0
176
     1
 90
       12
176
     1
 62
     7
176
     1
 40
1.0
176
     1
 90
        1
176
     1
 90
        6
176
     1
 90
        2
176
     1
 62
     7
176
     1
 90
        5
176
     1
 90
        0
176
     1
 90
        0
176
     1
290
     0
176
     1
 90
        1
176
     1
 40
0.0
176
     1
 90
        0
176
     1
290
     0
176
     1
290
     1
176
     1
290
     1
176
     1
290
     0
176
     1
290
     0
176
     1
290
     0
176
     1
290
     0
176
     1
290
     0
176
     1
290
     0
176
     1
 90
       50
176
     1
 40
0.0
176
     1
 40
1.0
176
     1
 90
        0
176
     1
 62
    18
420
        0
176
     1
 90
       50
176
     1
 90
        3
176
     1
 62
     5
420
      255
176
     1
290
     0
176
     1
 90
       50
176
     1
 90
       50
176
     1
 90
       50
176
     1
290
     0
176
     1
 90
       50
176
     1
 62
   256
176
     0
 40
1.0
176
     0
 90
        2
176
     1
  1
strokes_ogs.tif
176
     1
290
     0
176
     1
 40
1.0
176
     1
 40
1.0
176
     1
  0
VISUALSTYLE
  5
30
102
{ACAD_REACTORS
330
2A
102
}
330
2A
100
AcDbVisualStyle
  2
Wireframe
 70
     5
177
     3
291
     0
 70
    58
 90
        0
176
     1
 90
        2
176
     1
 90
        0
176
     1
 90
        0
176
     1
 40
0.6
176
     1
 40
30.0
176
     1
 62
     7
420
 16777215
176
     1
 90
        1
176
     1
 90
        4
176
     1
 62
     7
176
     1
 62
   257
176
     1
 90
        1
176
     1
 90
        1
176
     1
 40
1.0
176
     1
 90
        0
176
     1
 62
   257
176
     1
 40
1.0
176
     1
 90
        1
176
     1
 90
        6
176
     1
 90
        2
176
     1
 62
     7
176
     1
 90
        3
176
     1
 90
        0
176
     1
 90
        0
176
     1
290
     0
176
     1
 90
        1
176
     1
 40
0.0
176
     1
 90
        0
176
     1
290
     0
176
     1
290
     1
176
     1
290
     1
176
     1
290
     0
176
     1
290
     0
176
     1
290
     0
176
     1
290
     0
176
     1
290
     0
176
     1
290
     0
176
     1
 90
       50
176
     1
 40
0.0
176
     1
 40
1.0
176
     1
 90
        0
176
     1
 62
    18
420
        0
176
     1
 90
       50
176
     1
 90
        3
176
     1
 62
     5
420
      255
176
     1
290
     0
176
     1
 90
       50
176
     1
 90
       50
176
     1
 90
       50
176
     1
290
     0
176
     1
 90
       50
176
     1
 62
   256
176
     0
 40
1.0
176
     0
 90
        2
176
     1
  1
strokes_ogs.tif
176
     1
290
     0
176
     1
 40
1.0
176
     1
 40
1.0
176
     1
  0
VISUALSTYLE
  5
40
102
{ACAD_REACTORS
330
2A
102
}
330
2A
100
AcDbVisualStyle
  2
X-Ray
 70
    25
177
     3
291
     0
 70
    58
 90
        2
176
     1
 90
        2
176
     1
 90
        1
176
     1
 90
        1
176
     1
 40
0.5
176
     1
 40
30.0
176
     1
 62
     7
420
 16777215
176
     1
 90
        1
176
     1
 90
        0
176
     1
 62
     7
176
     1
 62
   257
176
     1
 90
        1
176
     1
 90
        1
176
     1
 40
1.0
176
     1
 90
        8
176
     1
 62
     7
176
     1
 40
1.0
176
     1
 90
        1
176
     1
 90
        6
176
     1
 90
        2
176
     1
 62
     7
176
     1
 90
        3
176
     1
 90
        0
176
     1
 90
        0
176
     1
290
     0
176
     1
 90
       13
176
     1
 40
0.0
176
     1
 90
        0
176
     1
290
     0
176
     1
290
     1
176
     1
290
     1
176
     1
290
     0
176
     1
290
     0
176
     1
290
     0
176
     1
290
     0
176
     1
290
     0
176
     1
290
     0
176
     1
 90
       50
176
     1
 40
0.0
176
     1
 40
1.0
176
     1
 90
        0
176
     1
 62
    18
420
        0
176
     1
 90
       50
176
     1
 90
        3
176
     1
 62
     5
420
      255
176
     1
290
     0
176
     1
 90
       50
176
     1
 90
       50
176
     1
 90
       50
176
     1
290
     0
176
     1
 90
       50
176
     1
 62
   256
176
     0
 40
1.0
176
     0
 90
        2
176
     1
  1
strokes_ogs.tif
176
     1
290
     0
176
     1
 40
1.0
176
     1
 40
1.0
176
     1
  0
DICTIONARYVAR
  5
1FC
102
{ACAD_REACTORS
330
1FB
102
}
330
1FB
100
DictionaryVariables
280
     0
  1
1:1
  0
DICTIONARYVAR
  5
201
102
{ACAD_REACTORS
330
1FB
102
}
330
1FB
100
DictionaryVariables
280
     0
  1
Standard
  0
DICTIONARYVAR
  5
200
102
{ACAD_REACTORS
330
1FB
102
}
330
1FB
100
DictionaryVariables
280
     0
  1
Standard
  0
DICTIONARY
  5
1FD
330
6A
100
AcDbDictionary
280
     1
281
     1
  3
ACAD_ROUNDTRIP_2008_TABLESTYLE_CELLSTYLEMAP
360
1FE
  0
CELLSTYLEMAP
  5
1FE
102
{ACAD_REACTORS
330
1FD
102
}
330
1FD
100
AcDbCellStyleMap
 90
        3
300
CELLSTYLE
  1
TABLEFORMAT_BEGIN
 90
        5
170
     1
 91
        0
 92
    32768
 62
   257
 93
        1
300
CONTENTFORMAT
  1
CONTENTFORMAT_BEGIN
 90
        0
 91
        0
 92
        4
 93
        0
300

 40
0.0
140
1.0
 94
        5
 62
     0
340
11
144
0.25
309
CONTENTFORMAT_END
171
     1
301
MARGIN
  1
CELLMARGIN_BEGIN
 40
0.06
 40
0.06
 40
0.06
 40
0.06
 40
0.06
 40
0.06
309
CELLMARGIN_END
 94
        6
 95
        1
302
GRIDFORMAT
  1
GRIDFORMAT_BEGIN
 90
        0
 91
        1
 62
     0
 92
       -2
340
14
 93
        0
 40
0.045
309
GRIDFORMAT_END
 95
        2
302
GRIDFORMAT
  1
GRIDFORMAT_BEGIN
 90
        0
 91
        1
 62
     0
 92
       -2
340
14
 93
        0
 40
0.045
309
GRIDFORMAT_END
 95
        4
302
GRIDFORMAT
  1
GRIDFORMAT_BEGIN
 90
        0
 91
        1
 62
     0
 92
       -2
340
14
 93
        0
 40
0.045
309
GRIDFORMAT_END
 95
        8
302
GRIDFORMAT
  1
GRIDFORMAT_BEGIN
 90
        0
 91
        1
 62
     0
 92
       -2
340
14
 93
        0
 40
0.045
309
GRIDFORMAT_END
 95
       16
302
GRIDFORMAT
  1
GRIDFORMAT_BEGIN
 90
        0
 91
        1
 62
     0
 92
       -2
340
14
 93
        0
 40
0.045
309
GRIDFORMAT_END
 95
       32
302
GRIDFORMAT
  1
GRIDFORMAT_BEGIN
 90
        0
 91
        1
 62
     0
 92
       -2
340
14
 93
        0
 40
0.045
309
GRIDFORMAT_END
309
TABLEFORMAT_END
  1
CELLSTYLE_BEGIN
 90
        1
 91
        1
300
_TITLE
309
CELLSTYLE_END
300
CELLSTYLE
  1
TABLEFORMAT_BEGIN
 90
        5
170
     1
 91
        0
 92
        0
 62
   257
 93
        1
300
CONTENTFORMAT
  1
CONTENTFORMAT_BEGIN
 90
        0
 91
        0
 92
        4
 93
        0
300

 40
0.0
140
1.0
 94
        5
 62
     0
340
11
144
0.18
309
CONTENTFORMAT_END
171
     1
301
MARGIN
  1
CELLMARGIN_BEGIN
 40
0.06
 40
0.06
 40
0.06
 40
0.06
 40
0.06
 40
0.06
309
CELLMARGIN_END
 94
        6
 95
        1
302
GRIDFORMAT
  1
GRIDFORMAT_BEGIN
 90
        0
 91
        1
 62
     0
 92
       -2
340
14
 93
        0
 40
0.045
309
GRIDFORMAT_END
 95
        2
302
GRIDFORMAT
  1
GRIDFORMAT_BEGIN
 90
        0
 91
        1
 62
     0
 92
       -2
340
14
 93
        0
 40
0.045
309
GRIDFORMAT_END
 95
        4
302
GRIDFORMAT
  1
GRIDFORMAT_BEGIN
 90
        0
 91
        1
 62
     0
 92
       -2
340
14
 93
        0
 40
0.045
309
GRIDFORMAT_END
 95
        8
302
GRIDFORMAT
  1
GRIDFORMAT_BEGIN
 90
        0
 91
        1
 62
     0
 92
       -2
340
14
 93
        0
 40
0.045
309
GRIDFORMAT_END
 95
       16
302
GRIDFORMAT
  1
GRIDFORMAT_BEGIN
 90
        0
 91
        1
 62
     0
 92
       -2
340
14
 93
        0
 40
0.045
309
GRIDFORMAT_END
 95
       32
302
GRIDFORMAT
  1
GRIDFORMAT_BEGIN
 90
        0
 91
        1
 62
     0
 92
       -2
340
14
 93
        0
 40
0.045
309
GRIDFORMAT_END
309
TABLEFORMAT_END
  1
CELLSTYLE_BEGIN
 90
        2
 91
        1
300
_HEADER
309
CELLSTYLE_END
300
CELLSTYLE
  1
TABLEFORMAT_BEGIN
 90
        5
170
     1
 91
        0
 92
        0
 62
   257
 93
        1
300
CONTENTFORMAT
  1
CONTENTFORMAT_BEGIN
 90
        0
 91
        0
 92
        4
 93
        0
300

 40
0.0
140
1.0
 94
        2
 62
     0
340
11
144
0.18
309
CONTENTFORMAT_END
171
     1
301
MARGIN
  1
CELLMARGIN_BEGIN
 40
0.06
 40
0.06
 40
0.06
 40
0.06
 40
0.06
 40
0.06
309
CELLMARGIN_END
 94
        6
 95
        1
302
GRIDFORMAT
  1
GRIDFORMAT_BEGIN
 90
        0
 91
        1
 62
     0
 92
       -2
340
14
 93
        0
 40
0.045
309
GRIDFORMAT_END
 95
        2
302
GRIDFORMAT
  1
GRIDFORMAT_BEGIN
 90
        0
 91
        1
 62
     0
 92
       -2
340
14
 93
        0
 40
0.045
309
GRIDFORMAT_END
 95
        4
302
GRIDFORMAT
  1
GRIDFORMAT_BEGIN
 90
        0
 91
        1
 62
     0
 92
       -2
340
14
 93
        0
 40
0.045
309
GRIDFORMAT_END
 95
        8
302
GRIDFORMAT
  1
GRIDFORMAT_BEGIN
 90
        0
 91
        1
 62
     0
 92
       -2
340
14
 93
        0
 40
0.045
309
GRIDFORMAT_END
 95
       16
302
GRIDFORMAT
  1
GRIDFORMAT_BEGIN
 90
        0
 91
        1
 62
     0
 92
       -2
340
14
 93
        0
 40
0.045
309
GRIDFORMAT_END
 95
       32
302
GRIDFORMAT
  1
GRIDFORMAT_BEGIN
 90
        0
 91
        1
 62
     0
 92
       -2
340
14
 93
        0
 40
0.045
309
GRIDFORMAT_END
309
TABLEFORMAT_END
  1
CELLSTYLE_BEGIN
 90
        3
 91
        2
300
_DATA
309
CELLSTYLE_END
  0
ENDSEC
  0
EOF