0
SECTION
  2
HEADER
  9
$ACADVER
  1
AC1027
  9
$ACADMAINTVER
 70
     8
  9
$DWGCODEPAGE
  3
ANSI_1252
  9
$REQUIREDVERSIONS
160
                 0
  9
$COMMENTS
  1
File was created by Cadenas
  9
$CUSTOMPROPERTYTAG
  1
NN
  9
$CUSTOMPROPERTY
  1
Double-Interlock 4-Bolt Flange  Expansion Inch Bore
  9
$CUSTOMPROPERTYTAG
  1
NT
  9
$CUSTOMPROPERTY
  1
Double-Interlock Flange Bearings
  9
$CUSTOMPROPERTYTAG
  1
NB
  9
$CUSTOMPROPERTY
  1
023464
  9
$CUSTOMPROPERTYTAG
  1
NBSYN
  9
$CUSTOMPROPERTY
  1
$PN.
  9
$CUSTOMPROPERTYTAG
  1
LINA
  9
$CUSTOMPROPERTY
  1
023464
  9
$CUSTOMPROPERTYTAG
  1
SS
  9
$CUSTOMPROPERTY
  1
2-7/16
  9
$CUSTOMPROPERTYTAG
  1
PN
  9
$CUSTOMPROPERTY
  1
023464
  9
$CUSTOMPROPERTYTAG
  1
DESCRIPTION
  9
$CUSTOMPROPERTY
  1
F4B-DI-207RE
  9
$CUSTOMPROPERTYTAG
  1
EF
  9
$CUSTOMPROPERTY
  1
Expansion Type
  9
$CUSTOMPROPERTYTAG
  1
A
  9
$CUSTOMPROPERTY
  1
4
  9
$CUSTOMPROPERTYTAG
  1
B
  9
$CUSTOMPROPERTY
  1
7-5/8
  9
$CUSTOMPROPERTYTAG
  1
C
  9
$CUSTOMPROPERTY
  1
2-15/16
  9
$CUSTOMPROPERTYTAG
  1
D
  9
$CUSTOMPROPERTY
  1
8-1/2
  9
$CUSTOMPROPERTYTAG
  1
E
  9
$CUSTOMPROPERTY
  1
7/16
  9
$CUSTOMPROPERTYTAG
  1
F
  9
$CUSTOMPROPERTY
  1
5/8
  9
$CUSTOMPROPERTYTAG
  1
G
  9
$CUSTOMPROPERTY
  1
8-9/16
  9
$CUSTOMPROPERTYTAG
  1
H
  9
$CUSTOMPROPERTY
  1
5/8
  9
$CUSTOMPROPERTYTAG
  1
J
  9
$CUSTOMPROPERTY
  1
6
  9
$CUSTOMPROPERTYTAG
  1
L
  9
$CUSTOMPROPERTY
  1
4-1/16
  9
$CUSTOMPROPERTYTAG
  1
T
  9
$CUSTOMPROPERTY
  1
5/16
  9
$CUSTOMPROPERTYTAG
  1
COMPANY
  9
$CUSTOMPROPERTY
  1
baldor
  9
$INSBASE
 10
0.0
 20
0.0
 30
0.0
  9
$EXTMIN
 10
1.000000000000000E+20
 20
1.000000000000000E+20
 30
1.000000000000000E+20
  9
$EXTMAX
 10
-1.000000000000000E+20
 20
-1.000000000000000E+20
 30
-1.000000000000000E+20
  9
$LIMMIN
 10
0.0
 20
0.0
  9
$LIMMAX
 10
12.0
 20
9.0
  9
$ORTHOMODE
 70
     0
  9
$REGENMODE
 70
     1
  9
$FILLMODE
 70
     1
  9
$QTEXTMODE
 70
     0
  9
$MIRRTEXT
 70
     1
  9
$LTSCALE
 40
1.0
  9
$ATTMODE
 70
     1
  9
$TEXTSIZE
 40
0.2
  9
$TRACEWID
 40
0.05
  9
$TEXTSTYLE
  7
Standard
  9
$CLAYER
  8
0
  9
$CELTYPE
  6
ByLayer
  9
$CECOLOR
 62
   256
  9
$CELTSCALE
 40
1.0
  9
$DISPSILH
 70
     0
  9
$DIMSCALE
 40
1.0
  9
$DIMASZ
 40
0.18
  9
$DIMEXO
 40
0.0625
  9
$DIMDLI
 40
0.38
  9
$DIMRND
 40
0.0
  9
$DIMDLE
 40
0.0
  9
$DIMEXE
 40
0.18
  9
$DIMTP
 40
0.0
  9
$DIMTM
 40
0.0
  9
$DIMTXT
 40
0.18
  9
$DIMCEN
 40
0.09
  9
$DIMTSZ
 40
0.0
  9
$DIMTOL
 70
     0
  9
$DIMLIM
 70
     0
  9
$DIMTIH
 70
     1
  9
$DIMTOH
 70
     1
  9
$DIMSE1
 70
     0
  9
$DIMSE2
 70
     0
  9
$DIMTAD
 70
     0
  9
$DIMZIN
 70
     0
  9
$DIMBLK
  1

  9
$DIMASO
 70
     1
  9
$DIMSHO
 70
     1
  9
$DIMPOST
  1

  9
$DIMAPOST
  1

  9
$DIMALT
 70
     0
  9
$DIMALTD
 70
     2
  9
$DIMALTF
 40
25.4
  9
$DIMLFAC
 40
1.0
  9
$DIMTOFL
 70
     0
  9
$DIMTVP
 40
0.0
  9
$DIMTIX
 70
     0
  9
$DIMSOXD
 70
     0
  9
$DIMSAH
 70
     0
  9
$DIMBLK1
  1

  9
$DIMBLK2
  1

  9
$DIMSTYLE
  2
Standard
  9
$DIMCLRD
 70
     0
  9
$DIMCLRE
 70
     0
  9
$DIMCLRT
 70
     0
  9
$DIMTFAC
 40
1.0
  9
$DIMGAP
 40
0.09
  9
$DIMJUST
 70
     0
  9
$DIMSD1
 70
     0
  9
$DIMSD2
 70
     0
  9
$DIMTOLJ
 70
     1
  9
$DIMTZIN
 70
     0
  9
$DIMALTZ
 70
     0
  9
$DIMALTTZ
 70
     0
  9
$DIMUPT
 70
     0
  9
$DIMDEC
 70
     4
  9
$DIMTDEC
 70
     4
  9
$DIMALTU
 70
     2
  9
$DIMALTTD
 70
     2
  9
$DIMTXSTY
  7
Standard
  9
$DIMAUNIT
 70
     0
  9
$DIMADEC
 70
     0
  9
$DIMALTRND
 40
0.0
  9
$DIMAZIN
 70
     0
  9
$DIMDSEP
 70
    46
  9
$DIMATFIT
 70
     3
  9
$DIMFRAC
 70
     0
  9
$DIMLDRBLK
  1

  9
$DIMLUNIT
 70
     2
  9
$DIMLWD
 70
    -2
  9
$DIMLWE
 70
    -2
  9
$DIMTMOVE
 70
     0
  9
$DIMFXL
 40
1.0
  9
$DIMFXLON
 70
     0
  9
$DIMJOGANG
 40
0.7853981633974483
  9
$DIMTFILL
 70
     0
  9
$DIMTFILLCLR
 70
     0
  9
$DIMARCSYM
 70
     0
  9
$DIMLTYPE
  6

  9
$DIMLTEX1
  6

  9
$DIMLTEX2
  6

  9
$DIMTXTDIRECTION
 70
     0
  9
$LUNITS
 70
     2
  9
$LUPREC
 70
     4
  9
$SKETCHINC
 40
0.1
  9
$FILLETRAD
 40
0.5
  9
$AUNITS
 70
     0
  9
$AUPREC
 70
     0
  9
$MENU
  1
.
  9
$ELEVATION
 40
0.0
  9
$PELEVATION
 40
0.0
  9
$THICKNESS
 40
0.0
  9
$LIMCHECK
 70
     0
  9
$CHAMFERA
 40
0.0
  9
$CHAMFERB
 40
0.0
  9
$CHAMFERC
 40
0.0
  9
$CHAMFERD
 40
0.0
  9
$SKPOLY
 70
     0
  9
$TDCREATE
 40
2458168.97935875
  9
$TDUCREATE
 40
2458168.937692083
  9
$TDUPDATE
 40
2458168.979358935
  9
$TDUUPDATE
 40
2458168.937692268
  9
$TDINDWG
 40
0.0000000116
  9
$TDUSRTIMER
 40
0.0000000116
  9
$USRTIMER
 70
     1
  9
$ANGBASE
 50
0.0
  9
$ANGDIR
 70
     0
  9
$PDMODE
 70
     0
  9
$PDSIZE
 40
0.0
  9
$PLINEWID
 40
0.0
  9
$SPLFRAME
 70
     0
  9
$SPLINETYPE
 70
     6
  9
$SPLINESEGS
 70
     8
  9
$HANDSEED
  5
1D8
  9
$SURFTAB1
 70
     6
  9
$SURFTAB2
 70
     6
  9
$SURFTYPE
 70
     6
  9
$SURFU
 70
     6
  9
$SURFV
 70
     6
  9
$UCSBASE
  2

  9
$UCSNAME
  2

  9
$UCSORG
 10
0.0
 20
0.0
 30
0.0
  9
$UCSXDIR
 10
1.0
 20
0.0
 30
0.0
  9
$UCSYDIR
 10
0.0
 20
1.0
 30
0.0
  9
$UCSORTHOREF
  2

  9
$UCSORTHOVIEW
 70
     0
  9
$UCSORGTOP
 10
0.0
 20
0.0
 30
0.0
  9
$UCSORGBOTTOM
 10
0.0
 20
0.0
 30
0.0
  9
$UCSORGLEFT
 10
0.0
 20
0.0
 30
0.0
  9
$UCSORGRIGHT
 10
0.0
 20
0.0
 30
0.0
  9
$UCSORGFRONT
 10
0.0
 20
0.0
 30
0.0
  9
$UCSORGBACK
 10
0.0
 20
0.0
 30
0.0
  9
$PUCSBASE
  2

  9
$PUCSNAME
  2

  9
$PUCSORG
 10
0.0
 20
0.0
 30
0.0
  9
$PUCSXDIR
 10
1.0
 20
0.0
 30
0.0
  9
$PUCSYDIR
 10
0.0
 20
1.0
 30
0.0
  9
$PUCSORTHOREF
  2

  9
$PUCSORTHOVIEW
 70
     0
  9
$PUCSORGTOP
 10
0.0
 20
0.0
 30
0.0
  9
$PUCSORGBOTTOM
 10
0.0
 20
0.0
 30
0.0
  9
$PUCSORGLEFT
 10
0.0
 20
0.0
 30
0.0
  9
$PUCSORGRIGHT
 10
0.0
 20
0.0
 30
0.0
  9
$PUCSORGFRONT
 10
0.0
 20
0.0
 30
0.0
  9
$PUCSORGBACK
 10
0.0
 20
0.0
 30
0.0
  9
$USERI1
 70
     0
  9
$USERI2
 70
     0
  9
$USERI3
 70
     0
  9
$USERI4
 70
     0
  9
$USERI5
 70
     0
  9
$USERR1
 40
0.0
  9
$USERR2
 40
0.0
  9
$USERR3
 40
0.0
  9
$USERR4
 40
0.0
  9
$USERR5
 40
0.0
  9
$WORLDVIEW
 70
     1
  9
$SHADEDGE
 70
     3
  9
$SHADEDIF
 70
    70
  9
$TILEMODE
 70
     1
  9
$MAXACTVP
 70
    64
  9
$PINSBASE
 10
0.0
 20
0.0
 30
0.0
  9
$PLIMCHECK
 70
     0
  9
$PEXTMIN
 10
1.000000000000000E+20
 20
1.000000000000000E+20
 30
1.000000000000000E+20
  9
$PEXTMAX
 10
-1.000000000000000E+20
 20
-1.000000000000000E+20
 30
-1.000000000000000E+20
  9
$PLIMMIN
 10
0.0
 20
0.0
  9
$PLIMMAX
 10
12.0
 20
9.0
  9
$UNITMODE
 70
     0
  9
$VISRETAIN
 70
     1
  9
$PLINEGEN
 70
     0
  9
$PSLTSCALE
 70
     1
  9
$TREEDEPTH
 70
  3020
  9
$CMLSTYLE
  2
Standard
  9
$CMLJUST
 70
     0
  9
$CMLSCALE
 40
1.0
  9
$PROXYGRAPHICS
 70
     1
  9
$MEASUREMENT
 70
     0
  9
$CELWEIGHT
370
    -1
  9
$ENDCAPS
280
     0
  9
$JOINSTYLE
280
     0
  9
$LWDISPLAY
290
     0
  9
$INSUNITS
 70
     1
  9
$HYPERLINKBASE
  1

  9
$STYLESHEET
  1

  9
$XEDIT
290
     1
  9
$CEPSNTYPE
380
     0
  9
$PSTYLEMODE
290
     1
  9
$FINGERPRINTGUID
  2
{0D6C2ECE-0F59-44EA-BB5B-D23AAFEB310A}
  9
$VERSIONGUID
  2
{FAEB1C32-E019-11D5-929B-00C0DF256EC4}
  9
$EXTNAMES
290
     1
  9
$PSVPSCALE
 40
0.0
  9
$OLESTARTUP
290
     0
  9
$SORTENTS
280
   127
  9
$INDEXCTL
280
     0
  9
$HIDETEXT
280
     1
  9
$XCLIPFRAME
280
     2
  9
$HALOGAP
280
     0
  9
$OBSCOLOR
 70
   257
  9
$OBSLTYPE
280
     0
  9
$INTERSECTIONDISPLAY
280
     0
  9
$INTERSECTIONCOLOR
 70
   257
  9
$DIMASSOC
280
     2
  9
$PROJECTNAME
  1

  9
$CAMERADISPLAY
290
     0
  9
$LENSLENGTH
 40
50.0
  9
$CAMERAHEIGHT
 40
0.0
  9
$STEPSPERSEC
 40
2.0
  9
$STEPSIZE
 40
6.0
  9
$3DDWFPREC
 40
2.0
  9
$PSOLWIDTH
 40
0.25
  9
$PSOLHEIGHT
 40
4.0
  9
$LOFTANG1
 40
1.570796326794897
  9
$LOFTANG2
 40
1.570796326794897
  9
$LOFTMAG1
 40
0.0
  9
$LOFTMAG2
 40
0.0
  9
$LOFTPARAM
 70
     7
  9
$LOFTNORMALS
280
     1
  9
$LATITUDE
 40
37.795
  9
$LONGITUDE
 40
-122.394
  9
$NORTHDIRECTION
 40
0.0
  9
$TIMEZONE
 70
 -8000
  9
$LIGHTGLYPHDISPLAY
280
     1
  9
$TILEMODELIGHTSYNCH
280
     1
  9
$CMATERIAL
347
44
  9
$SOLIDHIST
280
     0
  9
$SHOWHIST
280
     1
  9
$DWFFRAME
280
     2
  9
$DGNFRAME
280
     2
  9
$REALWORLDSCALE
290
     1
  9
$INTERFERECOLOR
 62
   256
  9
$CSHADOW
280
     0
  9
$SHADOWPLANELOCATION
 40
0.0
  0
ENDSEC
  0
SECTION
  2
CLASSES
  0
CLASS
  1
ACDBDICTIONARYWDFLT
  2
AcDbDictionaryWithDefault
  3
ObjectDBX Classes
 90
        0
 91
        4
280
     0
281
     0
  0
CLASS
  1
VISUALSTYLE
  2
AcDbVisualStyle
  3
ObjectDBX Classes
 90
     4095
 91
        4
280
     0
281
     0
  0
CLASS
  1
MATERIAL
  2
AcDbMaterial
  3
ObjectDBX Classes
 90
     1153
 91
        4
280
     0
281
     0
  0
CLASS
  1
SCALE
  2
AcDbScale
  3
ObjectDBX Classes
 90
     1153
 91
        4
280
     0
281
     0
  0
CLASS
  1
TABLESTYLE
  2
AcDbTableStyle
  3
ObjectDBX Classes
 90
     4095
 91
        4
280
     0
281
     0
  0
CLASS
  1
MLEADERSTYLE
  2
AcDbMLeaderStyle
  3
ACDB_MLEADERSTYLE_CLASS
 90
     4095
 91
        4
280
     0
281
     0
  0
CLASS
  1
SUN
  2
AcDbSun
  3
SCENEOE
 90
     1153
 91
        4
280
     0
281
     0
  0
CLASS
  1
DICTIONARYVAR
  2
AcDbDictionaryVar
  3
ObjectDBX Classes
 90
        0
 91
        4
280
     0
281
     0
  0
CLASS
  1
CELLSTYLEMAP
  2
AcDbCellStyleMap
  3
ObjectDBX Classes
 90
     1152
 91
        4
280
     0
281
     0
  0
ENDSEC
  0
SECTION
  2
TABLES
  0
TABLE
  2
VPORT
  5
8
330
0
100
AcDbSymbolTable
 70
     1
  0
VPORT
  5
29
330
8
100
AcDbSymbolTableRecord
100
AcDbViewportTableRecord
  2
*Active
 70
     0
 10
0.0
 20
0.0
 11
1.0
 21
1.0
 12
0.0
 22
0.8562499999999993
 13
0.0
 23
0.0
 14
0.5
 24
0.5
 15
0.5
 25
0.5
 16
0.0
 26
0.0
 36
1.0
 17
0.0
 27
0.0
 37
0.0
 40
9.524249999999999
 41
0.9170013386880859
 42
50.0
 43
0.0
 44
0.0
 50
0.0
 51
0.0
 71
     0
 72
   100
 73
     1
 74
     3
 75
     0
 76
     0
 77
     0
 78
     0
281
     0
 65
     1
110
0.0
120
0.0
130
0.0
111
1.0
121
0.0
131
0.0
112
0.0
122
1.0
132
0.0
 79
     0
146
0.0
348
2F
 60
     3
 61
     5
292
     1
282
     1
141
0.0
142
0.0
 63
   250
361
6D
  0
ENDTAB
  0
TABLE
  2
LTYPE
  5
5
330
0
100
AcDbSymbolTable
 70
     3
  0
LTYPE
  5
14
330
5
100
AcDbSymbolTableRecord
100
AcDbLinetypeTableRecord
  2
ByBlock
 70
     0
  3

 72
    65
 73
     0
 40
0.0
  0
LTYPE
  5
15
330
5
100
AcDbSymbolTableRecord
100
AcDbLinetypeTableRecord
  2
ByLayer
 70
     0
  3

 72
    65
 73
     0
 40
0.0
  0
LTYPE
  5
16
330
5
100
AcDbSymbolTableRecord
100
AcDbLinetypeTableRecord
  2
Continuous
 70
     0
  3
Solid line
 72
    65
 73
     0
 40
0.0
  0
LTYPE
  5
9D
330
5
100
AcDbSymbolTableRecord
100
AcDbLinetypeTableRecord
  2
Dashed
 70
     0
  3

 72
    65
 73
     2
 40
2.0
 49
1.0
 74
     0
 49
-1.0
 74
     0
  0
LTYPE
  5
12C
330
5
100
AcDbSymbolTableRecord
100
AcDbLinetypeTableRecord
  2
Center
 70
     0
  3

 72
    65
 73
     4
 40
1.5
 49
0.45
 74
     0
 49
-0.5
 74
     0
 49
0.05
 74
     0
 49
-0.5
 74
     0
  0
ENDTAB
  0
TABLE
  2
LAYER
  5
2
330
0
100
AcDbSymbolTable
 70
     7
  0
LAYER
  5
10
330
2
100
AcDbSymbolTableRecord
100
AcDbLayerTableRecord
  2
0
 70
     0
 62
     7
  6
Continuous
370
    -3
390
F
347
46
348
0
  0
LAYER
  5
72
330
2
100
AcDbSymbolTableRecord
100
AcDbLayerTableRecord
  2
AM_6
 70
     0
 62
    -2
  6
Continuous
370
    35
390
F
347
46
348
0
  0
LAYER
  5
9E
330
2
100
AcDbSymbolTableRecord
100
AcDbLayerTableRecord
  2
AM_9
 70
     0
 62
     6
  6
Dashed
370
    25
390
F
347
46
348
0
  0
LAYER
  5
AF
330
2
100
AcDbSymbolTableRecord
100
AcDbLayerTableRecord
  2
AM_5
 70
     0
 62
     3
  6
Continuous
370
    25
390
F
347
46
348
0
  0
LAYER
  5
B4
330
2
100
AcDbSymbolTableRecord
100
AcDbLayerTableRecord
  2
AM_4
 70
     0
 62
     7
  6
Continuous
370
    50
390
F
347
46
348
0
  0
LAYER
  5
12D
330
2
100
AcDbSymbolTableRecord
100
AcDbLayerTableRecord
  2
AM_7
 70
     0
 62
     7
  6
Center
370
    25
390
F
347
46
348
0
  0
LAYER
  5
1C5
330
2
100
AcDbSymbolTableRecord
100
AcDbLayerTableRecord
  2
ConnectionPoints
 70
     0
 62
     7
  6
Continuous
370
    50
390
F
347
46
348
0
  0
ENDTAB
  0
TABLE
  2
STYLE
  5
3
330
0
100
AcDbSymbolTable
 70
     1
  0
STYLE
  5
11
330
3
100
AcDbSymbolTableRecord
100
AcDbTextStyleTableRecord
  2
Standard
 70
     0
 40
0.0
 41
1.0
 50
0.0
 71
     0
 42
0.2
  3
txt
  4

  0
ENDTAB
  0
TABLE
  2
VIEW
  5
6
330
0
100
AcDbSymbolTable
 70
     0
  0
ENDTAB
  0
TABLE
  2
UCS
  5
7
330
0
100
AcDbSymbolTable
 70
     0
  0
ENDTAB
  0
TABLE
  2
APPID
  5
9
330
0
100
AcDbSymbolTable
 70
     1
  0
APPID
  5
12
330
9
100
AcDbSymbolTableRecord
100
AcDbRegAppTableRecord
  2
ACAD
 70
     0
  0
ENDTAB
  0
TABLE
  2
DIMSTYLE
  5
A
330
0
100
AcDbSymbolTable
 70
     1
100
AcDbDimStyleTable
  0
DIMSTYLE
105
27
330
A
100
AcDbSymbolTableRecord
100
AcDbDimStyleTableRecord
  2
Standard
 70
     0
178
     0
340
11
  0
ENDTAB
  0
TABLE
  2
BLOCK_RECORD
  5
1
330
0
100
AcDbSymbolTable
 70
     7
  0
BLOCK_RECORD
  5
1F
330
1
100
AcDbSymbolTableRecord
100
AcDbBlockTableRecord
  2
*Model_Space
340
22
 70
     0
280
     1
281
     0
  0
BLOCK_RECORD
  5
1B
330
1
100
AcDbSymbolTableRecord
100
AcDbBlockTableRecord
  2
*Paper_Space
340
1E
 70
     0
280
     1
281
     0
  0
BLOCK_RECORD
  5
23
330
1
100
AcDbSymbolTableRecord
100
AcDbBlockTableRecord
  2
*Paper_Space0
340
26
 70
     0
280
     1
281
     0
  0
BLOCK_RECORD
  5
6E
330
1
100
AcDbSymbolTableRecord
100
AcDbBlockTableRecord
  2
1_023464_0
340
0
102
{BLKREFS
331
6F
102
}
 70
     0
280
     1
281
     0
  0
BLOCK_RECORD
  5
88
330
1
100
AcDbSymbolTableRecord
100
AcDbBlockTableRecord
  2
2_2_7_16C_1_0_in_023464_0
340
0
102
{BLKREFS
331
89
102
}
 70
     0
280
     1
281
     0
  0
BLOCK_RECORD
  5
B8
330
1
100
AcDbSymbolTableRecord
100
AcDbBlockTableRecord
  2
3_2_7_16C_2_0_in_023464_0
340
0
102
{BLKREFS
331
B9
102
}
 70
     0
280
     1
281
     0
  0
BLOCK_RECORD
  5
D4
330
1
100
AcDbSymbolTableRecord
100
AcDbBlockTableRecord
  2
4_405015E_Inch_0_in_023464_0
340
0
102
{BLKREFS
331
D5
102
}
 70
     0
280
     1
281
     0
  0
BLOCK_RECORD
  5
109
330
1
100
AcDbSymbolTableRecord
100
AcDbBlockTableRecord
  2
5_023520_Insert_0_in_023464_0
340
0
102
{BLKREFS
331
10A
102
}
 70
     0
280
     1
281
     0
  0
BLOCK_RECORD
  5
137
330
1
100
AcDbSymbolTableRecord
100
AcDbBlockTableRecord
  2
6_023464H_0_in_023464_0
340
0
102
{BLKREFS
331
138
102
}
 70
     0
280
     1
281
     0
  0
ENDTAB
  0
ENDSEC
  0
SECTION
  2
BLOCKS
  0
BLOCK
  5
20
330
1F
100
AcDbEntity
  8
0
100
AcDbBlockBegin
  2
*Model_Space
 70
     0
 10
0.0
 20
0.0
 30
0.0
  3
*Model_Space
  1

  0
ENDBLK
  5
21
330
1F
100
AcDbEntity
  8
0
100
AcDbBlockEnd
  0
BLOCK
  5
1C
330
1B
100
AcDbEntity
 67
     1
  8
0
100
AcDbBlockBegin
  2
*Paper_Space
 70
     0
 10
0.0
 20
0.0
 30
0.0
  3
*Paper_Space
  1

  0
ENDBLK
  5
1D
330
1B
100
AcDbEntity
 67
     1
  8
0
100
AcDbBlockEnd
  0
BLOCK
  5
24
330
23
100
AcDbEntity
  8
0
100
AcDbBlockBegin
  2
*Paper_Space0
 70
     0
 10
0.0
 20
0.0
 30
0.0
  3
*Paper_Space0
  1

  0
ENDBLK
  5
25
330
23
100
AcDbEntity
  8
0
100
AcDbBlockEnd
  0
BLOCK
  5
70
330
6E
100
AcDbEntity
  8
0
100
AcDbBlockBegin
  2
1_023464_0
 70
     2
 10
0.0
 20
0.0
 30
0.0
  3
1_023464_0
  1

  0
ATTDEF
  5
73
330
6E
100
AcDbEntity
  8
AM_6
100
AcDbText
 10
9.28125
 20
5.524999999999999
 30
0.0
 40
0.5
  1
Double-Interlock 4-Bolt Flange  Expansion Inch Bore
100
AcDbAttributeDefinition
  3

  2
NN
 70
     8
280
     0
  0
ATTDEF
  5
74
330
6E
100
AcDbEntity
  8
AM_6
100
AcDbText
 10
9.28125
 20
5.024999999999999
 30
0.0
 40
0.5
  1
Double-Interlock Flange Bearings
100
AcDbAttributeDefinition
  3

  2
NT
 70
     8
280
     0
  0
ATTDEF
  5
75
330
6E
100
AcDbEntity
  8
AM_6
100
AcDbText
 10
9.28125
 20
4.524999999999999
 30
0.0
 40
0.5
  1
023464
100
AcDbAttributeDefinition
  3

  2
NB
 70
     8
280
     0
  0
ATTDEF
  5
76
330
6E
100
AcDbEntity
  8
AM_6
100
AcDbText
 10
9.28125
 20
4.024999999999999
 30
0.0
 40
0.5
  1
$PN.
100
AcDbAttributeDefinition
  3

  2
NBSYN
 70
     8
280
     0
  0
ATTDEF
  5
77
330
6E
100
AcDbEntity
  8
AM_6
100
AcDbText
 10
9.28125
 20
3.524999999999999
 30
0.0
 40
0.5
  1
023464
100
AcDbAttributeDefinition
  3

  2
LINA
 70
     8
280
     0
  0
ATTDEF
  5
78
330
6E
100
AcDbEntity
  8
AM_6
100
AcDbText
 10
9.28125
 20
3.024999999999999
 30
0.0
 40
0.5
  1
2-7/16
100
AcDbAttributeDefinition
  3

  2
SS
 70
     8
280
     0
  0
ATTDEF
  5
79
330
6E
100
AcDbEntity
  8
AM_6
100
AcDbText
 10
9.28125
 20
2.524999999999999
 30
0.0
 40
0.5
  1
023464
100
AcDbAttributeDefinition
  3

  2
PN
 70
     8
280
     0
  0
ATTDEF
  5
7A
330
6E
100
AcDbEntity
  8
AM_6
100
AcDbText
 10
9.28125
 20
2.024999999999999
 30
0.0
 40
0.5
  1
F4B-DI-207RE
100
AcDbAttributeDefinition
  3

  2
DESCRIPTION
 70
     8
280
     0
  0
ATTDEF
  5
7B
330
6E
100
AcDbEntity
  8
AM_6
100
AcDbText
 10
9.28125
 20
1.524999999999999
 30
0.0
 40
0.5
  1
Expansion Type
100
AcDbAttributeDefinition
  3

  2
EF
 70
     8
280
     0
  0
ATTDEF
  5
7C
330
6E
100
AcDbEntity
  8
AM_6
100
AcDbText
 10
9.28125
 20
1.024999999999999
 30
0.0
 40
0.5
  1
4
100
AcDbAttributeDefinition
  3

  2
A
 70
     8
280
     0
  0
ATTDEF
  5
7D
330
6E
100
AcDbEntity
  8
AM_6
100
AcDbText
 10
9.28125
 20
0.5249999999999995
 30
0.0
 40
0.5
  1
7-5/8
100
AcDbAttributeDefinition
  3

  2
B
 70
     8
280
     0
  0
ATTDEF
  5
7E
330
6E
100
AcDbEntity
  8
AM_6
100
AcDbText
 10
9.28125
 20
0.0249999999999995
 30
0.0
 40
0.5
  1
2-15/16
100
AcDbAttributeDefinition
  3

  2
C
 70
     8
280
     0
  0
ATTDEF
  5
7F
330
6E
100
AcDbEntity
  8
AM_6
100
AcDbText
 10
9.28125
 20
-0.4750000000000005
 30
0.0
 40
0.5
  1
8-1/2
100
AcDbAttributeDefinition
  3

  2
D
 70
     8
280
     0
  0
ATTDEF
  5
80
330
6E
100
AcDbEntity
  8
AM_6
100
AcDbText
 10
9.28125
 20
-0.9750000000000005
 30
0.0
 40
0.5
  1
7/16
100
AcDbAttributeDefinition
  3

  2
E
 70
     8
280
     0
  0
ATTDEF
  5
81
330
6E
100
AcDbEntity
  8
AM_6
100
AcDbText
 10
9.28125
 20
-1.475000000000001
 30
0.0
 40
0.5
  1
5/8
100
AcDbAttributeDefinition
  3

  2
F
 70
     8
280
     0
  0
ATTDEF
  5
82
330
6E
100
AcDbEntity
  8
AM_6
100
AcDbText
 10
9.28125
 20
-1.975000000000001
 30
0.0
 40
0.5
  1
8-9/16
100
AcDbAttributeDefinition
  3

  2
G
 70
     8
280
     0
  0
ATTDEF
  5
83
330
6E
100
AcDbEntity
  8
AM_6
100
AcDbText
 10
9.28125
 20
-2.475000000000001
 30
0.0
 40
0.5
  1
5/8
100
AcDbAttributeDefinition
  3

  2
H
 70
     8
280
     0
  0
ATTDEF
  5
84
330
6E
100
AcDbEntity
  8
AM_6
100
AcDbText
 10
9.28125
 20
-2.975000000000001
 30
0.0
 40
0.5
  1
6
100
AcDbAttributeDefinition
  3

  2
J
 70
     8
280
     0
  0
ATTDEF
  5
85
330
6E
100
AcDbEntity
  8
AM_6
100
AcDbText
 10
9.28125
 20
-3.475000000000001
 30
0.0
 40
0.5
  1
4-1/16
100
AcDbAttributeDefinition
  3

  2
L
 70
     8
280
     0
  0
ATTDEF
  5
86
330
6E
100
AcDbEntity
  8
AM_6
100
AcDbText
 10
9.28125
 20
-3.975000000000001
 30
0.0
 40
0.5
  1
5/16
100
AcDbAttributeDefinition
  3

  2
T
 70
     8
280
     0
  0
ATTDEF
  5
87
330
6E
100
AcDbEntity
  8
AM_6
100
AcDbText
 10
9.28125
 20
-4.475000000000001
 30
0.0
 40
0.5
  1
baldor
100
AcDbAttributeDefinition
  3

  2
COMPANY
 70
     8
280
     0
  0
INSERT
  5
89
330
6E
100
AcDbEntity
  8
0
100
AcDbBlockReference
  2
2_2_7_16C_1_0_in_023464_0
 10
0.0
 20
0.0
 30
0.0
  0
INSERT
  5
B9
330
6E
100
AcDbEntity
  8
0
100
AcDbBlockReference
  2
3_2_7_16C_2_0_in_023464_0
 10
0.0
 20
0.0
 30
0.0
  0
INSERT
  5
D5
330
6E
100
AcDbEntity
  8
0
100
AcDbBlockReference
  2
4_405015E_Inch_0_in_023464_0
 10
0.0
 20
0.0
 30
0.0
  0
INSERT
  5
10A
330
6E
100
AcDbEntity
  8
0
100
AcDbBlockReference
  2
5_023520_Insert_0_in_023464_0
 10
0.0
 20
0.0
 30
0.0
  0
INSERT
  5
138
330
6E
100
AcDbEntity
  8
0
100
AcDbBlockReference
  2
6_023464H_0_in_023464_0
 10
0.0
 20
0.0
 30
0.0
  0
ENDBLK
  5
71
330
6E
100
AcDbEntity
  8
0
100
AcDbBlockEnd
  0
BLOCK
  5
8A
330
88
100
AcDbEntity
  8
0
100
AcDbBlockBegin
  2
2_2_7_16C_1_0_in_023464_0
 70
     2
 10
0.0
 20
0.0
 30
0.0
  3
2_2_7_16C_1_0_in_023464_0
  1

  0
ATTDEF
  5
8C
330
88
100
AcDbEntity
  8
AM_6
100
AcDbText
 10
7.03125
 20
2.03125
 30
0.0
 40
0.5
  1
E-Type Collar -Inch
100
AcDbAttributeDefinition
  3

  2
NN
 70
     8
280
     0
  0
ATTDEF
  5
8D
330
88
100
AcDbEntity
  8
AM_6
100
AcDbText
 10
7.03125
 20
1.53125
 30
0.0
 40
0.5
  1
E-Type Bearings
100
AcDbAttributeDefinition
  3

  2
NT
 70
     8
280
     0
  0
ATTDEF
  5
8E
330
88
100
AcDbEntity
  8
AM_6
100
AcDbText
 10
7.03125
 20
1.03125
 30
0.0
 40
0.5
  1
2-7/16C
100
AcDbAttributeDefinition
  3

  2
NB
 70
     8
280
     0
  0
ATTDEF
  5
8F
330
88
100
AcDbEntity
  8
AM_6
100
AcDbText
 10
7.03125
 20
0.53125
 30
0.0
 40
0.5
  1
$BORE.C
100
AcDbAttributeDefinition
  3

  2
NBSYN
 70
     8
280
     0
  0
ATTDEF
  5
90
330
88
100
AcDbEntity
  8
AM_6
100
AcDbText
 10
7.03125
 20
0.03125
 30
0.0
 40
0.5
  1
2-7/16C
100
AcDbAttributeDefinition
  3

  2
LINA
 70
     8
280
     0
  0
ATTDEF
  5
91
330
88
100
AcDbEntity
  8
AM_6
100
AcDbText
 10
7.03125
 20
-0.46875
 30
0.0
 40
0.5
  1
2-7/16
100
AcDbAttributeDefinition
  3

  2
BORE
 70
     8
280
     0
  0
ATTDEF
  5
92
330
88
100
AcDbEntity
  8
AM_6
100
AcDbText
 10
7.03125
 20
-0.96875
 30
0.0
 40
0.5
  1
4.06250
100
AcDbAttributeDefinition
  3

  2
L
 70
     8
280
     0
  0
ATTDEF
  5
93
330
88
100
AcDbEntity
  8
AM_6
100
AcDbText
 10
7.03125
 20
-1.46875
 30
0.0
 40
0.5
  1
4.00
100
AcDbAttributeDefinition
  3

  2
A
 70
     8
280
     0
  0
ATTDEF
  5
94
330
88
100
AcDbEntity
  8
AM_6
100
AcDbText
 10
7.03125
 20
-1.96875
 30
0.0
 40
0.5
  1
1.70
100
AcDbAttributeDefinition
  3

  2
B
 70
     8
280
     0
  0
ATTDEF
  5
95
330
88
100
AcDbEntity
  8
AM_6
100
AcDbText
 10
7.03125
 20
-2.46875
 30
0.0
 40
0.5
  1
2.94
100
AcDbAttributeDefinition
  3

  2
C
 70
     8
280
     0
  0
ATTDEF
  5
96
330
88
100
AcDbEntity
  8
AM_6
100
AcDbText
 10
7.03125
 20
-2.96875
 30
0.0
 40
0.5
  1
4.12
100
AcDbAttributeDefinition
  3

  2
D
 70
     8
280
     0
  0
ATTDEF
  5
97
330
88
100
AcDbEntity
  8
AM_6
100
AcDbText
 10
7.03125
 20
-3.46875
 30
0.0
 40
0.5
  1
0.41
100
AcDbAttributeDefinition
  3

  2
E
 70
     8
280
     0
  0
ATTDEF
  5
98
330
88
100
AcDbEntity
  8
AM_6
100
AcDbText
 10
7.03125
 20
-3.96875
 30
0.0
 40
0.5
  1
0.31
100
AcDbAttributeDefinition
  3

  2
F
 70
     8
280
     0
  0
ATTDEF
  5
99
330
88
100
AcDbEntity
  8
AM_6
100
AcDbText
 10
7.03125
 20
-4.46875
 30
0.0
 40
0.5
  1
3/8-16
100
AcDbAttributeDefinition
  3

  2
CS
 70
     8
280
     0
  0
ATTDEF
  5
9A
330
88
100
AcDbEntity
  8
AM_6
100
AcDbText
 10
7.03125
 20
-4.96875
 30
0.0
 40
0.5
  1
0.3750
100
AcDbAttributeDefinition
  3

  2
NDM
 70
     8
280
     0
  0
ATTDEF
  5
9B
330
88
100
AcDbEntity
  8
AM_6
100
AcDbText
 10
7.03125
 20
-5.46875
 30
0.0
 40
0.5
  1
0.3070
100
AcDbAttributeDefinition
  3

  2
KDM
 70
     8
280
     0
  0
ATTDEF
  5
9C
330
88
100
AcDbEntity
  8
AM_6
100
AcDbText
 10
7.03125
 20
-5.96875
 30
0.0
 40
0.5
  1
baldor
100
AcDbAttributeDefinition
  3

  2
COMPANY
 70
     8
280
     0
  0
LINE
  5
9F
330
88
100
AcDbEntity
  8
AM_9
100
AcDbLine
 10
-1.275357974942691
 20
0.7642432078534145
 30
0.0
 11
-1.745323877910546
 21
0.9833919074790543
 31
0.0
  0
LINE
  5
A0
330
88
100
AcDbEntity
  8
AM_9
100
AcDbLine
 10
-1.875194469743463
 20
0.7048835245226917
 30
0.0
 11
-1.405228566775608
 21
0.4857348248970518
 31
0.0
  0
LINE
  5
A1
330
88
100
AcDbEntity
  8
AM_9
100
AcDbLine
 10
0.1536499999999998
 20
1.47885
 30
0.0
 11
0.1536499999999998
 21
1.9974
 31
0.0
  0
LINE
  5
A2
330
88
100
AcDbEntity
  8
AM_9
100
AcDbLine
 10
-0.1536500000000003
 20
1.9974
 30
0.0
 11
-0.1536500000000005
 21
1.47885
 31
0.0
  0
LINE
  5
A3
330
88
100
AcDbEntity
  8
AM_9
100
AcDbLine
 10
-0.1536500000000005
 20
1.47885
 30
0.0
 11
0.1536499999999999
 21
1.47885
 31
0.0
  0
LINE
  5
A4
330
88
100
AcDbEntity
  8
AM_9
100
AcDbLine
 10
-0.1536500000000003
 20
1.47885
 30
0.0
 11
-0.1717743343804737
 21
1.460725665619526
 31
0.0
  0
LINE
  5
A5
330
88
100
AcDbEntity
  8
AM_9
100
AcDbLine
 10
0.1722321855472881
 20
1.460267814452711
 30
0.0
 11
0.1536499999999999
 21
1.47885
 31
0.0
  0
LINE
  5
A6
330
88
100
AcDbEntity
  8
AM_9
100
AcDbLine
 10
-1.405228566775608
 20
0.4857348248970518
 30
0.0
 11
-1.275357974942691
 21
0.7642432078534145
 31
0.0
  0
LINE
  5
A7
330
88
100
AcDbEntity
  8
AM_9
100
AcDbLine
 10
-1.405228566775608
 20
0.4857348248970518
 30
0.0
 11
-1.396636604653131
 21
0.4621286029767356
 31
0.0
  0
LINE
  5
A8
330
88
100
AcDbEntity
  8
AM_9
100
AcDbLine
 10
-1.251112422992466
 20
0.7730678670766514
 30
0.0
 11
-1.275357974942691
 21
0.7642432078534145
 31
0.0
  0
LINE
  5
A9
330
88
100
AcDbEntity
  8
AM_9
100
AcDbLine
 10
-0.1536500000000003
 20
1.9974
 30
0.0
 11
0.1536499999999998
 21
1.9974
 31
0.0
  0
LINE
  5
AA
330
88
100
AcDbEntity
  8
AM_9
100
AcDbLine
 10
0.1536499999999998
 20
1.9974
 30
0.0
 11
0.1784868743828519
 21
2.022236874382852
 31
0.0
  0
LINE
  5
AB
330
88
100
AcDbEntity
  8
AM_9
100
AcDbLine
 10
-0.1795469218264576
 20
2.023296921826457
 30
0.0
 11
-0.1536500000000003
 21
1.9974
 31
0.0
  0
LINE
  5
AC
330
88
100
AcDbEntity
  8
AM_9
100
AcDbLine
 10
-1.875194469743463
 20
0.7048835245226917
 30
0.0
 11
-1.745323877910546
 21
0.9833919074790543
 31
0.0
  0
LINE
  5
AD
330
88
100
AcDbEntity
  8
AM_9
100
AcDbLine
 10
-1.745323877910546
 20
0.9833919074790543
 30
0.0
 11
-1.757355198331316
 21
1.016447688661342
 31
0.0
  0
LINE
  5
AE
330
88
100
AcDbEntity
  8
AM_9
100
AcDbLine
 10
-1.908073191476998
 20
0.6929166484709636
 30
0.0
 11
-1.875194469743463
 21
0.7048835245226917
 31
0.0
  0
LINE
  5
B0
330
88
100
AcDbEntity
  8
AM_5
100
AcDbLine
 10
-1.912318789693254
 20
0.6848455366621949
 30
0.0
 11
-1.400631383756751
 21
0.4462417806925384
 31
0.0
  0
LINE
  5
B1
330
88
100
AcDbEntity
  8
AM_5
100
AcDbLine
 10
-1.753836941540492
 20
1.024710956800939
 30
0.0
 11
-1.242149535603989
 21
0.7861072008312819
 31
0.0
  0
LINE
  5
B2
330
88
100
AcDbEntity
  8
AM_5
100
AcDbLine
 10
-0.1875000000000004
 20
2.022577640660551
 30
0.0
 11
-0.1875000000000005
 21
1.457993055539017
 31
0.0
  0
LINE
  5
B3
330
88
100
AcDbEntity
  8
AM_5
100
AcDbLine
 10
0.1874999999999994
 20
2.022577640660551
 30
0.0
 11
0.1874999999999995
 21
1.457993055539017
 31
0.0
  0
CIRCLE
  5
B5
330
88
100
AcDbEntity
  8
AM_4
100
AcDbCircle
 10
0.0
 20
0.0
 30
0.0
 40
1.47
  0
CIRCLE
  5
B6
330
88
100
AcDbEntity
  8
AM_4
100
AcDbCircle
 10
0.0
 20
0.0
 30
0.0
 40
1.927916666666667
  0
CIRCLE
  5
B7
330
88
100
AcDbEntity
  8
AM_4
100
AcDbCircle
 10
0.0000000000000002
 20
0.0000000000000002
 30
0.0
 40
2.03125
  0
ENDBLK
  5
8B
330
88
100
AcDbEntity
  8
0
100
AcDbBlockEnd
  0
BLOCK
  5
BA
330
B8
100
AcDbEntity
  8
0
100
AcDbBlockBegin
  2
3_2_7_16C_2_0_in_023464_0
 70
     2
 10
0.0
 20
0.0
 30
0.0
  3
3_2_7_16C_2_0_in_023464_0
  1

  0
ATTDEF
  5
BC
330
B8
100
AcDbEntity
  8
AM_6
100
AcDbText
 10
7.03125
 20
2.022577640660551
 30
0.0
 40
0.5
  1
E-Type Collar -Inch
100
AcDbAttributeDefinition
  3

  2
NN
 70
     8
280
     0
  0
ATTDEF
  5
BD
330
B8
100
AcDbEntity
  8
AM_6
100
AcDbText
 10
7.03125
 20
1.522577640660551
 30
0.0
 40
0.5
  1
E-Type Bearings
100
AcDbAttributeDefinition
  3

  2
NT
 70
     8
280
     0
  0
ATTDEF
  5
BE
330
B8
100
AcDbEntity
  8
AM_6
100
AcDbText
 10
7.03125
 20
1.022577640660551
 30
0.0
 40
0.5
  1
2-7/16C
100
AcDbAttributeDefinition
  3

  2
NB
 70
     8
280
     0
  0
ATTDEF
  5
BF
330
B8
100
AcDbEntity
  8
AM_6
100
AcDbText
 10
7.03125
 20
0.5225776406605509
 30
0.0
 40
0.5
  1
$BORE.C
100
AcDbAttributeDefinition
  3

  2
NBSYN
 70
     8
280
     0
  0
ATTDEF
  5
C0
330
B8
100
AcDbEntity
  8
AM_6
100
AcDbText
 10
7.03125
 20
0.0225776406605509
 30
0.0
 40
0.5
  1
2-7/16C
100
AcDbAttributeDefinition
  3

  2
LINA
 70
     8
280
     0
  0
ATTDEF
  5
C1
330
B8
100
AcDbEntity
  8
AM_6
100
AcDbText
 10
7.03125
 20
-0.4774223593394491
 30
0.0
 40
0.5
  1
2-7/16
100
AcDbAttributeDefinition
  3

  2
BORE
 70
     8
280
     0
  0
ATTDEF
  5
C2
330
B8
100
AcDbEntity
  8
AM_6
100
AcDbText
 10
7.03125
 20
-0.9774223593394491
 30
0.0
 40
0.5
  1
4.06250
100
AcDbAttributeDefinition
  3

  2
L
 70
     8
280
     0
  0
ATTDEF
  5
C3
330
B8
100
AcDbEntity
  8
AM_6
100
AcDbText
 10
7.03125
 20
-1.477422359339449
 30
0.0
 40
0.5
  1
4.00
100
AcDbAttributeDefinition
  3

  2
A
 70
     8
280
     0
  0
ATTDEF
  5
C4
330
B8
100
AcDbEntity
  8
AM_6
100
AcDbText
 10
7.03125
 20
-1.977422359339449
 30
0.0
 40
0.5
  1
1.70
100
AcDbAttributeDefinition
  3

  2
B
 70
     8
280
     0
  0
ATTDEF
  5
C5
330
B8
100
AcDbEntity
  8
AM_6
100
AcDbText
 10
7.03125
 20
-2.477422359339449
 30
0.0
 40
0.5
  1
2.94
100
AcDbAttributeDefinition
  3

  2
C
 70
     8
280
     0
  0
ATTDEF
  5
C6
330
B8
100
AcDbEntity
  8
AM_6
100
AcDbText
 10
7.03125
 20
-2.977422359339449
 30
0.0
 40
0.5
  1
4.12
100
AcDbAttributeDefinition
  3

  2
D
 70
     8
280
     0
  0
ATTDEF
  5
C7
330
B8
100
AcDbEntity
  8
AM_6
100
AcDbText
 10
7.03125
 20
-3.477422359339449
 30
0.0
 40
0.5
  1
0.41
100
AcDbAttributeDefinition
  3

  2
E
 70
     8
280
     0
  0
ATTDEF
  5
C8
330
B8
100
AcDbEntity
  8
AM_6
100
AcDbText
 10
7.03125
 20
-3.977422359339449
 30
0.0
 40
0.5
  1
0.31
100
AcDbAttributeDefinition
  3

  2
F
 70
     8
280
     0
  0
ATTDEF
  5
C9
330
B8
100
AcDbEntity
  8
AM_6
100
AcDbText
 10
7.03125
 20
-4.47742235933945
 30
0.0
 40
0.5
  1
3/8-16
100
AcDbAttributeDefinition
  3

  2
CS
 70
     8
280
     0
  0
ATTDEF
  5
CA
330
B8
100
AcDbEntity
  8
AM_6
100
AcDbText
 10
7.03125
 20
-4.97742235933945
 30
0.0
 40
0.5
  1
0.3750
100
AcDbAttributeDefinition
  3

  2
NDM
 70
     8
280
     0
  0
ATTDEF
  5
CB
330
B8
100
AcDbEntity
  8
AM_6
100
AcDbText
 10
7.03125
 20
-5.47742235933945
 30
0.0
 40
0.5
  1
0.3070
100
AcDbAttributeDefinition
  3

  2
KDM
 70
     8
280
     0
  0
ATTDEF
  5
CC
330
B8
100
AcDbEntity
  8
AM_6
100
AcDbText
 10
7.03125
 20
-5.97742235933945
 30
0.0
 40
0.5
  1
baldor
100
AcDbAttributeDefinition
  3

  2
COMPANY
 70
     8
280
     0
  0
LINE
  5
CD
330
B8
100
AcDbEntity
  8
AM_9
100
AcDbLine
 10
-1.39663660465313
 20
0.4621286029767356
 30
0.0
 11
-1.396240558269279
 21
0.4610404744800466
 31
0.0
  0
LINE
  5
CE
330
B8
100
AcDbEntity
  8
AM_9
100
AcDbLine
 10
-1.757355198331316
 20
1.016447688661343
 30
0.0
 11
-1.757849947735411
 21
1.017807001477384
 31
0.0
  0
ARC
  5
CF
330
B8
100
AcDbEntity
  8
AM_9
100
AcDbCircle
 10
-0.0000000000000004
 20
0.0000000000000002
 30
0.0
 40
2.03125
100
AcDbArc
 50
245.0
 51
64.99999999999999
  0
LINE
  5
D0
330
B8
100
AcDbEntity
  8
AM_5
100
AcDbLine
 10
-0.1875
 20
2.022577640660551
 30
0.0
 11
-0.1875
 21
1.457993055539017
 31
0.0
  0
LINE
  5
D1
330
B8
100
AcDbEntity
  8
AM_5
100
AcDbLine
 10
0.1875
 20
2.022577640660551
 30
0.0
 11
0.1875
 21
1.457993055539017
 31
0.0
  0
LINE
  5
D2
330
B8
100
AcDbEntity
  8
AM_5
100
AcDbLine
 10
-1.912318789693254
 20
0.6848455366621954
 30
0.0
 11
-1.400631383756751
 21
0.4462417806925387
 31
0.0
  0
LINE
  5
D3
330
B8
100
AcDbEntity
  8
AM_5
100
AcDbLine
 10
-1.753836941540492
 20
1.024710956800939
 30
0.0
 11
-1.242149535603989
 21
0.7861072008312825
 31
0.0
  0
ENDBLK
  5
BB
330
B8
100
AcDbEntity
  8
0
100
AcDbBlockEnd
  0
BLOCK
  5
D6
330
D4
100
AcDbEntity
  8
0
100
AcDbBlockBegin
  2
4_405015E_Inch_0_in_023464_0
 70
     2
 10
0.0
 20
0.0
 30
0.0
  3
4_405015E_Inch_0_in_023464_0
  1

  0
ATTDEF
  5
D8
330
D4
100
AcDbEntity
  8
AM_6
100
AcDbText
 10
5.21875
 20
3.41
 30
0.0
 40
0.5
  1
405015E -Inch
100
AcDbAttributeDefinition
  3

  2
NN
 70
     8
280
     0
  0
ATTDEF
  5
D9
330
D4
100
AcDbEntity
  8
AM_6
100
AcDbText
 10
5.21875
 20
2.91
 30
0.0
 40
0.5
  1
Grease Fitting
100
AcDbAttributeDefinition
  3

  2
NT
 70
     8
280
     0
  0
ATTDEF
  5
DA
330
D4
100
AcDbEntity
  8
AM_6
100
AcDbText
 10
5.21875
 20
2.41
 30
0.0
 40
0.5
  1
405015E-Inch
100
AcDbAttributeDefinition
  3

  2
NB
 70
     8
280
     0
  0
ATTDEF
  5
DB
330
D4
100
AcDbEntity
  8
AM_6
100
AcDbText
 10
5.21875
 20
1.91
 30
0.0
 40
0.5
  1
$MN.-Inch
100
AcDbAttributeDefinition
  3

  2
NBSYN
 70
     8
280
     0
  0
ATTDEF
  5
DC
330
D4
100
AcDbEntity
  8
AM_6
100
AcDbText
 10
5.21875
 20
1.41
 30
0.0
 40
0.5
  1
405015E
100
AcDbAttributeDefinition
  3

  2
LINA
 70
     8
280
     0
  0
ATTDEF
  5
DD
330
D4
100
AcDbEntity
  8
AM_6
100
AcDbText
 10
5.21875
 20
0.9100000000000001
 30
0.0
 40
0.5
  1
405015E
100
AcDbAttributeDefinition
  3

  2
MN
 70
     8
280
     0
  0
ATTDEF
  5
DE
330
D4
100
AcDbEntity
  8
AM_6
100
AcDbText
 10
5.21875
 20
0.4100000000000001
 30
0.0
 40
0.5
  1
1/8 x 27PTF
100
AcDbAttributeDefinition
  3

  2
T
 70
     8
280
     0
  0
ATTDEF
  5
DF
330
D4
100
AcDbEntity
  8
AM_6
100
AcDbText
 10
5.21875
 20
-0.0899999999999999
 30
0.0
 40
0.5
  1
baldor
100
AcDbAttributeDefinition
  3

  2
COMPANY
 70
     8
280
     0
  0
LINE
  5
E0
330
D4
100
AcDbEntity
  8
AM_9
100
AcDbLine
 10
0.105
 20
3.24
 30
0.0
 11
0.105
 21
3.27
 31
0.0
  0
LINE
  5
E1
330
D4
100
AcDbEntity
  8
AM_9
100
AcDbLine
 10
-0.105
 20
3.27
 30
0.0
 11
-0.105
 21
3.24
 31
0.0
  0
LINE
  5
E2
330
D4
100
AcDbEntity
  8
AM_9
100
AcDbLine
 10
-0.105
 20
3.24
 30
0.0
 11
-0.1188200907348975
 21
3.207753121618572
 31
0.0
  0
LINE
  5
E3
330
D4
100
AcDbEntity
  8
AM_9
100
AcDbLine
 10
0.1188200907348975
 20
3.207753121618572
 30
0.0
 11
0.105
 21
3.24
 31
0.0
  0
LINE
  5
E4
330
D4
100
AcDbEntity
  8
AM_9
100
AcDbLine
 10
-0.105
 20
3.24
 30
0.0
 11
0.105
 21
3.24
 31
0.0
  0
LINE
  5
E5
330
D4
100
AcDbEntity
  8
AM_9
100
AcDbLine
 10
0.105
 20
3.27
 30
0.0
 11
0.135
 21
3.33
 31
0.0
  0
LINE
  5
E6
330
D4
100
AcDbEntity
  8
AM_9
100
AcDbLine
 10
-0.135
 20
3.33
 30
0.0
 11
-0.105
 21
3.27
 31
0.0
  0
LINE
  5
E7
330
D4
100
AcDbEntity
  8
AM_9
100
AcDbLine
 10
-0.105
 20
3.27
 30
0.0
 11
0.105
 21
3.27
 31
0.0
  0
LINE
  5
E8
330
D4
100
AcDbEntity
  8
AM_9
100
AcDbLine
 10
-0.1026779019331875
 20
3.41
 30
0.0
 11
-0.135
 21
3.33
 31
0.0
  0
LINE
  5
E9
330
D4
100
AcDbEntity
  8
AM_9
100
AcDbLine
 10
0.135
 20
3.33
 30
0.0
 11
0.1026779019331875
 21
3.41
 31
0.0
  0
LINE
  5
EA
330
D4
100
AcDbEntity
  8
AM_9
100
AcDbLine
 10
-0.1026779019331875
 20
3.41
 30
0.0
 11
0.1026779019331875
 21
3.41
 31
0.0
  0
LINE
  5
EB
330
D4
100
AcDbEntity
  8
AM_9
100
AcDbLine
 10
-0.135
 20
3.33
 30
0.0
 11
0.135
 21
3.33
 31
0.0
  0
LINE
  5
EC
330
D4
100
AcDbEntity
  8
AM_9
100
AcDbLine
 10
-0.1188200907348975
 20
3.207753121618572
 30
0.0
 11
-0.1725340532830154
 21
3.153318198540882
 31
0.0
  0
LINE
  5
ED
330
D4
100
AcDbEntity
  8
AM_9
100
AcDbLine
 10
0.1725340532830154
 20
3.153318198540882
 30
0.0
 11
0.1188200907348975
 21
3.207753121618572
 31
0.0
  0
LINE
  5
EE
330
D4
100
AcDbEntity
  8
AM_9
100
AcDbLine
 10
-0.1188200907348975
 20
3.207753121618572
 30
0.0
 11
0.1188200907348975
 21
3.207753121618572
 31
0.0
  0
LINE
  5
EF
330
D4
100
AcDbEntity
  8
AM_9
100
AcDbLine
 10
-0.21875
 20
3.135
 30
0.0
 11
-0.21875
 21
3.035
 31
0.0
  0
LINE
  5
F0
330
D4
100
AcDbEntity
  8
AM_9
100
AcDbLine
 10
-0.21875
 20
3.135
 30
0.0
 11
0.21875
 21
3.135
 31
0.0
  0
LINE
  5
F1
330
D4
100
AcDbEntity
  8
AM_9
100
AcDbLine
 10
0.21875
 20
3.035
 30
0.0
 11
0.21875
 21
3.135
 31
0.0
  0
LINE
  5
F2
330
D4
100
AcDbEntity
  8
AM_9
100
AcDbLine
 10
0.161902872472269
 20
2.77
 30
0.0
 11
0.1986176267812154
 21
2.806714754308947
 31
0.0
  0
LINE
  5
F3
330
D4
100
AcDbEntity
  8
AM_9
100
AcDbLine
 10
-0.1986176267812154
 20
2.806714754308947
 30
0.0
 11
-0.161902872472269
 21
2.77
 31
0.0
  0
LINE
  5
F4
330
D4
100
AcDbEntity
  8
AM_9
100
AcDbLine
 10
-0.161902872472269
 20
2.77
 30
0.0
 11
0.161902872472269
 21
2.77
 31
0.0
  0
LINE
  5
F5
330
D4
100
AcDbEntity
  8
AM_9
100
AcDbLine
 10
0.1986176267812154
 20
2.806714754308947
 30
0.0
 11
0.2057518972230696
 21
3.035
 31
0.0
  0
LINE
  5
F6
330
D4
100
AcDbEntity
  8
AM_9
100
AcDbLine
 10
-0.2057518972230696
 20
3.035
 30
0.0
 11
-0.1986176267812154
 21
2.806714754308947
 31
0.0
  0
LINE
  5
F7
330
D4
100
AcDbEntity
  8
AM_9
100
AcDbLine
 10
-0.1986176267812154
 20
2.806714754308947
 30
0.0
 11
0.1986176267812154
 21
2.806714754308947
 31
0.0
  0
LINE
  5
F8
330
D4
100
AcDbEntity
  8
AM_9
100
AcDbLine
 10
-0.1725340532830154
 20
3.153318198540882
 30
0.0
 11
-0.21375
 21
3.135
 31
0.0
  0
LINE
  5
F9
330
D4
100
AcDbEntity
  8
AM_9
100
AcDbLine
 10
0.21375
 20
3.135
 30
0.0
 11
0.1725340532830154
 21
3.153318198540882
 31
0.0
  0
LINE
  5
FA
330
D4
100
AcDbEntity
  8
AM_9
100
AcDbLine
 10
-0.1725340532830154
 20
3.153318198540882
 30
0.0
 11
0.1725340532830154
 21
3.153318198540882
 31
0.0
  0
LWPOLYLINE
  5
FB
330
D4
100
AcDbEntity
  8
AM_9
100
AcDbPolyline
 90
        3
 70
     0
 43
0.0
 10
-0.21875
 20
3.125932400303386
 10
-0.1643083897258504
 20
3.13258547505038
 10
-0.1093749999999999
 20
3.135
  0
LWPOLYLINE
  5
FC
330
D4
100
AcDbEntity
  8
AM_9
100
AcDbPolyline
 90
        3
 70
     0
 43
0.0
 10
-0.109375
 20
3.035
 10
-0.1640625
 20
3.037393380785035
 10
-0.21875
 20
3.044067599696615
  0
LWPOLYLINE
  5
FD
330
D4
100
AcDbEntity
  8
AM_9
100
AcDbPolyline
 90
        3
 70
     0
 43
0.0
 10
0.0
 20
3.044067599696615
 10
-0.0544416102741496
 20
3.03741452494962
 10
-0.109375
 20
3.035
  0
LWPOLYLINE
  5
FE
330
D4
100
AcDbEntity
  8
AM_9
100
AcDbPolyline
 90
        3
 70
     0
 43
0.0
 10
-0.1093749999999999
 20
3.135
 10
-0.0546874999999999
 20
3.132606619214966
 10
0.0
 20
3.125932400303386
  0
LWPOLYLINE
  5
FF
330
D4
100
AcDbEntity
  8
AM_9
100
AcDbPolyline
 90
        3
 70
     0
 43
0.0
 10
0.109375
 20
3.135
 10
0.1640625
 20
3.132606619214966
 10
0.21875
 20
3.125932400303386
  0
LWPOLYLINE
  5
100
330
D4
100
AcDbEntity
  8
AM_9
100
AcDbPolyline
 90
        3
 70
     0
 43
0.0
 10
0.0
 20
3.125932400303386
 10
0.0544416102741496
 20
3.13258547505038
 10
0.109375
 20
3.135
  0
LINE
  5
101
330
D4
100
AcDbEntity
  8
AM_9
100
AcDbLine
 10
0.0
 20
3.125932400303386
 30
0.0
 11
0.0
 21
3.044067599696615
 31
0.0
  0
LWPOLYLINE
  5
102
330
D4
100
AcDbEntity
  8
AM_9
100
AcDbPolyline
 90
        3
 70
     0
 43
0.0
 10
0.109375
 20
3.035
 10
0.0546875
 20
3.037393380785035
 10
0.0
 20
3.044067599696615
  0
LWPOLYLINE
  5
103
330
D4
100
AcDbEntity
  8
AM_9
100
AcDbPolyline
 90
        3
 70
     0
 43
0.0
 10
0.21875
 20
3.044067599696615
 10
0.1643083897258504
 20
3.03741452494962
 10
0.109375
 20
3.035
  0
LINE
  5
104
330
D4
100
AcDbEntity
  8
AM_5
100
AcDbLine
 10
0.1681491248523479
 20
2.969870087748463
 30
0.0
 11
0.161902872472269
 21
2.77
 31
0.0
  0
LINE
  5
105
330
D4
100
AcDbEntity
  8
AM_5
100
AcDbLine
 10
0.2057518972230696
 20
3.035
 30
0.0
 11
0.1681491248523479
 21
2.969870087748463
 31
0.0
  0
LINE
  5
106
330
D4
100
AcDbEntity
  8
AM_5
100
AcDbLine
 10
-0.2037164857515568
 20
2.969870087748463
 30
0.0
 11
0.2037164857515568
 21
2.969870087748463
 31
0.0
  0
LINE
  5
107
330
D4
100
AcDbEntity
  8
AM_5
100
AcDbLine
 10
-0.1681491248523479
 20
2.969870087748463
 30
0.0
 11
-0.161902872472269
 21
2.77
 31
0.0
  0
LINE
  5
108
330
D4
100
AcDbEntity
  8
AM_5
100
AcDbLine
 10
-0.2057518972230696
 20
3.035
 30
0.0
 11
-0.1681491248523479
 21
2.969870087748463
 31
0.0
  0
ENDBLK
  5
D7
330
D4
100
AcDbEntity
  8
0
100
AcDbBlockEnd
  0
BLOCK
  5
10B
330
109
100
AcDbEntity
  8
0
100
AcDbBlockBegin
  2
5_023520_Insert_0_in_023464_0
 70
     2
 10
0.0
 20
0.0
 30
0.0
  3
5_023520_Insert_0_in_023464_0
  1

  0
ATTDEF
  5
10D
330
109
100
AcDbEntity
  8
AM_6
100
AcDbText
 10
7.491654871766955
 20
3.035
 30
0.0
 40
0.5
  1
S-1 Unit -Insert -Inch
100
AcDbAttributeDefinition
  3

  2
NN
 70
     8
280
     0
  0
ATTDEF
  5
10E
330
109
100
AcDbEntity
  8
AM_6
100
AcDbText
 10
7.491654871766955
 20
2.535
 30
0.0
 40
0.5
  1
Double-Interlock Bearings
100
AcDbAttributeDefinition
  3

  2
NT
 70
     8
280
     0
  0
ATTDEF
  5
10F
330
109
100
AcDbEntity
  8
AM_6
100
AcDbText
 10
7.491654871766955
 20
2.035
 30
0.0
 40
0.5
  1
023520-Insert
100
AcDbAttributeDefinition
  3

  2
NB
 70
     8
280
     0
  0
ATTDEF
  5
110
330
109
100
AcDbEntity
  8
AM_6
100
AcDbText
 10
7.491654871766955
 20
1.535
 30
0.0
 40
0.5
  1
$PN.-Insert
100
AcDbAttributeDefinition
  3

  2
NBSYN
 70
     8
280
     0
  0
ATTDEF
  5
111
330
109
100
AcDbEntity
  8
AM_6
100
AcDbText
 10
7.491654871766955
 20
1.035
 30
0.0
 40
0.5
  1
023520-Insert
100
AcDbAttributeDefinition
  3

  2
LINA
 70
     8
280
     0
  0
ATTDEF
  5
112
330
109
100
AcDbEntity
  8
AM_6
100
AcDbText
 10
7.491654871766955
 20
0.5350000000000001
 30
0.0
 40
0.5
  1
2-7/16
100
AcDbAttributeDefinition
  3

  2
SS
 70
     8
280
     0
  0
ATTDEF
  5
113
330
109
100
AcDbEntity
  8
AM_6
100
AcDbText
 10
7.491654871766955
 20
0.0350000000000001
 30
0.0
 40
0.5
  1
023520
100
AcDbAttributeDefinition
  3

  2
PN
 70
     8
280
     0
  0
ATTDEF
  5
114
330
109
100
AcDbEntity
  8
AM_6
100
AcDbText
 10
7.491654871766955
 20
-0.4649999999999999
 30
0.0
 40
0.5
  1
S1U-DI-207R
100
AcDbAttributeDefinition
  3

  2
DESCRIPTION
 70
     8
280
     0
  0
ATTDEF
  5
115
330
109
100
AcDbEntity
  8
AM_6
100
AcDbText
 10
7.491654871766955
 20
-0.9649999999999999
 30
0.0
 40
0.5
  1
4
100
AcDbAttributeDefinition
  3

  2
A
 70
     8
280
     0
  0
ATTDEF
  5
116
330
109
100
AcDbEntity
  8
AM_6
100
AcDbText
 10
7.491654871766955
 20
-1.465
 30
0.0
 40
0.5
  1
2-3/4
100
AcDbAttributeDefinition
  3

  2
B
 70
     8
280
     0
  0
ATTDEF
  5
117
330
109
100
AcDbEntity
  8
AM_6
100
AcDbText
 10
7.491654871766955
 20
-1.965
 30
0.0
 40
0.5
  1
1-7/16
100
AcDbAttributeDefinition
  3

  2
C
 70
     8
280
     0
  0
ATTDEF
  5
118
330
109
100
AcDbEntity
  8
AM_6
100
AcDbText
 10
7.491654871766955
 20
-2.465
 30
0.0
 40
0.5
  1
4.812
100
AcDbAttributeDefinition
  3

  2
EM
 70
     8
280
     0
  0
ATTDEF
  5
119
330
109
100
AcDbEntity
  8
AM_6
100
AcDbText
 10
7.491654871766955
 20
-2.965
 30
0.0
 40
0.5
  1
4-7/8
100
AcDbAttributeDefinition
  3

  2
EC
 70
     8
280
     0
  0
ATTDEF
  5
11A
330
109
100
AcDbEntity
  8
AM_6
100
AcDbText
 10
7.491654871766955
 20
-3.465
 30
0.0
 40
0.5
  1
11/16
100
AcDbAttributeDefinition
  3

  2
H
 70
     8
280
     0
  0
ATTDEF
  5
11B
330
109
100
AcDbEntity
  8
AM_6
100
AcDbText
 10
7.491654871766955
 20
-3.965
 30
0.0
 40
0.5
  1
5.1865
100
AcDbAttributeDefinition
  3

  2
K
 70
     8
280
     0
  0
ATTDEF
  5
11C
330
109
100
AcDbEntity
  8
AM_6
100
AcDbText
 10
7.491654871766955
 20
-4.465
 30
0.0
 40
0.5
  1
+0.000 to -0.002
100
AcDbAttributeDefinition
  3

  2
TOL
 70
     8
280
     0
  0
ATTDEF
  5
11D
330
109
100
AcDbEntity
  8
AM_6
100
AcDbText
 10
7.491654871766955
 20
-4.965
 30
0.0
 40
0.5
  1
4-1/16
100
AcDbAttributeDefinition
  3

  2
L
 70
     8
280
     0
  0
ATTDEF
  5
11E
330
109
100
AcDbEntity
  8
AM_6
100
AcDbText
 10
7.491654871766955
 20
-5.465
 30
0.0
 40
0.5
  1
3.41
100
AcDbAttributeDefinition
  3

  2
M
 70
     8
280
     0
  0
ATTDEF
  5
11F
330
109
100
AcDbEntity
  8
AM_6
100
AcDbText
 10
7.491654871766955
 20
-5.965
 30
0.0
 40
0.5
  1
baldor
100
AcDbAttributeDefinition
  3

  2
COMPANY
 70
     8
280
     0
  0
CIRCLE
  5
120
330
109
100
AcDbEntity
  8
AM_9
100
AcDbCircle
 10
0.0
 20
0.0
 30
0.0
 40
2.365
  0
CIRCLE
  5
121
330
109
100
AcDbEntity
  8
AM_9
100
AcDbCircle
 10
0.0
 20
0.0
 30
0.0
 40
2.406
  0
LINE
  5
122
330
109
100
AcDbEntity
  8
AM_9
100
AcDbLine
 10
0.3087326918959979
 20
3.035
 30
0.0
 11
-0.3087326918959979
 21
3.035
 31
0.0
  0
ARC
  5
123
330
109
100
AcDbEntity
  8
AM_9
100
AcDbCircle
 10
-0.3087326918959976
 20
2.994
 30
0.0
 40
0.0410000000000004
100
AcDbArc
 50
90.0
 51
170.9999999999997
  0
ARC
  5
124
330
109
100
AcDbEntity
  8
AM_9
100
AcDbCircle
 10
0.3087326918959976
 20
2.994
 30
0.0
 40
0.0410000000000003
100
AcDbArc
 50
9.00000000000035
 51
90.0
  0
LINE
  5
125
330
109
100
AcDbEntity
  8
AM_9
100
AcDbLine
 10
0.3492279138603985
 20
3.00041381306665
 30
0.0
 11
-0.3492279138603985
 21
3.00041381306665
 31
0.0
  0
LINE
  5
126
330
109
100
AcDbEntity
  8
AM_9
100
AcDbLine
 10
-0.3492279138603985
 20
3.00041381306665
 30
0.0
 11
-0.4191160419784279
 21
2.559157538303638
 31
0.0
  0
LINE
  5
127
330
109
100
AcDbEntity
  8
AM_9
100
AcDbLine
 10
0.4191160419784279
 20
2.559157538303638
 30
0.0
 11
0.3492279138603985
 21
3.00041381306665
 31
0.0
  0
LINE
  5
128
330
109
100
AcDbEntity
  8
AM_9
100
AcDbLine
 10
-1.405890623028544
 20
0.4293850906592017
 30
0.0
 11
-1.175461567401799
 21
0.3219342573590258
 31
0.0
  0
LINE
  5
129
330
109
100
AcDbEntity
  8
AM_9
100
AcDbLine
 10
-1.002590144274186
 20
0.6937079356530886
 30
0.0
 11
-1.23294428680791
 21
0.8011238364042923
 31
0.0
  0
LINE
  5
12A
330
109
100
AcDbEntity
  8
AM_9
100
AcDbLine
 10
-0.205
 20
1.4559928125766
 30
0.0
 11
-0.205
 21
1.201446550239297
 31
0.0
  0
LINE
  5
12B
330
109
100
AcDbEntity
  8
AM_9
100
AcDbLine
 10
0.205
 20
1.201813220794801
 30
0.0
 11
0.205
 21
1.45565599781295
 31
0.0
  0
LINE
  5
12E
330
109
100
AcDbEntity
  8
AM_7
100
AcDbLine
 10
0.0920468846209098
 20
-0.0429221672080398
 30
0.0
 11
-1.932984577039105
 21
0.9013655113688355
 31
0.0
  0
LINE
  5
12F
330
109
100
AcDbEntity
  8
AM_4
100
AcDbLine
 10
0.4191160419784291
 20
2.559157538303638
 30
0.0
 11
-0.4191160419784291
 21
2.559157538303638
 31
0.0
  0
CIRCLE
  5
130
330
109
100
AcDbEntity
  8
AM_4
100
AcDbCircle
 10
0.0
 20
0.0
 30
0.0
 40
2.491654871766955
  0
CIRCLE
  5
131
330
109
100
AcDbEntity
  8
AM_4
100
AcDbCircle
 10
0.0
 20
0.0
 30
0.0
 40
2.4375
  0
CIRCLE
  5
132
330
109
100
AcDbEntity
  8
AM_4
100
AcDbCircle
 10
0.0
 20
0.0
 30
0.0
 40
2.3965
  0
CIRCLE
  5
133
330
109
100
AcDbEntity
  8
AM_4
100
AcDbCircle
 10
0.0
 20
-0.0000000000000002
 30
0.0
 40
2.087917834831753
  0
CIRCLE
  5
134
330
109
100
AcDbEntity
  8
AM_4
100
AcDbCircle
 10
0.0
 20
-0.0000000000000002
 30
0.0
 40
2.083333333333333
  0
CIRCLE
  5
135
330
109
100
AcDbEntity
  8
AM_4
100
AcDbCircle
 10
0.0
 20
0.0
 30
0.0
 40
1.21875
  0
CIRCLE
  5
136
330
109
100
AcDbEntity
  8
AM_4
100
AcDbCircle
 10
0.0
 20
0.0
 30
0.0
 40
1.47
  0
ENDBLK
  5
10C
330
109
100
AcDbEntity
  8
0
100
AcDbBlockEnd
  0
BLOCK
  5
139
330
137
100
AcDbEntity
  8
0
100
AcDbBlockBegin
  2
6_023464H_0_in_023464_0
 70
     2
 10
0.0
 20
0.0
 30
0.0
  3
6_023464H_0_in_023464_0
  1

  0
ATTDEF
  5
13B
330
137
100
AcDbEntity
  8
AM_6
100
AcDbText
 10
9.28125
 20
5.524999999999999
 30
0.0
 40
0.5
  1
F4B-DI Expansion -H -Inch
100
AcDbAttributeDefinition
  3

  2
NN
 70
     8
280
     0
  0
ATTDEF
  5
13C
330
137
100
AcDbEntity
  8
AM_6
100
AcDbText
 10
9.28125
 20
5.024999999999999
 30
0.0
 40
0.5
  1
Double-Interlock Flange Bearings
100
AcDbAttributeDefinition
  3

  2
NT
 70
     8
280
     0
  0
ATTDEF
  5
13D
330
137
100
AcDbEntity
  8
AM_6
100
AcDbText
 10
9.28125
 20
4.524999999999999
 30
0.0
 40
0.5
  1
023464H
100
AcDbAttributeDefinition
  3

  2
NB
 70
     8
280
     0
  0
ATTDEF
  5
13E
330
137
100
AcDbEntity
  8
AM_6
100
AcDbText
 10
9.28125
 20
4.024999999999999
 30
0.0
 40
0.5
  1
$PN.H
100
AcDbAttributeDefinition
  3

  2
NBSYN
 70
     8
280
     0
  0
ATTDEF
  5
13F
330
137
100
AcDbEntity
  8
AM_6
100
AcDbText
 10
9.28125
 20
3.524999999999999
 30
0.0
 40
0.5
  1
023464
100
AcDbAttributeDefinition
  3

  2
LINA
 70
     8
280
     0
  0
ATTDEF
  5
140
330
137
100
AcDbEntity
  8
AM_6
100
AcDbText
 10
9.28125
 20
3.024999999999999
 30
0.0
 40
0.5
  1
2-7/16
100
AcDbAttributeDefinition
  3

  2
SS
 70
     8
280
     0
  0
ATTDEF
  5
141
330
137
100
AcDbEntity
  8
AM_6
100
AcDbText
 10
9.28125
 20
2.524999999999999
 30
0.0
 40
0.5
  1
023464
100
AcDbAttributeDefinition
  3

  2
PN
 70
     8
280
     0
  0
ATTDEF
  5
142
330
137
100
AcDbEntity
  8
AM_6
100
AcDbText
 10
9.28125
 20
2.024999999999999
 30
0.0
 40
0.5
  1
F4B-DI-207RE
100
AcDbAttributeDefinition
  3

  2
DESCRIPTION
 70
     8
280
     0
  0
ATTDEF
  5
143
330
137
100
AcDbEntity
  8
AM_6
100
AcDbText
 10
9.28125
 20
1.524999999999999
 30
0.0
 40
0.5
  1
Expansion Type
100
AcDbAttributeDefinition
  3

  2
EF
 70
     8
280
     0
  0
ATTDEF
  5
144
330
137
100
AcDbEntity
  8
AM_6
100
AcDbText
 10
9.28125
 20
1.024999999999999
 30
0.0
 40
0.5
  1
4
100
AcDbAttributeDefinition
  3

  2
A
 70
     8
280
     0
  0
ATTDEF
  5
145
330
137
100
AcDbEntity
  8
AM_6
100
AcDbText
 10
9.28125
 20
0.5249999999999995
 30
0.0
 40
0.5
  1
7-5/8
100
AcDbAttributeDefinition
  3

  2
B
 70
     8
280
     0
  0
ATTDEF
  5
146
330
137
100
AcDbEntity
  8
AM_6
100
AcDbText
 10
9.28125
 20
0.0249999999999995
 30
0.0
 40
0.5
  1
2-15/16
100
AcDbAttributeDefinition
  3

  2
C
 70
     8
280
     0
  0
ATTDEF
  5
147
330
137
100
AcDbEntity
  8
AM_6
100
AcDbText
 10
9.28125
 20
-0.4750000000000005
 30
0.0
 40
0.5
  1
8-1/2
100
AcDbAttributeDefinition
  3

  2
D
 70
     8
280
     0
  0
ATTDEF
  5
148
330
137
100
AcDbEntity
  8
AM_6
100
AcDbText
 10
9.28125
 20
-0.9750000000000005
 30
0.0
 40
0.5
  1
7/16
100
AcDbAttributeDefinition
  3

  2
E
 70
     8
280
     0
  0
ATTDEF
  5
149
330
137
100
AcDbEntity
  8
AM_6
100
AcDbText
 10
9.28125
 20
-1.475000000000001
 30
0.0
 40
0.5
  1
5/8
100
AcDbAttributeDefinition
  3

  2
F
 70
     8
280
     0
  0
ATTDEF
  5
14A
330
137
100
AcDbEntity
  8
AM_6
100
AcDbText
 10
9.28125
 20
-1.975000000000001
 30
0.0
 40
0.5
  1
8-9/16
100
AcDbAttributeDefinition
  3

  2
G
 70
     8
280
     0
  0
ATTDEF
  5
14B
330
137
100
AcDbEntity
  8
AM_6
100
AcDbText
 10
9.28125
 20
-2.475000000000001
 30
0.0
 40
0.5
  1
5/8
100
AcDbAttributeDefinition
  3

  2
H
 70
     8
280
     0
  0
ATTDEF
  5
14C
330
137
100
AcDbEntity
  8
AM_6
100
AcDbText
 10
9.28125
 20
-2.975000000000001
 30
0.0
 40
0.5
  1
6
100
AcDbAttributeDefinition
  3

  2
J
 70
     8
280
     0
  0
ATTDEF
  5
14D
330
137
100
AcDbEntity
  8
AM_6
100
AcDbText
 10
9.28125
 20
-3.475000000000001
 30
0.0
 40
0.5
  1
4-1/16
100
AcDbAttributeDefinition
  3

  2
L
 70
     8
280
     0
  0
ATTDEF
  5
14E
330
137
100
AcDbEntity
  8
AM_6
100
AcDbText
 10
9.28125
 20
-3.975000000000001
 30
0.0
 40
0.5
  1
5/16
100
AcDbAttributeDefinition
  3

  2
T
 70
     8
280
     0
  0
ATTDEF
  5
14F
330
137
100
AcDbEntity
  8
AM_6
100
AcDbText
 10
9.28125
 20
-4.475000000000001
 30
0.0
 40
0.5
  1
baldor
100
AcDbAttributeDefinition
  3

  2
COMPANY
 70
     8
280
     0
  0
LINE
  5
150
330
137
100
AcDbEntity
  8
AM_9
100
AcDbLine
 10
2.826503348732373
 20
-1.074494985061412
 30
0.0
 11
2.882993851615111
 21
-1.172339406199432
 31
0.0
  0
ARC
  5
151
330
137
100
AcDbEntity
  8
AM_9
100
AcDbCircle
 10
0.0000000000000022
 20
-0.0000000000000001
 30
0.0
 40
3.023848649951662
100
AcDbArc
 50
339.1857041033647
 51
20.81429589663523
  0
LINE
  5
152
330
137
100
AcDbEntity
  8
AM_9
100
AcDbLine
 10
2.882955079297195
 20
1.172272250574872
 30
0.0
 11
2.826503348732373
 21
1.074494985061411
 31
0.0
  0
LINE
  5
153
330
137
100
AcDbEntity
  8
AM_9
100
AcDbLine
 10
-1.074494985061412
 20
-2.826503348732373
 30
0.0
 11
-1.172339406199432
 21
-2.882993851615111
 31
0.0
  0
ARC
  5
154
330
137
100
AcDbEntity
  8
AM_9
100
AcDbCircle
 10
0.0000000000000001
 20
0.000000000000004
 30
0.0
 40
3.023848649951668
100
AcDbArc
 50
249.1857041033648
 51
290.8142958966352
  0
LINE
  5
155
330
137
100
AcDbEntity
  8
AM_9
100
AcDbLine
 10
1.172272250574871
 20
-2.882955079297195
 30
0.0
 11
1.074494985061411
 21
-2.826503348732373
 31
0.0
  0
LINE
  5
156
330
137
100
AcDbEntity
  8
AM_9
100
AcDbLine
 10
-2.826503348732373
 20
1.074494985061412
 30
0.0
 11
-2.882993851615111
 21
1.172339406199431
 31
0.0
  0
ARC
  5
157
330
137
100
AcDbEntity
  8
AM_9
100
AcDbCircle
 10
-0.0000000000000018
 20
0.000000000000001
 30
0.0
 40
3.023848649951662
100
AcDbArc
 50
159.1857041033648
 51
200.8142958966352
  0
ARC
  5
158
330
137
100
AcDbEntity
  8
AM_9
100
AcDbCircle
 10
-0.0000000000000178
 20
0.0
 30
0.0
 40
3.148848648089003
100
AcDbArc
 50
168.5516056666967
 51
191.4483943333033
  0
LINE
  5
159
330
137
100
AcDbEntity
  8
AM_9
100
AcDbLine
 10
-2.882955079297195
 20
-1.172272250574871
 30
0.0
 11
-2.826503348732373
 21
-1.07449498506141
 31
0.0
  0
LINE
  5
15A
330
137
100
AcDbEntity
  8
AM_9
100
AcDbLine
 10
1.074494985061412
 20
2.826503348732373
 30
0.0
 11
1.172339406199431
 21
2.882993851615111
 31
0.0
  0
ARC
  5
15B
330
137
100
AcDbEntity
  8
AM_9
100
AcDbCircle
 10
-0.0000000000000003
 20
-0.000000000000004
 30
0.0
 40
3.023848649951668
100
AcDbArc
 50
69.1857041033648
 51
110.8142958966352
  0
LINE
  5
15C
330
137
100
AcDbEntity
  8
AM_9
100
AcDbLine
 10
-1.172272250574872
 20
2.882955079297195
 30
0.0
 11
-1.074494985061411
 21
2.826503348732373
 31
0.0
  0
LINE
  5
15D
330
137
100
AcDbEntity
  8
AM_9
100
AcDbLine
 10
-1.174479642656899
 20
2.884229517709961
 30
0.0
 11
-1.714285714285714
 21
3.195886698475053
 31
0.0
  0
LINE
  5
15E
330
137
100
AcDbEntity
  8
AM_9
100
AcDbLine
 10
1.714285714285714
 20
3.195886698475051
 30
0.0
 11
1.1744796426569
 21
2.884229517709961
 31
0.0
  0
LINE
  5
15F
330
137
100
AcDbEntity
  8
AM_9
100
AcDbLine
 10
-0.734375
 20
3.596774193548387
 30
0.0
 11
-0.734375
 21
2.487860807712972
 31
0.0
  0
LINE
  5
160
330
137
100
AcDbEntity
  8
AM_9
100
AcDbLine
 10
0.734375
 20
2.487729448889286
 30
0.0
 11
0.734375
 21
3.596774193548387
 31
0.0
  0
ARC
  5
161
330
137
100
AcDbEntity
  8
AM_9
100
AcDbCircle
 10
0.0000000000000003
 20
-0.0000000000000067
 30
0.0
 40
3.148544154371505
100
AcDbArc
 50
67.35938709323132
 51
112.6406129067687
  0
ARC
  5
162
330
137
100
AcDbEntity
  8
AM_9
100
AcDbCircle
 10
0.0000000000000346
 20
-0.000000000000056
 30
0.0
 40
3.114190479377477
100
AcDbArc
 50
112.1565175372062
 51
123.3996437456402
  0
ARC
  5
163
330
137
100
AcDbEntity
  8
AM_9
100
AcDbCircle
 10
-0.0000000000000013
 20
-0.0000000000000001
 30
0.0
 40
3.148544154371499
100
AcDbArc
 50
348.5504835237955
 51
11.44951647620451
  0
ARC
  5
164
330
137
100
AcDbEntity
  8
AM_9
100
AcDbCircle
 10
0.0000000000000411
 20
0.0000000000000804
 30
0.0
 40
3.114190479377322
100
AcDbArc
 50
56.60035625435956
 51
67.84348246279417
  0
LWPOLYLINE
  5
165
330
137
100
AcDbEntity
  8
AM_9
100
AcDbPolyline
 90
        8
 70
     0
 43
0.0
 10
-1.714285714285714
 20
2.532151802508654
 10
-1.710564787553858
 20
2.538706024830811
 10
-1.699864820527246
 20
2.549745093461874
 10
-1.682899146245863
 20
2.564539857402012
 10
-1.660493955739408
 20
2.582332565486432
 10
-1.630343305996229
 20
2.6045898058378
 10
-1.595441480315285
 20
2.628748070107155
 10
-1.558035714285714
 20
2.653146889968691
  0
LWPOLYLINE
  5
166
330
137
100
AcDbEntity
  8
AM_9
100
AcDbPolyline
 90
        5
 70
     0
 43
0.0
 10
-1.558035714285716
 20
2.653146889968689
 10
-1.320198115949189
 20
2.789788497349211
 10
-1.071346743378686
 20
2.905198129744555
 10
-0.8133755057800365
 20
2.99849745016595
 10
-0.7767857142857156
 20
3.009709585420125
  0
LWPOLYLINE
  5
167
330
137
100
AcDbEntity
  8
AM_9
100
AcDbPolyline
 90
        4
 70
     0
 43
0.0
 10
-0.7767857142857144
 20
3.009709585420127
 10
-0.6834478273162983
 20
3.035424981145829
 10
-0.5805907150169275
 20
3.058813942166174
 10
-0.4642857142857144
 20
3.079386483920964
  0
ARC
  5
168
330
137
100
AcDbEntity
  8
AM_9
100
AcDbCircle
 10
-0.0000000000000011
 20
-0.000000000000032
 30
0.0
 40
3.114190479377443
100
AcDbArc
 50
81.42597199920155
 51
98.57402800079842
  0
LWPOLYLINE
  5
169
330
137
100
AcDbEntity
  8
AM_9
100
AcDbPolyline
 90
        4
 70
     0
 43
0.0
 10
0.4642857142857151
 20
3.079386483920964
 10
0.5685687365142168
 20
3.061224667207648
 10
0.6721256361923226
 20
3.038246824718481
 10
0.7767857142857146
 20
3.009709585420127
  0
LWPOLYLINE
  5
16A
330
137
100
AcDbEntity
  8
AM_9
100
AcDbPolyline
 90
        5
 70
     0
 43
0.0
 10
0.7767857142857142
 20
3.009709585420126
 10
1.03587418641884
 20
2.919554009918408
 10
1.286112761101199
 20
2.807178865526301
 10
1.525596971681276
 20
2.673439394946597
 10
1.558035714285714
 20
2.653146889968689
  0
LWPOLYLINE
  5
16B
330
137
100
AcDbEntity
  8
AM_9
100
AcDbPolyline
 90
        7
 70
     0
 43
0.0
 10
1.558035714285714
 20
2.653146889968691
 10
1.603415871124019
 20
2.623357950538905
 10
1.644036262137355
 20
2.594672818073751
 10
1.676323386553603
 20
2.56991410258413
 10
1.700422426606703
 20
2.549222799231117
 10
1.710634918432344
 20
2.538636604527558
 10
1.714285714285714
 20
2.532151802508654
  0
ARC
  5
16C
330
137
100
AcDbEntity
  8
AM_9
100
AcDbCircle
 10
0.0000000000000036
 20
-0.0000000000000001
 30
0.0
 40
3.092338350645068
100
AcDbArc
 50
168.3394849076367
 51
191.6605150923633
  0
ARC
  5
16D
330
137
100
AcDbEntity
  8
AM_9
100
AcDbCircle
 10
-0.0000000000000036
 20
0.0000000000000001
 30
0.0
 40
3.092338350645068
100
AcDbArc
 50
348.3394849076366
 51
11.66051509236335
  0
LINE
  5
16E
330
137
100
AcDbEntity
  8
AM_7
100
AcDbLine
 10
-3.328125
 20
-3.0
 30
0.0
 11
-2.671875
 21
-3.0
 31
0.0
  0
LINE
  5
16F
330
137
100
AcDbEntity
  8
AM_7
100
AcDbLine
 10
-3.0
 20
-3.328125
 30
0.0
 11
-3.0
 21
-2.671875
 31
0.0
  0
LINE
  5
170
330
137
100
AcDbEntity
  8
AM_7
100
AcDbLine
 10
-3.328125
 20
3.0
 30
0.0
 11
-2.671875
 21
3.0
 31
0.0
  0
LINE
  5
171
330
137
100
AcDbEntity
  8
AM_7
100
AcDbLine
 10
-3.0
 20
2.671875
 30
0.0
 11
-3.0
 21
3.328125
 31
0.0
  0
LINE
  5
172
330
137
100
AcDbEntity
  8
AM_7
100
AcDbLine
 10
2.671875
 20
-3.0
 30
0.0
 11
3.328125
 21
-3.0
 31
0.0
  0
LINE
  5
173
330
137
100
AcDbEntity
  8
AM_7
100
AcDbLine
 10
3.0
 20
-3.328125
 30
0.0
 11
3.0
 21
-2.671875
 31
0.0
  0
LINE
  5
174
330
137
100
AcDbEntity
  8
AM_7
100
AcDbLine
 10
2.671875
 20
3.0
 30
0.0
 11
3.328125
 21
3.0
 31
0.0
  0
LINE
  5
175
330
137
100
AcDbEntity
  8
AM_7
100
AcDbLine
 10
3.0
 20
2.671875
 30
0.0
 11
3.0
 21
3.328125
 31
0.0
  0
LINE
  5
176
330
137
100
AcDbEntity
  8
AM_7
100
AcDbLine
 10
-3.104377801366462
 20
0.0
 30
0.0
 11
3.104377801366462
 21
0.0
 31
0.0
  0
LINE
  5
177
330
137
100
AcDbEntity
  8
AM_7
100
AcDbLine
 10
0.0
 20
-3.104377801366462
 30
0.0
 11
0.0
 21
5.524999999999999
 31
0.0
  0
ARC
  5
178
330
137
100
AcDbEntity
  8
AM_4
100
AcDbCircle
 10
-0.0000000000000169
 20
-0.0000000000000046
 30
0.0
 40
3.148848648089037
100
AcDbArc
 50
11.44839433330319
 51
22.63195400600108
  0
ARC
  5
179
330
137
100
AcDbEntity
  8
AM_4
100
AcDbCircle
 10
0.0000000000000195
 20
-0.0000000000000058
 30
0.0
 40
3.148848648089
100
AcDbArc
 50
337.3689119793931
 51
348.5516056666968
  0
ARC
  5
17A
330
137
100
AcDbEntity
  8
AM_4
100
AcDbCircle
 10
-0.0000000000000006
 20
0.0000000000000022
 30
0.0
 40
3.148848648089022
100
AcDbArc
 50
247.3698379057857
 51
292.632812572415
  0
LINE
  5
17B
330
137
100
AcDbEntity
  8
AM_4
100
AcDbLine
 10
-2.593750000000001
 20
-3.703645640574855
 30
0.0
 11
-1.1744796426569
 21
-2.884229517709961
 31
0.0
  0
ARC
  5
17C
330
137
100
AcDbEntity
  8
AM_4
100
AcDbCircle
 10
-3.0
 20
-2.999999999999998
 30
0.0
 40
0.8124999999999999
100
AcDbArc
 50
150.0000000000001
 51
299.9999999999998
  0
LINE
  5
17D
330
137
100
AcDbEntity
  8
AM_4
100
AcDbLine
 10
-2.884229517709961
 20
-1.174479642656899
 30
0.0
 11
-3.703645640574857
 21
-2.59375
 31
0.0
  0
CIRCLE
  5
17E
330
137
100
AcDbEntity
  8
AM_4
100
AcDbCircle
 10
-3.0
 20
-3.0
 30
0.0
 40
0.3125
  0
LINE
  5
17F
330
137
100
AcDbEntity
  8
AM_4
100
AcDbLine
 10
-3.703645640574855
 20
2.593750000000001
 30
0.0
 11
-2.88422951770996
 21
1.1744796426569
 31
0.0
  0
LINE
  5
180
330
137
100
AcDbEntity
  8
AM_4
100
AcDbLine
 10
-1.714285714285714
 20
3.195886698475053
 30
0.0
 11
-2.59375
 21
3.703645640574857
 31
0.0
  0
CIRCLE
  5
181
330
137
100
AcDbEntity
  8
AM_4
100
AcDbCircle
 10
-3.0
 20
3.0
 30
0.0
 40
0.3125
  0
ARC
  5
182
330
137
100
AcDbEntity
  8
AM_4
100
AcDbCircle
 10
-2.999999999999998
 20
3.0
 30
0.0
 40
0.8124999999999997
100
AcDbArc
 50
60.00000000000014
 51
210.0
  0
LINE
  5
183
330
137
100
AcDbEntity
  8
AM_4
100
AcDbLine
 10
3.703645640574855
 20
-2.593750000000001
 30
0.0
 11
2.88422951770996
 21
-1.1744796426569
 31
0.0
  0
ARC
  5
184
330
137
100
AcDbEntity
  8
AM_4
100
AcDbCircle
 10
2.999999999999997
 20
-2.999999999999999
 30
0.0
 40
0.8125000000000002
100
AcDbArc
 50
240.0000000000002
 51
29.99999999999982
  0
CIRCLE
  5
185
330
137
100
AcDbEntity
  8
AM_4
100
AcDbCircle
 10
3.0
 20
-3.0
 30
0.0
 40
0.3125
  0
LINE
  5
186
330
137
100
AcDbEntity
  8
AM_4
100
AcDbLine
 10
1.174479642656899
 20
-2.884229517709961
 30
0.0
 11
2.593749999999999
 21
-3.703645640574857
 31
0.0
  0
LINE
  5
187
330
137
100
AcDbEntity
  8
AM_4
100
AcDbLine
 10
2.884229517709961
 20
1.174479642656899
 30
0.0
 11
3.703645640574856
 21
2.59375
 31
0.0
  0
LINE
  5
188
330
137
100
AcDbEntity
  8
AM_4
100
AcDbLine
 10
2.59375
 20
3.703645640574856
 30
0.0
 11
1.714285714285714
 21
3.195886698475051
 31
0.0
  0
ARC
  5
189
330
137
100
AcDbEntity
  8
AM_4
100
AcDbCircle
 10
2.999999999999999
 20
3.0
 30
0.0
 40
0.8125000000000006
100
AcDbArc
 50
330.0
 51
120.0
  0
CIRCLE
  5
18A
330
137
100
AcDbEntity
  8
AM_4
100
AcDbCircle
 10
3.0
 20
3.0
 30
0.0
 40
0.3125
  0
LINE
  5
18B
330
137
100
AcDbEntity
  8
AM_4
100
AcDbLine
 10
1.215111315863963
 20
3.796774193548387
 30
0.0
 11
1.215111315863963
 21
3.696774193548387
 31
0.0
  0
LINE
  5
18C
330
137
100
AcDbEntity
  8
AM_4
100
AcDbLine
 10
0.9213613158639631
 20
3.796774193548387
 30
0.0
 11
1.215111315863963
 21
3.796774193548387
 31
0.0
  0
LINE
  5
18D
330
137
100
AcDbEntity
  8
AM_4
100
AcDbLine
 10
1.068236315863963
 20
3.796774193548387
 30
0.0
 11
1.068236315863963
 21
3.696774193548387
 31
0.0
  0
LINE
  5
18E
330
137
100
AcDbEntity
  8
AM_4
100
AcDbLine
 10
0.9213613158639631
 20
3.796774193548387
 30
0.0
 11
0.9213613158639631
 21
3.696774193548387
 31
0.0
  0
LINE
  5
18F
330
137
100
AcDbEntity
  8
AM_4
100
AcDbLine
 10
-1.215111315863963
 20
3.796774193548387
 30
0.0
 11
-0.9213613158639631
 21
3.796774193548387
 31
0.0
  0
LINE
  5
190
330
137
100
AcDbEntity
  8
AM_4
100
AcDbLine
 10
-1.215111315863963
 20
3.796774193548387
 30
0.0
 11
-1.215111315863963
 21
3.696774193548387
 31
0.0
  0
LINE
  5
191
330
137
100
AcDbEntity
  8
AM_4
100
AcDbLine
 10
-0.9213613158639631
 20
3.796774193548387
 30
0.0
 11
-0.9213613158639631
 21
3.696774193548387
 31
0.0
  0
LINE
  5
192
330
137
100
AcDbEntity
  8
AM_4
100
AcDbLine
 10
-1.068236315863963
 20
3.796774193548387
 30
0.0
 11
-1.068236315863963
 21
3.696774193548387
 31
0.0
  0
LINE
  5
193
330
137
100
AcDbEntity
  8
AM_4
100
AcDbLine
 10
-1.31082557276703
 20
3.696774193548387
 30
0.0
 11
1.310825572767029
 21
3.696774193548387
 31
0.0
  0
LINE
  5
194
330
137
100
AcDbEntity
  8
AM_4
100
AcDbLine
 10
1.310825572767029
 20
3.596774193548387
 30
0.0
 11
1.310825572767029
 21
3.696774193548387
 31
0.0
  0
LINE
  5
195
330
137
100
AcDbEntity
  8
AM_4
100
AcDbLine
 10
-1.31082557276703
 20
3.696774193548387
 30
0.0
 11
-1.31082557276703
 21
3.596774193548387
 31
0.0
  0
LINE
  5
196
330
137
100
AcDbEntity
  8
AM_4
100
AcDbLine
 10
-1.714285714285714
 20
2.499221687029467
 30
0.0
 11
-1.714285714285714
 21
3.596774193548387
 31
0.0
  0
LINE
  5
197
330
137
100
AcDbEntity
  8
AM_4
100
AcDbLine
 10
1.714285714285714
 20
2.499221687029467
 30
0.0
 11
1.714285714285714
 21
3.596774193548387
 31
0.0
  0
LINE
  5
198
330
137
100
AcDbEntity
  8
AM_4
100
AcDbLine
 10
3.377949889635557
 20
0.9375
 30
0.0
 11
4.002949889635557
 21
0.9375
 31
0.0
  0
LINE
  5
199
330
137
100
AcDbEntity
  8
AM_4
100
AcDbLine
 10
3.377949889635557
 20
0.9375
 30
0.0
 11
3.377949889635557
 21
0.625
 31
0.0
  0
LINE
  5
19A
330
137
100
AcDbEntity
  8
AM_4
100
AcDbLine
 10
-4.002949889635557
 20
0.9375
 30
0.0
 11
-3.377949889635557
 21
0.9375
 31
0.0
  0
LINE
  5
19B
330
137
100
AcDbEntity
  8
AM_4
100
AcDbLine
 10
-4.002949889635557
 20
0.9375
 30
0.0
 11
-4.002949889635557
 21
0.625
 31
0.0
  0
LINE
  5
19C
330
137
100
AcDbEntity
  8
AM_4
100
AcDbLine
 10
-3.377949889635557
 20
0.9375
 30
0.0
 11
-3.377949889635557
 21
0.625
 31
0.0
  0
LINE
  5
19D
330
137
100
AcDbEntity
  8
AM_4
100
AcDbLine
 10
-3.690449889635557
 20
0.9375
 30
0.0
 11
-3.690449889635557
 21
0.625
 31
0.0
  0
LINE
  5
19E
330
137
100
AcDbEntity
  8
AM_4
100
AcDbLine
 10
4.002949889635557
 20
0.9375
 30
0.0
 11
4.002949889635557
 21
0.625
 31
0.0
  0
LINE
  5
19F
330
137
100
AcDbEntity
  8
AM_4
100
AcDbLine
 10
3.690449889635557
 20
0.9375
 30
0.0
 11
3.690449889635557
 21
0.625
 31
0.0
  0
LINE
  5
1A0
330
137
100
AcDbEntity
  8
AM_4
100
AcDbLine
 10
-1.224788189740578
 20
3.696774193548387
 30
0.0
 11
-1.224788189740578
 21
3.596774193548387
 31
0.0
  0
LINE
  5
1A1
330
137
100
AcDbEntity
  8
AM_4
100
AcDbLine
 10
1.224788189740578
 20
3.696774193548387
 30
0.0
 11
1.224788189740578
 21
3.596774193548387
 31
0.0
  0
LINE
  5
1A2
330
137
100
AcDbEntity
  8
AM_4
100
AcDbLine
 10
-1.558035714285714
 20
2.577413442884598
 30
0.0
 11
-1.558035714285714
 21
3.596774193548387
 31
0.0
  0
LINE
  5
1A3
330
137
100
AcDbEntity
  8
AM_4
100
AcDbLine
 10
1.558035714285714
 20
2.577413442884598
 30
0.0
 11
1.558035714285714
 21
3.596774193548387
 31
0.0
  0
LINE
  5
1A4
330
137
100
AcDbEntity
  8
AM_4
100
AcDbLine
 10
0.7767857142857149
 20
2.87717726266272
 30
0.0
 11
0.7767857142857149
 21
3.596774193548387
 31
0.0
  0
LINE
  5
1A5
330
137
100
AcDbEntity
  8
AM_4
100
AcDbLine
 10
1.714285714285714
 20
3.596774193548387
 30
0.0
 11
-1.714285714285714
 21
3.596774193548387
 31
0.0
  0
LINE
  5
1A6
330
137
100
AcDbEntity
  8
AM_4
100
AcDbLine
 10
0.4642857142857149
 20
2.937876529985334
 30
0.0
 11
0.4642857142857149
 21
3.596774193548387
 31
0.0
  0
LINE
  5
1A7
330
137
100
AcDbEntity
  8
AM_4
100
AcDbLine
 10
2.907929629466377
 20
0.625
 30
0.0
 11
4.28125
 21
0.625
 31
0.0
  0
LINE
  5
1A8
330
137
100
AcDbEntity
  8
AM_4
100
AcDbLine
 10
2.907929629466377
 20
-0.625
 30
0.0
 11
4.28125
 21
-0.625
 31
0.0
  0
LINE
  5
1A9
330
137
100
AcDbEntity
  8
AM_4
100
AcDbLine
 10
-4.28125
 20
0.625
 30
0.0
 11
-2.907929629466377
 21
0.625
 31
0.0
  0
LINE
  5
1AA
330
137
100
AcDbEntity
  8
AM_4
100
AcDbLine
 10
-4.28125
 20
-0.625
 30
0.0
 11
-2.907929629466377
 21
-0.625
 31
0.0
  0
LINE
  5
1AB
330
137
100
AcDbEntity
  8
AM_4
100
AcDbLine
 10
-4.28125
 20
0.625
 30
0.0
 11
-4.28125
 21
-0.625
 31
0.0
  0
LINE
  5
1AC
330
137
100
AcDbEntity
  8
AM_4
100
AcDbLine
 10
-3.65625
 20
0.625
 30
0.0
 11
-3.65625
 21
-0.625
 31
0.0
  0
LINE
  5
1AD
330
137
100
AcDbEntity
  8
AM_4
100
AcDbLine
 10
4.28125
 20
0.625
 30
0.0
 11
4.28125
 21
-0.625
 31
0.0
  0
LINE
  5
1AE
330
137
100
AcDbEntity
  8
AM_4
100
AcDbLine
 10
3.65625
 20
0.625
 30
0.0
 11
3.65625
 21
-0.625
 31
0.0
  0
LINE
  5
1AF
330
137
100
AcDbEntity
  8
AM_4
100
AcDbLine
 10
-0.4642857142857117
 20
2.937876529985334
 30
0.0
 11
-0.4642857142857116
 21
3.596774193548387
 31
0.0
  0
LINE
  5
1B0
330
137
100
AcDbEntity
  8
AM_4
100
AcDbLine
 10
-0.7767857142857147
 20
2.87717726266272
 30
0.0
 11
-0.7767857142857147
 21
3.596774193548387
 31
0.0
  0
LINE
  5
1B1
330
137
100
AcDbEntity
  8
AM_4
100
AcDbLine
 10
0.716250403357063
 20
3.696774193548387
 30
0.0
 11
0.716250403357063
 21
3.596774193548387
 31
0.0
  0
LINE
  5
1B2
330
137
100
AcDbEntity
  8
AM_4
100
AcDbLine
 10
-0.7162504033570631
 20
3.696774193548387
 30
0.0
 11
-0.7162504033570631
 21
3.596774193548387
 31
0.0
  0
ARC
  5
1B3
330
137
100
AcDbEntity
  8
AM_4
100
AcDbCircle
 10
0.0
 20
0.0
 30
0.0
 40
3.114190479377411
100
AcDbArc
 50
123.3996437456403
 51
157.843482462794
  0
ARC
  5
1B4
330
137
100
AcDbEntity
  8
AM_4
100
AcDbCircle
 10
-0.0000000000000546
 20
0.0000000000000198
 30
0.0
 40
3.148544154371441
100
AcDbArc
 50
157.3593870932312
 51
168.5504835237956
  0
ARC
  5
1B5
330
137
100
AcDbEntity
  8
AM_4
100
AcDbCircle
 10
0.000000000000008
 20
-0.0000000000000002
 30
0.0
 40
3.148544154371506
100
AcDbArc
 50
191.4495164762045
 51
202.6406129067687
  0
ARC
  5
1B6
330
137
100
AcDbEntity
  8
AM_4
100
AcDbCircle
 10
0.0000000000000013
 20
0.0000000000000016
 30
0.0
 40
3.114190479377414
100
AcDbArc
 50
202.156517537206
 51
247.843482462794
  0
ARC
  5
1B7
330
137
100
AcDbEntity
  8
AM_4
100
AcDbCircle
 10
-0.0000000000000024
 20
0.0000000000000013
 30
0.0
 40
3.114190479377414
100
AcDbArc
 50
292.156517537206
 51
337.843482462794
  0
ARC
  5
1B8
330
137
100
AcDbEntity
  8
AM_4
100
AcDbCircle
 10
-0.0000000000000022
 20
-0.0000000000000031
 30
0.0
 40
3.114190479377415
100
AcDbArc
 50
22.15651753720601
 51
56.60035625435972
  0
ARC
  5
1B9
330
137
100
AcDbEntity
  8
AM_4
100
AcDbCircle
 10
0.0
 20
-0.0000000000000178
 30
0.0
 40
2.974336855490408
100
AcDbArc
 50
81.01956305287666
 51
98.98043694712328
  0
LWPOLYLINE
  5
1BA
330
137
100
AcDbEntity
  8
AM_4
100
AcDbPolyline
 90
        4
 70
     0
 43
0.0
 10
-0.4642857142857117
 20
2.937876529985334
 10
-0.5693457238670483
 20
2.919970025426062
 10
-0.6740106804952455
 20
2.899563730837894
 10
-0.7767857142857147
 20
2.87717726266272
  0
LWPOLYLINE
  5
1BB
330
137
100
AcDbEntity
  8
AM_4
100
AcDbPolyline
 90
        5
 70
     0
 43
0.0
 10
-0.776785714285713
 20
2.87717726266272
 10
-1.025250707623202
 20
2.808967040025633
 10
-1.266820453234855
 20
2.71937888211328
 10
-1.499656459492768
 20
2.609094608902183
 10
-1.558035714285713
 20
2.577413442884598
  0
LWPOLYLINE
  5
1BC
330
137
100
AcDbEntity
  8
AM_4
100
AcDbPolyline
 90
        8
 70
     0
 43
0.0
 10
-1.558035714285714
 20
2.577413442884598
 10
-1.600428843971901
 20
2.553728982849905
 10
-1.638168068039001
 20
2.53275725703519
 10
-1.670064075377335
 20
2.515552493035475
 10
-1.694332648100968
 20
2.503519535518541
 10
-1.707960272136433
 20
2.498275128147225
 10
-1.714016688606757
 20
2.498306894255636
 10
-1.714285714285714
 20
2.499221687029467
  0
LWPOLYLINE
  5
1BD
330
137
100
AcDbEntity
  8
AM_4
100
AcDbPolyline
 90
        8
 70
     0
 43
0.0
 10
1.714285714285714
 20
2.499221687029467
 10
1.711036369080608
 20
2.497660093849884
 10
1.701496674412678
 20
2.500465493959373
 10
1.685986310198083
 20
2.507461907134004
 10
1.665209839426767
 20
2.51810285627111
 10
1.638680489257924
 20
2.532475222926223
 10
1.608063651101145
 20
2.54946829661326
 10
1.558035714285714
 20
2.577413442884598
  0
LWPOLYLINE
  5
1BE
330
137
100
AcDbEntity
  8
AM_4
100
AcDbPolyline
 90
        5
 70
     0
 43
0.0
 10
1.558035714285714
 20
2.577413442884598
 10
1.327741005911545
 20
2.692902211531891
 10
1.088248915992931
 20
2.787896368330614
 10
0.8413821239434294
 20
2.861672950388488
 10
0.7767857142857152
 20
2.87717726266272
  0
LWPOLYLINE
  5
1BF
330
137
100
AcDbEntity
  8
AM_4
100
AcDbPolyline
 90
        4
 70
     0
 43
0.0
 10
0.7767857142857149
 20
2.87717726266272
 10
0.6818014835585373
 20
2.897945252398987
 10
0.5775564373138287
 20
2.918460909891694
 10
0.4642857142857149
 20
2.937876529985334
  0
ARC
  5
1C0
330
137
100
AcDbEntity
  8
AM_4
100
AcDbCircle
 10
0.000000000000008
 20
0.0000000000000001
 30
0.0
 40
2.974336855490398
100
AcDbArc
 50
167.8699781561848
 51
192.1300218438152
  0
ARC
  5
1C1
330
137
100
AcDbEntity
  8
AM_4
100
AcDbCircle
 10
-0.0000000000000084
 20
0.0000000000000001
 30
0.0
 40
2.974336855490399
100
AcDbArc
 50
347.8699781561848
 51
12.13002184381521
  0
CIRCLE
  5
1C2
330
137
100
AcDbEntity
  8
AM_4
100
AcDbCircle
 10
0.0
 20
0.0
 30
0.0
 40
2.59325
  0
CIRCLE
  5
1C3
330
137
100
AcDbEntity
  8
AM_4
100
AcDbCircle
 10
0.0
 20
0.0
 30
0.0
 40
2.894202533874439
  0
CIRCLE
  5
1C4
330
137
100
AcDbEntity
  8
AM_4
100
AcDbCircle
 10
0.0
 20
0.0
 30
0.0
 40
2.956550287015678
  0
ENDBLK
  5
13A
330
137
100
AcDbEntity
  8
0
100
AcDbBlockEnd
  0
ENDSEC
  0
SECTION
  2
ENTITIES
  0
INSERT
  5
6F
330
1F
100
AcDbEntity
  8
0
100
AcDbBlockReference
  2
1_023464_0
 10
0.0
 20
0.0
 30
0.0
  0
POINT
  5
1C6
330
1F
100
AcDbEntity
  8
ConnectionPoints
100
AcDbPoint
 10
0.0
 20
0.0
 30
-0.4375
  0
POINT
  5
1C7
330
1F
100
AcDbEntity
  8
ConnectionPoints
100
AcDbPoint
 10
0.0
 20
3.035
 30
1.5625
  0
POINT
  5
1C8
330
1F
100
AcDbEntity
  8
ConnectionPoints
100
AcDbPoint
 10
0.0
 20
0.0
 30
1.5625
  0
POINT
  5
1C9
330
1F
100
AcDbEntity
  8
ConnectionPoints
100
AcDbPoint
 10
0.0
 20
0.0
 30
-0.4375
  0
POINT
  5
1CA
330
1F
100
AcDbEntity
  8
ConnectionPoints
100
AcDbPoint
 10
0.0
 20
0.0
 30
3.5625
  0
POINT
  5
1CB
330
1F
100
AcDbEntity
  8
ConnectionPoints
100
AcDbPoint
 10
0.0
 20
3.035
 30
1.5625
  0
POINT
  5
1CC
330
1F
100
AcDbEntity
  8
ConnectionPoints
100
AcDbPoint
 10
0.0
 20
3.035
 30
1.5625
  0
POINT
  5
1CD
330
1F
100
AcDbEntity
  8
ConnectionPoints
100
AcDbPoint
 10
0.0
 20
0.0
 30
1.5625
  0
POINT
  5
1CE
330
1F
100
AcDbEntity
  8
ConnectionPoints
100
AcDbPoint
 10
0.0
 20
0.0
 30
1.5625
  0
ENDSEC
  0
SECTION
  2
OBJECTS
  0
DICTIONARY
  5
C
330
0
100
AcDbDictionary
281
     1
  3
ACAD_DETAILVIEWSTYLE
350
1D6
  3
ACAD_GROUP
350
D
  3
ACAD_LAYOUT
350
1A
  3
ACAD_MATERIAL
350
43
  3
ACAD_MLEADERSTYLE
350
6B
  3
ACAD_MLINESTYLE
350
17
  3
ACAD_PLOTSETTINGS
350
19
  3
ACAD_PLOTSTYLENAME
350
E
  3
ACAD_SCALELIST
350
47
  3
ACAD_SECTIONVIEWSTYLE
350
1D7
  3
ACAD_TABLESTYLE
350
69
  3
ACAD_VISUALSTYLE
350
2A
  3
ACDB_RECOMPOSE_DATA
350
1D3
  3
AcDbVariableDictionary
350
1CF
  0
SUN
  5
6D
330
29
100
AcDbSun
 90
        1
290
     0
 63
     7
421
 16777215
 40
1.0
291
     1
 91
  2455826
 92
 54000000
292
     0
 70
     2
 71
   256
280
     1
  0
DICTIONARY
  5
1D6
102
{ACAD_REACTORS
330
C
102
}
330
C
100
AcDbDictionary
281
     1
  0
DICTIONARY
  5
D
102
{ACAD_REACTORS
330
C
102
}
330
C
100
AcDbDictionary
281
     1
  0
DICTIONARY
  5
1A
102
{ACAD_REACTORS
330
C
102
}
330
C
100
AcDbDictionary
281
     1
  3
Layout1
350
1E
  3
Layout2
350
26
  3
Model
350
22
  0
DICTIONARY
  5
43
102
{ACAD_REACTORS
330
C
102
}
330
C
100
AcDbDictionary
281
     1
  3
ByBlock
350
45
  3
ByLayer
350
44
  3
Global
350
46
  0
DICTIONARY
  5
6B
102
{ACAD_REACTORS
330
C
102
}
330
C
100
AcDbDictionary
281
     1
  3
Standard
350
6C
  0
DICTIONARY
  5
17
102
{ACAD_REACTORS
330
C
102
}
330
C
100
AcDbDictionary
281
     1
  3
Standard
350
18
  0
DICTIONARY
  5
19
102
{ACAD_REACTORS
330
C
102
}
330
C
100
AcDbDictionary
281
     1
  0
ACDBDICTIONARYWDFLT
  5
E
102
{ACAD_REACTORS
330
C
102
}
330
C
100
AcDbDictionary
281
     1
  3
Normal
350
F
100
AcDbDictionaryWithDefault
340
F
  0
DICTIONARY
  5
47
102
{ACAD_REACTORS
330
C
102
}
330
C
100
AcDbDictionary
281
     1
  3
A0
350
48
  3
A1
350
49
  3
A2
350
4A
  3
A3
350
4B
  3
A4
350
4C
  3
A5
350
4D
  3
A6
350
4E
  3
A7
350
4F
  3
A8
350
50
  3
A9
350
51
  3
B0
350
52
  3
B1
350
53
  3
B2
350
54
  3
B3
350
55
  3
B4
350
56
  3
B5
350
57
  3
B6
350
58
  3
B7
350
59
  3
B8
350
5A
  3
B9
350
5B
  3
C0
350
5C
  3
C1
350
5D
  3
C2
350
5E
  3
C3
350
5F
  3
C4
350
60
  3
C5
350
61
  3
C6
350
62
  3
C7
350
63
  3
C8
350
64
  3
C9
350
65
  3
D0
350
66
  3
D1
350
67
  3
D2
350
68
  0
DICTIONARY
  5
1D7
102
{ACAD_REACTORS
330
C
102
}
330
C
100
AcDbDictionary
281
     1
  0
DICTIONARY
  5
69
102
{ACAD_REACTORS
330
C
102
}
330
C
100
AcDbDictionary
281
     1
  3
Standard
350
6A
  0
DICTIONARY
  5
2A
102
{ACAD_REACTORS
330
C
102
}
330
C
100
AcDbDictionary
281
     1
  3
2dWireframe
350
2F
  3
Basic
350
32
  3
Brighten
350
36
  3
ColorChange
350
3A
  3
Conceptual
350
34
  3
Dim
350
35
  3
EdgeColorOff
350
3D
  3
Facepattern
350
39
  3
Flat
350
2B
  3
FlatWithEdges
350
2C
  3
Gouraud
350
2D
  3
GouraudWithEdges
350
2E
  3
Hidden
350
31
  3
JitterOff
350
3B
  3
Linepattern
350
38
  3
OverhangOff
350
3C
  3
Realistic
350
33
  3
Shaded
350
42
  3
Shaded with edges
350
41
  3
Shades of Gray
350
3E
  3
Sketchy
350
3F
  3
Thicken
350
37
  3
Wireframe
350
30
  3
X-Ray
350
40
  0
XRECORD
  5
1D3
102
{ACAD_REACTORS
330
C
102
}
330
C
100
AcDbXrecord
280
     1
 90
        1
330
6A
  0
DICTIONARY
  5
1CF
102
{ACAD_REACTORS
330
C
102
}
330
C
100
AcDbDictionary
281
     1
  3
CANNOSCALE
350
1D0
  3
CMLEADERSTYLE
350
1D5
  3
CTABLESTYLE
350
1D4
  0
LAYOUT
  5
1E
102
{ACAD_REACTORS
330
1A
102
}
330
1A
100
AcDbPlotSettings
  1

  2
none_device
  4

  6

 40
0.0
 41
0.0
 42
0.0
 43
0.0
 44
0.0
 45
0.0
 46
0.0
 47
0.0
 48
0.0
 49
0.0
140
0.0
141
0.0
142
1.0
143
1.0
 70
   688
 72
     0
 73
     0
 74
     5
  7

 75
    16
 76
     0
 77
     2
 78
   300
147
1.0
148
0.0
149
0.0
100
AcDbLayout
  1
Layout1
 70
     1
 71
     1
 10
0.0
 20
0.0
 11
12.0
 21
9.0
 12
0.0
 22
0.0
 32
0.0
 14
1.000000000000000E+20
 24
1.000000000000000E+20
 34
1.000000000000000E+20
 15
-1.000000000000000E+20
 25
-1.000000000000000E+20
 35
-1.000000000000000E+20
146
0.0
 13
0.0
 23
0.0
 33
0.0
 16
1.0
 26
0.0
 36
0.0
 17
0.0
 27
1.0
 37
0.0
 76
     0
330
1B
  0
LAYOUT
  5
26
102
{ACAD_REACTORS
330
1A
102
}
330
1A
100
AcDbPlotSettings
  1

  2
none_device
  4

  6

 40
0.0
 41
0.0
 42
0.0
 43
0.0
 44
0.0
 45
0.0
 46
0.0
 47
0.0
 48
0.0
 49
0.0
140
0.0
141
0.0
142
1.0
143
1.0
 70
   688
 72
     0
 73
     0
 74
     5
  7

 75
    16
 76
     0
 77
     2
 78
   300
147
1.0
148
0.0
149
0.0
100
AcDbLayout
  1
Layout2
 70
     1
 71
     2
 10
0.0
 20
0.0
 11
0.0
 21
0.0
 12
0.0
 22
0.0
 32
0.0
 14
0.0
 24
0.0
 34
0.0
 15
0.0
 25
0.0
 35
0.0
146
0.0
 13
0.0
 23
0.0
 33
0.0
 16
1.0
 26
0.0
 36
0.0
 17
0.0
 27
1.0
 37
0.0
 76
     0
330
23
  0
LAYOUT
  5
22
102
{ACAD_REACTORS
330
1A
102
}
330
1A
100
AcDbPlotSettings
  1

  2
none_device
  4
Letter_(8.50_x_11.00_Inches)
  6

 40
6.35
 41
6.35
 42
6.35000508
 43
6.35000508
 44
215.9
 45
279.4
 46
0.0
 47
0.0
 48
0.0
 49
0.0
140
0.0
141
0.0
142
1.0
143
1.0
 70
  1712
 72
     0
 73
     0
 74
     0
  7

 75
     0
 76
     0
 77
     2
 78
   300
147
1.0
148
0.0
149
0.0
100
AcDbLayout
  1
Model
 70
     1
 71
     0
 10
0.0
 20
0.0
 11
12.0
 21
9.0
 12
0.0
 22
0.0
 32
0.0
 14
1.000000000000000E+20
 24
1.000000000000000E+20
 34
1.000000000000000E+20
 15
-1.000000000000000E+20
 25
-1.000000000000000E+20
 35
-1.000000000000000E+20
146
0.0
 13
0.0
 23
0.0
 33
0.0
 16
1.0
 26
0.0
 36
0.0
 17
0.0
 27
1.0
 37
0.0
 76
     0
330
1F
331
29
  0
MATERIAL
  5
45
102
{ACAD_REACTORS
330
43
102
}
330
43
100
AcDbMaterial
  1
ByBlock
 72
     1
 94
      127
  0
MATERIAL
  5
44
102
{ACAD_REACTORS
330
43
102
}
330
43
100
AcDbMaterial
  1
ByLayer
 72
     1
 94
      127
  0
MATERIAL
  5
46
102
{ACAD_REACTORS
330
43
102
}
330
43
100
AcDbMaterial
  1
Global
 72
     1
 94
      127
  0
MLEADERSTYLE
  5
6C
102
{ACAD_REACTORS
330
6B
102
}
330
6B
100
AcDbMLeaderStyle
179
     2
170
     2
171
     1
172
     0
 90
        2
 40
0.0
 41
0.0
173
     1
 91
-1056964608
340
14
 92
       -2
290
     1
 42
0.09
291
     1
 43
0.36
  3
Standard
341
0
 44
0.18
300

342
11
174
     1
178
     6
175
     1
176
     0
 93
-1056964608
 45
0.18
292
     0
297
     0
 46
0.18
343
0
 94
-1056964608
 47
1.0
 49
1.0
140
1.0
293
     1
141
0.0
294
     1
177
     0
142
1.0
295
     0
296
     0
143
0.125
271
     0
272
     9
273
     9
298
     0
  0
MLINESTYLE
  5
18
102
{ACAD_REACTORS
330
17
102
}
330
17
100
AcDbMlineStyle
  2
Standard
 70
     0
  3

 62
   256
 51
90.0
 52
90.0
 71
     2
 49
0.5
 62
   256
  6
BYLAYER
 49
-0.5
 62
   256
  6
BYLAYER
  0
ACDBPLACEHOLDER
  5
F
102
{ACAD_REACTORS
330
E
102
}
330
E
  0
SCALE
  5
48
102
{ACAD_REACTORS
330
47
102
}
330
47
100
AcDbScale
 70
     0
300
1:1
140
1.0
141
1.0
290
     1
  0
SCALE
  5
49
102
{ACAD_REACTORS
330
47
102
}
330
47
100
AcDbScale
 70
     0
300
1:2
140
1.0
141
2.0
290
     0
  0
SCALE
  5
4A
102
{ACAD_REACTORS
330
47
102
}
330
47
100
AcDbScale
 70
     0
300
1:4
140
1.0
141
4.0
290
     0
  0
SCALE
  5
4B
102
{ACAD_REACTORS
330
47
102
}
330
47
100
AcDbScale
 70
     0
300
1:5
140
1.0
141
5.0
290
     0
  0
SCALE
  5
4C
102
{ACAD_REACTORS
330
47
102
}
330
47
100
AcDbScale
 70
     0
300
1:8
140
1.0
141
8.0
290
     0
  0
SCALE
  5
4D
102
{ACAD_REACTORS
330
47
102
}
330
47
100
AcDbScale
 70
     0
300
1:10
140
1.0
141
10.0
290
     0
  0
SCALE
  5
4E
102
{ACAD_REACTORS
330
47
102
}
330
47
100
AcDbScale
 70
     0
300
1:16
140
1.0
141
16.0
290
     0
  0
SCALE
  5
4F
102
{ACAD_REACTORS
330
47
102
}
330
47
100
AcDbScale
 70
     0
300
1:20
140
1.0
141
20.0
290
     0
  0
SCALE
  5
50
102
{ACAD_REACTORS
330
47
102
}
330
47
100
AcDbScale
 70
     0
300
1:30
140
1.0
141
30.0
290
     0
  0
SCALE
  5
51
102
{ACAD_REACTORS
330
47
102
}
330
47
100
AcDbScale
 70
     0
300
1:40
140
1.0
141
40.0
290
     0
  0
SCALE
  5
52
102
{ACAD_REACTORS
330
47
102
}
330
47
100
AcDbScale
 70
     0
300
1:50
140
1.0
141
50.0
290
     0
  0
SCALE
  5
53
102
{ACAD_REACTORS
330
47
102
}
330
47
100
AcDbScale
 70
     0
300
1:100
140
1.0
141
100.0
290
     0
  0
SCALE
  5
54
102
{ACAD_REACTORS
330
47
102
}
330
47
100
AcDbScale
 70
     0
300
2:1
140
2.0
141
1.0
290
     0
  0
SCALE
  5
55
102
{ACAD_REACTORS
330
47
102
}
330
47
100
AcDbScale
 70
     0
300
4:1
140
4.0
141
1.0
290
     0
  0
SCALE
  5
56
102
{ACAD_REACTORS
330
47
102
}
330
47
100
AcDbScale
 70
     0
300
8:1
140
8.0
141
1.0
290
     0
  0
SCALE
  5
57
102
{ACAD_REACTORS
330
47
102
}
330
47
100
AcDbScale
 70
     0
300
10:1
140
10.0
141
1.0
290
     0
  0
SCALE
  5
58
102
{ACAD_REACTORS
330
47
102
}
330
47
100
AcDbScale
 70
     0
300
100:1
140
100.0
141
1.0
290
     0
  0
SCALE
  5
59
102
{ACAD_REACTORS
330
47
102
}
330
47
100
AcDbScale
 70
     0
300
1/128" = 1'-0"
140
0.0078125
141
12.0
290
     0
  0
SCALE
  5
5A
102
{ACAD_REACTORS
330
47
102
}
330
47
100
AcDbScale
 70
     0
300
1/64" = 1'-0"
140
0.015625
141
12.0
290
     0
  0
SCALE
  5
5B
102
{ACAD_REACTORS
330
47
102
}
330
47
100
AcDbScale
 70
     0
300
1/32" = 1'-0"
140
0.03125
141
12.0
290
     0
  0
SCALE
  5
5C
102
{ACAD_REACTORS
330
47
102
}
330
47
100
AcDbScale
 70
     0
300
1/16" = 1'-0"
140
0.0625
141
12.0
290
     0
  0
SCALE
  5
5D
102
{ACAD_REACTORS
330
47
102
}
330
47
100
AcDbScale
 70
     0
300
3/32" = 1'-0"
140
0.09375
141
12.0
290
     0
  0
SCALE
  5
5E
102
{ACAD_REACTORS
330
47
102
}
330
47
100
AcDbScale
 70
     0
300
1/8" = 1'-0"
140
0.125
141
12.0
290
     0
  0
SCALE
  5
5F
102
{ACAD_REACTORS
330
47
102
}
330
47
100
AcDbScale
 70
     0
300
3/16" = 1'-0"
140
0.1875
141
12.0
290
     0
  0
SCALE
  5
60
102
{ACAD_REACTORS
330
47
102
}
330
47
100
AcDbScale
 70
     0
300
1/4" = 1'-0"
140
0.25
141
12.0
290
     0
  0
SCALE
  5
61
102
{ACAD_REACTORS
330
47
102
}
330
47
100
AcDbScale
 70
     0
300
3/8" = 1'-0"
140
0.375
141
12.0
290
     0
  0
SCALE
  5
62
102
{ACAD_REACTORS
330
47
102
}
330
47
100
AcDbScale
 70
     0
300
1/2" = 1'-0"
140
0.5
141
12.0
290
     0
  0
SCALE
  5
63
102
{ACAD_REACTORS
330
47
102
}
330
47
100
AcDbScale
 70
     0
300
3/4" = 1'-0"
140
0.75
141
12.0
290
     0
  0
SCALE
  5
64
102
{ACAD_REACTORS
330
47
102
}
330
47
100
AcDbScale
 70
     0
300
1" = 1'-0"
140
1.0
141
12.0
290
     0
  0
SCALE
  5
65
102
{ACAD_REACTORS
330
47
102
}
330
47
100
AcDbScale
 70
     0
300
1-1/2" = 1'-0"
140
1.5
141
12.0
290
     0
  0
SCALE
  5
66
102
{ACAD_REACTORS
330
47
102
}
330
47
100
AcDbScale
 70
     0
300
3" = 1'-0"
140
3.0
141
12.0
290
     0
  0
SCALE
  5
67
102
{ACAD_REACTORS
330
47
102
}
330
47
100
AcDbScale
 70
     0
300
6" = 1'-0"
140
6.0
141
12.0
290
     0
  0
SCALE
  5
68
102
{ACAD_REACTORS
330
47
102
}
330
47
100
AcDbScale
 70
     0
300
1'-0" = 1'-0"
140
12.0
141
12.0
290
     0
  0
TABLESTYLE
  5
6A
102
{ACAD_REACTORS
330
69
102
}
102
{ACAD_XDICTIONARY
360
1D1
102
}
330
69
100
AcDbTableStyle
  3
Standard
 70
     0
 71
     0
 40
0.06
 41
0.06
280
     0
281
     0
  7
Standard
140
0.18
170
     2
 62
     0
 63
   257
283
     0
 90
        4
 91
        0
  1

274
    -2
284
     1
 64
     0
275
    -2
285
     1
 65
     0
276
    -2
286
     1
 66
     0
277
    -2
287
     1
 67
     0
278
    -2
288
     1
 68
     0
279
    -2
289
     1
 69
     0
  7
Standard
140
0.25
170
     5
 62
     0
 63
   257
283
     0
 90
        4
 91
        0
  1

274
    -2
284
     1
 64
     0
275
    -2
285
     1
 65
     0
276
    -2
286
     1
 66
     0
277
    -2
287
     1
 67
     0
278
    -2
288
     1
 68
     0
279
    -2
289
     1
 69
     0
  7
Standard
140
0.18
170
     5
 62
     0
 63
   257
283
     0
 90
        4
 91
        0
  1

274
    -2
284
     1
 64
     0
275
    -2
285
     1
 65
     0
276
    -2
286
     1
 66
     0
277
    -2
287
     1
 67
     0
278
    -2
288
     1
 68
     0
279
    -2
289
     1
 69
     0
  0
VISUALSTYLE
  5
2F
102
{ACAD_REACTORS
330
2A
102
}
330
2A
100
AcDbVisualStyle
  2
2dWireframe
 70
     4
177
     3
291
     0
 70
    58
 90
        0
176
     1
 90
        2
176
     1
 90
        0
176
     1
 90
        0
176
     1
 40
0.6
176
     1
 40
30.0
176
     1
 62
     7
420
 16777215
176
     1
 90
        1
176
     1
 90
        4
176
     1
 62
     7
176
     1
 62
   257
176
     1
 90
        1
176
     1
 90
        1
176
     1
 40
1.0
176
     1
 90
        0
176
     1
 62
   257
176
     1
 40
1.0
176
     1
 90
        1
176
     1
 90
        6
176
     1
 90
        2
176
     1
 62
     7
176
     1
 90
        5
176
     1
 90
        0
176
     1
 90
        0
176
     1
290
     0
176
     1
 90
        1
176
     1
 40
0.0
176
     1
 90
        0
176
     1
290
     1
176
     1
290
     1
176
     1
290
     0
176
     1
290
     0
176
     1
290
     0
176
     1
290
     0
176
     1
290
     0
176
     1
290
     0
176
     1
290
     0
176
     1
 90
       50
176
     1
 40
0.0
176
     1
 40
1.0
176
     1
 90
        0
176
     1
 62
    18
420
        0
176
     1
 90
       50
176
     1
 90
        3
176
     1
 62
     5
420
      255
176
     1
290
     0
176
     1
 90
       50
176
     1
 90
       50
176
     1
 90
       50
176
     1
290
     0
176
     1
 90
       50
176
     1
 62
   256
176
     0
 40
1.0
176
     0
 90
        2
176
     1
  1
strokes_ogs.tif
176
     1
290
     0
176
     1
 40
1.0
176
     1
 40
1.0
176
     1
  0
VISUALSTYLE
  5
32
102
{ACAD_REACTORS
330
2A
102
}
330
2A
100
AcDbVisualStyle
  2
Basic
 70
     7
177
     3
291
     1
 70
    58
 90
        1
176
     1
 90
        0
176
     1
 90
        1
176
     1
 90
        0
176
     1
 40
0.6
176
     1
 40
30.0
176
     1
 62
     7
420
 16777215
176
     1
 90
        0
176
     1
 90
        4
176
     1
 62
     7
176
     1
 62
   257
176
     1
 90
        1
176
     1
 90
        1
176
     1
 40
1.0
176
     1
 90
        8
176
     1
 62
     7
176
     1
 40
1.0
176
     1
 90
        1
176
     1
 90
        6
176
     1
 90
        2
176
     1
 62
     7
176
     1
 90
        5
176
     1
 90
        0
176
     1
 90
        0
176
     1
290
     0
176
     1
 90
        1
176
     1
 40
0.0
176
     1
 90
        0
176
     1
290
     0
176
     1
290
     1
176
     1
290
     1
176
     1
290
     0
176
     1
290
     0
176
     1
290
     0
176
     1
290
     0
176
     1
290
     0
176
     1
290
     0
176
     1
 90
       50
176
     1
 40
0.0
176
     1
 40
1.0
176
     1
 90
        0
176
     1
 62
    18
420
        0
176
     1
 90
       50
176
     1
 90
        3
176
     1
 62
     5
420
      255
176
     1
290
     0
176
     1
 90
       50
176
     1
 90
       50
176
     1
 90
       50
176
     1
290
     0
176
     1
 90
       50
176
     1
 62
   256
176
     0
 40
1.0
176
     0
 90
        2
176
     1
  1
strokes_ogs.tif
176
     1
290
     0
176
     1
 40
1.0
176
     1
 40
1.0
176
     1
  0
VISUALSTYLE
  5
36
102
{ACAD_REACTORS
330
2A
102
}
330
2A
100
AcDbVisualStyle
  2
Brighten
 70
    12
177
     3
291
     1
 70
    58
 90
        2
176
     1
 90
        2
176
     1
 90
        0
176
     1
 90
        0
176
     1
 40
0.6
176
     1
 40
30.0
176
     1
 62
     7
420
 16777215
176
     1
 90
        1
176
     1
 90
        4
176
     1
 62
     7
176
     1
 62
   257
176
     1
 90
        1
176
     1
 90
        1
176
     1
 40
1.0
176
     1
 90
        8
176
     1
 62
     7
176
     1
 40
1.0
176
     1
 90
        1
176
     1
 90
        6
176
     1
 90
        2
176
     1
 62
     7
176
     1
 90
        5
176
     1
 90
        0
176
     1
 90
        0
176
     1
290
     0
176
     1
 90
        1
176
     1
 40
50.0
176
     1
 90
        0
176
     1
290
     0
176
     1
290
     1
176
     1
290
     1
176
     1
290
     0
176
     1
290
     0
176
     1
290
     0
176
     1
290
     0
176
     1
290
     0
176
     1
290
     0
176
     1
 90
       50
176
     1
 40
0.0
176
     1
 40
1.0
176
     1
 90
        0
176
     1
 62
    18
420
        0
176
     1
 90
       50
176
     1
 90
        3
176
     1
 62
     5
420
      255
176
     1
290
     0
176
     1
 90
       50
176
     1
 90
       50
176
     1
 90
       50
176
     1
290
     0
176
     1
 90
       50
176
     1
 62
   256
176
     0
 40
1.0
176
     0
 90
        2
176
     1
  1
strokes_ogs.tif
176
     1
290
     0
176
     1
 40
1.0
176
     1
 40
1.0
176
     1
  0
VISUALSTYLE
  5
3A
102
{ACAD_REACTORS
330
2A
102
}
330
2A
100
AcDbVisualStyle
  2
ColorChange
 70
    16
177
     3
291
     1
 70
    58
 90
        2
176
     1
 90
        2
176
     1
 90
        3
176
     1
 90
        0
176
     1
 40
0.6
176
     1
 40
30.0
176
     1
 62
     8
420
  8421504
176
     1
 90
        1
176
     1
 90
        4
176
     1
 62
     7
176
     1
 62
   257
176
     1
 90
        1
176
     1
 90
        1
176
     1
 40
1.0
176
     1
 90
        8
176
     1
 62
     8
420
  8421504
176
     1
 40
1.0
176
     1
 90
        1
176
     1
 90
        6
176
     1
 90
        2
176
     1
 62
     7
176
     1
 90
        5
176
     1
 90
        0
176
     1
 90
        0
176
     1
290
     0
176
     1
 90
        1
176
     1
 40
0.0
176
     1
 90
        0
176
     1
290
     0
176
     1
290
     1
176
     1
290
     1
176
     1
290
     0
176
     1
290
     0
176
     1
290
     0
176
     1
290
     0
176
     1
290
     0
176
     1
290
     0
176
     1
 90
       50
176
     1
 40
0.0
176
     1
 40
1.0
176
     1
 90
        0
176
     1
 62
    18
420
        0
176
     1
 90
       50
176
     1
 90
        3
176
     1
 62
     5
420
      255
176
     1
290
     0
176
     1
 90
       50
176
     1
 90
       50
176
     1
 90
       50
176
     1
290
     0
176
     1
 90
       50
176
     1
 62
   256
176
     0
 40
1.0
176
     0
 90
        2
176
     1
  1
strokes_ogs.tif
176
     1
290
     0
176
     1
 40
1.0
176
     1
 40
1.0
176
     1
  0
VISUALSTYLE
  5
34
102
{ACAD_REACTORS
330
2A
102
}
330
2A
100
AcDbVisualStyle
  2
Conceptual
 70
     9
177
     3
291
     0
 70
    58
 90
        3
176
     1
 90
        2
176
     1
 90
        0
176
     1
 90
        0
176
     1
 40
0.6
176
     1
 40
30.0
176
     1
 62
     7
420
 16777215
176
     1
 90
        2
176
     1
 90
        2
176
     1
 62
     7
176
     1
 62
   257
176
     1
 90
        1
176
     1
 90
        1
176
     1
 40
179.0
176
     1
 90
        8
176
     1
 62
     7
176
     1
 40
1.0
176
     1
 90
        1
176
     1
 90
        6
176
     1
 90
        2
176
     1
 62
     7
176
     1
 90
        3
176
     1
 90
        0
176
     1
 90
        0
176
     1
290
     0
176
     1
 90
        1
176
     1
 40
0.0
176
     1
 90
        0
176
     1
290
     0
176
     1
290
     1
176
     1
290
     1
176
     1
290
     0
176
     1
290
     0
176
     1
290
     0
176
     1
290
     0
176
     1
290
     0
176
     1
290
     0
176
     1
 90
       50
176
     1
 40
0.0
176
     1
 40
1.0
176
     1
 90
        0
176
     1
 62
    18
420
        0
176
     1
 90
       50
176
     1
 90
        3
176
     1
 62
     5
420
      255
176
     1
290
     0
176
     1
 90
       50
176
     1
 90
       50
176
     1
 90
       50
176
     1
290
     0
176
     1
 90
       50
176
     1
 62
   256
176
     0
 40
1.0
176
     0
 90
        2
176
     1
  1
strokes_ogs.tif
176
     1
290
     0
176
     1
 40
1.0
176
     1
 40
1.0
176
     1
  0
VISUALSTYLE
  5
35
102
{ACAD_REACTORS
330
2A
102
}
330
2A
100
AcDbVisualStyle
  2
Dim
 70
    11
177
     3
291
     1
 70
    58
 90
        2
176
     1
 90
        2
176
     1
 90
        0
176
     1
 90
        0
176
     1
 40
0.6
176
     1
 40
30.0
176
     1
 62
     7
420
 16777215
176
     1
 90
        1
176
     1
 90
        4
176
     1
 62
     7
176
     1
 62
   257
176
     1
 90
        1
176
     1
 90
        1
176
     1
 40
1.0
176
     1
 90
        8
176
     1
 62
     7
176
     1
 40
1.0
176
     1
 90
        1
176
     1
 90
        6
176
     1
 90
        2
176
     1
 62
     7
176
     1
 90
        5
176
     1
 90
        0
176
     1
 90
        0
176
     1
290
     0
176
     1
 90
        1
176
     1
 40
-50.0
176
     1
 90
        0
176
     1
290
     0
176
     1
290
     1
176
     1
290
     1
176
     1
290
     0
176
     1
290
     0
176
     1
290
     0
176
     1
290
     0
176
     1
290
     0
176
     1
290
     0
176
     1
 90
       50
176
     1
 40
0.0
176
     1
 40
1.0
176
     1
 90
        0
176
     1
 62
    18
420
        0
176
     1
 90
       50
176
     1
 90
        3
176
     1
 62
     5
420
      255
176
     1
290
     0
176
     1
 90
       50
176
     1
 90
       50
176
     1
 90
       50
176
     1
290
     0
176
     1
 90
       50
176
     1
 62
   256
176
     0
 40
1.0
176
     0
 90
        2
176
     1
  1
strokes_ogs.tif
176
     1
290
     0
176
     1
 40
1.0
176
     1
 40
1.0
176
     1
  0
VISUALSTYLE
  5
3D
102
{ACAD_REACTORS
330
2A
102
}
330
2A
100
AcDbVisualStyle
  2
EdgeColorOff
 70
    22
177
     3
291
     1
 70
    58
 90
        2
176
     0
 90
        2
176
     0
 90
        0
176
     0
 90
        0
176
     0
 40
0.6
176
     0
 40
30.0
176
     0
 62
     7
420
 16777215
176
     0
 90
        1
176
     0
 90
        4
176
     0
 62
     7
176
     0
 62
   257
176
     0
 90
        1
176
     0
 90
        1
176
     0
 40
1.0
176
     0
 90
        8
176
     2
 62
     7
176
     0
 40
1.0
176
     0
 90
        1
176
     0
 90
        6
176
     0
 90
        2
176
     0
 62
     7
176
     0
 90
        5
176
     0
 90
        0
176
     0
 90
        0
176
     0
290
     0
176
     0
 90
        1
176
     0
 40
0.0
176
     0
 90
        0
176
     0
290
     0
176
     0
290
     1
176
     0
290
     1
176
     0
290
     0
176
     0
290
     0
176
     0
290
     0
176
     0
290
     0
176
     0
290
     0
176
     0
290
     0
176
     0
 90
       50
176
     0
 40
0.0
176
     0
 40
1.0
176
     0
 90
        0
176
     0
 62
    18
420
        0
176
     0
 90
       50
176
     0
 90
        3
176
     0
 62
     5
420
      255
176
     0
290
     0
176
     0
 90
       50
176
     0
 90
       50
176
     0
 90
       50
176
     0
290
     0
176
     0
 90
       50
176
     0
 62
   256
176
     0
 40
1.0
176
     0
 90
        2
176
     0
  1
strokes_ogs.tif
176
     0
290
     0
176
     0
 40
1.0
176
     0
 40
1.0
176
     0
  0
VISUALSTYLE
  5
39
102
{ACAD_REACTORS
330
2A
102
}
330
2A
100
AcDbVisualStyle
  2
Facepattern
 70
    15
177
     3
291
     1
 70
    58
 90
        2
176
     1
 90
        2
176
     1
 90
        0
176
     1
 90
        0
176
     1
 40
0.6
176
     1
 40
30.0
176
     1
 62
     7
420
 16777215
176
     1
 90
        1
176
     1
 90
        4
176
     1
 62
     7
176
     1
 62
   257
176
     1
 90
        1
176
     1
 90
        1
176
     1
 40
1.0
176
     1
 90
        8
176
     1
 62
     7
176
     1
 40
1.0
176
     1
 90
        1
176
     1
 90
        6
176
     1
 90
        2
176
     1
 62
     7
176
     1
 90
        5
176
     1
 90
        0
176
     1
 90
        0
176
     1
290
     0
176
     1
 90
        1
176
     1
 40
0.0
176
     1
 90
        0
176
     1
290
     0
176
     1
290
     1
176
     1
290
     1
176
     1
290
     0
176
     1
290
     0
176
     1
290
     0
176
     1
290
     0
176
     1
290
     0
176
     1
290
     0
176
     1
 90
       50
176
     1
 40
0.0
176
     1
 40
1.0
176
     1
 90
        0
176
     1
 62
    18
420
        0
176
     1
 90
       50
176
     1
 90
        3
176
     1
 62
     5
420
      255
176
     1
290
     0
176
     1
 90
       50
176
     1
 90
       50
176
     1
 90
       50
176
     1
290
     0
176
     1
 90
       50
176
     1
 62
   256
176
     0
 40
1.0
176
     0
 90
        2
176
     1
  1
strokes_ogs.tif
176
     1
290
     0
176
     1
 40
1.0
176
     1
 40
1.0
176
     1
  0
VISUALSTYLE
  5
2B
102
{ACAD_REACTORS
330
2A
102
}
330
2A
100
AcDbVisualStyle
  2
Flat
 70
     0
177
     3
291
     1
 70
    58
 90
        2
176
     1
 90
        1
176
     1
 90
        1
176
     1
 90
        2
176
     1
 40
0.6
176
     1
 40
30.0
176
     1
 62
     7
420
 16777215
176
     1
 90
        0
176
     1
 90
        0
176
     1
 62
     7
176
     1
 62
   257
176
     1
 90
        1
176
     1
 90
        1
176
     1
 40
1.0
176
     1
 90
        8
176
     1
 62
     7
176
     1
 40
1.0
176
     1
 90
        1
176
     1
 90
        6
176
     1
 90
        2
176
     1
 62
     7
176
     1
 90
        5
176
     1
 90
        0
176
     1
 90
        0
176
     1
290
     0
176
     1
 90
       13
176
     1
 40
0.0
176
     1
 90
        0
176
     1
290
     0
176
     1
290
     1
176
     1
290
     1
176
     1
290
     0
176
     1
290
     0
176
     1
290
     0
176
     1
290
     0
176
     1
290
     0
176
     1
290
     0
176
     1
 90
       50
176
     1
 40
0.0
176
     1
 40
1.0
176
     1
 90
        0
176
     1
 62
    18
420
        0
176
     1
 90
       50
176
     1
 90
        3
176
     1
 62
     5
420
      255
176
     1
290
     0
176
     1
 90
       50
176
     1
 90
       50
176
     1
 90
       50
176
     1
290
     0
176
     1
 90
       50
176
     1
 62
   256
176
     0
 40
1.0
176
     0
 90
        2
176
     1
  1
strokes_ogs.tif
176
     1
290
     0
176
     1
 40
1.0
176
     1
 40
1.0
176
     1
  0
VISUALSTYLE
  5
2C
102
{ACAD_REACTORS
330
2A
102
}
330
2A
100
AcDbVisualStyle
  2
FlatWithEdges
 70
     1
177
     3
291
     1
 70
    58
 90
        2
176
     1
 90
        1
176
     1
 90
        1
176
     1
 90
        2
176
     1
 40
0.6
176
     1
 40
30.0
176
     1
 62
     7
420
 16777215
176
     1
 90
        1
176
     1
 90
        0
176
     1
 62
     7
176
     1
 62
   257
176
     1
 90
        1
176
     1
 90
        1
176
     1
 40
1.0
176
     1
 90
        0
176
     1
 62
   257
176
     1
 40
1.0
176
     1
 90
        1
176
     1
 90
        6
176
     1
 90
        2
176
     1
 62
     7
176
     1
 90
        5
176
     1
 90
        0
176
     1
 90
        0
176
     1
290
     0
176
     1
 90
       13
176
     1
 40
0.0
176
     1
 90
        0
176
     1
290
     0
176
     1
290
     1
176
     1
290
     1
176
     1
290
     0
176
     1
290
     0
176
     1
290
     0
176
     1
290
     0
176
     1
290
     0
176
     1
290
     0
176
     1
 90
       50
176
     1
 40
0.0
176
     1
 40
1.0
176
     1
 90
        0
176
     1
 62
    18
420
        0
176
     1
 90
       50
176
     1
 90
        3
176
     1
 62
     5
420
      255
176
     1
290
     0
176
     1
 90
       50
176
     1
 90
       50
176
     1
 90
       50
176
     1
290
     0
176
     1
 90
       50
176
     1
 62
   256
176
     0
 40
1.0
176
     0
 90
        2
176
     1
  1
strokes_ogs.tif
176
     1
290
     0
176
     1
 40
1.0
176
     1
 40
1.0
176
     1
  0
VISUALSTYLE
  5
2D
102
{ACAD_REACTORS
330
2A
102
}
330
2A
100
AcDbVisualStyle
  2
Gouraud
 70
     2
177
     3
291
     1
 70
    58
 90
        2
176
     1
 90
        2
176
     1
 90
        1
176
     1
 90
        2
176
     1
 40
0.6
176
     1
 40
30.0
176
     1
 62
     7
420
 16777215
176
     1
 90
        0
176
     1
 90
        0
176
     1
 62
     7
176
     1
 62
   257
176
     1
 90
        1
176
     1
 90
        1
176
     1
 40
1.0
176
     1
 90
        0
176
     1
 62
     7
176
     1
 40
1.0
176
     1
 90
        1
176
     1
 90
        6
176
     1
 90
        2
176
     1
 62
     7
176
     1
 90
        5
176
     1
 90
        0
176
     1
 90
        0
176
     1
290
     0
176
     1
 90
       13
176
     1
 40
0.0
176
     1
 90
        0
176
     1
290
     0
176
     1
290
     1
176
     1
290
     1
176
     1
290
     0
176
     1
290
     0
176
     1
290
     0
176
     1
290
     0
176
     1
290
     0
176
     1
290
     0
176
     1
 90
       50
176
     1
 40
0.0
176
     1
 40
1.0
176
     1
 90
        0
176
     1
 62
    18
420
        0
176
     1
 90
       50
176
     1
 90
        3
176
     1
 62
     5
420
      255
176
     1
290
     0
176
     1
 90
       50
176
     1
 90
       50
176
     1
 90
       50
176
     1
290
     0
176
     1
 90
       50
176
     1
 62
   256
176
     0
 40
1.0
176
     0
 90
        2
176
     1
  1
strokes_ogs.tif
176
     1
290
     0
176
     1
 40
1.0
176
     1
 40
1.0
176
     1
  0
VISUALSTYLE
  5
2E
102
{ACAD_REACTORS
330
2A
102
}
330
2A
100
AcDbVisualStyle
  2
GouraudWithEdges
 70
     3
177
     3
291
     1
 70
    58
 90
        2
176
     1
 90
        2
176
     1
 90
        1
176
     1
 90
        2
176
     1
 40
0.6
176
     1
 40
30.0
176
     1
 62
     7
420
 16777215
176
     1
 90
        1
176
     1
 90
        0
176
     1
 62
     7
176
     1
 62
   257
176
     1
 90
        1
176
     1
 90
        1
176
     1
 40
1.0
176
     1
 90
        0
176
     1
 62
   257
176
     1
 40
1.0
176
     1
 90
        1
176
     1
 90
        6
176
     1
 90
        2
176
     1
 62
     7
176
     1
 90
        5
176
     1
 90
        0
176
     1
 90
        0
176
     1
290
     0
176
     1
 90
       13
176
     1
 40
0.0
176
     1
 90
        0
176
     1
290
     0
176
     1
290
     1
176
     1
290
     1
176
     1
290
     0
176
     1
290
     0
176
     1
290
     0
176
     1
290
     0
176
     1
290
     0
176
     1
290
     0
176
     1
 90
       50
176
     1
 40
0.0
176
     1
 40
1.0
176
     1
 90
        0
176
     1
 62
    18
420
        0
176
     1
 90
       50
176
     1
 90
        3
176
     1
 62
     5
420
      255
176
     1
290
     0
176
     1
 90
       50
176
     1
 90
       50
176
     1
 90
       50
176
     1
290
     0
176
     1
 90
       50
176
     1
 62
   256
176
     0
 40
1.0
176
     0
 90
        2
176
     1
  1
strokes_ogs.tif
176
     1
290
     0
176
     1
 40
1.0
176
     1
 40
1.0
176
     1
  0
VISUALSTYLE
  5
31
102
{ACAD_REACTORS
330
2A
102
}
330
2A
100
AcDbVisualStyle
  2
Hidden
 70
     6
177
     3
291
     0
 70
    58
 90
        1
176
     1
 90
        2
176
     1
 90
        2
176
     1
 90
        0
176
     1
 40
0.6
176
     1
 40
30.0
176
     1
 62
     7
420
 16777215
176
     1
 90
        2
176
     1
 90
        2
176
     1
 62
     7
176
     1
 62
   257
176
     1
 90
        2
176
     1
 90
        1
176
     1
 40
40.0
176
     1
 90
        0
176
     1
 62
   257
176
     1
 40
1.0
176
     1
 90
        1
176
     1
 90
        6
176
     1
 90
        2
176
     1
 62
     7
176
     1
 90
        3
176
     1
 90
        0
176
     1
 90
        0
176
     1
290
     0
176
     1
 90
        1
176
     1
 40
0.0
176
     1
 90
        0
176
     1
290
     0
176
     1
290
     1
176
     1
290
     1
176
     1
290
     0
176
     1
290
     0
176
     1
290
     0
176
     1
290
     0
176
     1
290
     0
176
     1
290
     0
176
     1
 90
       50
176
     1
 40
0.0
176
     1
 40
1.0
176
     1
 90
        0
176
     1
 62
    18
420
        0
176
     1
 90
       50
176
     1
 90
        3
176
     1
 62
     5
420
      255
176
     1
290
     0
176
     1
 90
       50
176
     1
 90
       50
176
     1
 90
       50
176
     1
290
     0
176
     1
 90
       50
176
     1
 62
   256
176
     0
 40
1.0
176
     0
 90
        2
176
     1
  1
strokes_ogs.tif
176
     1
290
     0
176
     1
 40
1.0
176
     1
 40
1.0
176
     1
  0
VISUALSTYLE
  5
3B
102
{ACAD_REACTORS
330
2A
102
}
330
2A
100
AcDbVisualStyle
  2
JitterOff
 70
    20
177
     3
291
     1
 70
    58
 90
        2
176
     0
 90
        2
176
     0
 90
        0
176
     0
 90
        0
176
     0
 40
0.6
176
     0
 40
30.0
176
     0
 62
     7
420
 16777215
176
     0
 90
        1
176
     0
 90
        4
176
     0
 62
     7
176
     0
 62
   257
176
     0
 90
        1
176
     0
 90
        1
176
     0
 40
1.0
176
     0
 90
       10
176
     2
 62
     7
176
     0
 40
1.0
176
     0
 90
        1
176
     0
 90
        6
176
     0
 90
        2
176
     0
 62
     7
176
     0
 90
        5
176
     0
 90
        0
176
     0
 90
        0
176
     0
290
     0
176
     0
 90
        1
176
     0
 40
0.0
176
     0
 90
        0
176
     0
290
     0
176
     0
290
     1
176
     0
290
     1
176
     0
290
     0
176
     0
290
     0
176
     0
290
     0
176
     0
290
     0
176
     0
290
     0
176
     0
290
     0
176
     0
 90
       50
176
     0
 40
0.0
176
     0
 40
1.0
176
     0
 90
        0
176
     0
 62
    18
420
        0
176
     0
 90
       50
176
     0
 90
        3
176
     0
 62
     5
420
      255
176
     0
290
     0
176
     0
 90
       50
176
     0
 90
       50
176
     0
 90
       50
176
     0
290
     0
176
     0
 90
       50
176
     0
 62
   256
176
     0
 40
1.0
176
     0
 90
        2
176
     0
  1
strokes_ogs.tif
176
     0
290
     0
176
     0
 40
1.0
176
     0
 40
1.0
176
     0
  0
VISUALSTYLE
  5
38
102
{ACAD_REACTORS
330
2A
102
}
330
2A
100
AcDbVisualStyle
  2
Linepattern
 70
    14
177
     3
291
     1
 70
    58
 90
        2
176
     1
 90
        2
176
     1
 90
        0
176
     1
 90
        0
176
     1
 40
0.6
176
     1
 40
30.0
176
     1
 62
     7
420
 16777215
176
     1
 90
        1
176
     1
 90
        4
176
     1
 62
     7
176
     1
 62
   257
176
     1
 90
        7
176
     1
 90
        7
176
     1
 40
1.0
176
     1
 90
        8
176
     1
 62
     7
176
     1
 40
1.0
176
     1
 90
        1
176
     1
 90
        6
176
     1
 90
        2
176
     1
 62
     7
176
     1
 90
        5
176
     1
 90
        0
176
     1
 90
        0
176
     1
290
     0
176
     1
 90
        1
176
     1
 40
0.0
176
     1
 90
        0
176
     1
290
     0
176
     1
290
     1
176
     1
290
     1
176
     1
290
     0
176
     1
290
     0
176
     1
290
     0
176
     1
290
     0
176
     1
290
     0
176
     1
290
     0
176
     1
 90
       50
176
     1
 40
0.0
176
     1
 40
1.0
176
     1
 90
        0
176
     1
 62
    18
420
        0
176
     1
 90
       50
176
     1
 90
        3
176
     1
 62
     5
420
      255
176
     1
290
     0
176
     1
 90
       50
176
     1
 90
       50
176
     1
 90
       50
176
     1
290
     0
176
     1
 90
       50
176
     1
 62
   256
176
     0
 40
1.0
176
     0
 90
        2
176
     1
  1
strokes_ogs.tif
176
     1
290
     0
176
     1
 40
1.0
176
     1
 40
1.0
176
     1
  0
VISUALSTYLE
  5
3C
102
{ACAD_REACTORS
330
2A
102
}
330
2A
100
AcDbVisualStyle
  2
OverhangOff
 70
    21
177
     3
291
     1
 70
    58
 90
        2
176
     0
 90
        2
176
     0
 90
        0
176
     0
 90
        0
176
     0
 40
0.6
176
     0
 40
30.0
176
     0
 62
     7
420
 16777215
176
     0
 90
        1
176
     0
 90
        4
176
     0
 62
     7
176
     0
 62
   257
176
     0
 90
        1
176
     0
 90
        1
176
     0
 40
1.0
176
     0
 90
        9
176
     2
 62
     7
176
     0
 40
1.0
176
     0
 90
        1
176
     0
 90
        6
176
     0
 90
        2
176
     0
 62
     7
176
     0
 90
        5
176
     0
 90
        0
176
     0
 90
        0
176
     0
290
     0
176
     0
 90
        1
176
     0
 40
0.0
176
     0
 90
        0
176
     0
290
     0
176
     0
290
     1
176
     0
290
     1
176
     0
290
     0
176
     0
290
     0
176
     0
290
     0
176
     0
290
     0
176
     0
290
     0
176
     0
290
     0
176
     0
 90
       50
176
     0
 40
0.0
176
     0
 40
1.0
176
     0
 90
        0
176
     0
 62
    18
420
        0
176
     0
 90
       50
176
     0
 90
        3
176
     0
 62
     5
420
      255
176
     0
290
     0
176
     0
 90
       50
176
     0
 90
       50
176
     0
 90
       50
176
     0
290
     0
176
     0
 90
       50
176
     0
 62
   256
176
     0
 40
1.0
176
     0
 90
        2
176
     0
  1
strokes_ogs.tif
176
     0
290
     0
176
     0
 40
1.0
176
     0
 40
1.0
176
     0
  0
VISUALSTYLE
  5
33
102
{ACAD_REACTORS
330
2A
102
}
330
2A
100
AcDbVisualStyle
  2
Realistic
 70
     8
177
     3
291
     0
 70
    58
 90
        2
176
     1
 90
        3
176
     1
 90
        0
176
     1
 90
        2
176
     1
 40
0.6
176
     1
 40
30.0
176
     1
 62
     7
420
 16777215
176
     1
 90
        0
176
     1
 90
        0
176
     1
 62
     7
176
     1
 62
   257
176
     1
 90
        1
176
     1
 90
        1
176
     1
 40
1.0
176
     1
 90
        8
176
     1
 62
   257
176
     1
 40
1.0
176
     1
 90
        1
176
     1
 90
        6
176
     1
 90
        2
176
     1
 62
     7
176
     1
 90
        3
176
     1
 90
        0
176
     1
 90
        0
176
     1
290
     0
176
     1
 90
       13
176
     1
 40
0.0
176
     1
 90
        0
176
     1
290
     0
176
     1
290
     1
176
     1
290
     1
176
     1
290
     0
176
     1
290
     0
176
     1
290
     0
176
     1
290
     0
176
     1
290
     0
176
     1
290
     0
176
     1
 90
       50
176
     1
 40
0.0
176
     1
 40
1.0
176
     1
 90
        0
176
     1
 62
    18
420
        0
176
     1
 90
       50
176
     1
 90
        3
176
     1
 62
     5
420
      255
176
     1
290
     0
176
     1
 90
       50
176
     1
 90
       50
176
     1
 90
       50
176
     1
290
     0
176
     1
 90
       50
176
     1
 62
   256
176
     0
 40
1.0
176
     0
 90
        2
176
     1
  1
strokes_ogs.tif
176
     1
290
     0
176
     1
 40
1.0
176
     1
 40
1.0
176
     1
  0
VISUALSTYLE
  5
42
102
{ACAD_REACTORS
330
2A
102
}
330
2A
100
AcDbVisualStyle
  2
Shaded
 70
    27
177
     3
291
     0
 70
    58
 90
        2
176
     1
 90
        2
176
     1
 90
        1
176
     1
 90
        2
176
     1
 40
0.6
176
     1
 40
30.0
176
     1
 62
     7
420
 16777215
176
     1
 90
        0
176
     1
 90
        4
176
     1
 62
     7
176
     1
 62
   257
176
     1
 90
        1
176
     1
 90
        1
176
     1
 40
1.0
176
     1
 90
        8
176
     1
 62
   257
176
     1
 40
1.0
176
     1
 90
        1
176
     1
 90
        6
176
     1
 90
        2
176
     1
 62
     8
420
  7895160
176
     1
 90
        3
176
     1
 90
        0
176
     1
 90
        0
176
     1
290
     0
176
     1
 90
        5
176
     1
 40
0.0
176
     1
 90
        0
176
     1
290
     0
176
     1
290
     1
176
     1
290
     1
176
     1
290
     0
176
     1
290
     0
176
     1
290
     0
176
     1
290
     0
176
     1
290
     0
176
     1
290
     0
176
     1
 90
       50
176
     1
 40
0.0
176
     1
 40
1.0
176
     1
 90
        0
176
     1
 62
    18
420
        0
176
     1
 90
       50
176
     1
 90
        3
176
     1
 62
     5
420
      255
176
     1
290
     0
176
     1
 90
       50
176
     1
 90
       50
176
     1
 90
       50
176
     1
290
     0
176
     1
 90
       50
176
     1
 62
   256
176
     0
 40
1.0
176
     0
 90
        2
176
     1
  1
strokes_ogs.tif
176
     1
290
     0
176
     1
 40
1.0
176
     1
 40
1.0
176
     1
  0
VISUALSTYLE
  5
41
102
{ACAD_REACTORS
330
2A
102
}
330
2A
100
AcDbVisualStyle
  2
Shaded with edges
 70
    26
177
     3
291
     0
 70
    58
 90
        2
176
     1
 90
        2
176
     1
 90
        1
176
     1
 90
        2
176
     1
 40
0.6
176
     1
 40
30.0
176
     1
 62
     7
420
 16777215
176
     1
 90
        1
176
     1
 90
       10
176
     1
 62
     7
176
     1
 62
   257
176
     1
 90
        2
176
     1
 90
        1
176
     1
 40
1.0
176
     1
 90
        8
176
     1
 62
   257
176
     1
 40
1.0
176
     1
 90
        1
176
     1
 90
        6
176
     1
 90
        2
176
     1
 62
     7
176
     1
 90
        3
176
     1
 90
        0
176
     1
 90
        0
176
     1
290
     0
176
     1
 90
        5
176
     1
 40
0.0
176
     1
 90
        0
176
     1
290
     0
176
     1
290
     1
176
     1
290
     1
176
     1
290
     0
176
     1
290
     0
176
     1
290
     0
176
     1
290
     0
176
     1
290
     0
176
     1
290
     0
176
     1
 90
       50
176
     1
 40
0.0
176
     1
 40
1.0
176
     1
 90
        0
176
     1
 62
    18
420
        0
176
     1
 90
       50
176
     1
 90
        3
176
     1
 62
     5
420
      255
176
     1
290
     0
176
     1
 90
       50
176
     1
 90
       50
176
     1
 90
       50
176
     1
290
     0
176
     1
 90
       50
176
     1
 62
   256
176
     0
 40
1.0
176
     0
 90
        2
176
     1
  1
strokes_ogs.tif
176
     1
290
     0
176
     1
 40
1.0
176
     1
 40
1.0
176
     1
  0
VISUALSTYLE
  5
3E
102
{ACAD_REACTORS
330
2A
102
}
330
2A
100
AcDbVisualStyle
  2
Shades of Gray
 70
    23
177
     3
291
     0
 70
    58
 90
        2
176
     1
 90
        2
176
     1
 90
        3
176
     1
 90
        0
176
     1
 40
0.6
176
     1
 40
30.0
176
     1
 62
     7
420
 16777215
176
     1
 90
        2
176
     1
 90
        2
176
     1
 62
     7
176
     1
 62
     7
176
     1
 90
        1
176
     1
 90
        1
176
     1
 40
40.0
176
     1
 90
        8
176
     1
 62
     7
176
     1
 40
1.0
176
     1
 90
        1
176
     1
 90
        6
176
     1
 90
        2
176
     1
 62
     7
176
     1
 90
        3
176
     1
 90
        0
176
     1
 90
        0
176
     1
290
     0
176
     1
 90
        1
176
     1
 40
0.0
176
     1
 90
        0
176
     1
290
     0
176
     1
290
     1
176
     1
290
     1
176
     1
290
     0
176
     1
290
     0
176
     1
290
     0
176
     1
290
     0
176
     1
290
     0
176
     1
290
     0
176
     1
 90
       50
176
     1
 40
0.0
176
     1
 40
1.0
176
     1
 90
        0
176
     1
 62
    18
420
        0
176
     1
 90
       50
176
     1
 90
        3
176
     1
 62
     5
420
      255
176
     1
290
     0
176
     1
 90
       50
176
     1
 90
       50
176
     1
 90
       50
176
     1
290
     0
176
     1
 90
       50
176
     1
 62
   256
176
     0
 40
1.0
176
     0
 90
        2
176
     1
  1
strokes_ogs.tif
176
     1
290
     0
176
     1
 40
1.0
176
     1
 40
1.0
176
     1
  0
VISUALSTYLE
  5
3F
102
{ACAD_REACTORS
330
2A
102
}
330
2A
100
AcDbVisualStyle
  2
Sketchy
 70
    24
177
     3
291
     0
 70
    58
 90
        1
176
     1
 90
        2
176
     1
 90
        2
176
     1
 90
        0
176
     1
 40
0.6
176
     1
 40
30.0
176
     1
 62
     7
420
 16777215
176
     1
 90
        2
176
     1
 90
        2
176
     1
 62
     7
176
     1
 62
     7
176
     1
 90
        1
176
     1
 90
        1
176
     1
 40
40.0
176
     1
 90
       11
176
     1
 62
     7
176
     1
 40
1.0
176
     1
 90
        1
176
     1
 90
        6
176
     1
 90
        2
176
     1
 62
     7
176
     1
 90
        6
176
     1
 90
        0
176
     1
 90
        0
176
     1
290
     0
176
     1
 90
        1
176
     1
 40
0.0
176
     1
 90
        0
176
     1
290
     0
176
     1
290
     1
176
     1
290
     1
176
     1
290
     0
176
     1
290
     0
176
     1
290
     0
176
     1
290
     0
176
     1
290
     0
176
     1
290
     0
176
     1
 90
       50
176
     1
 40
0.0
176
     1
 40
1.0
176
     1
 90
        0
176
     1
 62
    18
420
        0
176
     1
 90
       50
176
     1
 90
        3
176
     1
 62
     5
420
      255
176
     1
290
     0
176
     1
 90
       50
176
     1
 90
       50
176
     1
 90
       50
176
     1
290
     0
176
     1
 90
       50
176
     1
 62
   256
176
     0
 40
1.0
176
     0
 90
        2
176
     1
  1
strokes_ogs.tif
176
     1
290
     0
176
     1
 40
1.0
176
     1
 40
1.0
176
     1
  0
VISUALSTYLE
  5
37
102
{ACAD_REACTORS
330
2A
102
}
330
2A
100
AcDbVisualStyle
  2
Thicken
 70
    13
177
     3
291
     1
 70
    58
 90
        2
176
     1
 90
        2
176
     1
 90
        0
176
     1
 90
        0
176
     1
 40
0.6
176
     1
 40
30.0
176
     1
 62
     7
420
 16777215
176
     1
 90
        1
176
     1
 90
        4
176
     1
 62
     7
176
     1
 62
   257
176
     1
 90
        1
176
     1
 90
        1
176
     1
 40
1.0
176
     1
 90
       12
176
     1
 62
     7
176
     1
 40
1.0
176
     1
 90
        1
176
     1
 90
        6
176
     1
 90
        2
176
     1
 62
     7
176
     1
 90
        5
176
     1
 90
        0
176
     1
 90
        0
176
     1
290
     0
176
     1
 90
        1
176
     1
 40
0.0
176
     1
 90
        0
176
     1
290
     0
176
     1
290
     1
176
     1
290
     1
176
     1
290
     0
176
     1
290
     0
176
     1
290
     0
176
     1
290
     0
176
     1
290
     0
176
     1
290
     0
176
     1
 90
       50
176
     1
 40
0.0
176
     1
 40
1.0
176
     1
 90
        0
176
     1
 62
    18
420
        0
176
     1
 90
       50
176
     1
 90
        3
176
     1
 62
     5
420
      255
176
     1
290
     0
176
     1
 90
       50
176
     1
 90
       50
176
     1
 90
       50
176
     1
290
     0
176
     1
 90
       50
176
     1
 62
   256
176
     0
 40
1.0
176
     0
 90
        2
176
     1
  1
strokes_ogs.tif
176
     1
290
     0
176
     1
 40
1.0
176
     1
 40
1.0
176
     1
  0
VISUALSTYLE
  5
30
102
{ACAD_REACTORS
330
2A
102
}
330
2A
100
AcDbVisualStyle
  2
Wireframe
 70
     5
177
     3
291
     0
 70
    58
 90
        0
176
     1
 90
        2
176
     1
 90
        0
176
     1
 90
        0
176
     1
 40
0.6
176
     1
 40
30.0
176
     1
 62
     7
420
 16777215
176
     1
 90
        1
176
     1
 90
        4
176
     1
 62
     7
176
     1
 62
   257
176
     1
 90
        1
176
     1
 90
        1
176
     1
 40
1.0
176
     1
 90
        0
176
     1
 62
   257
176
     1
 40
1.0
176
     1
 90
        1
176
     1
 90
        6
176
     1
 90
        2
176
     1
 62
     7
176
     1
 90
        3
176
     1
 90
        0
176
     1
 90
        0
176
     1
290
     0
176
     1
 90
        1
176
     1
 40
0.0
176
     1
 90
        0
176
     1
290
     0
176
     1
290
     1
176
     1
290
     1
176
     1
290
     0
176
     1
290
     0
176
     1
290
     0
176
     1
290
     0
176
     1
290
     0
176
     1
290
     0
176
     1
 90
       50
176
     1
 40
0.0
176
     1
 40
1.0
176
     1
 90
        0
176
     1
 62
    18
420
        0
176
     1
 90
       50
176
     1
 90
        3
176
     1
 62
     5
420
      255
176
     1
290
     0
176
     1
 90
       50
176
     1
 90
       50
176
     1
 90
       50
176
     1
290
     0
176
     1
 90
       50
176
     1
 62
   256
176
     0
 40
1.0
176
     0
 90
        2
176
     1
  1
strokes_ogs.tif
176
     1
290
     0
176
     1
 40
1.0
176
     1
 40
1.0
176
     1
  0
VISUALSTYLE
  5
40
102
{ACAD_REACTORS
330
2A
102
}
330
2A
100
AcDbVisualStyle
  2
X-Ray
 70
    25
177
     3
291
     0
 70
    58
 90
        2
176
     1
 90
        2
176
     1
 90
        1
176
     1
 90
        1
176
     1
 40
0.5
176
     1
 40
30.0
176
     1
 62
     7
420
 16777215
176
     1
 90
        1
176
     1
 90
        0
176
     1
 62
     7
176
     1
 62
   257
176
     1
 90
        1
176
     1
 90
        1
176
     1
 40
1.0
176
     1
 90
        8
176
     1
 62
     7
176
     1
 40
1.0
176
     1
 90
        1
176
     1
 90
        6
176
     1
 90
        2
176
     1
 62
     7
176
     1
 90
        3
176
     1
 90
        0
176
     1
 90
        0
176
     1
290
     0
176
     1
 90
       13
176
     1
 40
0.0
176
     1
 90
        0
176
     1
290
     0
176
     1
290
     1
176
     1
290
     1
176
     1
290
     0
176
     1
290
     0
176
     1
290
     0
176
     1
290
     0
176
     1
290
     0
176
     1
290
     0
176
     1
 90
       50
176
     1
 40
0.0
176
     1
 40
1.0
176
     1
 90
        0
176
     1
 62
    18
420
        0
176
     1
 90
       50
176
     1
 90
        3
176
     1
 62
     5
420
      255
176
     1
290
     0
176
     1
 90
       50
176
     1
 90
       50
176
     1
 90
       50
176
     1
290
     0
176
     1
 90
       50
176
     1
 62
   256
176
     0
 40
1.0
176
     0
 90
        2
176
     1
  1
strokes_ogs.tif
176
     1
290
     0
176
     1
 40
1.0
176
     1
 40
1.0
176
     1
  0
DICTIONARYVAR
  5
1D0
102
{ACAD_REACTORS
330
1CF
102
}
330
1CF
100
DictionaryVariables
280
     0
  1
1:1
  0
DICTIONARYVAR
  5
1D5
102
{ACAD_REACTORS
330
1CF
102
}
330
1CF
100
DictionaryVariables
280
     0
  1
Standard
  0
DICTIONARYVAR
  5
1D4
102
{ACAD_REACTORS
330
1CF
102
}
330
1CF
100
DictionaryVariables
280
     0
  1
Standard
  0
DICTIONARY
  5
1D1
330
6A
100
AcDbDictionary
280
     1
281
     1
  3
ACAD_ROUNDTRIP_2008_TABLESTYLE_CELLSTYLEMAP
360
1D2
  0
CELLSTYLEMAP
  5
1D2
102
{ACAD_REACTORS
330
1D1
102
}
330
1D1
100
AcDbCellStyleMap
 90
        3
300
CELLSTYLE
  1
TABLEFORMAT_BEGIN
 90
        5
170
     1
 91
        0
 92
    32768
 62
   257
 93
        1
300
CONTENTFORMAT
  1
CONTENTFORMAT_BEGIN
 90
        0
 91
        0
 92
        4
 93
        0
300

 40
0.0
140
1.0
 94
        5
 62
     0
340
11
144
0.25
309
CONTENTFORMAT_END
171
     1
301
MARGIN
  1
CELLMARGIN_BEGIN
 40
0.06
 40
0.06
 40
0.06
 40
0.06
 40
0.06
 40
0.06
309
CELLMARGIN_END
 94
        6
 95
        1
302
GRIDFORMAT
  1
GRIDFORMAT_BEGIN
 90
        0
 91
        1
 62
     0
 92
       -2
340
14
 93
        0
 40
0.045
309
GRIDFORMAT_END
 95
        2
302
GRIDFORMAT
  1
GRIDFORMAT_BEGIN
 90
        0
 91
        1
 62
     0
 92
       -2
340
14
 93
        0
 40
0.045
309
GRIDFORMAT_END
 95
        4
302
GRIDFORMAT
  1
GRIDFORMAT_BEGIN
 90
        0
 91
        1
 62
     0
 92
       -2
340
14
 93
        0
 40
0.045
309
GRIDFORMAT_END
 95
        8
302
GRIDFORMAT
  1
GRIDFORMAT_BEGIN
 90
        0
 91
        1
 62
     0
 92
       -2
340
14
 93
        0
 40
0.045
309
GRIDFORMAT_END
 95
       16
302
GRIDFORMAT
  1
GRIDFORMAT_BEGIN
 90
        0
 91
        1
 62
     0
 92
       -2
340
14
 93
        0
 40
0.045
309
GRIDFORMAT_END
 95
       32
302
GRIDFORMAT
  1
GRIDFORMAT_BEGIN
 90
        0
 91
        1
 62
     0
 92
       -2
340
14
 93
        0
 40
0.045
309
GRIDFORMAT_END
309
TABLEFORMAT_END
  1
CELLSTYLE_BEGIN
 90
        1
 91
        1
300
_TITLE
309
CELLSTYLE_END
300
CELLSTYLE
  1
TABLEFORMAT_BEGIN
 90
        5
170
     1
 91
        0
 92
        0
 62
   257
 93
        1
300
CONTENTFORMAT
  1
CONTENTFORMAT_BEGIN
 90
        0
 91
        0
 92
        4
 93
        0
300

 40
0.0
140
1.0
 94
        5
 62
     0
340
11
144
0.18
309
CONTENTFORMAT_END
171
     1
301
MARGIN
  1
CELLMARGIN_BEGIN
 40
0.06
 40
0.06
 40
0.06
 40
0.06
 40
0.06
 40
0.06
309
CELLMARGIN_END
 94
        6
 95
        1
302
GRIDFORMAT
  1
GRIDFORMAT_BEGIN
 90
        0
 91
        1
 62
     0
 92
       -2
340
14
 93
        0
 40
0.045
309
GRIDFORMAT_END
 95
        2
302
GRIDFORMAT
  1
GRIDFORMAT_BEGIN
 90
        0
 91
        1
 62
     0
 92
       -2
340
14
 93
        0
 40
0.045
309
GRIDFORMAT_END
 95
        4
302
GRIDFORMAT
  1
GRIDFORMAT_BEGIN
 90
        0
 91
        1
 62
     0
 92
       -2
340
14
 93
        0
 40
0.045
309
GRIDFORMAT_END
 95
        8
302
GRIDFORMAT
  1
GRIDFORMAT_BEGIN
 90
        0
 91
        1
 62
     0
 92
       -2
340
14
 93
        0
 40
0.045
309
GRIDFORMAT_END
 95
       16
302
GRIDFORMAT
  1
GRIDFORMAT_BEGIN
 90
        0
 91
        1
 62
     0
 92
       -2
340
14
 93
        0
 40
0.045
309
GRIDFORMAT_END
 95
       32
302
GRIDFORMAT
  1
GRIDFORMAT_BEGIN
 90
        0
 91
        1
 62
     0
 92
       -2
340
14
 93
        0
 40
0.045
309
GRIDFORMAT_END
309
TABLEFORMAT_END
  1
CELLSTYLE_BEGIN
 90
        2
 91
        1
300
_HEADER
309
CELLSTYLE_END
300
CELLSTYLE
  1
TABLEFORMAT_BEGIN
 90
        5
170
     1
 91
        0
 92
        0
 62
   257
 93
        1
300
CONTENTFORMAT
  1
CONTENTFORMAT_BEGIN
 90
        0
 91
        0
 92
        4
 93
        0
300

 40
0.0
140
1.0
 94
        2
 62
     0
340
11
144
0.18
309
CONTENTFORMAT_END
171
     1
301
MARGIN
  1
CELLMARGIN_BEGIN
 40
0.06
 40
0.06
 40
0.06
 40
0.06
 40
0.06
 40
0.06
309
CELLMARGIN_END
 94
        6
 95
        1
302
GRIDFORMAT
  1
GRIDFORMAT_BEGIN
 90
        0
 91
        1
 62
     0
 92
       -2
340
14
 93
        0
 40
0.045
309
GRIDFORMAT_END
 95
        2
302
GRIDFORMAT
  1
GRIDFORMAT_BEGIN
 90
        0
 91
        1
 62
     0
 92
       -2
340
14
 93
        0
 40
0.045
309
GRIDFORMAT_END
 95
        4
302
GRIDFORMAT
  1
GRIDFORMAT_BEGIN
 90
        0
 91
        1
 62
     0
 92
       -2
340
14
 93
        0
 40
0.045
309
GRIDFORMAT_END
 95
        8
302
GRIDFORMAT
  1
GRIDFORMAT_BEGIN
 90
        0
 91
        1
 62
     0
 92
       -2
340
14
 93
        0
 40
0.045
309
GRIDFORMAT_END
 95
       16
302
GRIDFORMAT
  1
GRIDFORMAT_BEGIN
 90
        0
 91
        1
 62
     0
 92
       -2
340
14
 93
        0
 40
0.045
309
GRIDFORMAT_END
 95
       32
302
GRIDFORMAT
  1
GRIDFORMAT_BEGIN
 90
        0
 91
        1
 62
     0
 92
       -2
340
14
 93
        0
 40
0.045
309
GRIDFORMAT_END
309
TABLEFORMAT_END
  1
CELLSTYLE_BEGIN
 90
        3
 91
        2
300
_DATA
309
CELLSTYLE_END
  0
ENDSEC
  0
EOF