0
SECTION
  2
HEADER
  9
$ACADVER
  1
AC1027
  9
$ACADMAINTVER
 70
     8
  9
$DWGCODEPAGE
  3
ANSI_1252
  9
$REQUIREDVERSIONS
160
                 0
  9
$COMMENTS
  1
File was created by Cadenas
  9
$CUSTOMPROPERTYTAG
  1
NN
  9
$CUSTOMPROPERTY
  1
Double Interlock Pillow Block 2-Bolt Base Inch Bore
  9
$CUSTOMPROPERTYTAG
  1
NT
  9
$CUSTOMPROPERTY
  1
Double-Interlock 2 Bolt and 4 Bolt Pillow Block Bearings
  9
$CUSTOMPROPERTYTAG
  1
NB
  9
$CUSTOMPROPERTY
  1
023369
  9
$CUSTOMPROPERTYTAG
  1
NBSYN
  9
$CUSTOMPROPERTY
  1
$PN.
  9
$CUSTOMPROPERTYTAG
  1
LINA
  9
$CUSTOMPROPERTY
  1
023369
  9
$CUSTOMPROPERTYTAG
  1
SS
  9
$CUSTOMPROPERTY
  1
5-15/16
  9
$CUSTOMPROPERTYTAG
  1
PN
  9
$CUSTOMPROPERTY
  1
023369
  9
$CUSTOMPROPERTYTAG
  1
DESCRIPTION
  9
$CUSTOMPROPERTY
  1
P4B-DI-515R DBL INTERLOCK
  9
$CUSTOMPROPERTYTAG
  1
EF
  9
$CUSTOMPROPERTY
  1
Non-Expansion Type
  9
$CUSTOMPROPERTYTAG
  1
A
  9
$CUSTOMPROPERTY
  1
9
  9
$CUSTOMPROPERTYTAG
  1
B
  9
$CUSTOMPROPERTY
  1
23-11/16
  9
$CUSTOMPROPERTYTAG
  1
C
  9
$CUSTOMPROPERTY
  1
6.00
  9
$CUSTOMPROPERTYTAG
  1
DMIN
  9
$CUSTOMPROPERTY
  1
19.00
  9
$CUSTOMPROPERTYTAG
  1
DMAX
  9
$CUSTOMPROPERTY
  1
20-5/8
  9
$CUSTOMPROPERTYTAG
  1
E
  9
$CUSTOMPROPERTY
  1
3
  9
$CUSTOMPROPERTYTAG
  1
F
  9
$CUSTOMPROPERTY
  1
1
  9
$CUSTOMPROPERTYTAG
  1
G
  9
$CUSTOMPROPERTY
  1
1-15/16
  9
$CUSTOMPROPERTYTAG
  1
H
  9
$CUSTOMPROPERTY
  1
3-1/2
  9
$CUSTOMPROPERTYTAG
  1
J
  9
$CUSTOMPROPERTY
  1
14-19/32
  9
$CUSTOMPROPERTYTAG
  1
L
  9
$CUSTOMPROPERTY
  1
9-3/8
  9
$CUSTOMPROPERTYTAG
  1
M
  9
$CUSTOMPROPERTY
  1
7-1/8
  9
$CUSTOMPROPERTYTAG
  1
P
  9
$CUSTOMPROPERTY
  1
15-1/8
  9
$CUSTOMPROPERTYTAG
  1
T
  9
$CUSTOMPROPERTY
  1
15/32
  9
$CUSTOMPROPERTYTAG
  1
COMPANY
  9
$CUSTOMPROPERTY
  1
baldor
  9
$INSBASE
 10
0.0
 20
0.0
 30
0.0
  9
$EXTMIN
 10
1.000000000000000E+20
 20
1.000000000000000E+20
 30
1.000000000000000E+20
  9
$EXTMAX
 10
-1.000000000000000E+20
 20
-1.000000000000000E+20
 30
-1.000000000000000E+20
  9
$LIMMIN
 10
0.0
 20
0.0
  9
$LIMMAX
 10
12.0
 20
9.0
  9
$ORTHOMODE
 70
     0
  9
$REGENMODE
 70
     1
  9
$FILLMODE
 70
     1
  9
$QTEXTMODE
 70
     0
  9
$MIRRTEXT
 70
     1
  9
$LTSCALE
 40
1.0
  9
$ATTMODE
 70
     1
  9
$TEXTSIZE
 40
0.2
  9
$TRACEWID
 40
0.05
  9
$TEXTSTYLE
  7
Standard
  9
$CLAYER
  8
0
  9
$CELTYPE
  6
ByLayer
  9
$CECOLOR
 62
   256
  9
$CELTSCALE
 40
1.0
  9
$DISPSILH
 70
     0
  9
$DIMSCALE
 40
1.0
  9
$DIMASZ
 40
0.18
  9
$DIMEXO
 40
0.0625
  9
$DIMDLI
 40
0.38
  9
$DIMRND
 40
0.0
  9
$DIMDLE
 40
0.0
  9
$DIMEXE
 40
0.18
  9
$DIMTP
 40
0.0
  9
$DIMTM
 40
0.0
  9
$DIMTXT
 40
0.18
  9
$DIMCEN
 40
0.09
  9
$DIMTSZ
 40
0.0
  9
$DIMTOL
 70
     0
  9
$DIMLIM
 70
     0
  9
$DIMTIH
 70
     1
  9
$DIMTOH
 70
     1
  9
$DIMSE1
 70
     0
  9
$DIMSE2
 70
     0
  9
$DIMTAD
 70
     0
  9
$DIMZIN
 70
     0
  9
$DIMBLK
  1

  9
$DIMASO
 70
     1
  9
$DIMSHO
 70
     1
  9
$DIMPOST
  1

  9
$DIMAPOST
  1

  9
$DIMALT
 70
     0
  9
$DIMALTD
 70
     2
  9
$DIMALTF
 40
25.4
  9
$DIMLFAC
 40
1.0
  9
$DIMTOFL
 70
     0
  9
$DIMTVP
 40
0.0
  9
$DIMTIX
 70
     0
  9
$DIMSOXD
 70
     0
  9
$DIMSAH
 70
     0
  9
$DIMBLK1
  1

  9
$DIMBLK2
  1

  9
$DIMSTYLE
  2
Standard
  9
$DIMCLRD
 70
     0
  9
$DIMCLRE
 70
     0
  9
$DIMCLRT
 70
     0
  9
$DIMTFAC
 40
1.0
  9
$DIMGAP
 40
0.09
  9
$DIMJUST
 70
     0
  9
$DIMSD1
 70
     0
  9
$DIMSD2
 70
     0
  9
$DIMTOLJ
 70
     1
  9
$DIMTZIN
 70
     0
  9
$DIMALTZ
 70
     0
  9
$DIMALTTZ
 70
     0
  9
$DIMUPT
 70
     0
  9
$DIMDEC
 70
     4
  9
$DIMTDEC
 70
     4
  9
$DIMALTU
 70
     2
  9
$DIMALTTD
 70
     2
  9
$DIMTXSTY
  7
Standard
  9
$DIMAUNIT
 70
     0
  9
$DIMADEC
 70
     0
  9
$DIMALTRND
 40
0.0
  9
$DIMAZIN
 70
     0
  9
$DIMDSEP
 70
    46
  9
$DIMATFIT
 70
     3
  9
$DIMFRAC
 70
     0
  9
$DIMLDRBLK
  1

  9
$DIMLUNIT
 70
     2
  9
$DIMLWD
 70
    -2
  9
$DIMLWE
 70
    -2
  9
$DIMTMOVE
 70
     0
  9
$DIMFXL
 40
1.0
  9
$DIMFXLON
 70
     0
  9
$DIMJOGANG
 40
0.7853981633974483
  9
$DIMTFILL
 70
     0
  9
$DIMTFILLCLR
 70
     0
  9
$DIMARCSYM
 70
     0
  9
$DIMLTYPE
  6

  9
$DIMLTEX1
  6

  9
$DIMLTEX2
  6

  9
$DIMTXTDIRECTION
 70
     0
  9
$LUNITS
 70
     2
  9
$LUPREC
 70
     4
  9
$SKETCHINC
 40
0.1
  9
$FILLETRAD
 40
0.5
  9
$AUNITS
 70
     0
  9
$AUPREC
 70
     0
  9
$MENU
  1
.
  9
$ELEVATION
 40
0.0
  9
$PELEVATION
 40
0.0
  9
$THICKNESS
 40
0.0
  9
$LIMCHECK
 70
     0
  9
$CHAMFERA
 40
0.0
  9
$CHAMFERB
 40
0.0
  9
$CHAMFERC
 40
0.0
  9
$CHAMFERD
 40
0.0
  9
$SKPOLY
 70
     0
  9
$TDCREATE
 40
2458169.000391852
  9
$TDUCREATE
 40
2458168.958725185
  9
$TDUPDATE
 40
2458169.000391852
  9
$TDUUPDATE
 40
2458168.958725185
  9
$TDINDWG
 40
0.0000000116
  9
$TDUSRTIMER
 40
0.0000000116
  9
$USRTIMER
 70
     1
  9
$ANGBASE
 50
0.0
  9
$ANGDIR
 70
     0
  9
$PDMODE
 70
     0
  9
$PDSIZE
 40
0.0
  9
$PLINEWID
 40
0.0
  9
$SPLFRAME
 70
     0
  9
$SPLINETYPE
 70
     6
  9
$SPLINESEGS
 70
     8
  9
$HANDSEED
  5
1BF
  9
$SURFTAB1
 70
     6
  9
$SURFTAB2
 70
     6
  9
$SURFTYPE
 70
     6
  9
$SURFU
 70
     6
  9
$SURFV
 70
     6
  9
$UCSBASE
  2

  9
$UCSNAME
  2

  9
$UCSORG
 10
0.0
 20
0.0
 30
0.0
  9
$UCSXDIR
 10
1.0
 20
0.0
 30
0.0
  9
$UCSYDIR
 10
0.0
 20
1.0
 30
0.0
  9
$UCSORTHOREF
  2

  9
$UCSORTHOVIEW
 70
     0
  9
$UCSORGTOP
 10
0.0
 20
0.0
 30
0.0
  9
$UCSORGBOTTOM
 10
0.0
 20
0.0
 30
0.0
  9
$UCSORGLEFT
 10
0.0
 20
0.0
 30
0.0
  9
$UCSORGRIGHT
 10
0.0
 20
0.0
 30
0.0
  9
$UCSORGFRONT
 10
0.0
 20
0.0
 30
0.0
  9
$UCSORGBACK
 10
0.0
 20
0.0
 30
0.0
  9
$PUCSBASE
  2

  9
$PUCSNAME
  2

  9
$PUCSORG
 10
0.0
 20
0.0
 30
0.0
  9
$PUCSXDIR
 10
1.0
 20
0.0
 30
0.0
  9
$PUCSYDIR
 10
0.0
 20
1.0
 30
0.0
  9
$PUCSORTHOREF
  2

  9
$PUCSORTHOVIEW
 70
     0
  9
$PUCSORGTOP
 10
0.0
 20
0.0
 30
0.0
  9
$PUCSORGBOTTOM
 10
0.0
 20
0.0
 30
0.0
  9
$PUCSORGLEFT
 10
0.0
 20
0.0
 30
0.0
  9
$PUCSORGRIGHT
 10
0.0
 20
0.0
 30
0.0
  9
$PUCSORGFRONT
 10
0.0
 20
0.0
 30
0.0
  9
$PUCSORGBACK
 10
0.0
 20
0.0
 30
0.0
  9
$USERI1
 70
     0
  9
$USERI2
 70
     0
  9
$USERI3
 70
     0
  9
$USERI4
 70
     0
  9
$USERI5
 70
     0
  9
$USERR1
 40
0.0
  9
$USERR2
 40
0.0
  9
$USERR3
 40
0.0
  9
$USERR4
 40
0.0
  9
$USERR5
 40
0.0
  9
$WORLDVIEW
 70
     1
  9
$SHADEDGE
 70
     3
  9
$SHADEDIF
 70
    70
  9
$TILEMODE
 70
     1
  9
$MAXACTVP
 70
    64
  9
$PINSBASE
 10
0.0
 20
0.0
 30
0.0
  9
$PLIMCHECK
 70
     0
  9
$PEXTMIN
 10
1.000000000000000E+20
 20
1.000000000000000E+20
 30
1.000000000000000E+20
  9
$PEXTMAX
 10
-1.000000000000000E+20
 20
-1.000000000000000E+20
 30
-1.000000000000000E+20
  9
$PLIMMIN
 10
0.0
 20
0.0
  9
$PLIMMAX
 10
12.0
 20
9.0
  9
$UNITMODE
 70
     0
  9
$VISRETAIN
 70
     1
  9
$PLINEGEN
 70
     0
  9
$PSLTSCALE
 70
     1
  9
$TREEDEPTH
 70
  3020
  9
$CMLSTYLE
  2
Standard
  9
$CMLJUST
 70
     0
  9
$CMLSCALE
 40
1.0
  9
$PROXYGRAPHICS
 70
     1
  9
$MEASUREMENT
 70
     0
  9
$CELWEIGHT
370
    -1
  9
$ENDCAPS
280
     0
  9
$JOINSTYLE
280
     0
  9
$LWDISPLAY
290
     0
  9
$INSUNITS
 70
     1
  9
$HYPERLINKBASE
  1

  9
$STYLESHEET
  1

  9
$XEDIT
290
     1
  9
$CEPSNTYPE
380
     0
  9
$PSTYLEMODE
290
     1
  9
$FINGERPRINTGUID
  2
{1556B562-FC38-46B2-B2FA-C4B589F32D59}
  9
$VERSIONGUID
  2
{FAEB1C32-E019-11D5-929B-00C0DF256EC4}
  9
$EXTNAMES
290
     1
  9
$PSVPSCALE
 40
0.0
  9
$OLESTARTUP
290
     0
  9
$SORTENTS
280
   127
  9
$INDEXCTL
280
     0
  9
$HIDETEXT
280
     1
  9
$XCLIPFRAME
280
     2
  9
$HALOGAP
280
     0
  9
$OBSCOLOR
 70
   257
  9
$OBSLTYPE
280
     0
  9
$INTERSECTIONDISPLAY
280
     0
  9
$INTERSECTIONCOLOR
 70
   257
  9
$DIMASSOC
280
     2
  9
$PROJECTNAME
  1

  9
$CAMERADISPLAY
290
     0
  9
$LENSLENGTH
 40
50.0
  9
$CAMERAHEIGHT
 40
0.0
  9
$STEPSPERSEC
 40
2.0
  9
$STEPSIZE
 40
6.0
  9
$3DDWFPREC
 40
2.0
  9
$PSOLWIDTH
 40
0.25
  9
$PSOLHEIGHT
 40
4.0
  9
$LOFTANG1
 40
1.570796326794897
  9
$LOFTANG2
 40
1.570796326794897
  9
$LOFTMAG1
 40
0.0
  9
$LOFTMAG2
 40
0.0
  9
$LOFTPARAM
 70
     7
  9
$LOFTNORMALS
280
     1
  9
$LATITUDE
 40
37.795
  9
$LONGITUDE
 40
-122.394
  9
$NORTHDIRECTION
 40
0.0
  9
$TIMEZONE
 70
 -8000
  9
$LIGHTGLYPHDISPLAY
280
     1
  9
$TILEMODELIGHTSYNCH
280
     1
  9
$CMATERIAL
347
44
  9
$SOLIDHIST
280
     0
  9
$SHOWHIST
280
     1
  9
$DWFFRAME
280
     2
  9
$DGNFRAME
280
     2
  9
$REALWORLDSCALE
290
     1
  9
$INTERFERECOLOR
 62
   256
  9
$CSHADOW
280
     0
  9
$SHADOWPLANELOCATION
 40
0.0
  0
ENDSEC
  0
SECTION
  2
CLASSES
  0
CLASS
  1
ACDBDICTIONARYWDFLT
  2
AcDbDictionaryWithDefault
  3
ObjectDBX Classes
 90
        0
 91
        4
280
     0
281
     0
  0
CLASS
  1
VISUALSTYLE
  2
AcDbVisualStyle
  3
ObjectDBX Classes
 90
     4095
 91
        4
280
     0
281
     0
  0
CLASS
  1
MATERIAL
  2
AcDbMaterial
  3
ObjectDBX Classes
 90
     1153
 91
        4
280
     0
281
     0
  0
CLASS
  1
SCALE
  2
AcDbScale
  3
ObjectDBX Classes
 90
     1153
 91
        4
280
     0
281
     0
  0
CLASS
  1
TABLESTYLE
  2
AcDbTableStyle
  3
ObjectDBX Classes
 90
     4095
 91
        4
280
     0
281
     0
  0
CLASS
  1
MLEADERSTYLE
  2
AcDbMLeaderStyle
  3
ACDB_MLEADERSTYLE_CLASS
 90
     4095
 91
        4
280
     0
281
     0
  0
CLASS
  1
SUN
  2
AcDbSun
  3
SCENEOE
 90
     1153
 91
        4
280
     0
281
     0
  0
CLASS
  1
DICTIONARYVAR
  2
AcDbDictionaryVar
  3
ObjectDBX Classes
 90
        0
 91
        4
280
     0
281
     0
  0
CLASS
  1
CELLSTYLEMAP
  2
AcDbCellStyleMap
  3
ObjectDBX Classes
 90
     1152
 91
        4
280
     0
281
     0
  0
ENDSEC
  0
SECTION
  2
TABLES
  0
TABLE
  2
VPORT
  5
8
330
0
100
AcDbSymbolTable
 70
     1
  0
VPORT
  5
29
330
8
100
AcDbSymbolTableRecord
100
AcDbViewportTableRecord
  2
*Active
 70
     0
 10
0.0
 20
0.0
 11
1.0
 21
1.0
 12
0.0
 22
2.228906249999998
 13
0.0
 23
0.0
 14
0.5
 24
0.5
 15
0.5
 25
0.5
 16
0.0
 26
0.0
 36
1.0
 17
0.0
 27
0.0
 37
0.0
 40
19.08196874999999
 41
1.266182243380941
 42
50.0
 43
0.0
 44
0.0
 50
0.0
 51
0.0
 71
     0
 72
   100
 73
     1
 74
     3
 75
     0
 76
     0
 77
     0
 78
     0
281
     0
 65
     1
110
0.0
120
0.0
130
0.0
111
1.0
121
0.0
131
0.0
112
0.0
122
1.0
132
0.0
 79
     0
146
0.0
348
2F
 60
     3
 61
     5
292
     1
282
     1
141
0.0
142
0.0
 63
   250
361
6D
  0
ENDTAB
  0
TABLE
  2
LTYPE
  5
5
330
0
100
AcDbSymbolTable
 70
     3
  0
LTYPE
  5
14
330
5
100
AcDbSymbolTableRecord
100
AcDbLinetypeTableRecord
  2
ByBlock
 70
     0
  3

 72
    65
 73
     0
 40
0.0
  0
LTYPE
  5
15
330
5
100
AcDbSymbolTableRecord
100
AcDbLinetypeTableRecord
  2
ByLayer
 70
     0
  3

 72
    65
 73
     0
 40
0.0
  0
LTYPE
  5
16
330
5
100
AcDbSymbolTableRecord
100
AcDbLinetypeTableRecord
  2
Continuous
 70
     0
  3
Solid line
 72
    65
 73
     0
 40
0.0
  0
LTYPE
  5
A0
330
5
100
AcDbSymbolTableRecord
100
AcDbLinetypeTableRecord
  2
Dashed
 70
     0
  3

 72
    65
 73
     2
 40
2.0
 49
1.0
 74
     0
 49
-1.0
 74
     0
  0
LTYPE
  5
129
330
5
100
AcDbSymbolTableRecord
100
AcDbLinetypeTableRecord
  2
Center
 70
     0
  3

 72
    65
 73
     4
 40
1.5
 49
0.45
 74
     0
 49
-0.5
 74
     0
 49
0.05
 74
     0
 49
-0.5
 74
     0
  0
ENDTAB
  0
TABLE
  2
LAYER
  5
2
330
0
100
AcDbSymbolTable
 70
     7
  0
LAYER
  5
10
330
2
100
AcDbSymbolTableRecord
100
AcDbLayerTableRecord
  2
0
 70
     0
 62
     7
  6
Continuous
370
    -3
390
F
347
46
348
0
  0
LAYER
  5
72
330
2
100
AcDbSymbolTableRecord
100
AcDbLayerTableRecord
  2
AM_6
 70
     0
 62
    -2
  6
Continuous
370
    35
390
F
347
46
348
0
  0
LAYER
  5
A1
330
2
100
AcDbSymbolTableRecord
100
AcDbLayerTableRecord
  2
AM_9
 70
     0
 62
     6
  6
Dashed
370
    25
390
F
347
46
348
0
  0
LAYER
  5
B2
330
2
100
AcDbSymbolTableRecord
100
AcDbLayerTableRecord
  2
AM_5
 70
     0
 62
     3
  6
Continuous
370
    25
390
F
347
46
348
0
  0
LAYER
  5
B7
330
2
100
AcDbSymbolTableRecord
100
AcDbLayerTableRecord
  2
AM_4
 70
     0
 62
     7
  6
Continuous
370
    50
390
F
347
46
348
0
  0
LAYER
  5
12A
330
2
100
AcDbSymbolTableRecord
100
AcDbLayerTableRecord
  2
AM_7
 70
     0
 62
     7
  6
Center
370
    25
390
F
347
46
348
0
  0
LAYER
  5
1AD
330
2
100
AcDbSymbolTableRecord
100
AcDbLayerTableRecord
  2
ConnectionPoints
 70
     0
 62
     7
  6
Continuous
370
    50
390
F
347
46
348
0
  0
ENDTAB
  0
TABLE
  2
STYLE
  5
3
330
0
100
AcDbSymbolTable
 70
     1
  0
STYLE
  5
11
330
3
100
AcDbSymbolTableRecord
100
AcDbTextStyleTableRecord
  2
Standard
 70
     0
 40
0.0
 41
1.0
 50
0.0
 71
     0
 42
0.2
  3
txt
  4

  0
ENDTAB
  0
TABLE
  2
VIEW
  5
6
330
0
100
AcDbSymbolTable
 70
     0
  0
ENDTAB
  0
TABLE
  2
UCS
  5
7
330
0
100
AcDbSymbolTable
 70
     0
  0
ENDTAB
  0
TABLE
  2
APPID
  5
9
330
0
100
AcDbSymbolTable
 70
     1
  0
APPID
  5
12
330
9
100
AcDbSymbolTableRecord
100
AcDbRegAppTableRecord
  2
ACAD
 70
     0
  0
ENDTAB
  0
TABLE
  2
DIMSTYLE
  5
A
330
0
100
AcDbSymbolTable
 70
     1
100
AcDbDimStyleTable
  0
DIMSTYLE
105
27
330
A
100
AcDbSymbolTableRecord
100
AcDbDimStyleTableRecord
  2
Standard
 70
     0
178
     0
340
11
  0
ENDTAB
  0
TABLE
  2
BLOCK_RECORD
  5
1
330
0
100
AcDbSymbolTable
 70
     7
  0
BLOCK_RECORD
  5
1F
330
1
100
AcDbSymbolTableRecord
100
AcDbBlockTableRecord
  2
*Model_Space
340
22
 70
     0
280
     1
281
     0
  0
BLOCK_RECORD
  5
1B
330
1
100
AcDbSymbolTableRecord
100
AcDbBlockTableRecord
  2
*Paper_Space
340
1E
 70
     0
280
     1
281
     0
  0
BLOCK_RECORD
  5
23
330
1
100
AcDbSymbolTableRecord
100
AcDbBlockTableRecord
  2
*Paper_Space0
340
26
 70
     0
280
     1
281
     0
  0
BLOCK_RECORD
  5
6E
330
1
100
AcDbSymbolTableRecord
100
AcDbBlockTableRecord
  2
1_023369_0
340
0
102
{BLKREFS
331
6F
102
}
 70
     0
280
     1
281
     0
  0
BLOCK_RECORD
  5
8B
330
1
100
AcDbSymbolTableRecord
100
AcDbBlockTableRecord
  2
2_5_15_16C_1_0_in_023369_0
340
0
102
{BLKREFS
331
8C
102
}
 70
     0
280
     1
281
     0
  0
BLOCK_RECORD
  5
BB
330
1
100
AcDbSymbolTableRecord
100
AcDbBlockTableRecord
  2
3_5_15_16C_2_0_in_023369_0
340
0
102
{BLKREFS
331
BC
102
}
 70
     0
280
     1
281
     0
  0
BLOCK_RECORD
  5
D7
330
1
100
AcDbSymbolTableRecord
100
AcDbBlockTableRecord
  2
4_405015E_Inch_0_in_023369_0
340
0
102
{BLKREFS
331
D8
102
}
 70
     0
280
     1
281
     0
  0
BLOCK_RECORD
  5
108
330
1
100
AcDbSymbolTableRecord
100
AcDbBlockTableRecord
  2
5_023537_Insert_0_in_023369_0
340
0
102
{BLKREFS
331
109
102
}
 70
     0
280
     1
281
     0
  0
BLOCK_RECORD
  5
134
330
1
100
AcDbSymbolTableRecord
100
AcDbBlockTableRecord
  2
6_060579_0_in_023369_0
340
0
102
{BLKREFS
331
135
102
}
 70
     0
280
     1
281
     0
  0
ENDTAB
  0
ENDSEC
  0
SECTION
  2
BLOCKS
  0
BLOCK
  5
20
330
1F
100
AcDbEntity
  8
0
100
AcDbBlockBegin
  2
*Model_Space
 70
     0
 10
0.0
 20
0.0
 30
0.0
  3
*Model_Space
  1

  0
ENDBLK
  5
21
330
1F
100
AcDbEntity
  8
0
100
AcDbBlockEnd
  0
BLOCK
  5
1C
330
1B
100
AcDbEntity
 67
     1
  8
0
100
AcDbBlockBegin
  2
*Paper_Space
 70
     0
 10
0.0
 20
0.0
 30
0.0
  3
*Paper_Space
  1

  0
ENDBLK
  5
1D
330
1B
100
AcDbEntity
 67
     1
  8
0
100
AcDbBlockEnd
  0
BLOCK
  5
24
330
23
100
AcDbEntity
  8
0
100
AcDbBlockBegin
  2
*Paper_Space0
 70
     0
 10
0.0
 20
0.0
 30
0.0
  3
*Paper_Space0
  1

  0
ENDBLK
  5
25
330
23
100
AcDbEntity
  8
0
100
AcDbBlockEnd
  0
BLOCK
  5
70
330
6E
100
AcDbEntity
  8
0
100
AcDbBlockBegin
  2
1_023369_0
 70
     2
 10
0.0
 20
0.0
 30
0.0
  3
1_023369_0
  1

  0
ATTDEF
  5
73
330
6E
100
AcDbEntity
  8
AM_6
100
AcDbText
 10
16.84375
 20
11.5828125
 30
0.0
 40
0.5
  1
Double Interlock Pillow Block 2-Bolt Base Inch Bore
100
AcDbAttributeDefinition
  3

  2
NN
 70
     8
280
     0
  0
ATTDEF
  5
74
330
6E
100
AcDbEntity
  8
AM_6
100
AcDbText
 10
16.84375
 20
11.0828125
 30
0.0
 40
0.5
  1
Double-Interlock 2 Bolt and 4 Bolt Pillow Block Bearings
100
AcDbAttributeDefinition
  3

  2
NT
 70
     8
280
     0
  0
ATTDEF
  5
75
330
6E
100
AcDbEntity
  8
AM_6
100
AcDbText
 10
16.84375
 20
10.5828125
 30
0.0
 40
0.5
  1
023369
100
AcDbAttributeDefinition
  3

  2
NB
 70
     8
280
     0
  0
ATTDEF
  5
76
330
6E
100
AcDbEntity
  8
AM_6
100
AcDbText
 10
16.84375
 20
10.0828125
 30
0.0
 40
0.5
  1
$PN.
100
AcDbAttributeDefinition
  3

  2
NBSYN
 70
     8
280
     0
  0
ATTDEF
  5
77
330
6E
100
AcDbEntity
  8
AM_6
100
AcDbText
 10
16.84375
 20
9.582812499999998
 30
0.0
 40
0.5
  1
023369
100
AcDbAttributeDefinition
  3

  2
LINA
 70
     8
280
     0
  0
ATTDEF
  5
78
330
6E
100
AcDbEntity
  8
AM_6
100
AcDbText
 10
16.84375
 20
9.082812499999998
 30
0.0
 40
0.5
  1
5-15/16
100
AcDbAttributeDefinition
  3

  2
SS
 70
     8
280
     0
  0
ATTDEF
  5
79
330
6E
100
AcDbEntity
  8
AM_6
100
AcDbText
 10
16.84375
 20
8.582812499999998
 30
0.0
 40
0.5
  1
023369
100
AcDbAttributeDefinition
  3

  2
PN
 70
     8
280
     0
  0
ATTDEF
  5
7A
330
6E
100
AcDbEntity
  8
AM_6
100
AcDbText
 10
16.84375
 20
8.082812499999998
 30
0.0
 40
0.5
  1
P4B-DI-515R DBL INTERLOCK
100
AcDbAttributeDefinition
  3

  2
DESCRIPTION
 70
     8
280
     0
  0
ATTDEF
  5
7B
330
6E
100
AcDbEntity
  8
AM_6
100
AcDbText
 10
16.84375
 20
7.582812499999998
 30
0.0
 40
0.5
  1
Non-Expansion Type
100
AcDbAttributeDefinition
  3

  2
EF
 70
     8
280
     0
  0
ATTDEF
  5
7C
330
6E
100
AcDbEntity
  8
AM_6
100
AcDbText
 10
16.84375
 20
7.082812499999998
 30
0.0
 40
0.5
  1
9
100
AcDbAttributeDefinition
  3

  2
A
 70
     8
280
     0
  0
ATTDEF
  5
7D
330
6E
100
AcDbEntity
  8
AM_6
100
AcDbText
 10
16.84375
 20
6.582812499999998
 30
0.0
 40
0.5
  1
23-11/16
100
AcDbAttributeDefinition
  3

  2
B
 70
     8
280
     0
  0
ATTDEF
  5
7E
330
6E
100
AcDbEntity
  8
AM_6
100
AcDbText
 10
16.84375
 20
6.082812499999998
 30
0.0
 40
0.5
  1
6.00
100
AcDbAttributeDefinition
  3

  2
C
 70
     8
280
     0
  0
ATTDEF
  5
7F
330
6E
100
AcDbEntity
  8
AM_6
100
AcDbText
 10
16.84375
 20
5.582812499999998
 30
0.0
 40
0.5
  1
19.00
100
AcDbAttributeDefinition
  3

  2
DMIN
 70
     8
280
     0
  0
ATTDEF
  5
80
330
6E
100
AcDbEntity
  8
AM_6
100
AcDbText
 10
16.84375
 20
5.082812499999998
 30
0.0
 40
0.5
  1
20-5/8
100
AcDbAttributeDefinition
  3

  2
DMAX
 70
     8
280
     0
  0
ATTDEF
  5
81
330
6E
100
AcDbEntity
  8
AM_6
100
AcDbText
 10
16.84375
 20
4.582812499999998
 30
0.0
 40
0.5
  1
3
100
AcDbAttributeDefinition
  3

  2
E
 70
     8
280
     0
  0
ATTDEF
  5
82
330
6E
100
AcDbEntity
  8
AM_6
100
AcDbText
 10
16.84375
 20
4.082812499999998
 30
0.0
 40
0.5
  1
1
100
AcDbAttributeDefinition
  3

  2
F
 70
     8
280
     0
  0
ATTDEF
  5
83
330
6E
100
AcDbEntity
  8
AM_6
100
AcDbText
 10
16.84375
 20
3.582812499999998
 30
0.0
 40
0.5
  1
1-15/16
100
AcDbAttributeDefinition
  3

  2
G
 70
     8
280
     0
  0
ATTDEF
  5
84
330
6E
100
AcDbEntity
  8
AM_6
100
AcDbText
 10
16.84375
 20
3.082812499999998
 30
0.0
 40
0.5
  1
3-1/2
100
AcDbAttributeDefinition
  3

  2
H
 70
     8
280
     0
  0
ATTDEF
  5
85
330
6E
100
AcDbEntity
  8
AM_6
100
AcDbText
 10
16.84375
 20
2.582812499999998
 30
0.0
 40
0.5
  1
14-19/32
100
AcDbAttributeDefinition
  3

  2
J
 70
     8
280
     0
  0
ATTDEF
  5
86
330
6E
100
AcDbEntity
  8
AM_6
100
AcDbText
 10
16.84375
 20
2.082812499999998
 30
0.0
 40
0.5
  1
9-3/8
100
AcDbAttributeDefinition
  3

  2
L
 70
     8
280
     0
  0
ATTDEF
  5
87
330
6E
100
AcDbEntity
  8
AM_6
100
AcDbText
 10
16.84375
 20
1.582812499999998
 30
0.0
 40
0.5
  1
7-1/8
100
AcDbAttributeDefinition
  3

  2
M
 70
     8
280
     0
  0
ATTDEF
  5
88
330
6E
100
AcDbEntity
  8
AM_6
100
AcDbText
 10
16.84375
 20
1.082812499999998
 30
0.0
 40
0.5
  1
15-1/8
100
AcDbAttributeDefinition
  3

  2
P
 70
     8
280
     0
  0
ATTDEF
  5
89
330
6E
100
AcDbEntity
  8
AM_6
100
AcDbText
 10
16.84375
 20
0.5828124999999975
 30
0.0
 40
0.5
  1
15/32
100
AcDbAttributeDefinition
  3

  2
T
 70
     8
280
     0
  0
ATTDEF
  5
8A
330
6E
100
AcDbEntity
  8
AM_6
100
AcDbText
 10
16.84375
 20
0.0828124999999975
 30
0.0
 40
0.5
  1
baldor
100
AcDbAttributeDefinition
  3

  2
COMPANY
 70
     8
280
     0
  0
INSERT
  5
8C
330
6E
100
AcDbEntity
  8
0
100
AcDbBlockReference
  2
2_5_15_16C_1_0_in_023369_0
 10
0.0
 20
0.0
 30
0.0
  0
INSERT
  5
BC
330
6E
100
AcDbEntity
  8
0
100
AcDbBlockReference
  2
3_5_15_16C_2_0_in_023369_0
 10
0.0
 20
0.0
 30
0.0
  0
INSERT
  5
D8
330
6E
100
AcDbEntity
  8
0
100
AcDbBlockReference
  2
4_405015E_Inch_0_in_023369_0
 10
0.0
 20
0.0
 30
0.0
  0
INSERT
  5
109
330
6E
100
AcDbEntity
  8
0
100
AcDbBlockReference
  2
5_023537_Insert_0_in_023369_0
 10
0.0
 20
0.0
 30
0.0
  0
INSERT
  5
135
330
6E
100
AcDbEntity
  8
0
100
AcDbBlockReference
  2
6_060579_0_in_023369_0
 10
0.0
 20
0.0
 30
0.0
  0
ENDBLK
  5
71
330
6E
100
AcDbEntity
  8
0
100
AcDbBlockEnd
  0
BLOCK
  5
8D
330
8B
100
AcDbEntity
  8
0
100
AcDbBlockBegin
  2
2_5_15_16C_1_0_in_023369_0
 70
     2
 10
0.0
 20
0.0
 30
0.0
  3
2_5_15_16C_1_0_in_023369_0
  1

  0
ATTDEF
  5
8F
330
8B
100
AcDbEntity
  8
AM_6
100
AcDbText
 10
9.6875
 20
4.6875
 30
0.0
 40
0.5
  1
E-Type Collar -Inch
100
AcDbAttributeDefinition
  3

  2
NN
 70
     8
280
     0
  0
ATTDEF
  5
90
330
8B
100
AcDbEntity
  8
AM_6
100
AcDbText
 10
9.6875
 20
4.1875
 30
0.0
 40
0.5
  1
E-Type Bearings
100
AcDbAttributeDefinition
  3

  2
NT
 70
     8
280
     0
  0
ATTDEF
  5
91
330
8B
100
AcDbEntity
  8
AM_6
100
AcDbText
 10
9.6875
 20
3.6875
 30
0.0
 40
0.5
  1
5-15/16C
100
AcDbAttributeDefinition
  3

  2
NB
 70
     8
280
     0
  0
ATTDEF
  5
92
330
8B
100
AcDbEntity
  8
AM_6
100
AcDbText
 10
9.6875
 20
3.1875
 30
0.0
 40
0.5
  1
$BORE.C
100
AcDbAttributeDefinition
  3

  2
NBSYN
 70
     8
280
     0
  0
ATTDEF
  5
93
330
8B
100
AcDbEntity
  8
AM_6
100
AcDbText
 10
9.6875
 20
2.6875
 30
0.0
 40
0.5
  1
5-15/16C
100
AcDbAttributeDefinition
  3

  2
LINA
 70
     8
280
     0
  0
ATTDEF
  5
94
330
8B
100
AcDbEntity
  8
AM_6
100
AcDbText
 10
9.6875
 20
2.1875
 30
0.0
 40
0.5
  1
5-15/16
100
AcDbAttributeDefinition
  3

  2
BORE
 70
     8
280
     0
  0
ATTDEF
  5
95
330
8B
100
AcDbEntity
  8
AM_6
100
AcDbText
 10
9.6875
 20
1.6875
 30
0.0
 40
0.5
  1
9.37500
100
AcDbAttributeDefinition
  3

  2
L
 70
     8
280
     0
  0
ATTDEF
  5
96
330
8B
100
AcDbEntity
  8
AM_6
100
AcDbText
 10
9.6875
 20
1.1875
 30
0.0
 40
0.5
  1
9.00
100
AcDbAttributeDefinition
  3

  2
A
 70
     8
280
     0
  0
ATTDEF
  5
97
330
8B
100
AcDbEntity
  8
AM_6
100
AcDbText
 10
9.6875
 20
0.6875
 30
0.0
 40
0.5
  1
4.42
100
AcDbAttributeDefinition
  3

  2
B
 70
     8
280
     0
  0
ATTDEF
  5
98
330
8B
100
AcDbEntity
  8
AM_6
100
AcDbText
 10
9.6875
 20
0.1875
 30
0.0
 40
0.5
  1
7.00
100
AcDbAttributeDefinition
  3

  2
C
 70
     8
280
     0
  0
ATTDEF
  5
99
330
8B
100
AcDbEntity
  8
AM_6
100
AcDbText
 10
9.6875
 20
-0.3125
 30
0.0
 40
0.5
  1
9.84
100
AcDbAttributeDefinition
  3

  2
D
 70
     8
280
     0
  0
ATTDEF
  5
9A
330
8B
100
AcDbEntity
  8
AM_6
100
AcDbText
 10
9.6875
 20
-0.8125
 30
0.0
 40
0.5
  1
0.81
100
AcDbAttributeDefinition
  3

  2
E
 70
     8
280
     0
  0
ATTDEF
  5
9B
330
8B
100
AcDbEntity
  8
AM_6
100
AcDbText
 10
9.6875
 20
-1.3125
 30
0.0
 40
0.5
  1
0.69
100
AcDbAttributeDefinition
  3

  2
F
 70
     8
280
     0
  0
ATTDEF
  5
9C
330
8B
100
AcDbEntity
  8
AM_6
100
AcDbText
 10
9.6875
 20
-1.8125
 30
0.0
 40
0.5
  1
3/4-10
100
AcDbAttributeDefinition
  3

  2
CS
 70
     8
280
     0
  0
ATTDEF
  5
9D
330
8B
100
AcDbEntity
  8
AM_6
100
AcDbText
 10
9.6875
 20
-2.3125
 30
0.0
 40
0.5
  1
0.7500
100
AcDbAttributeDefinition
  3

  2
NDM
 70
     8
280
     0
  0
ATTDEF
  5
9E
330
8B
100
AcDbEntity
  8
AM_6
100
AcDbText
 10
9.6875
 20
-2.8125
 30
0.0
 40
0.5
  1
0.6420
100
AcDbAttributeDefinition
  3

  2
KDM
 70
     8
280
     0
  0
ATTDEF
  5
9F
330
8B
100
AcDbEntity
  8
AM_6
100
AcDbText
 10
9.6875
 20
-3.3125
 30
0.0
 40
0.5
  1
baldor
100
AcDbAttributeDefinition
  3

  2
COMPANY
 70
     8
280
     0
  0
LINE
  5
A2
330
8B
100
AcDbEntity
  8
AM_9
100
AcDbLine
 10
0.3208499999999993
 20
3.50415
 30
0.0
 11
0.320849999999999
 21
4.63335
 31
0.0
  0
LINE
  5
A3
330
8B
100
AcDbEntity
  8
AM_9
100
AcDbLine
 10
-0.3208500000000006
 20
4.633349999999999
 30
0.0
 11
-0.3208500000000006
 21
3.504149999999999
 31
0.0
  0
LINE
  5
A4
330
8B
100
AcDbEntity
  8
AM_9
100
AcDbLine
 10
-3.040241362664974
 20
1.771706635349381
 30
0.0
 11
-4.063644115786759
 21
2.248927176506978
 31
0.0
  0
LINE
  5
A5
330
8B
100
AcDbEntity
  8
AM_9
100
AcDbLine
 10
-4.334838254345765
 20
1.66734946956556
 30
0.0
 11
-3.31143550122398
 21
1.190128928407962
 31
0.0
  0
LINE
  5
A6
330
8B
100
AcDbEntity
  8
AM_9
100
AcDbLine
 10
-0.3208500000000003
 20
3.504150000000001
 30
0.0
 11
0.3208499999999996
 21
3.504149999999999
 31
0.0
  0
LINE
  5
A7
330
8B
100
AcDbEntity
  8
AM_9
100
AcDbLine
 10
-0.32085
 20
3.50415
 30
0.0
 11
-0.3399837545249705
 21
3.485016245475029
 31
0.0
  0
LINE
  5
A8
330
8B
100
AcDbEntity
  8
AM_9
100
AcDbLine
 10
0.3408293683114061
 20
3.484170631688594
 30
0.0
 11
0.3208499999999996
 21
3.504149999999999
 31
0.0
  0
LINE
  5
A9
330
8B
100
AcDbEntity
  8
AM_9
100
AcDbLine
 10
-3.31143550122398
 20
1.190128928407962
 30
0.0
 11
-3.040241362664974
 21
1.771706635349381
 31
0.0
  0
LINE
  5
AA
330
8B
100
AcDbEntity
  8
AM_9
100
AcDbLine
 10
-3.31143550122398
 20
1.190128928407962
 30
0.0
 11
-3.302542654726803
 21
1.165696033462293
 31
0.0
  0
LINE
  5
AB
330
8B
100
AcDbEntity
  8
AM_9
100
AcDbLine
 10
-3.014647532610977
 20
1.781022027669903
 30
0.0
 11
-3.040241362664974
 21
1.771706635349381
 31
0.0
  0
LINE
  5
AC
330
8B
100
AcDbEntity
  8
AM_9
100
AcDbLine
 10
-0.3208500000000006
 20
4.633349999999999
 30
0.0
 11
0.3208499999999993
 21
4.63335
 31
0.0
  0
LINE
  5
AD
330
8B
100
AcDbEntity
  8
AM_9
100
AcDbLine
 10
0.3208499999999993
 20
4.63335
 30
0.0
 11
0.3589185603195395
 21
4.67141856031954
 31
0.0
  0
LINE
  5
AE
330
8B
100
AcDbEntity
  8
AM_9
100
AcDbLine
 10
-0.3610448418212204
 20
4.67354484182122
 30
0.0
 11
-0.3208500000000003
 21
4.633349999999999
 31
0.0
  0
LINE
  5
AF
330
8B
100
AcDbEntity
  8
AM_9
100
AcDbLine
 10
-4.334838254345765
 20
1.66734946956556
 30
0.0
 11
-4.063644115786759
 21
2.248927176506978
 31
0.0
  0
LINE
  5
B0
330
8B
100
AcDbEntity
  8
AM_9
100
AcDbLine
 10
-4.063644115786759
 20
2.248927176506978
 30
0.0
 11
-4.082151126407856
 21
2.299774770290049
 31
0.0
  0
LINE
  5
B1
330
8B
100
AcDbEntity
  8
AM_9
100
AcDbLine
 10
-4.385101460596758
 20
1.649055158611416
 30
0.0
 11
-4.334838254345765
 21
1.66734946956556
 31
0.0
  0
LINE
  5
B3
330
8B
100
AcDbEntity
  8
AM_5
100
AcDbLine
 10
-4.393183161810512
 20
1.634808232418897
 30
0.0
 11
-3.312299472164013
 21
1.130783890361904
 31
0.0
  0
LINE
  5
B4
330
8B
100
AcDbEntity
  8
AM_5
100
AcDbLine
 10
-4.076219465504987
 20
2.314539072696385
 30
0.0
 11
-2.995335775858488
 21
1.810514730639391
 31
0.0
  0
LINE
  5
B5
330
8B
100
AcDbEntity
  8
AM_5
100
AcDbLine
 10
-0.3750000000000006
 20
4.672475922891417
 30
0.0
 11
-0.3750000000000006
 21
3.479852726768764
 31
0.0
  0
LINE
  5
B6
330
8B
100
AcDbEntity
  8
AM_5
100
AcDbLine
 10
0.3749999999999991
 20
4.672475922891417
 30
0.0
 11
0.3749999999999991
 21
3.479852726768763
 31
0.0
  0
CIRCLE
  5
B8
330
8B
100
AcDbEntity
  8
AM_4
100
AcDbCircle
 10
-0.0000000000000001
 20
0.0
 30
0.0
 40
3.5
  0
CIRCLE
  5
B9
330
8B
100
AcDbEntity
  8
AM_4
100
AcDbCircle
 10
-0.0000000000000001
 20
0.0
 30
0.0
 40
4.4575
  0
CIRCLE
  5
BA
330
8B
100
AcDbEntity
  8
AM_4
100
AcDbCircle
 10
0.0000000000000002
 20
0.0
 30
0.0
 40
4.6875
  0
ENDBLK
  5
8E
330
8B
100
AcDbEntity
  8
0
100
AcDbBlockEnd
  0
BLOCK
  5
BD
330
BB
100
AcDbEntity
  8
0
100
AcDbBlockBegin
  2
3_5_15_16C_2_0_in_023369_0
 70
     2
 10
0.0
 20
0.0
 30
0.0
  3
3_5_15_16C_2_0_in_023369_0
  1

  0
ATTDEF
  5
BF
330
BB
100
AcDbEntity
  8
AM_6
100
AcDbText
 10
9.6875
 20
4.672475922891417
 30
0.0
 40
0.5
  1
E-Type Collar -Inch
100
AcDbAttributeDefinition
  3

  2
NN
 70
     8
280
     0
  0
ATTDEF
  5
C0
330
BB
100
AcDbEntity
  8
AM_6
100
AcDbText
 10
9.6875
 20
4.172475922891417
 30
0.0
 40
0.5
  1
E-Type Bearings
100
AcDbAttributeDefinition
  3

  2
NT
 70
     8
280
     0
  0
ATTDEF
  5
C1
330
BB
100
AcDbEntity
  8
AM_6
100
AcDbText
 10
9.6875
 20
3.672475922891417
 30
0.0
 40
0.5
  1
5-15/16C
100
AcDbAttributeDefinition
  3

  2
NB
 70
     8
280
     0
  0
ATTDEF
  5
C2
330
BB
100
AcDbEntity
  8
AM_6
100
AcDbText
 10
9.6875
 20
3.172475922891417
 30
0.0
 40
0.5
  1
$BORE.C
100
AcDbAttributeDefinition
  3

  2
NBSYN
 70
     8
280
     0
  0
ATTDEF
  5
C3
330
BB
100
AcDbEntity
  8
AM_6
100
AcDbText
 10
9.6875
 20
2.672475922891417
 30
0.0
 40
0.5
  1
5-15/16C
100
AcDbAttributeDefinition
  3

  2
LINA
 70
     8
280
     0
  0
ATTDEF
  5
C4
330
BB
100
AcDbEntity
  8
AM_6
100
AcDbText
 10
9.6875
 20
2.172475922891417
 30
0.0
 40
0.5
  1
5-15/16
100
AcDbAttributeDefinition
  3

  2
BORE
 70
     8
280
     0
  0
ATTDEF
  5
C5
330
BB
100
AcDbEntity
  8
AM_6
100
AcDbText
 10
9.6875
 20
1.672475922891417
 30
0.0
 40
0.5
  1
9.37500
100
AcDbAttributeDefinition
  3

  2
L
 70
     8
280
     0
  0
ATTDEF
  5
C6
330
BB
100
AcDbEntity
  8
AM_6
100
AcDbText
 10
9.6875
 20
1.172475922891417
 30
0.0
 40
0.5
  1
9.00
100
AcDbAttributeDefinition
  3

  2
A
 70
     8
280
     0
  0
ATTDEF
  5
C7
330
BB
100
AcDbEntity
  8
AM_6
100
AcDbText
 10
9.6875
 20
0.672475922891417
 30
0.0
 40
0.5
  1
4.42
100
AcDbAttributeDefinition
  3

  2
B
 70
     8
280
     0
  0
ATTDEF
  5
C8
330
BB
100
AcDbEntity
  8
AM_6
100
AcDbText
 10
9.6875
 20
0.172475922891417
 30
0.0
 40
0.5
  1
7.00
100
AcDbAttributeDefinition
  3

  2
C
 70
     8
280
     0
  0
ATTDEF
  5
C9
330
BB
100
AcDbEntity
  8
AM_6
100
AcDbText
 10
9.6875
 20
-0.327524077108583
 30
0.0
 40
0.5
  1
9.84
100
AcDbAttributeDefinition
  3

  2
D
 70
     8
280
     0
  0
ATTDEF
  5
CA
330
BB
100
AcDbEntity
  8
AM_6
100
AcDbText
 10
9.6875
 20
-0.827524077108583
 30
0.0
 40
0.5
  1
0.81
100
AcDbAttributeDefinition
  3

  2
E
 70
     8
280
     0
  0
ATTDEF
  5
CB
330
BB
100
AcDbEntity
  8
AM_6
100
AcDbText
 10
9.6875
 20
-1.327524077108583
 30
0.0
 40
0.5
  1
0.69
100
AcDbAttributeDefinition
  3

  2
F
 70
     8
280
     0
  0
ATTDEF
  5
CC
330
BB
100
AcDbEntity
  8
AM_6
100
AcDbText
 10
9.6875
 20
-1.827524077108583
 30
0.0
 40
0.5
  1
3/4-10
100
AcDbAttributeDefinition
  3

  2
CS
 70
     8
280
     0
  0
ATTDEF
  5
CD
330
BB
100
AcDbEntity
  8
AM_6
100
AcDbText
 10
9.6875
 20
-2.327524077108583
 30
0.0
 40
0.5
  1
0.7500
100
AcDbAttributeDefinition
  3

  2
NDM
 70
     8
280
     0
  0
ATTDEF
  5
CE
330
BB
100
AcDbEntity
  8
AM_6
100
AcDbText
 10
9.6875
 20
-2.827524077108583
 30
0.0
 40
0.5
  1
0.6420
100
AcDbAttributeDefinition
  3

  2
KDM
 70
     8
280
     0
  0
ATTDEF
  5
CF
330
BB
100
AcDbEntity
  8
AM_6
100
AcDbText
 10
9.6875
 20
-3.327524077108583
 30
0.0
 40
0.5
  1
baldor
100
AcDbAttributeDefinition
  3

  2
COMPANY
 70
     8
280
     0
  0
LINE
  5
D0
330
BB
100
AcDbEntity
  8
AM_9
100
AcDbLine
 10
-3.302542654726803
 20
1.165696033462293
 30
0.0
 11
-3.301771690049723
 21
1.163577825420818
 31
0.0
  0
LINE
  5
D1
330
BB
100
AcDbEntity
  8
AM_9
100
AcDbLine
 10
-4.082151126407856
 20
2.299774770290049
 30
0.0
 11
-4.083085939746611
 21
2.302343148829683
 31
0.0
  0
ARC
  5
D2
330
BB
100
AcDbEntity
  8
AM_9
100
AcDbCircle
 10
0.0000000000000002
 20
0.0
 30
0.0
 40
4.6875
100
AcDbArc
 50
245.0
 51
65.0
  0
LINE
  5
D3
330
BB
100
AcDbEntity
  8
AM_5
100
AcDbLine
 10
-0.3749999999999999
 20
4.672475922891417
 30
0.0
 11
-0.3749999999999999
 21
3.479852726768764
 31
0.0
  0
LINE
  5
D4
330
BB
100
AcDbEntity
  8
AM_5
100
AcDbLine
 10
0.3749999999999999
 20
4.672475922891417
 30
0.0
 11
0.3749999999999999
 21
3.479852726768764
 31
0.0
  0
LINE
  5
D5
330
BB
100
AcDbEntity
  8
AM_5
100
AcDbLine
 10
-4.393183161810511
 20
1.634808232418898
 30
0.0
 11
-3.312299472164013
 21
1.130783890361904
 31
0.0
  0
LINE
  5
D6
330
BB
100
AcDbEntity
  8
AM_5
100
AcDbLine
 10
-4.076219465504987
 20
2.314539072696385
 30
0.0
 11
-2.995335775858488
 21
1.810514730639392
 31
0.0
  0
ENDBLK
  5
BE
330
BB
100
AcDbEntity
  8
0
100
AcDbBlockEnd
  0
BLOCK
  5
D9
330
D7
100
AcDbEntity
  8
0
100
AcDbBlockBegin
  2
4_405015E_Inch_0_in_023369_0
 70
     2
 10
0.0
 20
0.0
 30
0.0
  3
4_405015E_Inch_0_in_023369_0
  1

  0
ATTDEF
  5
DB
330
D7
100
AcDbEntity
  8
AM_6
100
AcDbText
 10
5.21875
 20
7.100000000000001
 30
0.0
 40
0.5
  1
405015E -Inch
100
AcDbAttributeDefinition
  3

  2
NN
 70
     8
280
     0
  0
ATTDEF
  5
DC
330
D7
100
AcDbEntity
  8
AM_6
100
AcDbText
 10
5.21875
 20
6.600000000000001
 30
0.0
 40
0.5
  1
Grease Fitting
100
AcDbAttributeDefinition
  3

  2
NT
 70
     8
280
     0
  0
ATTDEF
  5
DD
330
D7
100
AcDbEntity
  8
AM_6
100
AcDbText
 10
5.21875
 20
6.100000000000001
 30
0.0
 40
0.5
  1
405015E-Inch
100
AcDbAttributeDefinition
  3

  2
NB
 70
     8
280
     0
  0
ATTDEF
  5
DE
330
D7
100
AcDbEntity
  8
AM_6
100
AcDbText
 10
5.21875
 20
5.600000000000001
 30
0.0
 40
0.5
  1
$MN.-Inch
100
AcDbAttributeDefinition
  3

  2
NBSYN
 70
     8
280
     0
  0
ATTDEF
  5
DF
330
D7
100
AcDbEntity
  8
AM_6
100
AcDbText
 10
5.21875
 20
5.100000000000001
 30
0.0
 40
0.5
  1
405015E
100
AcDbAttributeDefinition
  3

  2
LINA
 70
     8
280
     0
  0
ATTDEF
  5
E0
330
D7
100
AcDbEntity
  8
AM_6
100
AcDbText
 10
5.21875
 20
4.600000000000001
 30
0.0
 40
0.5
  1
405015E
100
AcDbAttributeDefinition
  3

  2
MN
 70
     8
280
     0
  0
ATTDEF
  5
E1
330
D7
100
AcDbEntity
  8
AM_6
100
AcDbText
 10
5.21875
 20
4.100000000000001
 30
0.0
 40
0.5
  1
1/8 x 27PTF
100
AcDbAttributeDefinition
  3

  2
T
 70
     8
280
     0
  0
ATTDEF
  5
E2
330
D7
100
AcDbEntity
  8
AM_6
100
AcDbText
 10
5.21875
 20
3.600000000000001
 30
0.0
 40
0.5
  1
baldor
100
AcDbAttributeDefinition
  3

  2
COMPANY
 70
     8
280
     0
  0
LINE
  5
E3
330
D7
100
AcDbEntity
  8
AM_9
100
AcDbLine
 10
0.105
 20
6.93
 30
0.0
 11
0.105
 21
6.96
 31
0.0
  0
LINE
  5
E4
330
D7
100
AcDbEntity
  8
AM_9
100
AcDbLine
 10
-0.105
 20
6.96
 30
0.0
 11
-0.105
 21
6.93
 31
0.0
  0
LINE
  5
E5
330
D7
100
AcDbEntity
  8
AM_9
100
AcDbLine
 10
-0.105
 20
6.93
 30
0.0
 11
-0.1188200907348975
 21
6.897753121618573
 31
0.0
  0
LINE
  5
E6
330
D7
100
AcDbEntity
  8
AM_9
100
AcDbLine
 10
0.1188200907348975
 20
6.897753121618573
 30
0.0
 11
0.105
 21
6.93
 31
0.0
  0
LINE
  5
E7
330
D7
100
AcDbEntity
  8
AM_9
100
AcDbLine
 10
-0.105
 20
6.93
 30
0.0
 11
0.105
 21
6.93
 31
0.0
  0
LINE
  5
E8
330
D7
100
AcDbEntity
  8
AM_9
100
AcDbLine
 10
0.105
 20
6.96
 30
0.0
 11
0.135
 21
7.02
 31
0.0
  0
LINE
  5
E9
330
D7
100
AcDbEntity
  8
AM_9
100
AcDbLine
 10
-0.135
 20
7.02
 30
0.0
 11
-0.105
 21
6.96
 31
0.0
  0
LINE
  5
EA
330
D7
100
AcDbEntity
  8
AM_9
100
AcDbLine
 10
-0.105
 20
6.96
 30
0.0
 11
0.105
 21
6.96
 31
0.0
  0
LINE
  5
EB
330
D7
100
AcDbEntity
  8
AM_9
100
AcDbLine
 10
-0.1026779019331875
 20
7.100000000000001
 30
0.0
 11
-0.135
 21
7.02
 31
0.0
  0
LINE
  5
EC
330
D7
100
AcDbEntity
  8
AM_9
100
AcDbLine
 10
0.135
 20
7.02
 30
0.0
 11
0.1026779019331875
 21
7.100000000000001
 31
0.0
  0
LINE
  5
ED
330
D7
100
AcDbEntity
  8
AM_9
100
AcDbLine
 10
-0.1026779019331875
 20
7.100000000000001
 30
0.0
 11
0.1026779019331875
 21
7.100000000000001
 31
0.0
  0
LINE
  5
EE
330
D7
100
AcDbEntity
  8
AM_9
100
AcDbLine
 10
-0.135
 20
7.02
 30
0.0
 11
0.135
 21
7.02
 31
0.0
  0
LINE
  5
EF
330
D7
100
AcDbEntity
  8
AM_9
100
AcDbLine
 10
-0.1188200907348975
 20
6.897753121618573
 30
0.0
 11
-0.1725340532830154
 21
6.843318198540882
 31
0.0
  0
LINE
  5
F0
330
D7
100
AcDbEntity
  8
AM_9
100
AcDbLine
 10
0.1725340532830154
 20
6.843318198540882
 30
0.0
 11
0.1188200907348975
 21
6.897753121618573
 31
0.0
  0
LINE
  5
F1
330
D7
100
AcDbEntity
  8
AM_9
100
AcDbLine
 10
-0.1188200907348975
 20
6.897753121618573
 30
0.0
 11
0.1188200907348975
 21
6.897753121618573
 31
0.0
  0
LINE
  5
F2
330
D7
100
AcDbEntity
  8
AM_9
100
AcDbLine
 10
-0.21875
 20
6.824999999999999
 30
0.0
 11
-0.21875
 21
6.734067599696615
 31
0.0
  0
LINE
  5
F3
330
D7
100
AcDbEntity
  8
AM_9
100
AcDbLine
 10
-0.21875
 20
6.824999999999999
 30
0.0
 11
0.21875
 21
6.824999999999999
 31
0.0
  0
LINE
  5
F4
330
D7
100
AcDbEntity
  8
AM_9
100
AcDbLine
 10
0.21875
 20
6.734067599696615
 30
0.0
 11
0.21875
 21
6.824999999999999
 31
0.0
  0
LINE
  5
F5
330
D7
100
AcDbEntity
  8
AM_9
100
AcDbLine
 10
0.161902872472269
 20
6.460000000000001
 30
0.0
 11
0.1986176267812154
 21
6.496714754308947
 31
0.0
  0
LINE
  5
F6
330
D7
100
AcDbEntity
  8
AM_9
100
AcDbLine
 10
-0.1986176267812154
 20
6.496714754308947
 30
0.0
 11
-0.161902872472269
 21
6.460000000000001
 31
0.0
  0
LINE
  5
F7
330
D7
100
AcDbEntity
  8
AM_9
100
AcDbLine
 10
-0.161902872472269
 20
6.460000000000001
 30
0.0
 11
0.161902872472269
 21
6.460000000000001
 31
0.0
  0
LINE
  5
F8
330
D7
100
AcDbEntity
  8
AM_9
100
AcDbLine
 10
0.1986176267812154
 20
6.496714754308947
 30
0.0
 11
0.2057518972230696
 21
6.725
 31
0.0
  0
LINE
  5
F9
330
D7
100
AcDbEntity
  8
AM_9
100
AcDbLine
 10
-0.2057518972230696
 20
6.725
 30
0.0
 11
-0.1986176267812154
 21
6.496714754308947
 31
0.0
  0
LINE
  5
FA
330
D7
100
AcDbEntity
  8
AM_9
100
AcDbLine
 10
-0.1986176267812154
 20
6.496714754308947
 30
0.0
 11
0.1986176267812154
 21
6.496714754308947
 31
0.0
  0
LINE
  5
FB
330
D7
100
AcDbEntity
  8
AM_9
100
AcDbLine
 10
-0.1725340532830154
 20
6.843318198540882
 30
0.0
 11
-0.21375
 21
6.824999999999999
 31
0.0
  0
LINE
  5
FC
330
D7
100
AcDbEntity
  8
AM_9
100
AcDbLine
 10
0.21375
 20
6.824999999999999
 30
0.0
 11
0.1725340532830154
 21
6.843318198540882
 31
0.0
  0
LINE
  5
FD
330
D7
100
AcDbEntity
  8
AM_9
100
AcDbLine
 10
-0.1725340532830154
 20
6.843318198540882
 30
0.0
 11
0.1725340532830154
 21
6.843318198540882
 31
0.0
  0
LWPOLYLINE
  5
FE
330
D7
100
AcDbEntity
  8
AM_9
100
AcDbPolyline
 90
        3
 70
     0
 43
0.0
 10
0.109375
 20
6.824999999999999
 10
0.1640625
 20
6.822606619214966
 10
0.21875
 20
6.815932400303386
  0
LWPOLYLINE
  5
FF
330
D7
100
AcDbEntity
  8
AM_9
100
AcDbPolyline
 90
        3
 70
     0
 43
0.0
 10
0.0
 20
6.815932400303386
 10
0.0544416102741496
 20
6.82258547505038
 10
0.109375
 20
6.824999999999999
  0
LINE
  5
100
330
D7
100
AcDbEntity
  8
AM_9
100
AcDbLine
 10
0.0
 20
6.815932400303386
 30
0.0
 11
0.0
 21
6.734067599696615
 31
0.0
  0
LWPOLYLINE
  5
101
330
D7
100
AcDbEntity
  8
AM_9
100
AcDbPolyline
 90
        3
 70
     0
 43
0.0
 10
-0.1093749999999999
 20
6.824999999999999
 10
-0.0546874999999999
 20
6.822606619214966
 10
0.0
 20
6.815932400303386
  0
LWPOLYLINE
  5
102
330
D7
100
AcDbEntity
  8
AM_9
100
AcDbPolyline
 90
        3
 70
     0
 43
0.0
 10
-0.21875
 20
6.815932400303386
 10
-0.1643083897258504
 20
6.82258547505038
 10
-0.1093749999999999
 20
6.824999999999999
  0
LINE
  5
103
330
D7
100
AcDbEntity
  8
AM_5
100
AcDbLine
 10
0.1681491248523479
 20
6.659870087748463
 30
0.0
 11
0.161902872472269
 21
6.460000000000001
 31
0.0
  0
LINE
  5
104
330
D7
100
AcDbEntity
  8
AM_5
100
AcDbLine
 10
0.2057518972230696
 20
6.725
 30
0.0
 11
0.1681491248523479
 21
6.659870087748463
 31
0.0
  0
LINE
  5
105
330
D7
100
AcDbEntity
  8
AM_5
100
AcDbLine
 10
-0.2037164857515568
 20
6.659870087748463
 30
0.0
 11
0.2037164857515568
 21
6.659870087748463
 31
0.0
  0
LINE
  5
106
330
D7
100
AcDbEntity
  8
AM_5
100
AcDbLine
 10
-0.1681491248523479
 20
6.659870087748463
 30
0.0
 11
-0.161902872472269
 21
6.460000000000001
 31
0.0
  0
LINE
  5
107
330
D7
100
AcDbEntity
  8
AM_5
100
AcDbLine
 10
-0.2057518972230696
 20
6.725
 30
0.0
 11
-0.1681491248523479
 21
6.659870087748463
 31
0.0
  0
ENDBLK
  5
DA
330
D7
100
AcDbEntity
  8
0
100
AcDbBlockEnd
  0
BLOCK
  5
10A
330
108
100
AcDbEntity
  8
0
100
AcDbBlockBegin
  2
5_023537_Insert_0_in_023369_0
 70
     2
 10
0.0
 20
0.0
 30
0.0
  3
5_023537_Insert_0_in_023369_0
  1

  0
ATTDEF
  5
10C
330
108
100
AcDbEntity
  8
AM_6
100
AcDbText
 10
10.76085931090146
 20
6.725
 30
0.0
 40
0.5
  1
S-1 Unit -Insert -Inch
100
AcDbAttributeDefinition
  3

  2
NN
 70
     8
280
     0
  0
ATTDEF
  5
10D
330
108
100
AcDbEntity
  8
AM_6
100
AcDbText
 10
10.76085931090146
 20
6.225
 30
0.0
 40
0.5
  1
Double-Interlock Bearings
100
AcDbAttributeDefinition
  3

  2
NT
 70
     8
280
     0
  0
ATTDEF
  5
10E
330
108
100
AcDbEntity
  8
AM_6
100
AcDbText
 10
10.76085931090146
 20
5.725
 30
0.0
 40
0.5
  1
023537-Insert
100
AcDbAttributeDefinition
  3

  2
NB
 70
     8
280
     0
  0
ATTDEF
  5
10F
330
108
100
AcDbEntity
  8
AM_6
100
AcDbText
 10
10.76085931090146
 20
5.225
 30
0.0
 40
0.5
  1
$PN.-Insert
100
AcDbAttributeDefinition
  3

  2
NBSYN
 70
     8
280
     0
  0
ATTDEF
  5
110
330
108
100
AcDbEntity
  8
AM_6
100
AcDbText
 10
10.76085931090146
 20
4.725
 30
0.0
 40
0.5
  1
023537-Insert
100
AcDbAttributeDefinition
  3

  2
LINA
 70
     8
280
     0
  0
ATTDEF
  5
111
330
108
100
AcDbEntity
  8
AM_6
100
AcDbText
 10
10.76085931090146
 20
4.225
 30
0.0
 40
0.5
  1
5-15/16
100
AcDbAttributeDefinition
  3

  2
SS
 70
     8
280
     0
  0
ATTDEF
  5
112
330
108
100
AcDbEntity
  8
AM_6
100
AcDbText
 10
10.76085931090146
 20
3.725
 30
0.0
 40
0.5
  1
023537
100
AcDbAttributeDefinition
  3

  2
PN
 70
     8
280
     0
  0
ATTDEF
  5
113
330
108
100
AcDbEntity
  8
AM_6
100
AcDbText
 10
10.76085931090146
 20
3.225
 30
0.0
 40
0.5
  1
S1U-DI-515R
100
AcDbAttributeDefinition
  3

  2
DESCRIPTION
 70
     8
280
     0
  0
ATTDEF
  5
114
330
108
100
AcDbEntity
  8
AM_6
100
AcDbText
 10
10.76085931090146
 20
2.725
 30
0.0
 40
0.5
  1
9
100
AcDbAttributeDefinition
  3

  2
A
 70
     8
280
     0
  0
ATTDEF
  5
115
330
108
100
AcDbEntity
  8
AM_6
100
AcDbText
 10
10.76085931090146
 20
2.225
 30
0.0
 40
0.5
  1
6-1/16
100
AcDbAttributeDefinition
  3

  2
B
 70
     8
280
     0
  0
ATTDEF
  5
116
330
108
100
AcDbEntity
  8
AM_6
100
AcDbText
 10
10.76085931090146
 20
1.725
 30
0.0
 40
0.5
  1
2-7/8
100
AcDbAttributeDefinition
  3

  2
C
 70
     8
280
     0
  0
ATTDEF
  5
117
330
108
100
AcDbEntity
  8
AM_6
100
AcDbText
 10
10.76085931090146
 20
1.225
 30
0.0
 40
0.5
  1
11.188
100
AcDbAttributeDefinition
  3

  2
EM
 70
     8
280
     0
  0
ATTDEF
  5
118
330
108
100
AcDbEntity
  8
AM_6
100
AcDbText
 10
10.76085931090146
 20
0.7249999999999996
 30
0.0
 40
0.5
  1
11-3/16
100
AcDbAttributeDefinition
  3

  2
EC
 70
     8
280
     0
  0
ATTDEF
  5
119
330
108
100
AcDbEntity
  8
AM_6
100
AcDbText
 10
10.76085931090146
 20
0.2249999999999996
 30
0.0
 40
0.5
  1
15/16
100
AcDbAttributeDefinition
  3

  2
H
 70
     8
280
     0
  0
ATTDEF
  5
11A
330
108
100
AcDbEntity
  8
AM_6
100
AcDbText
 10
10.76085931090146
 20
-0.2750000000000004
 30
0.0
 40
0.5
  1
11.875
100
AcDbAttributeDefinition
  3

  2
K
 70
     8
280
     0
  0
ATTDEF
  5
11B
330
108
100
AcDbEntity
  8
AM_6
100
AcDbText
 10
10.76085931090146
 20
-0.7750000000000004
 30
0.0
 40
0.5
  1
-0.001 to -0.004
100
AcDbAttributeDefinition
  3

  2
TOL
 70
     8
280
     0
  0
ATTDEF
  5
11C
330
108
100
AcDbEntity
  8
AM_6
100
AcDbText
 10
10.76085931090146
 20
-1.275
 30
0.0
 40
0.5
  1
9-3/8
100
AcDbAttributeDefinition
  3

  2
L
 70
     8
280
     0
  0
ATTDEF
  5
11D
330
108
100
AcDbEntity
  8
AM_6
100
AcDbText
 10
10.76085931090146
 20
-1.775
 30
0.0
 40
0.5
  1
7.10
100
AcDbAttributeDefinition
  3

  2
M
 70
     8
280
     0
  0
ATTDEF
  5
11E
330
108
100
AcDbEntity
  8
AM_6
100
AcDbText
 10
10.76085931090146
 20
-2.275
 30
0.0
 40
0.5
  1
baldor
100
AcDbAttributeDefinition
  3

  2
COMPANY
 70
     8
280
     0
  0
LINE
  5
11F
330
108
100
AcDbEntity
  8
AM_9
100
AcDbLine
 10
0.3995694644774593
 20
6.725
 30
0.0
 11
-0.3995694644774593
 21
6.725
 31
0.0
  0
ARC
  5
120
330
108
100
AcDbEntity
  8
AM_9
100
AcDbCircle
 10
-0.3995694644774585
 20
6.643999999999998
 30
0.0
 40
0.0810000000000013
100
AcDbArc
 50
90.0
 51
170.9999999999998
  0
ARC
  5
121
330
108
100
AcDbEntity
  8
AM_9
100
AcDbCircle
 10
0.3995694644774584
 20
6.643999999999998
 30
0.0
 40
0.0810000000000016
100
AcDbArc
 50
9.000000000000066
 51
90.0
  0
LINE
  5
122
330
108
100
AcDbEntity
  8
AM_9
100
AcDbLine
 10
0.4795722200656662
 20
6.656671191668257
 30
0.0
 11
-0.4795722200656662
 21
6.656671191668257
 31
0.0
  0
LINE
  5
123
330
108
100
AcDbEntity
  8
AM_9
100
AcDbLine
 10
-0.4795722200656662
 20
6.656671191668257
 30
0.0
 11
-0.5982637254984485
 21
5.907282519462965
 31
0.0
  0
LINE
  5
124
330
108
100
AcDbEntity
  8
AM_9
100
AcDbLine
 10
0.5982637254984485
 20
5.907282519462965
 30
0.0
 11
0.4795722200656662
 21
6.656671191668257
 31
0.0
  0
LINE
  5
125
330
108
100
AcDbEntity
  8
AM_9
100
AcDbLine
 10
-3.321929348259438
 20
1.10217303776341
 30
0.0
 11
-2.836607061899733
 21
0.8758635389605864
 31
0.0
  0
LINE
  5
126
330
108
100
AcDbEntity
  8
AM_9
100
AcDbLine
 10
-2.494917348260095
 20
1.610267123137253
 30
0.0
 11
-2.980137449090418
 21
1.836528972045174
 31
0.0
  0
LINE
  5
127
330
108
100
AcDbEntity
  8
AM_9
100
AcDbLine
 10
-0.405
 20
3.477077113206815
 30
0.0
 11
-0.405
 21
2.941028728376518
 31
0.0
  0
LINE
  5
128
330
108
100
AcDbEntity
  8
AM_9
100
AcDbLine
 10
0.405
 20
2.941685785878807
 30
0.0
 11
0.405
 21
3.476490787830035
 31
0.0
  0
LINE
  5
12B
330
108
100
AcDbEntity
  8
AM_7
100
AcDbLine
 10
0.2124158875867149
 20
-0.0990511550954764
 30
0.0
 11
-4.460733639321012
 21
2.080074257005005
 31
0.0
  0
LINE
  5
12C
330
108
100
AcDbEntity
  8
AM_4
100
AcDbLine
 10
0.5982637254984473
 20
5.907282519462965
 30
0.0
 11
-0.5982637254984473
 21
5.907282519462965
 31
0.0
  0
CIRCLE
  5
12D
330
108
100
AcDbEntity
  8
AM_4
100
AcDbCircle
 10
0.0
 20
0.0
 30
0.0
 40
5.760859310901457
  0
CIRCLE
  5
12E
330
108
100
AcDbEntity
  8
AM_4
100
AcDbCircle
 10
0.0
 20
0.0
 30
0.0
 40
5.59375
  0
CIRCLE
  5
12F
330
108
100
AcDbEntity
  8
AM_4
100
AcDbCircle
 10
0.0
 20
0.0
 30
0.0
 40
5.512750000000002
  0
CIRCLE
  5
130
330
108
100
AcDbEntity
  8
AM_4
100
AcDbCircle
 10
0.0000000000000001
 20
-0.0000000000000003
 30
0.0
 40
4.85339470526564
  0
CIRCLE
  5
131
330
108
100
AcDbEntity
  8
AM_4
100
AcDbCircle
 10
0.0
 20
-0.0000000000000003
 30
0.0
 40
4.807692307692307
  0
CIRCLE
  5
132
330
108
100
AcDbEntity
  8
AM_4
100
AcDbCircle
 10
0.0
 20
0.0
 30
0.0
 40
2.96875
  0
CIRCLE
  5
133
330
108
100
AcDbEntity
  8
AM_4
100
AcDbCircle
 10
0.0
 20
0.0
 30
0.0
 40
3.5
  0
ENDBLK
  5
10B
330
108
100
AcDbEntity
  8
0
100
AcDbBlockEnd
  0
BLOCK
  5
136
330
134
100
AcDbEntity
  8
0
100
AcDbBlockBegin
  2
6_060579_0_in_023369_0
 70
     2
 10
0.0
 20
0.0
 30
0.0
  3
6_060579_0_in_023369_0
  1

  0
ATTDEF
  5
138
330
134
100
AcDbEntity
  8
AM_6
100
AcDbText
 10
16.84375
 20
11.5828125
 30
0.0
 40
0.5
  1
H2S-K/DI (H2S-K/DI-E) and H4S-K/DI (H4S-K/DI-E)-Inch
100
AcDbAttributeDefinition
  3

  2
NN
 70
     8
280
     0
  0
ATTDEF
  5
139
330
134
100
AcDbEntity
  8
AM_6
100
AcDbText
 10
16.84375
 20
11.0828125
 30
0.0
 40
0.5
  1
Double-Interlock 2 Bolt and 4 Bolt Pillow Block Bearings
100
AcDbAttributeDefinition
  3

  2
NT
 70
     8
280
     0
  0
ATTDEF
  5
13A
330
134
100
AcDbEntity
  8
AM_6
100
AcDbText
 10
16.84375
 20
10.5828125
 30
0.0
 40
0.5
  1
060579
100
AcDbAttributeDefinition
  3

  2
NB
 70
     8
280
     0
  0
ATTDEF
  5
13B
330
134
100
AcDbEntity
  8
AM_6
100
AcDbText
 10
16.84375
 20
10.0828125
 30
0.0
 40
0.5
  1
$PN.
100
AcDbAttributeDefinition
  3

  2
NBSYN
 70
     8
280
     0
  0
ATTDEF
  5
13C
330
134
100
AcDbEntity
  8
AM_6
100
AcDbText
 10
16.84375
 20
9.582812499999998
 30
0.0
 40
0.5
  1
060579
100
AcDbAttributeDefinition
  3

  2
LINA
 70
     8
280
     0
  0
ATTDEF
  5
13D
330
134
100
AcDbEntity
  8
AM_6
100
AcDbText
 10
16.84375
 20
9.082812499999998
 30
0.0
 40
0.5
  1
060579
100
AcDbAttributeDefinition
  3

  2
PN
 70
     8
280
     0
  0
ATTDEF
  5
13E
330
134
100
AcDbEntity
  8
AM_6
100
AcDbText
 10
16.84375
 20
8.582812499999998
 30
0.0
 40
0.5
  1
5-7/16 DI PB HOUSING 4B NE
100
AcDbAttributeDefinition
  3

  2
DESCRIPTION
 70
     8
280
     0
  0
ATTDEF
  5
13F
330
134
100
AcDbEntity
  8
AM_6
100
AcDbText
 10
16.84375
 20
8.082812499999998
 30
0.0
 40
0.5
  1
Non-Expansion Type
100
AcDbAttributeDefinition
  3

  2
EF
 70
     8
280
     0
  0
ATTDEF
  5
140
330
134
100
AcDbEntity
  8
AM_6
100
AcDbText
 10
16.84375
 20
7.582812499999998
 30
0.0
 40
0.5
  1
9
100
AcDbAttributeDefinition
  3

  2
A
 70
     8
280
     0
  0
ATTDEF
  5
141
330
134
100
AcDbEntity
  8
AM_6
100
AcDbText
 10
16.84375
 20
7.082812499999998
 30
0.0
 40
0.5
  1
23-11/16
100
AcDbAttributeDefinition
  3

  2
B
 70
     8
280
     0
  0
ATTDEF
  5
142
330
134
100
AcDbEntity
  8
AM_6
100
AcDbText
 10
16.84375
 20
6.582812499999998
 30
0.0
 40
0.5
  1
6.00
100
AcDbAttributeDefinition
  3

  2
C
 70
     8
280
     0
  0
ATTDEF
  5
143
330
134
100
AcDbEntity
  8
AM_6
100
AcDbText
 10
16.84375
 20
6.082812499999998
 30
0.0
 40
0.5
  1
19.00
100
AcDbAttributeDefinition
  3

  2
DMIN
 70
     8
280
     0
  0
ATTDEF
  5
144
330
134
100
AcDbEntity
  8
AM_6
100
AcDbText
 10
16.84375
 20
5.582812499999998
 30
0.0
 40
0.5
  1
20-5/8
100
AcDbAttributeDefinition
  3

  2
DMAX
 70
     8
280
     0
  0
ATTDEF
  5
145
330
134
100
AcDbEntity
  8
AM_6
100
AcDbText
 10
16.84375
 20
5.082812499999998
 30
0.0
 40
0.5
  1
3
100
AcDbAttributeDefinition
  3

  2
E
 70
     8
280
     0
  0
ATTDEF
  5
146
330
134
100
AcDbEntity
  8
AM_6
100
AcDbText
 10
16.84375
 20
4.582812499999998
 30
0.0
 40
0.5
  1
1
100
AcDbAttributeDefinition
  3

  2
F
 70
     8
280
     0
  0
ATTDEF
  5
147
330
134
100
AcDbEntity
  8
AM_6
100
AcDbText
 10
16.84375
 20
4.082812499999998
 30
0.0
 40
0.5
  1
1-15/16
100
AcDbAttributeDefinition
  3

  2
G
 70
     8
280
     0
  0
ATTDEF
  5
148
330
134
100
AcDbEntity
  8
AM_6
100
AcDbText
 10
16.84375
 20
3.582812499999998
 30
0.0
 40
0.5
  1
3-1/2
100
AcDbAttributeDefinition
  3

  2
H
 70
     8
280
     0
  0
ATTDEF
  5
149
330
134
100
AcDbEntity
  8
AM_6
100
AcDbText
 10
16.84375
 20
3.082812499999998
 30
0.0
 40
0.5
  1
14-19/32
100
AcDbAttributeDefinition
  3

  2
J
 70
     8
280
     0
  0
ATTDEF
  5
14A
330
134
100
AcDbEntity
  8
AM_6
100
AcDbText
 10
16.84375
 20
2.582812499999998
 30
0.0
 40
0.5
  1
9-3/8
100
AcDbAttributeDefinition
  3

  2
L
 70
     8
280
     0
  0
ATTDEF
  5
14B
330
134
100
AcDbEntity
  8
AM_6
100
AcDbText
 10
16.84375
 20
2.082812499999998
 30
0.0
 40
0.5
  1
7-1/8
100
AcDbAttributeDefinition
  3

  2
M
 70
     8
280
     0
  0
ATTDEF
  5
14C
330
134
100
AcDbEntity
  8
AM_6
100
AcDbText
 10
16.84375
 20
1.582812499999998
 30
0.0
 40
0.5
  1
15-1/8
100
AcDbAttributeDefinition
  3

  2
P
 70
     8
280
     0
  0
ATTDEF
  5
14D
330
134
100
AcDbEntity
  8
AM_6
100
AcDbText
 10
16.84375
 20
1.082812499999998
 30
0.0
 40
0.5
  1
baldor
100
AcDbAttributeDefinition
  3

  2
COMPANY
 70
     8
280
     0
  0
LINE
  5
14E
330
134
100
AcDbEntity
  8
AM_9
100
AcDbLine
 10
1.588125
 20
7.56875
 30
0.0
 11
1.588125
 21
7.46875
 31
0.0
  0
LINE
  5
14F
330
134
100
AcDbEntity
  8
AM_9
100
AcDbLine
 10
-0.3781249999999994
 20
7.56875
 30
0.0
 11
-0.3781249999999994
 21
7.46875
 31
0.0
  0
LINE
  5
150
330
134
100
AcDbEntity
  8
AM_9
100
AcDbLine
 10
-7.152875143316117
 20
0.875
 30
0.0
 11
-7.152875143316117
 21
0.0
 31
0.0
  0
LINE
  5
151
330
134
100
AcDbEntity
  8
AM_9
100
AcDbLine
 10
7.152875149354022
 20
0.875
 30
0.0
 11
7.152875149354022
 21
0.0
 31
0.0
  0
LINE
  5
152
330
134
100
AcDbEntity
  8
AM_9
100
AcDbLine
 10
-7.231140004213396
 20
0.875
 30
0.0
 11
-7.231140004213396
 21
0.0
 31
0.0
  0
LINE
  5
153
330
134
100
AcDbEntity
  8
AM_9
100
AcDbLine
 10
-1.5
 20
7.46875
 30
0.0
 11
-1.5
 21
5.745868370924136
 31
0.0
  0
LINE
  5
154
330
134
100
AcDbEntity
  8
AM_9
100
AcDbLine
 10
1.5
 20
5.746268149873701
 30
0.0
 11
1.5
 21
7.46875
 31
0.0
  0
LINE
  5
155
330
134
100
AcDbEntity
  8
AM_9
100
AcDbLine
 10
7.187499999999998
 20
0.0
 30
0.0
 11
7.187499999999998
 21
-3.625
 31
0.0
  0
LINE
  5
156
330
134
100
AcDbEntity
  8
AM_9
100
AcDbLine
 10
7.231140019105354
 20
0.875
 30
0.0
 11
7.231140019105354
 21
0.0
 31
0.0
  0
LINE
  5
157
330
134
100
AcDbEntity
  8
AM_9
100
AcDbLine
 10
7.187499999999998
 20
4.979166691562499
 30
0.0
 11
7.187499999999998
 21
0.8749999999999998
 31
0.0
  0
LINE
  5
158
330
134
100
AcDbEntity
  8
AM_9
100
AcDbLine
 10
-7.1875
 20
4.979166691562501
 30
0.0
 11
-7.1875
 21
0.8749999999999998
 31
0.0
  0
LINE
  5
159
330
134
100
AcDbEntity
  8
AM_9
100
AcDbLine
 10
-7.1875
 20
0.0
 30
0.0
 11
-7.1875
 21
-3.625
 31
0.0
  0
LINE
  5
15A
330
134
100
AcDbEntity
  8
AM_9
100
AcDbLine
 10
-10.3125
 20
-3.625
 30
0.0
 11
-10.3125
 21
-7.125
 31
0.0
  0
LINE
  5
15B
330
134
100
AcDbEntity
  8
AM_9
100
AcDbLine
 10
-10.875
 20
-3.625
 30
0.0
 11
-10.875
 21
-7.125
 31
0.0
  0
LINE
  5
15C
330
134
100
AcDbEntity
  8
AM_9
100
AcDbLine
 10
-9.5
 20
-3.625
 30
0.0
 11
-9.5
 21
-7.125
 31
0.0
  0
LINE
  5
15D
330
134
100
AcDbEntity
  8
AM_9
100
AcDbLine
 10
-8.9375
 20
-7.125
 30
0.0
 11
-8.9375
 21
-3.625
 31
0.0
  0
LINE
  5
15E
330
134
100
AcDbEntity
  8
AM_9
100
AcDbLine
 10
10.3125
 20
-3.625
 30
0.0
 11
10.3125
 21
-7.125
 31
0.0
  0
LINE
  5
15F
330
134
100
AcDbEntity
  8
AM_9
100
AcDbLine
 10
10.875
 20
-7.125
 30
0.0
 11
10.875
 21
-3.625
 31
0.0
  0
LINE
  5
160
330
134
100
AcDbEntity
  8
AM_9
100
AcDbLine
 10
9.5
 20
-3.625
 30
0.0
 11
9.5
 21
-7.125
 31
0.0
  0
LINE
  5
161
330
134
100
AcDbEntity
  8
AM_9
100
AcDbLine
 10
8.9375
 20
-3.625
 30
0.0
 11
8.9375
 21
-7.125
 31
0.0
  0
LINE
  5
162
330
134
100
AcDbEntity
  8
AM_7
100
AcDbLine
 10
-6.592864864864865
 20
0.0
 30
0.0
 11
6.592864864864865
 21
0.0
 31
0.0
  0
LINE
  5
163
330
134
100
AcDbEntity
  8
AM_7
100
AcDbLine
 10
0.0
 20
-6.592864864864865
 30
0.0
 11
0.0
 21
11.5828125
 31
0.0
  0
LINE
  5
164
330
134
100
AcDbEntity
  8
AM_7
100
AcDbLine
 10
-6.4375
 20
4.869166666666666
 30
0.0
 11
-6.4375
 21
5.089166666666666
 31
0.0
  0
LINE
  5
165
330
134
100
AcDbEntity
  8
AM_7
100
AcDbLine
 10
6.4375
 20
4.869166666666666
 30
0.0
 11
6.4375
 21
5.089166666666666
 31
0.0
  0
LINE
  5
166
330
134
100
AcDbEntity
  8
AM_4
100
AcDbLine
 10
0.988332229494059
 20
7.76875
 30
0.0
 11
1.388332229494059
 21
7.76875
 31
0.0
  0
LINE
  5
167
330
134
100
AcDbEntity
  8
AM_4
100
AcDbLine
 10
1.388332229494059
 20
7.76875
 30
0.0
 11
1.388332229494059
 21
7.56875
 31
0.0
  0
LINE
  5
168
330
134
100
AcDbEntity
  8
AM_4
100
AcDbLine
 10
1.188332229494059
 20
7.76875
 30
0.0
 11
1.188332229494059
 21
7.56875
 31
0.0
  0
LINE
  5
169
330
134
100
AcDbEntity
  8
AM_4
100
AcDbLine
 10
0.988332229494059
 20
7.76875
 30
0.0
 11
0.988332229494059
 21
7.56875
 31
0.0
  0
LINE
  5
16A
330
134
100
AcDbEntity
  8
AM_4
100
AcDbLine
 10
-1.388332229494059
 20
7.76875
 30
0.0
 11
-0.988332229494059
 21
7.76875
 31
0.0
  0
LINE
  5
16B
330
134
100
AcDbEntity
  8
AM_4
100
AcDbLine
 10
-0.988332229494059
 20
7.76875
 30
0.0
 11
-0.988332229494059
 21
7.56875
 31
0.0
  0
LINE
  5
16C
330
134
100
AcDbEntity
  8
AM_4
100
AcDbLine
 10
-1.188332229494059
 20
7.76875
 30
0.0
 11
-1.188332229494059
 21
7.56875
 31
0.0
  0
LINE
  5
16D
330
134
100
AcDbEntity
  8
AM_4
100
AcDbLine
 10
-1.388332229494059
 20
7.76875
 30
0.0
 11
-1.388332229494059
 21
7.56875
 31
0.0
  0
LINE
  5
16E
330
134
100
AcDbEntity
  8
AM_4
100
AcDbLine
 10
1.890625
 20
7.56875
 30
0.0
 11
1.890625
 21
7.46875
 31
0.0
  0
LINE
  5
16F
330
134
100
AcDbEntity
  8
AM_4
100
AcDbLine
 10
0.3781249999999999
 20
7.56875
 30
0.0
 11
0.3781249999999995
 21
7.46875
 31
0.0
  0
LINE
  5
170
330
134
100
AcDbEntity
  8
AM_4
100
AcDbLine
 10
-1.588125
 20
7.56875
 30
0.0
 11
-1.588125
 21
7.46875
 31
0.0
  0
LINE
  5
171
330
134
100
AcDbEntity
  8
AM_4
100
AcDbLine
 10
-1.890625
 20
7.56875
 30
0.0
 11
1.890625
 21
7.56875
 31
0.0
  0
LINE
  5
172
330
134
100
AcDbEntity
  8
AM_4
100
AcDbLine
 10
-1.890625
 20
7.56875
 30
0.0
 11
-1.890625
 21
7.46875
 31
0.0
  0
LINE
  5
173
330
134
100
AcDbEntity
  8
AM_4
100
AcDbLine
 10
-5.860149730810375
 20
5.479166666666665
 30
0.0
 11
-5.860149730810375
 21
5.079166666666666
 31
0.0
  0
LINE
  5
174
330
134
100
AcDbEntity
  8
AM_4
100
AcDbLine
 10
-7.014850269189625
 20
5.479166666666665
 30
0.0
 11
-7.014850269189625
 21
5.079166666666666
 31
0.0
  0
LINE
  5
175
330
134
100
AcDbEntity
  8
AM_4
100
AcDbLine
 10
-7.014850269189625
 20
5.479166666666665
 30
0.0
 11
-5.860149730810375
 21
5.479166666666665
 31
0.0
  0
LINE
  5
176
330
134
100
AcDbEntity
  8
AM_4
100
AcDbLine
 10
-6.726175134594812
 20
5.479166666666665
 30
0.0
 11
-6.726175134594812
 21
5.079166666666666
 31
0.0
  0
LINE
  5
177
330
134
100
AcDbEntity
  8
AM_4
100
AcDbLine
 10
-6.148824865405187
 20
5.479166666666665
 30
0.0
 11
-6.148824865405187
 21
5.079166666666666
 31
0.0
  0
LINE
  5
178
330
134
100
AcDbEntity
  8
AM_4
100
AcDbLine
 10
5.860149730810376
 20
5.479166666666665
 30
0.0
 11
7.014850269189626
 21
5.479166666666665
 31
0.0
  0
LINE
  5
179
330
134
100
AcDbEntity
  8
AM_4
100
AcDbLine
 10
6.726175134594813
 20
5.479166666666665
 30
0.0
 11
6.726175134594813
 21
5.079166666666666
 31
0.0
  0
LINE
  5
17A
330
134
100
AcDbEntity
  8
AM_4
100
AcDbLine
 10
7.014850269189626
 20
5.479166666666665
 30
0.0
 11
7.014850269189626
 21
5.079166666666666
 31
0.0
  0
LINE
  5
17B
330
134
100
AcDbEntity
  8
AM_4
100
AcDbLine
 10
5.860149730810376
 20
5.479166666666665
 30
0.0
 11
5.860149730810376
 21
5.079166666666666
 31
0.0
  0
LINE
  5
17C
330
134
100
AcDbEntity
  8
AM_4
100
AcDbLine
 10
6.148824865405189
 20
5.479166666666665
 30
0.0
 11
6.148824865405189
 21
5.079166666666666
 31
0.0
  0
LINE
  5
17D
330
134
100
AcDbEntity
  8
AM_4
100
AcDbLine
 10
-7.0625
 20
5.079166666666666
 30
0.0
 11
-5.8125
 21
5.079166666666666
 31
0.0
  0
LINE
  5
17E
330
134
100
AcDbEntity
  8
AM_4
100
AcDbLine
 10
-7.0625
 20
5.079166666666666
 30
0.0
 11
-7.0625
 21
4.979166691562501
 31
0.0
  0
LINE
  5
17F
330
134
100
AcDbEntity
  8
AM_4
100
AcDbLine
 10
-5.8125
 20
4.979166691562501
 30
0.0
 11
-5.8125
 21
5.079166666666666
 31
0.0
  0
LINE
  5
180
330
134
100
AcDbEntity
  8
AM_4
100
AcDbLine
 10
5.8125
 20
5.079166666666666
 30
0.0
 11
7.0625
 21
5.079166666666666
 31
0.0
  0
LINE
  5
181
330
134
100
AcDbEntity
  8
AM_4
100
AcDbLine
 10
5.8125
 20
5.079166666666666
 30
0.0
 11
5.8125
 21
4.979166691562499
 31
0.0
  0
LINE
  5
182
330
134
100
AcDbEntity
  8
AM_4
100
AcDbLine
 10
7.0625
 20
4.979166691562499
 30
0.0
 11
7.0625
 21
5.079166666666666
 31
0.0
  0
CIRCLE
  5
183
330
134
100
AcDbEntity
  8
AM_4
100
AcDbCircle
 10
0.0
 20
0.0
 30
0.0
 40
5.9375
  0
CIRCLE
  5
184
330
134
100
AcDbEntity
  8
AM_4
100
AcDbCircle
 10
0.0
 20
0.0
 30
0.0
 40
6.278918918918919
  0
LWPOLYLINE
  5
185
330
134
100
AcDbEntity
  8
AM_4
100
AcDbPolyline
 90
       18
 70
     0
 43
0.0
 10
11.24375
 20
-3.632179676972449
 10
11.30375273965331
 20
-3.643531641744508
 10
11.36253776184557
 20
-3.660069992204738
 10
11.41965767706252
 20
-3.681668861520005
 10
11.47467776825941
 20
-3.708163869253067
 10
11.5271792993202
 20
-3.739353372396952
 10
11.57676270189222
 20
-3.774999999999999
 10
11.62305061634262
 20
-3.814832459702125
 10
11.66569076369303
 20
-3.858547602433502
 10
11.70435862667529
 20
-3.905812729562018
 10
11.73875991950381
 20
-3.956268124930761
 10
11.76863282756808
 20
-4.009529792515175
 10
11.79375
 20
-4.065192378864667
 10
11.81392027995119
 20
-4.12283225808713
 10
11.82899015941207
 20
-4.18201075589777
 10
11.8388449475005
 20
-4.242277488195294
 10
11.84340964332865
 20
-4.303173788756871
 10
11.84375
 20
-4.324999951075151
  0
LINE
  5
186
330
134
100
AcDbEntity
  8
AM_4
100
AcDbLine
 10
11.84375
 20
-4.324999999999999
 30
0.0
 11
11.84375
 21
-7.125
 31
0.0
  0
LWPOLYLINE
  5
187
330
134
100
AcDbEntity
  8
AM_4
100
AcDbPolyline
 90
       19
 70
     0
 43
0.0
 10
-2.520833333333333
 20
7.031249999999998
 10
-2.519168513748472
 20
7.069380637452098
 10
-2.514186725276175
 20
7.10722107772928
 10
-2.505925882334801
 20
7.144483332232351
 10
-2.494448854927168
 20
7.180883812704979
 10
-2.479842990161867
 20
7.216145489511555
 10
-2.462219447489025
 20
7.249999999999998
 10
-2.441712352709767
 20
7.282189690903581
 10
-2.418477777197886
 20
7.31246957923786
 10
-2.392692550102447
 20
7.340609216769113
 10
-2.364552912571193
 20
7.366394443864553
 10
-2.334273024236915
 20
7.389629019376433
 10
-2.302083333333333
 20
7.410136114155692
 10
-2.268228822844888
 20
7.427759656828534
 10
-2.232967146038312
 20
7.442365521593834
 10
-2.196566665565685
 20
7.453842549001467
 10
-2.159304411062614
 20
7.462103391942841
 10
-2.121463970785432
 20
7.467085180415138
 10
-2.083333333333332
 20
7.46875
  0
LWPOLYLINE
  5
188
330
134
100
AcDbEntity
  8
AM_4
100
AcDbPolyline
 90
       19
 70
     0
 43
0.0
 10
2.083333333333332
 20
7.46875
 10
2.121463970785433
 20
7.467085180415138
 10
2.159304411062614
 20
7.462103391942841
 10
2.196566665565685
 20
7.453842549001467
 10
2.232967146038312
 20
7.442365521593834
 10
2.268228822844889
 20
7.427759656828534
 10
2.302083333333333
 20
7.410136114155692
 10
2.334273024236916
 20
7.389629019376433
 10
2.364552912571194
 20
7.366394443864553
 10
2.392692550102447
 20
7.340609216769113
 10
2.418477777197886
 20
7.31246957923786
 10
2.441712352709767
 20
7.282189690903581
 10
2.462219447489025
 20
7.249999999999999
 10
2.479842990161868
 20
7.216145489511555
 10
2.494448854927168
 20
7.180883812704979
 10
2.505925882334801
 20
7.144483332232352
 10
2.514186725276175
 20
7.107221077729281
 10
2.519168513748473
 20
7.0693806374521
 10
2.520833333333334
 20
7.031249999999998
  0
LINE
  5
189
330
134
100
AcDbEntity
  8
AM_4
100
AcDbLine
 10
-2.083333333333332
 20
7.46875
 30
0.0
 11
2.083333333333332
 21
7.46875
 31
0.0
  0
LINE
  5
18A
330
134
100
AcDbEntity
  8
AM_4
100
AcDbLine
 10
-7.5625
 20
0.0
 30
0.0
 11
-7.5625
 21
-3.625
 31
0.0
  0
LINE
  5
18B
330
134
100
AcDbEntity
  8
AM_4
100
AcDbLine
 10
-11.84375
 20
-7.125
 30
0.0
 11
11.84375
 21
-7.125
 31
0.0
  0
LINE
  5
18C
330
134
100
AcDbEntity
  8
AM_4
100
AcDbLine
 10
-11.84375
 20
-4.324999999999999
 30
0.0
 11
-11.84375
 21
-7.125
 31
0.0
  0
LWPOLYLINE
  5
18D
330
134
100
AcDbEntity
  8
AM_4
100
AcDbPolyline
 90
       18
 70
     0
 43
0.0
 10
-11.84375
 20
-4.324999999999999
 10
-11.84108628866422
 20
-4.263990980076639
 10
-11.83311542710855
 20
-4.203446275633149
 10
-11.81989807840235
 20
-4.143826668428235
 10
-11.80153483455014
 20
-4.085585899672032
 10
-11.77816545092566
 20
-4.029167216781511
 10
-11.74996778264911
 20
-3.975000000000001
 10
-11.71715643100229
 20
-3.923496494554268
 10
-11.67998111018329
 20
-3.875048673219423
 10
-11.63872474683058
 20
-3.830025253169417
 10
-11.59370132678058
 20
-3.788768889816716
 10
-11.54525350544573
 20
-3.751593568997707
 10
-11.49375
 20
-3.718782217350894
 10
-11.43958278321849
 20
-3.690584549074346
 10
-11.38316410032797
 20
-3.667215165449865
 10
-11.32492333157177
 20
-3.648851921597653
 10
-11.26530372436685
 20
-3.635634572891455
 10
-11.24375
 20
-3.632179676972449
  0
ARC
  5
18E
330
134
100
AcDbEntity
  8
AM_4
100
AcDbCircle
 10
0.0000000000000053
 20
-0.0000000000000115
 30
0.0
 40
7.468750000000011
100
AcDbArc
 50
109.7256947045886
 51
138.1896848479869
  0
LINE
  5
18F
330
134
100
AcDbEntity
  8
AM_4
100
AcDbLine
 10
7.562500000000001
 20
0.0
 30
0.0
 11
7.562500000000001
 21
-3.625
 31
0.0
  0
ARC
  5
190
330
134
100
AcDbEntity
  8
AM_4
100
AcDbCircle
 10
0.000000000000048
 20
0.0000000000000862
 30
0.0
 40
7.468749999999901
100
AcDbArc
 50
41.8103151520129
 51
70.27430529541152
  0
LINE
  5
191
330
134
100
AcDbEntity
  8
AM_4
100
AcDbLine
 10
-11.24375
 20
-3.632179676972451
 30
0.0
 11
-11.24375
 21
-7.125
 31
0.0
  0
LINE
  5
192
330
134
100
AcDbEntity
  8
AM_4
100
AcDbLine
 10
11.24375
 20
-3.632179676972449
 30
0.0
 11
11.24375
 21
-7.125
 31
0.0
  0
ARC
  5
193
330
134
100
AcDbEntity
  8
AM_4
100
AcDbCircle
 10
11.14375000000001
 20
-4.324999999999909
 30
0.0
 40
0.6999999999999088
100
AcDbArc
 50
81.78678929826151
 51
90.0
  0
LINE
  5
194
330
134
100
AcDbEntity
  8
AM_4
100
AcDbLine
 10
6.812500000000001
 20
-3.625
 30
0.0
 11
11.14375
 21
-3.625
 31
0.0
  0
LINE
  5
195
330
134
100
AcDbEntity
  8
AM_4
100
AcDbLine
 10
6.812499999999999
 20
0.0
 30
0.0
 11
6.812500000000001
 21
-3.625
 31
0.0
  0
LINE
  5
196
330
134
100
AcDbEntity
  8
AM_4
100
AcDbLine
 10
-6.812500000000001
 20
0.0
 30
0.0
 11
-6.812500000000001
 21
-3.625
 31
0.0
  0
LINE
  5
197
330
134
100
AcDbEntity
  8
AM_4
100
AcDbLine
 10
-11.14375
 20
-3.625000000000001
 30
0.0
 11
-6.812500000000001
 21
-3.625
 31
0.0
  0
ARC
  5
198
330
134
100
AcDbEntity
  8
AM_4
100
AcDbCircle
 10
-11.14375000000002
 20
-4.324999999999568
 30
0.0
 40
0.6999999999995667
100
AcDbArc
 50
90.0
 51
98.2132107017415
  0
LINE
  5
199
330
134
100
AcDbEntity
  8
AM_4
100
AcDbLine
 10
-7.5625
 20
4.979166691562501
 30
0.0
 11
-7.5625
 21
0.8749999999999998
 31
0.0
  0
LINE
  5
19A
330
134
100
AcDbEntity
  8
AM_4
100
AcDbLine
 10
-7.5625
 20
4.979166691562501
 30
0.0
 11
-4.964511619498393
 21
4.979166691562501
 31
0.0
  0
LINE
  5
19B
330
134
100
AcDbEntity
  8
AM_4
100
AcDbLine
 10
4.964511619498394
 20
4.979166691562499
 30
0.0
 11
7.562500000000001
 21
4.979166691562499
 31
0.0
  0
ARC
  5
19C
330
134
100
AcDbEntity
  8
AM_4
100
AcDbCircle
 10
-0.0000000000000542
 20
-0.0000000000000808
 30
0.0
 40
7.031250000000096
100
AcDbArc
 50
45.08444291373014
 51
68.99075898171358
  0
LINE
  5
19D
330
134
100
AcDbEntity
  8
AM_4
100
AcDbLine
 10
2.520833333333334
 20
7.031249999999998
 30
0.0
 11
2.520833333333333
 21
6.563830883566057
 31
0.0
  0
LINE
  5
19E
330
134
100
AcDbEntity
  8
AM_4
100
AcDbLine
 10
-2.520833333333333
 20
7.03125
 30
0.0
 11
2.520833333333334
 21
7.031249999999998
 31
0.0
  0
LINE
  5
19F
330
134
100
AcDbEntity
  8
AM_4
100
AcDbLine
 10
-2.520833333333332
 20
6.563830883566057
 30
0.0
 11
-2.520833333333333
 21
7.03125
 31
0.0
  0
ARC
  5
1A0
330
134
100
AcDbEntity
  8
AM_4
100
AcDbCircle
 10
0.00000000000002
 20
-0.0000000000000346
 30
0.0
 40
7.031250000000039
100
AcDbArc
 50
111.0092410182863
 51
134.9155570862699
  0
LINE
  5
1A1
330
134
100
AcDbEntity
  8
AM_4
100
AcDbLine
 10
-6.812500000000001
 20
4.979166691562501
 30
0.0
 11
-6.812500000000001
 21
0.8749999999999998
 31
0.0
  0
LINE
  5
1A2
330
134
100
AcDbEntity
  8
AM_4
100
AcDbLine
 10
6.812499999999999
 20
4.979166691562499
 30
0.0
 11
6.812499999999999
 21
0.8750000000000003
 31
0.0
  0
LINE
  5
1A3
330
134
100
AcDbEntity
  8
AM_4
100
AcDbLine
 10
7.562500000000001
 20
4.979166691562499
 30
0.0
 11
7.562500000000001
 21
0.8749999999999998
 31
0.0
  0
LINE
  5
1A4
330
134
100
AcDbEntity
  8
AM_4
100
AcDbLine
 10
-7.6625
 20
0.875
 30
0.0
 11
-6.359001107694133
 21
0.875
 31
0.0
  0
LINE
  5
1A5
330
134
100
AcDbEntity
  8
AM_4
100
AcDbLine
 10
-7.6625
 20
0.0
 30
0.0
 11
-6.418918918918918
 21
0.0
 31
0.0
  0
LINE
  5
1A6
330
134
100
AcDbEntity
  8
AM_4
100
AcDbLine
 10
-7.6625
 20
0.875
 30
0.0
 11
-7.6625
 21
0.0
 31
0.0
  0
LINE
  5
1A7
330
134
100
AcDbEntity
  8
AM_4
100
AcDbLine
 10
6.418918918918918
 20
0.0
 30
0.0
 11
7.6625
 21
0.0
 31
0.0
  0
LINE
  5
1A8
330
134
100
AcDbEntity
  8
AM_4
100
AcDbLine
 10
7.6625
 20
0.875
 30
0.0
 11
7.6625
 21
0.0
 31
0.0
  0
LINE
  5
1A9
330
134
100
AcDbEntity
  8
AM_4
100
AcDbLine
 10
6.359001107694133
 20
0.875
 30
0.0
 11
7.6625
 21
0.875
 31
0.0
  0
LINE
  5
1AA
330
134
100
AcDbEntity
  8
AM_4
100
AcDbLine
 10
-6.912499999999999
 20
0.875
 30
0.0
 11
-6.912499999999999
 21
0.0
 31
0.0
  0
LINE
  5
1AB
330
134
100
AcDbEntity
  8
AM_4
100
AcDbLine
 10
6.912500000000001
 20
0.875
 30
0.0
 11
6.912500000000001
 21
0.0
 31
0.0
  0
CIRCLE
  5
1AC
330
134
100
AcDbEntity
  8
AM_4
100
AcDbCircle
 10
-0.0000000000000013
 20
0.0000000000000013
 30
0.0
 40
6.418918918918918
  0
ENDBLK
  5
137
330
134
100
AcDbEntity
  8
0
100
AcDbBlockEnd
  0
ENDSEC
  0
SECTION
  2
ENTITIES
  0
INSERT
  5
6F
330
1F
100
AcDbEntity
  8
0
100
AcDbBlockReference
  2
1_023369_0
 10
0.0
 20
0.0
 30
0.0
  0
POINT
  5
1AE
330
1F
100
AcDbEntity
  8
ConnectionPoints
100
AcDbPoint
 10
0.0
 20
0.0
 30
-4.5
  0
POINT
  5
1AF
330
1F
100
AcDbEntity
  8
ConnectionPoints
100
AcDbPoint
 10
0.0
 20
6.725
 30
0.0
  0
POINT
  5
1B0
330
1F
100
AcDbEntity
  8
ConnectionPoints
100
AcDbPoint
 10
0.0
 20
0.0
 30
0.0
  0
POINT
  5
1B1
330
1F
100
AcDbEntity
  8
ConnectionPoints
100
AcDbPoint
 10
0.0
 20
0.0
 30
-4.5
  0
POINT
  5
1B2
330
1F
100
AcDbEntity
  8
ConnectionPoints
100
AcDbPoint
 10
0.0
 20
0.0
 30
4.5
  0
POINT
  5
1B3
330
1F
100
AcDbEntity
  8
ConnectionPoints
100
AcDbPoint
 10
0.0
 20
6.725
 30
0.0
  0
POINT
  5
1B4
330
1F
100
AcDbEntity
  8
ConnectionPoints
100
AcDbPoint
 10
0.0
 20
6.725
 30
0.0
  0
POINT
  5
1B5
330
1F
100
AcDbEntity
  8
ConnectionPoints
100
AcDbPoint
 10
0.0
 20
0.0
 30
0.0
  0
ENDSEC
  0
SECTION
  2
OBJECTS
  0
DICTIONARY
  5
C
330
0
100
AcDbDictionary
281
     1
  3
ACAD_DETAILVIEWSTYLE
350
1BD
  3
ACAD_GROUP
350
D
  3
ACAD_LAYOUT
350
1A
  3
ACAD_MATERIAL
350
43
  3
ACAD_MLEADERSTYLE
350
6B
  3
ACAD_MLINESTYLE
350
17
  3
ACAD_PLOTSETTINGS
350
19
  3
ACAD_PLOTSTYLENAME
350
E
  3
ACAD_SCALELIST
350
47
  3
ACAD_SECTIONVIEWSTYLE
350
1BE
  3
ACAD_TABLESTYLE
350
69
  3
ACAD_VISUALSTYLE
350
2A
  3
ACDB_RECOMPOSE_DATA
350
1BA
  3
AcDbVariableDictionary
350
1B6
  0
SUN
  5
6D
330
29
100
AcDbSun
 90
        1
290
     0
 63
     7
421
 16777215
 40
1.0
291
     1
 91
  2455826
 92
 54000000
292
     0
 70
     2
 71
   256
280
     1
  0
DICTIONARY
  5
1BD
102
{ACAD_REACTORS
330
C
102
}
330
C
100
AcDbDictionary
281
     1
  0
DICTIONARY
  5
D
102
{ACAD_REACTORS
330
C
102
}
330
C
100
AcDbDictionary
281
     1
  0
DICTIONARY
  5
1A
102
{ACAD_REACTORS
330
C
102
}
330
C
100
AcDbDictionary
281
     1
  3
Layout1
350
1E
  3
Layout2
350
26
  3
Model
350
22
  0
DICTIONARY
  5
43
102
{ACAD_REACTORS
330
C
102
}
330
C
100
AcDbDictionary
281
     1
  3
ByBlock
350
45
  3
ByLayer
350
44
  3
Global
350
46
  0
DICTIONARY
  5
6B
102
{ACAD_REACTORS
330
C
102
}
330
C
100
AcDbDictionary
281
     1
  3
Standard
350
6C
  0
DICTIONARY
  5
17
102
{ACAD_REACTORS
330
C
102
}
330
C
100
AcDbDictionary
281
     1
  3
Standard
350
18
  0
DICTIONARY
  5
19
102
{ACAD_REACTORS
330
C
102
}
330
C
100
AcDbDictionary
281
     1
  0
ACDBDICTIONARYWDFLT
  5
E
102
{ACAD_REACTORS
330
C
102
}
330
C
100
AcDbDictionary
281
     1
  3
Normal
350
F
100
AcDbDictionaryWithDefault
340
F
  0
DICTIONARY
  5
47
102
{ACAD_REACTORS
330
C
102
}
330
C
100
AcDbDictionary
281
     1
  3
A0
350
48
  3
A1
350
49
  3
A2
350
4A
  3
A3
350
4B
  3
A4
350
4C
  3
A5
350
4D
  3
A6
350
4E
  3
A7
350
4F
  3
A8
350
50
  3
A9
350
51
  3
B0
350
52
  3
B1
350
53
  3
B2
350
54
  3
B3
350
55
  3
B4
350
56
  3
B5
350
57
  3
B6
350
58
  3
B7
350
59
  3
B8
350
5A
  3
B9
350
5B
  3
C0
350
5C
  3
C1
350
5D
  3
C2
350
5E
  3
C3
350
5F
  3
C4
350
60
  3
C5
350
61
  3
C6
350
62
  3
C7
350
63
  3
C8
350
64
  3
C9
350
65
  3
D0
350
66
  3
D1
350
67
  3
D2
350
68
  0
DICTIONARY
  5
1BE
102
{ACAD_REACTORS
330
C
102
}
330
C
100
AcDbDictionary
281
     1
  0
DICTIONARY
  5
69
102
{ACAD_REACTORS
330
C
102
}
330
C
100
AcDbDictionary
281
     1
  3
Standard
350
6A
  0
DICTIONARY
  5
2A
102
{ACAD_REACTORS
330
C
102
}
330
C
100
AcDbDictionary
281
     1
  3
2dWireframe
350
2F
  3
Basic
350
32
  3
Brighten
350
36
  3
ColorChange
350
3A
  3
Conceptual
350
34
  3
Dim
350
35
  3
EdgeColorOff
350
3D
  3
Facepattern
350
39
  3
Flat
350
2B
  3
FlatWithEdges
350
2C
  3
Gouraud
350
2D
  3
GouraudWithEdges
350
2E
  3
Hidden
350
31
  3
JitterOff
350
3B
  3
Linepattern
350
38
  3
OverhangOff
350
3C
  3
Realistic
350
33
  3
Shaded
350
42
  3
Shaded with edges
350
41
  3
Shades of Gray
350
3E
  3
Sketchy
350
3F
  3
Thicken
350
37
  3
Wireframe
350
30
  3
X-Ray
350
40
  0
XRECORD
  5
1BA
102
{ACAD_REACTORS
330
C
102
}
330
C
100
AcDbXrecord
280
     1
 90
        1
330
6A
  0
DICTIONARY
  5
1B6
102
{ACAD_REACTORS
330
C
102
}
330
C
100
AcDbDictionary
281
     1
  3
CANNOSCALE
350
1B7
  3
CMLEADERSTYLE
350
1BC
  3
CTABLESTYLE
350
1BB
  0
LAYOUT
  5
1E
102
{ACAD_REACTORS
330
1A
102
}
330
1A
100
AcDbPlotSettings
  1

  2
none_device
  4

  6

 40
0.0
 41
0.0
 42
0.0
 43
0.0
 44
0.0
 45
0.0
 46
0.0
 47
0.0
 48
0.0
 49
0.0
140
0.0
141
0.0
142
1.0
143
1.0
 70
   688
 72
     0
 73
     0
 74
     5
  7

 75
    16
 76
     0
 77
     2
 78
   300
147
1.0
148
0.0
149
0.0
100
AcDbLayout
  1
Layout1
 70
     1
 71
     1
 10
0.0
 20
0.0
 11
12.0
 21
9.0
 12
0.0
 22
0.0
 32
0.0
 14
1.000000000000000E+20
 24
1.000000000000000E+20
 34
1.000000000000000E+20
 15
-1.000000000000000E+20
 25
-1.000000000000000E+20
 35
-1.000000000000000E+20
146
0.0
 13
0.0
 23
0.0
 33
0.0
 16
1.0
 26
0.0
 36
0.0
 17
0.0
 27
1.0
 37
0.0
 76
     0
330
1B
  0
LAYOUT
  5
26
102
{ACAD_REACTORS
330
1A
102
}
330
1A
100
AcDbPlotSettings
  1

  2
none_device
  4

  6

 40
0.0
 41
0.0
 42
0.0
 43
0.0
 44
0.0
 45
0.0
 46
0.0
 47
0.0
 48
0.0
 49
0.0
140
0.0
141
0.0
142
1.0
143
1.0
 70
   688
 72
     0
 73
     0
 74
     5
  7

 75
    16
 76
     0
 77
     2
 78
   300
147
1.0
148
0.0
149
0.0
100
AcDbLayout
  1
Layout2
 70
     1
 71
     2
 10
0.0
 20
0.0
 11
0.0
 21
0.0
 12
0.0
 22
0.0
 32
0.0
 14
0.0
 24
0.0
 34
0.0
 15
0.0
 25
0.0
 35
0.0
146
0.0
 13
0.0
 23
0.0
 33
0.0
 16
1.0
 26
0.0
 36
0.0
 17
0.0
 27
1.0
 37
0.0
 76
     0
330
23
  0
LAYOUT
  5
22
102
{ACAD_REACTORS
330
1A
102
}
330
1A
100
AcDbPlotSettings
  1

  2
none_device
  4
Letter_(8.50_x_11.00_Inches)
  6

 40
6.35
 41
6.35
 42
6.35000508
 43
6.35000508
 44
215.9
 45
279.4
 46
0.0
 47
0.0
 48
0.0
 49
0.0
140
0.0
141
0.0
142
1.0
143
1.0
 70
  1712
 72
     0
 73
     0
 74
     0
  7

 75
     0
 76
     0
 77
     2
 78
   300
147
1.0
148
0.0
149
0.0
100
AcDbLayout
  1
Model
 70
     1
 71
     0
 10
0.0
 20
0.0
 11
12.0
 21
9.0
 12
0.0
 22
0.0
 32
0.0
 14
1.000000000000000E+20
 24
1.000000000000000E+20
 34
1.000000000000000E+20
 15
-1.000000000000000E+20
 25
-1.000000000000000E+20
 35
-1.000000000000000E+20
146
0.0
 13
0.0
 23
0.0
 33
0.0
 16
1.0
 26
0.0
 36
0.0
 17
0.0
 27
1.0
 37
0.0
 76
     0
330
1F
331
29
  0
MATERIAL
  5
45
102
{ACAD_REACTORS
330
43
102
}
330
43
100
AcDbMaterial
  1
ByBlock
 72
     1
 94
      127
  0
MATERIAL
  5
44
102
{ACAD_REACTORS
330
43
102
}
330
43
100
AcDbMaterial
  1
ByLayer
 72
     1
 94
      127
  0
MATERIAL
  5
46
102
{ACAD_REACTORS
330
43
102
}
330
43
100
AcDbMaterial
  1
Global
 72
     1
 94
      127
  0
MLEADERSTYLE
  5
6C
102
{ACAD_REACTORS
330
6B
102
}
330
6B
100
AcDbMLeaderStyle
179
     2
170
     2
171
     1
172
     0
 90
        2
 40
0.0
 41
0.0
173
     1
 91
-1056964608
340
14
 92
       -2
290
     1
 42
0.09
291
     1
 43
0.36
  3
Standard
341
0
 44
0.18
300

342
11
174
     1
178
     6
175
     1
176
     0
 93
-1056964608
 45
0.18
292
     0
297
     0
 46
0.18
343
0
 94
-1056964608
 47
1.0
 49
1.0
140
1.0
293
     1
141
0.0
294
     1
177
     0
142
1.0
295
     0
296
     0
143
0.125
271
     0
272
     9
273
     9
298
     0
  0
MLINESTYLE
  5
18
102
{ACAD_REACTORS
330
17
102
}
330
17
100
AcDbMlineStyle
  2
Standard
 70
     0
  3

 62
   256
 51
90.0
 52
90.0
 71
     2
 49
0.5
 62
   256
  6
BYLAYER
 49
-0.5
 62
   256
  6
BYLAYER
  0
ACDBPLACEHOLDER
  5
F
102
{ACAD_REACTORS
330
E
102
}
330
E
  0
SCALE
  5
48
102
{ACAD_REACTORS
330
47
102
}
330
47
100
AcDbScale
 70
     0
300
1:1
140
1.0
141
1.0
290
     1
  0
SCALE
  5
49
102
{ACAD_REACTORS
330
47
102
}
330
47
100
AcDbScale
 70
     0
300
1:2
140
1.0
141
2.0
290
     0
  0
SCALE
  5
4A
102
{ACAD_REACTORS
330
47
102
}
330
47
100
AcDbScale
 70
     0
300
1:4
140
1.0
141
4.0
290
     0
  0
SCALE
  5
4B
102
{ACAD_REACTORS
330
47
102
}
330
47
100
AcDbScale
 70
     0
300
1:5
140
1.0
141
5.0
290
     0
  0
SCALE
  5
4C
102
{ACAD_REACTORS
330
47
102
}
330
47
100
AcDbScale
 70
     0
300
1:8
140
1.0
141
8.0
290
     0
  0
SCALE
  5
4D
102
{ACAD_REACTORS
330
47
102
}
330
47
100
AcDbScale
 70
     0
300
1:10
140
1.0
141
10.0
290
     0
  0
SCALE
  5
4E
102
{ACAD_REACTORS
330
47
102
}
330
47
100
AcDbScale
 70
     0
300
1:16
140
1.0
141
16.0
290
     0
  0
SCALE
  5
4F
102
{ACAD_REACTORS
330
47
102
}
330
47
100
AcDbScale
 70
     0
300
1:20
140
1.0
141
20.0
290
     0
  0
SCALE
  5
50
102
{ACAD_REACTORS
330
47
102
}
330
47
100
AcDbScale
 70
     0
300
1:30
140
1.0
141
30.0
290
     0
  0
SCALE
  5
51
102
{ACAD_REACTORS
330
47
102
}
330
47
100
AcDbScale
 70
     0
300
1:40
140
1.0
141
40.0
290
     0
  0
SCALE
  5
52
102
{ACAD_REACTORS
330
47
102
}
330
47
100
AcDbScale
 70
     0
300
1:50
140
1.0
141
50.0
290
     0
  0
SCALE
  5
53
102
{ACAD_REACTORS
330
47
102
}
330
47
100
AcDbScale
 70
     0
300
1:100
140
1.0
141
100.0
290
     0
  0
SCALE
  5
54
102
{ACAD_REACTORS
330
47
102
}
330
47
100
AcDbScale
 70
     0
300
2:1
140
2.0
141
1.0
290
     0
  0
SCALE
  5
55
102
{ACAD_REACTORS
330
47
102
}
330
47
100
AcDbScale
 70
     0
300
4:1
140
4.0
141
1.0
290
     0
  0
SCALE
  5
56
102
{ACAD_REACTORS
330
47
102
}
330
47
100
AcDbScale
 70
     0
300
8:1
140
8.0
141
1.0
290
     0
  0
SCALE
  5
57
102
{ACAD_REACTORS
330
47
102
}
330
47
100
AcDbScale
 70
     0
300
10:1
140
10.0
141
1.0
290
     0
  0
SCALE
  5
58
102
{ACAD_REACTORS
330
47
102
}
330
47
100
AcDbScale
 70
     0
300
100:1
140
100.0
141
1.0
290
     0
  0
SCALE
  5
59
102
{ACAD_REACTORS
330
47
102
}
330
47
100
AcDbScale
 70
     0
300
1/128" = 1'-0"
140
0.0078125
141
12.0
290
     0
  0
SCALE
  5
5A
102
{ACAD_REACTORS
330
47
102
}
330
47
100
AcDbScale
 70
     0
300
1/64" = 1'-0"
140
0.015625
141
12.0
290
     0
  0
SCALE
  5
5B
102
{ACAD_REACTORS
330
47
102
}
330
47
100
AcDbScale
 70
     0
300
1/32" = 1'-0"
140
0.03125
141
12.0
290
     0
  0
SCALE
  5
5C
102
{ACAD_REACTORS
330
47
102
}
330
47
100
AcDbScale
 70
     0
300
1/16" = 1'-0"
140
0.0625
141
12.0
290
     0
  0
SCALE
  5
5D
102
{ACAD_REACTORS
330
47
102
}
330
47
100
AcDbScale
 70
     0
300
3/32" = 1'-0"
140
0.09375
141
12.0
290
     0
  0
SCALE
  5
5E
102
{ACAD_REACTORS
330
47
102
}
330
47
100
AcDbScale
 70
     0
300
1/8" = 1'-0"
140
0.125
141
12.0
290
     0
  0
SCALE
  5
5F
102
{ACAD_REACTORS
330
47
102
}
330
47
100
AcDbScale
 70
     0
300
3/16" = 1'-0"
140
0.1875
141
12.0
290
     0
  0
SCALE
  5
60
102
{ACAD_REACTORS
330
47
102
}
330
47
100
AcDbScale
 70
     0
300
1/4" = 1'-0"
140
0.25
141
12.0
290
     0
  0
SCALE
  5
61
102
{ACAD_REACTORS
330
47
102
}
330
47
100
AcDbScale
 70
     0
300
3/8" = 1'-0"
140
0.375
141
12.0
290
     0
  0
SCALE
  5
62
102
{ACAD_REACTORS
330
47
102
}
330
47
100
AcDbScale
 70
     0
300
1/2" = 1'-0"
140
0.5
141
12.0
290
     0
  0
SCALE
  5
63
102
{ACAD_REACTORS
330
47
102
}
330
47
100
AcDbScale
 70
     0
300
3/4" = 1'-0"
140
0.75
141
12.0
290
     0
  0
SCALE
  5
64
102
{ACAD_REACTORS
330
47
102
}
330
47
100
AcDbScale
 70
     0
300
1" = 1'-0"
140
1.0
141
12.0
290
     0
  0
SCALE
  5
65
102
{ACAD_REACTORS
330
47
102
}
330
47
100
AcDbScale
 70
     0
300
1-1/2" = 1'-0"
140
1.5
141
12.0
290
     0
  0
SCALE
  5
66
102
{ACAD_REACTORS
330
47
102
}
330
47
100
AcDbScale
 70
     0
300
3" = 1'-0"
140
3.0
141
12.0
290
     0
  0
SCALE
  5
67
102
{ACAD_REACTORS
330
47
102
}
330
47
100
AcDbScale
 70
     0
300
6" = 1'-0"
140
6.0
141
12.0
290
     0
  0
SCALE
  5
68
102
{ACAD_REACTORS
330
47
102
}
330
47
100
AcDbScale
 70
     0
300
1'-0" = 1'-0"
140
12.0
141
12.0
290
     0
  0
TABLESTYLE
  5
6A
102
{ACAD_REACTORS
330
69
102
}
102
{ACAD_XDICTIONARY
360
1B8
102
}
330
69
100
AcDbTableStyle
  3
Standard
 70
     0
 71
     0
 40
0.06
 41
0.06
280
     0
281
     0
  7
Standard
140
0.18
170
     2
 62
     0
 63
   257
283
     0
 90
        4
 91
        0
  1

274
    -2
284
     1
 64
     0
275
    -2
285
     1
 65
     0
276
    -2
286
     1
 66
     0
277
    -2
287
     1
 67
     0
278
    -2
288
     1
 68
     0
279
    -2
289
     1
 69
     0
  7
Standard
140
0.25
170
     5
 62
     0
 63
   257
283
     0
 90
        4
 91
        0
  1

274
    -2
284
     1
 64
     0
275
    -2
285
     1
 65
     0
276
    -2
286
     1
 66
     0
277
    -2
287
     1
 67
     0
278
    -2
288
     1
 68
     0
279
    -2
289
     1
 69
     0
  7
Standard
140
0.18
170
     5
 62
     0
 63
   257
283
     0
 90
        4
 91
        0
  1

274
    -2
284
     1
 64
     0
275
    -2
285
     1
 65
     0
276
    -2
286
     1
 66
     0
277
    -2
287
     1
 67
     0
278
    -2
288
     1
 68
     0
279
    -2
289
     1
 69
     0
  0
VISUALSTYLE
  5
2F
102
{ACAD_REACTORS
330
2A
102
}
330
2A
100
AcDbVisualStyle
  2
2dWireframe
 70
     4
177
     3
291
     0
 70
    58
 90
        0
176
     1
 90
        2
176
     1
 90
        0
176
     1
 90
        0
176
     1
 40
0.6
176
     1
 40
30.0
176
     1
 62
     7
420
 16777215
176
     1
 90
        1
176
     1
 90
        4
176
     1
 62
     7
176
     1
 62
   257
176
     1
 90
        1
176
     1
 90
        1
176
     1
 40
1.0
176
     1
 90
        0
176
     1
 62
   257
176
     1
 40
1.0
176
     1
 90
        1
176
     1
 90
        6
176
     1
 90
        2
176
     1
 62
     7
176
     1
 90
        5
176
     1
 90
        0
176
     1
 90
        0
176
     1
290
     0
176
     1
 90
        1
176
     1
 40
0.0
176
     1
 90
        0
176
     1
290
     1
176
     1
290
     1
176
     1
290
     0
176
     1
290
     0
176
     1
290
     0
176
     1
290
     0
176
     1
290
     0
176
     1
290
     0
176
     1
290
     0
176
     1
 90
       50
176
     1
 40
0.0
176
     1
 40
1.0
176
     1
 90
        0
176
     1
 62
    18
420
        0
176
     1
 90
       50
176
     1
 90
        3
176
     1
 62
     5
420
      255
176
     1
290
     0
176
     1
 90
       50
176
     1
 90
       50
176
     1
 90
       50
176
     1
290
     0
176
     1
 90
       50
176
     1
 62
   256
176
     0
 40
1.0
176
     0
 90
        2
176
     1
  1
strokes_ogs.tif
176
     1
290
     0
176
     1
 40
1.0
176
     1
 40
1.0
176
     1
  0
VISUALSTYLE
  5
32
102
{ACAD_REACTORS
330
2A
102
}
330
2A
100
AcDbVisualStyle
  2
Basic
 70
     7
177
     3
291
     1
 70
    58
 90
        1
176
     1
 90
        0
176
     1
 90
        1
176
     1
 90
        0
176
     1
 40
0.6
176
     1
 40
30.0
176
     1
 62
     7
420
 16777215
176
     1
 90
        0
176
     1
 90
        4
176
     1
 62
     7
176
     1
 62
   257
176
     1
 90
        1
176
     1
 90
        1
176
     1
 40
1.0
176
     1
 90
        8
176
     1
 62
     7
176
     1
 40
1.0
176
     1
 90
        1
176
     1
 90
        6
176
     1
 90
        2
176
     1
 62
     7
176
     1
 90
        5
176
     1
 90
        0
176
     1
 90
        0
176
     1
290
     0
176
     1
 90
        1
176
     1
 40
0.0
176
     1
 90
        0
176
     1
290
     0
176
     1
290
     1
176
     1
290
     1
176
     1
290
     0
176
     1
290
     0
176
     1
290
     0
176
     1
290
     0
176
     1
290
     0
176
     1
290
     0
176
     1
 90
       50
176
     1
 40
0.0
176
     1
 40
1.0
176
     1
 90
        0
176
     1
 62
    18
420
        0
176
     1
 90
       50
176
     1
 90
        3
176
     1
 62
     5
420
      255
176
     1
290
     0
176
     1
 90
       50
176
     1
 90
       50
176
     1
 90
       50
176
     1
290
     0
176
     1
 90
       50
176
     1
 62
   256
176
     0
 40
1.0
176
     0
 90
        2
176
     1
  1
strokes_ogs.tif
176
     1
290
     0
176
     1
 40
1.0
176
     1
 40
1.0
176
     1
  0
VISUALSTYLE
  5
36
102
{ACAD_REACTORS
330
2A
102
}
330
2A
100
AcDbVisualStyle
  2
Brighten
 70
    12
177
     3
291
     1
 70
    58
 90
        2
176
     1
 90
        2
176
     1
 90
        0
176
     1
 90
        0
176
     1
 40
0.6
176
     1
 40
30.0
176
     1
 62
     7
420
 16777215
176
     1
 90
        1
176
     1
 90
        4
176
     1
 62
     7
176
     1
 62
   257
176
     1
 90
        1
176
     1
 90
        1
176
     1
 40
1.0
176
     1
 90
        8
176
     1
 62
     7
176
     1
 40
1.0
176
     1
 90
        1
176
     1
 90
        6
176
     1
 90
        2
176
     1
 62
     7
176
     1
 90
        5
176
     1
 90
        0
176
     1
 90
        0
176
     1
290
     0
176
     1
 90
        1
176
     1
 40
50.0
176
     1
 90
        0
176
     1
290
     0
176
     1
290
     1
176
     1
290
     1
176
     1
290
     0
176
     1
290
     0
176
     1
290
     0
176
     1
290
     0
176
     1
290
     0
176
     1
290
     0
176
     1
 90
       50
176
     1
 40
0.0
176
     1
 40
1.0
176
     1
 90
        0
176
     1
 62
    18
420
        0
176
     1
 90
       50
176
     1
 90
        3
176
     1
 62
     5
420
      255
176
     1
290
     0
176
     1
 90
       50
176
     1
 90
       50
176
     1
 90
       50
176
     1
290
     0
176
     1
 90
       50
176
     1
 62
   256
176
     0
 40
1.0
176
     0
 90
        2
176
     1
  1
strokes_ogs.tif
176
     1
290
     0
176
     1
 40
1.0
176
     1
 40
1.0
176
     1
  0
VISUALSTYLE
  5
3A
102
{ACAD_REACTORS
330
2A
102
}
330
2A
100
AcDbVisualStyle
  2
ColorChange
 70
    16
177
     3
291
     1
 70
    58
 90
        2
176
     1
 90
        2
176
     1
 90
        3
176
     1
 90
        0
176
     1
 40
0.6
176
     1
 40
30.0
176
     1
 62
     8
420
  8421504
176
     1
 90
        1
176
     1
 90
        4
176
     1
 62
     7
176
     1
 62
   257
176
     1
 90
        1
176
     1
 90
        1
176
     1
 40
1.0
176
     1
 90
        8
176
     1
 62
     8
420
  8421504
176
     1
 40
1.0
176
     1
 90
        1
176
     1
 90
        6
176
     1
 90
        2
176
     1
 62
     7
176
     1
 90
        5
176
     1
 90
        0
176
     1
 90
        0
176
     1
290
     0
176
     1
 90
        1
176
     1
 40
0.0
176
     1
 90
        0
176
     1
290
     0
176
     1
290
     1
176
     1
290
     1
176
     1
290
     0
176
     1
290
     0
176
     1
290
     0
176
     1
290
     0
176
     1
290
     0
176
     1
290
     0
176
     1
 90
       50
176
     1
 40
0.0
176
     1
 40
1.0
176
     1
 90
        0
176
     1
 62
    18
420
        0
176
     1
 90
       50
176
     1
 90
        3
176
     1
 62
     5
420
      255
176
     1
290
     0
176
     1
 90
       50
176
     1
 90
       50
176
     1
 90
       50
176
     1
290
     0
176
     1
 90
       50
176
     1
 62
   256
176
     0
 40
1.0
176
     0
 90
        2
176
     1
  1
strokes_ogs.tif
176
     1
290
     0
176
     1
 40
1.0
176
     1
 40
1.0
176
     1
  0
VISUALSTYLE
  5
34
102
{ACAD_REACTORS
330
2A
102
}
330
2A
100
AcDbVisualStyle
  2
Conceptual
 70
     9
177
     3
291
     0
 70
    58
 90
        3
176
     1
 90
        2
176
     1
 90
        0
176
     1
 90
        0
176
     1
 40
0.6
176
     1
 40
30.0
176
     1
 62
     7
420
 16777215
176
     1
 90
        2
176
     1
 90
        2
176
     1
 62
     7
176
     1
 62
   257
176
     1
 90
        1
176
     1
 90
        1
176
     1
 40
179.0
176
     1
 90
        8
176
     1
 62
     7
176
     1
 40
1.0
176
     1
 90
        1
176
     1
 90
        6
176
     1
 90
        2
176
     1
 62
     7
176
     1
 90
        3
176
     1
 90
        0
176
     1
 90
        0
176
     1
290
     0
176
     1
 90
        1
176
     1
 40
0.0
176
     1
 90
        0
176
     1
290
     0
176
     1
290
     1
176
     1
290
     1
176
     1
290
     0
176
     1
290
     0
176
     1
290
     0
176
     1
290
     0
176
     1
290
     0
176
     1
290
     0
176
     1
 90
       50
176
     1
 40
0.0
176
     1
 40
1.0
176
     1
 90
        0
176
     1
 62
    18
420
        0
176
     1
 90
       50
176
     1
 90
        3
176
     1
 62
     5
420
      255
176
     1
290
     0
176
     1
 90
       50
176
     1
 90
       50
176
     1
 90
       50
176
     1
290
     0
176
     1
 90
       50
176
     1
 62
   256
176
     0
 40
1.0
176
     0
 90
        2
176
     1
  1
strokes_ogs.tif
176
     1
290
     0
176
     1
 40
1.0
176
     1
 40
1.0
176
     1
  0
VISUALSTYLE
  5
35
102
{ACAD_REACTORS
330
2A
102
}
330
2A
100
AcDbVisualStyle
  2
Dim
 70
    11
177
     3
291
     1
 70
    58
 90
        2
176
     1
 90
        2
176
     1
 90
        0
176
     1
 90
        0
176
     1
 40
0.6
176
     1
 40
30.0
176
     1
 62
     7
420
 16777215
176
     1
 90
        1
176
     1
 90
        4
176
     1
 62
     7
176
     1
 62
   257
176
     1
 90
        1
176
     1
 90
        1
176
     1
 40
1.0
176
     1
 90
        8
176
     1
 62
     7
176
     1
 40
1.0
176
     1
 90
        1
176
     1
 90
        6
176
     1
 90
        2
176
     1
 62
     7
176
     1
 90
        5
176
     1
 90
        0
176
     1
 90
        0
176
     1
290
     0
176
     1
 90
        1
176
     1
 40
-50.0
176
     1
 90
        0
176
     1
290
     0
176
     1
290
     1
176
     1
290
     1
176
     1
290
     0
176
     1
290
     0
176
     1
290
     0
176
     1
290
     0
176
     1
290
     0
176
     1
290
     0
176
     1
 90
       50
176
     1
 40
0.0
176
     1
 40
1.0
176
     1
 90
        0
176
     1
 62
    18
420
        0
176
     1
 90
       50
176
     1
 90
        3
176
     1
 62
     5
420
      255
176
     1
290
     0
176
     1
 90
       50
176
     1
 90
       50
176
     1
 90
       50
176
     1
290
     0
176
     1
 90
       50
176
     1
 62
   256
176
     0
 40
1.0
176
     0
 90
        2
176
     1
  1
strokes_ogs.tif
176
     1
290
     0
176
     1
 40
1.0
176
     1
 40
1.0
176
     1
  0
VISUALSTYLE
  5
3D
102
{ACAD_REACTORS
330
2A
102
}
330
2A
100
AcDbVisualStyle
  2
EdgeColorOff
 70
    22
177
     3
291
     1
 70
    58
 90
        2
176
     0
 90
        2
176
     0
 90
        0
176
     0
 90
        0
176
     0
 40
0.6
176
     0
 40
30.0
176
     0
 62
     7
420
 16777215
176
     0
 90
        1
176
     0
 90
        4
176
     0
 62
     7
176
     0
 62
   257
176
     0
 90
        1
176
     0
 90
        1
176
     0
 40
1.0
176
     0
 90
        8
176
     2
 62
     7
176
     0
 40
1.0
176
     0
 90
        1
176
     0
 90
        6
176
     0
 90
        2
176
     0
 62
     7
176
     0
 90
        5
176
     0
 90
        0
176
     0
 90
        0
176
     0
290
     0
176
     0
 90
        1
176
     0
 40
0.0
176
     0
 90
        0
176
     0
290
     0
176
     0
290
     1
176
     0
290
     1
176
     0
290
     0
176
     0
290
     0
176
     0
290
     0
176
     0
290
     0
176
     0
290
     0
176
     0
290
     0
176
     0
 90
       50
176
     0
 40
0.0
176
     0
 40
1.0
176
     0
 90
        0
176
     0
 62
    18
420
        0
176
     0
 90
       50
176
     0
 90
        3
176
     0
 62
     5
420
      255
176
     0
290
     0
176
     0
 90
       50
176
     0
 90
       50
176
     0
 90
       50
176
     0
290
     0
176
     0
 90
       50
176
     0
 62
   256
176
     0
 40
1.0
176
     0
 90
        2
176
     0
  1
strokes_ogs.tif
176
     0
290
     0
176
     0
 40
1.0
176
     0
 40
1.0
176
     0
  0
VISUALSTYLE
  5
39
102
{ACAD_REACTORS
330
2A
102
}
330
2A
100
AcDbVisualStyle
  2
Facepattern
 70
    15
177
     3
291
     1
 70
    58
 90
        2
176
     1
 90
        2
176
     1
 90
        0
176
     1
 90
        0
176
     1
 40
0.6
176
     1
 40
30.0
176
     1
 62
     7
420
 16777215
176
     1
 90
        1
176
     1
 90
        4
176
     1
 62
     7
176
     1
 62
   257
176
     1
 90
        1
176
     1
 90
        1
176
     1
 40
1.0
176
     1
 90
        8
176
     1
 62
     7
176
     1
 40
1.0
176
     1
 90
        1
176
     1
 90
        6
176
     1
 90
        2
176
     1
 62
     7
176
     1
 90
        5
176
     1
 90
        0
176
     1
 90
        0
176
     1
290
     0
176
     1
 90
        1
176
     1
 40
0.0
176
     1
 90
        0
176
     1
290
     0
176
     1
290
     1
176
     1
290
     1
176
     1
290
     0
176
     1
290
     0
176
     1
290
     0
176
     1
290
     0
176
     1
290
     0
176
     1
290
     0
176
     1
 90
       50
176
     1
 40
0.0
176
     1
 40
1.0
176
     1
 90
        0
176
     1
 62
    18
420
        0
176
     1
 90
       50
176
     1
 90
        3
176
     1
 62
     5
420
      255
176
     1
290
     0
176
     1
 90
       50
176
     1
 90
       50
176
     1
 90
       50
176
     1
290
     0
176
     1
 90
       50
176
     1
 62
   256
176
     0
 40
1.0
176
     0
 90
        2
176
     1
  1
strokes_ogs.tif
176
     1
290
     0
176
     1
 40
1.0
176
     1
 40
1.0
176
     1
  0
VISUALSTYLE
  5
2B
102
{ACAD_REACTORS
330
2A
102
}
330
2A
100
AcDbVisualStyle
  2
Flat
 70
     0
177
     3
291
     1
 70
    58
 90
        2
176
     1
 90
        1
176
     1
 90
        1
176
     1
 90
        2
176
     1
 40
0.6
176
     1
 40
30.0
176
     1
 62
     7
420
 16777215
176
     1
 90
        0
176
     1
 90
        0
176
     1
 62
     7
176
     1
 62
   257
176
     1
 90
        1
176
     1
 90
        1
176
     1
 40
1.0
176
     1
 90
        8
176
     1
 62
     7
176
     1
 40
1.0
176
     1
 90
        1
176
     1
 90
        6
176
     1
 90
        2
176
     1
 62
     7
176
     1
 90
        5
176
     1
 90
        0
176
     1
 90
        0
176
     1
290
     0
176
     1
 90
       13
176
     1
 40
0.0
176
     1
 90
        0
176
     1
290
     0
176
     1
290
     1
176
     1
290
     1
176
     1
290
     0
176
     1
290
     0
176
     1
290
     0
176
     1
290
     0
176
     1
290
     0
176
     1
290
     0
176
     1
 90
       50
176
     1
 40
0.0
176
     1
 40
1.0
176
     1
 90
        0
176
     1
 62
    18
420
        0
176
     1
 90
       50
176
     1
 90
        3
176
     1
 62
     5
420
      255
176
     1
290
     0
176
     1
 90
       50
176
     1
 90
       50
176
     1
 90
       50
176
     1
290
     0
176
     1
 90
       50
176
     1
 62
   256
176
     0
 40
1.0
176
     0
 90
        2
176
     1
  1
strokes_ogs.tif
176
     1
290
     0
176
     1
 40
1.0
176
     1
 40
1.0
176
     1
  0
VISUALSTYLE
  5
2C
102
{ACAD_REACTORS
330
2A
102
}
330
2A
100
AcDbVisualStyle
  2
FlatWithEdges
 70
     1
177
     3
291
     1
 70
    58
 90
        2
176
     1
 90
        1
176
     1
 90
        1
176
     1
 90
        2
176
     1
 40
0.6
176
     1
 40
30.0
176
     1
 62
     7
420
 16777215
176
     1
 90
        1
176
     1
 90
        0
176
     1
 62
     7
176
     1
 62
   257
176
     1
 90
        1
176
     1
 90
        1
176
     1
 40
1.0
176
     1
 90
        0
176
     1
 62
   257
176
     1
 40
1.0
176
     1
 90
        1
176
     1
 90
        6
176
     1
 90
        2
176
     1
 62
     7
176
     1
 90
        5
176
     1
 90
        0
176
     1
 90
        0
176
     1
290
     0
176
     1
 90
       13
176
     1
 40
0.0
176
     1
 90
        0
176
     1
290
     0
176
     1
290
     1
176
     1
290
     1
176
     1
290
     0
176
     1
290
     0
176
     1
290
     0
176
     1
290
     0
176
     1
290
     0
176
     1
290
     0
176
     1
 90
       50
176
     1
 40
0.0
176
     1
 40
1.0
176
     1
 90
        0
176
     1
 62
    18
420
        0
176
     1
 90
       50
176
     1
 90
        3
176
     1
 62
     5
420
      255
176
     1
290
     0
176
     1
 90
       50
176
     1
 90
       50
176
     1
 90
       50
176
     1
290
     0
176
     1
 90
       50
176
     1
 62
   256
176
     0
 40
1.0
176
     0
 90
        2
176
     1
  1
strokes_ogs.tif
176
     1
290
     0
176
     1
 40
1.0
176
     1
 40
1.0
176
     1
  0
VISUALSTYLE
  5
2D
102
{ACAD_REACTORS
330
2A
102
}
330
2A
100
AcDbVisualStyle
  2
Gouraud
 70
     2
177
     3
291
     1
 70
    58
 90
        2
176
     1
 90
        2
176
     1
 90
        1
176
     1
 90
        2
176
     1
 40
0.6
176
     1
 40
30.0
176
     1
 62
     7
420
 16777215
176
     1
 90
        0
176
     1
 90
        0
176
     1
 62
     7
176
     1
 62
   257
176
     1
 90
        1
176
     1
 90
        1
176
     1
 40
1.0
176
     1
 90
        0
176
     1
 62
     7
176
     1
 40
1.0
176
     1
 90
        1
176
     1
 90
        6
176
     1
 90
        2
176
     1
 62
     7
176
     1
 90
        5
176
     1
 90
        0
176
     1
 90
        0
176
     1
290
     0
176
     1
 90
       13
176
     1
 40
0.0
176
     1
 90
        0
176
     1
290
     0
176
     1
290
     1
176
     1
290
     1
176
     1
290
     0
176
     1
290
     0
176
     1
290
     0
176
     1
290
     0
176
     1
290
     0
176
     1
290
     0
176
     1
 90
       50
176
     1
 40
0.0
176
     1
 40
1.0
176
     1
 90
        0
176
     1
 62
    18
420
        0
176
     1
 90
       50
176
     1
 90
        3
176
     1
 62
     5
420
      255
176
     1
290
     0
176
     1
 90
       50
176
     1
 90
       50
176
     1
 90
       50
176
     1
290
     0
176
     1
 90
       50
176
     1
 62
   256
176
     0
 40
1.0
176
     0
 90
        2
176
     1
  1
strokes_ogs.tif
176
     1
290
     0
176
     1
 40
1.0
176
     1
 40
1.0
176
     1
  0
VISUALSTYLE
  5
2E
102
{ACAD_REACTORS
330
2A
102
}
330
2A
100
AcDbVisualStyle
  2
GouraudWithEdges
 70
     3
177
     3
291
     1
 70
    58
 90
        2
176
     1
 90
        2
176
     1
 90
        1
176
     1
 90
        2
176
     1
 40
0.6
176
     1
 40
30.0
176
     1
 62
     7
420
 16777215
176
     1
 90
        1
176
     1
 90
        0
176
     1
 62
     7
176
     1
 62
   257
176
     1
 90
        1
176
     1
 90
        1
176
     1
 40
1.0
176
     1
 90
        0
176
     1
 62
   257
176
     1
 40
1.0
176
     1
 90
        1
176
     1
 90
        6
176
     1
 90
        2
176
     1
 62
     7
176
     1
 90
        5
176
     1
 90
        0
176
     1
 90
        0
176
     1
290
     0
176
     1
 90
       13
176
     1
 40
0.0
176
     1
 90
        0
176
     1
290
     0
176
     1
290
     1
176
     1
290
     1
176
     1
290
     0
176
     1
290
     0
176
     1
290
     0
176
     1
290
     0
176
     1
290
     0
176
     1
290
     0
176
     1
 90
       50
176
     1
 40
0.0
176
     1
 40
1.0
176
     1
 90
        0
176
     1
 62
    18
420
        0
176
     1
 90
       50
176
     1
 90
        3
176
     1
 62
     5
420
      255
176
     1
290
     0
176
     1
 90
       50
176
     1
 90
       50
176
     1
 90
       50
176
     1
290
     0
176
     1
 90
       50
176
     1
 62
   256
176
     0
 40
1.0
176
     0
 90
        2
176
     1
  1
strokes_ogs.tif
176
     1
290
     0
176
     1
 40
1.0
176
     1
 40
1.0
176
     1
  0
VISUALSTYLE
  5
31
102
{ACAD_REACTORS
330
2A
102
}
330
2A
100
AcDbVisualStyle
  2
Hidden
 70
     6
177
     3
291
     0
 70
    58
 90
        1
176
     1
 90
        2
176
     1
 90
        2
176
     1
 90
        0
176
     1
 40
0.6
176
     1
 40
30.0
176
     1
 62
     7
420
 16777215
176
     1
 90
        2
176
     1
 90
        2
176
     1
 62
     7
176
     1
 62
   257
176
     1
 90
        2
176
     1
 90
        1
176
     1
 40
40.0
176
     1
 90
        0
176
     1
 62
   257
176
     1
 40
1.0
176
     1
 90
        1
176
     1
 90
        6
176
     1
 90
        2
176
     1
 62
     7
176
     1
 90
        3
176
     1
 90
        0
176
     1
 90
        0
176
     1
290
     0
176
     1
 90
        1
176
     1
 40
0.0
176
     1
 90
        0
176
     1
290
     0
176
     1
290
     1
176
     1
290
     1
176
     1
290
     0
176
     1
290
     0
176
     1
290
     0
176
     1
290
     0
176
     1
290
     0
176
     1
290
     0
176
     1
 90
       50
176
     1
 40
0.0
176
     1
 40
1.0
176
     1
 90
        0
176
     1
 62
    18
420
        0
176
     1
 90
       50
176
     1
 90
        3
176
     1
 62
     5
420
      255
176
     1
290
     0
176
     1
 90
       50
176
     1
 90
       50
176
     1
 90
       50
176
     1
290
     0
176
     1
 90
       50
176
     1
 62
   256
176
     0
 40
1.0
176
     0
 90
        2
176
     1
  1
strokes_ogs.tif
176
     1
290
     0
176
     1
 40
1.0
176
     1
 40
1.0
176
     1
  0
VISUALSTYLE
  5
3B
102
{ACAD_REACTORS
330
2A
102
}
330
2A
100
AcDbVisualStyle
  2
JitterOff
 70
    20
177
     3
291
     1
 70
    58
 90
        2
176
     0
 90
        2
176
     0
 90
        0
176
     0
 90
        0
176
     0
 40
0.6
176
     0
 40
30.0
176
     0
 62
     7
420
 16777215
176
     0
 90
        1
176
     0
 90
        4
176
     0
 62
     7
176
     0
 62
   257
176
     0
 90
        1
176
     0
 90
        1
176
     0
 40
1.0
176
     0
 90
       10
176
     2
 62
     7
176
     0
 40
1.0
176
     0
 90
        1
176
     0
 90
        6
176
     0
 90
        2
176
     0
 62
     7
176
     0
 90
        5
176
     0
 90
        0
176
     0
 90
        0
176
     0
290
     0
176
     0
 90
        1
176
     0
 40
0.0
176
     0
 90
        0
176
     0
290
     0
176
     0
290
     1
176
     0
290
     1
176
     0
290
     0
176
     0
290
     0
176
     0
290
     0
176
     0
290
     0
176
     0
290
     0
176
     0
290
     0
176
     0
 90
       50
176
     0
 40
0.0
176
     0
 40
1.0
176
     0
 90
        0
176
     0
 62
    18
420
        0
176
     0
 90
       50
176
     0
 90
        3
176
     0
 62
     5
420
      255
176
     0
290
     0
176
     0
 90
       50
176
     0
 90
       50
176
     0
 90
       50
176
     0
290
     0
176
     0
 90
       50
176
     0
 62
   256
176
     0
 40
1.0
176
     0
 90
        2
176
     0
  1
strokes_ogs.tif
176
     0
290
     0
176
     0
 40
1.0
176
     0
 40
1.0
176
     0
  0
VISUALSTYLE
  5
38
102
{ACAD_REACTORS
330
2A
102
}
330
2A
100
AcDbVisualStyle
  2
Linepattern
 70
    14
177
     3
291
     1
 70
    58
 90
        2
176
     1
 90
        2
176
     1
 90
        0
176
     1
 90
        0
176
     1
 40
0.6
176
     1
 40
30.0
176
     1
 62
     7
420
 16777215
176
     1
 90
        1
176
     1
 90
        4
176
     1
 62
     7
176
     1
 62
   257
176
     1
 90
        7
176
     1
 90
        7
176
     1
 40
1.0
176
     1
 90
        8
176
     1
 62
     7
176
     1
 40
1.0
176
     1
 90
        1
176
     1
 90
        6
176
     1
 90
        2
176
     1
 62
     7
176
     1
 90
        5
176
     1
 90
        0
176
     1
 90
        0
176
     1
290
     0
176
     1
 90
        1
176
     1
 40
0.0
176
     1
 90
        0
176
     1
290
     0
176
     1
290
     1
176
     1
290
     1
176
     1
290
     0
176
     1
290
     0
176
     1
290
     0
176
     1
290
     0
176
     1
290
     0
176
     1
290
     0
176
     1
 90
       50
176
     1
 40
0.0
176
     1
 40
1.0
176
     1
 90
        0
176
     1
 62
    18
420
        0
176
     1
 90
       50
176
     1
 90
        3
176
     1
 62
     5
420
      255
176
     1
290
     0
176
     1
 90
       50
176
     1
 90
       50
176
     1
 90
       50
176
     1
290
     0
176
     1
 90
       50
176
     1
 62
   256
176
     0
 40
1.0
176
     0
 90
        2
176
     1
  1
strokes_ogs.tif
176
     1
290
     0
176
     1
 40
1.0
176
     1
 40
1.0
176
     1
  0
VISUALSTYLE
  5
3C
102
{ACAD_REACTORS
330
2A
102
}
330
2A
100
AcDbVisualStyle
  2
OverhangOff
 70
    21
177
     3
291
     1
 70
    58
 90
        2
176
     0
 90
        2
176
     0
 90
        0
176
     0
 90
        0
176
     0
 40
0.6
176
     0
 40
30.0
176
     0
 62
     7
420
 16777215
176
     0
 90
        1
176
     0
 90
        4
176
     0
 62
     7
176
     0
 62
   257
176
     0
 90
        1
176
     0
 90
        1
176
     0
 40
1.0
176
     0
 90
        9
176
     2
 62
     7
176
     0
 40
1.0
176
     0
 90
        1
176
     0
 90
        6
176
     0
 90
        2
176
     0
 62
     7
176
     0
 90
        5
176
     0
 90
        0
176
     0
 90
        0
176
     0
290
     0
176
     0
 90
        1
176
     0
 40
0.0
176
     0
 90
        0
176
     0
290
     0
176
     0
290
     1
176
     0
290
     1
176
     0
290
     0
176
     0
290
     0
176
     0
290
     0
176
     0
290
     0
176
     0
290
     0
176
     0
290
     0
176
     0
 90
       50
176
     0
 40
0.0
176
     0
 40
1.0
176
     0
 90
        0
176
     0
 62
    18
420
        0
176
     0
 90
       50
176
     0
 90
        3
176
     0
 62
     5
420
      255
176
     0
290
     0
176
     0
 90
       50
176
     0
 90
       50
176
     0
 90
       50
176
     0
290
     0
176
     0
 90
       50
176
     0
 62
   256
176
     0
 40
1.0
176
     0
 90
        2
176
     0
  1
strokes_ogs.tif
176
     0
290
     0
176
     0
 40
1.0
176
     0
 40
1.0
176
     0
  0
VISUALSTYLE
  5
33
102
{ACAD_REACTORS
330
2A
102
}
330
2A
100
AcDbVisualStyle
  2
Realistic
 70
     8
177
     3
291
     0
 70
    58
 90
        2
176
     1
 90
        3
176
     1
 90
        0
176
     1
 90
        2
176
     1
 40
0.6
176
     1
 40
30.0
176
     1
 62
     7
420
 16777215
176
     1
 90
        0
176
     1
 90
        0
176
     1
 62
     7
176
     1
 62
   257
176
     1
 90
        1
176
     1
 90
        1
176
     1
 40
1.0
176
     1
 90
        8
176
     1
 62
   257
176
     1
 40
1.0
176
     1
 90
        1
176
     1
 90
        6
176
     1
 90
        2
176
     1
 62
     7
176
     1
 90
        3
176
     1
 90
        0
176
     1
 90
        0
176
     1
290
     0
176
     1
 90
       13
176
     1
 40
0.0
176
     1
 90
        0
176
     1
290
     0
176
     1
290
     1
176
     1
290
     1
176
     1
290
     0
176
     1
290
     0
176
     1
290
     0
176
     1
290
     0
176
     1
290
     0
176
     1
290
     0
176
     1
 90
       50
176
     1
 40
0.0
176
     1
 40
1.0
176
     1
 90
        0
176
     1
 62
    18
420
        0
176
     1
 90
       50
176
     1
 90
        3
176
     1
 62
     5
420
      255
176
     1
290
     0
176
     1
 90
       50
176
     1
 90
       50
176
     1
 90
       50
176
     1
290
     0
176
     1
 90
       50
176
     1
 62
   256
176
     0
 40
1.0
176
     0
 90
        2
176
     1
  1
strokes_ogs.tif
176
     1
290
     0
176
     1
 40
1.0
176
     1
 40
1.0
176
     1
  0
VISUALSTYLE
  5
42
102
{ACAD_REACTORS
330
2A
102
}
330
2A
100
AcDbVisualStyle
  2
Shaded
 70
    27
177
     3
291
     0
 70
    58
 90
        2
176
     1
 90
        2
176
     1
 90
        1
176
     1
 90
        2
176
     1
 40
0.6
176
     1
 40
30.0
176
     1
 62
     7
420
 16777215
176
     1
 90
        0
176
     1
 90
        4
176
     1
 62
     7
176
     1
 62
   257
176
     1
 90
        1
176
     1
 90
        1
176
     1
 40
1.0
176
     1
 90
        8
176
     1
 62
   257
176
     1
 40
1.0
176
     1
 90
        1
176
     1
 90
        6
176
     1
 90
        2
176
     1
 62
     8
420
  7895160
176
     1
 90
        3
176
     1
 90
        0
176
     1
 90
        0
176
     1
290
     0
176
     1
 90
        5
176
     1
 40
0.0
176
     1
 90
        0
176
     1
290
     0
176
     1
290
     1
176
     1
290
     1
176
     1
290
     0
176
     1
290
     0
176
     1
290
     0
176
     1
290
     0
176
     1
290
     0
176
     1
290
     0
176
     1
 90
       50
176
     1
 40
0.0
176
     1
 40
1.0
176
     1
 90
        0
176
     1
 62
    18
420
        0
176
     1
 90
       50
176
     1
 90
        3
176
     1
 62
     5
420
      255
176
     1
290
     0
176
     1
 90
       50
176
     1
 90
       50
176
     1
 90
       50
176
     1
290
     0
176
     1
 90
       50
176
     1
 62
   256
176
     0
 40
1.0
176
     0
 90
        2
176
     1
  1
strokes_ogs.tif
176
     1
290
     0
176
     1
 40
1.0
176
     1
 40
1.0
176
     1
  0
VISUALSTYLE
  5
41
102
{ACAD_REACTORS
330
2A
102
}
330
2A
100
AcDbVisualStyle
  2
Shaded with edges
 70
    26
177
     3
291
     0
 70
    58
 90
        2
176
     1
 90
        2
176
     1
 90
        1
176
     1
 90
        2
176
     1
 40
0.6
176
     1
 40
30.0
176
     1
 62
     7
420
 16777215
176
     1
 90
        1
176
     1
 90
       10
176
     1
 62
     7
176
     1
 62
   257
176
     1
 90
        2
176
     1
 90
        1
176
     1
 40
1.0
176
     1
 90
        8
176
     1
 62
   257
176
     1
 40
1.0
176
     1
 90
        1
176
     1
 90
        6
176
     1
 90
        2
176
     1
 62
     7
176
     1
 90
        3
176
     1
 90
        0
176
     1
 90
        0
176
     1
290
     0
176
     1
 90
        5
176
     1
 40
0.0
176
     1
 90
        0
176
     1
290
     0
176
     1
290
     1
176
     1
290
     1
176
     1
290
     0
176
     1
290
     0
176
     1
290
     0
176
     1
290
     0
176
     1
290
     0
176
     1
290
     0
176
     1
 90
       50
176
     1
 40
0.0
176
     1
 40
1.0
176
     1
 90
        0
176
     1
 62
    18
420
        0
176
     1
 90
       50
176
     1
 90
        3
176
     1
 62
     5
420
      255
176
     1
290
     0
176
     1
 90
       50
176
     1
 90
       50
176
     1
 90
       50
176
     1
290
     0
176
     1
 90
       50
176
     1
 62
   256
176
     0
 40
1.0
176
     0
 90
        2
176
     1
  1
strokes_ogs.tif
176
     1
290
     0
176
     1
 40
1.0
176
     1
 40
1.0
176
     1
  0
VISUALSTYLE
  5
3E
102
{ACAD_REACTORS
330
2A
102
}
330
2A
100
AcDbVisualStyle
  2
Shades of Gray
 70
    23
177
     3
291
     0
 70
    58
 90
        2
176
     1
 90
        2
176
     1
 90
        3
176
     1
 90
        0
176
     1
 40
0.6
176
     1
 40
30.0
176
     1
 62
     7
420
 16777215
176
     1
 90
        2
176
     1
 90
        2
176
     1
 62
     7
176
     1
 62
     7
176
     1
 90
        1
176
     1
 90
        1
176
     1
 40
40.0
176
     1
 90
        8
176
     1
 62
     7
176
     1
 40
1.0
176
     1
 90
        1
176
     1
 90
        6
176
     1
 90
        2
176
     1
 62
     7
176
     1
 90
        3
176
     1
 90
        0
176
     1
 90
        0
176
     1
290
     0
176
     1
 90
        1
176
     1
 40
0.0
176
     1
 90
        0
176
     1
290
     0
176
     1
290
     1
176
     1
290
     1
176
     1
290
     0
176
     1
290
     0
176
     1
290
     0
176
     1
290
     0
176
     1
290
     0
176
     1
290
     0
176
     1
 90
       50
176
     1
 40
0.0
176
     1
 40
1.0
176
     1
 90
        0
176
     1
 62
    18
420
        0
176
     1
 90
       50
176
     1
 90
        3
176
     1
 62
     5
420
      255
176
     1
290
     0
176
     1
 90
       50
176
     1
 90
       50
176
     1
 90
       50
176
     1
290
     0
176
     1
 90
       50
176
     1
 62
   256
176
     0
 40
1.0
176
     0
 90
        2
176
     1
  1
strokes_ogs.tif
176
     1
290
     0
176
     1
 40
1.0
176
     1
 40
1.0
176
     1
  0
VISUALSTYLE
  5
3F
102
{ACAD_REACTORS
330
2A
102
}
330
2A
100
AcDbVisualStyle
  2
Sketchy
 70
    24
177
     3
291
     0
 70
    58
 90
        1
176
     1
 90
        2
176
     1
 90
        2
176
     1
 90
        0
176
     1
 40
0.6
176
     1
 40
30.0
176
     1
 62
     7
420
 16777215
176
     1
 90
        2
176
     1
 90
        2
176
     1
 62
     7
176
     1
 62
     7
176
     1
 90
        1
176
     1
 90
        1
176
     1
 40
40.0
176
     1
 90
       11
176
     1
 62
     7
176
     1
 40
1.0
176
     1
 90
        1
176
     1
 90
        6
176
     1
 90
        2
176
     1
 62
     7
176
     1
 90
        6
176
     1
 90
        0
176
     1
 90
        0
176
     1
290
     0
176
     1
 90
        1
176
     1
 40
0.0
176
     1
 90
        0
176
     1
290
     0
176
     1
290
     1
176
     1
290
     1
176
     1
290
     0
176
     1
290
     0
176
     1
290
     0
176
     1
290
     0
176
     1
290
     0
176
     1
290
     0
176
     1
 90
       50
176
     1
 40
0.0
176
     1
 40
1.0
176
     1
 90
        0
176
     1
 62
    18
420
        0
176
     1
 90
       50
176
     1
 90
        3
176
     1
 62
     5
420
      255
176
     1
290
     0
176
     1
 90
       50
176
     1
 90
       50
176
     1
 90
       50
176
     1
290
     0
176
     1
 90
       50
176
     1
 62
   256
176
     0
 40
1.0
176
     0
 90
        2
176
     1
  1
strokes_ogs.tif
176
     1
290
     0
176
     1
 40
1.0
176
     1
 40
1.0
176
     1
  0
VISUALSTYLE
  5
37
102
{ACAD_REACTORS
330
2A
102
}
330
2A
100
AcDbVisualStyle
  2
Thicken
 70
    13
177
     3
291
     1
 70
    58
 90
        2
176
     1
 90
        2
176
     1
 90
        0
176
     1
 90
        0
176
     1
 40
0.6
176
     1
 40
30.0
176
     1
 62
     7
420
 16777215
176
     1
 90
        1
176
     1
 90
        4
176
     1
 62
     7
176
     1
 62
   257
176
     1
 90
        1
176
     1
 90
        1
176
     1
 40
1.0
176
     1
 90
       12
176
     1
 62
     7
176
     1
 40
1.0
176
     1
 90
        1
176
     1
 90
        6
176
     1
 90
        2
176
     1
 62
     7
176
     1
 90
        5
176
     1
 90
        0
176
     1
 90
        0
176
     1
290
     0
176
     1
 90
        1
176
     1
 40
0.0
176
     1
 90
        0
176
     1
290
     0
176
     1
290
     1
176
     1
290
     1
176
     1
290
     0
176
     1
290
     0
176
     1
290
     0
176
     1
290
     0
176
     1
290
     0
176
     1
290
     0
176
     1
 90
       50
176
     1
 40
0.0
176
     1
 40
1.0
176
     1
 90
        0
176
     1
 62
    18
420
        0
176
     1
 90
       50
176
     1
 90
        3
176
     1
 62
     5
420
      255
176
     1
290
     0
176
     1
 90
       50
176
     1
 90
       50
176
     1
 90
       50
176
     1
290
     0
176
     1
 90
       50
176
     1
 62
   256
176
     0
 40
1.0
176
     0
 90
        2
176
     1
  1
strokes_ogs.tif
176
     1
290
     0
176
     1
 40
1.0
176
     1
 40
1.0
176
     1
  0
VISUALSTYLE
  5
30
102
{ACAD_REACTORS
330
2A
102
}
330
2A
100
AcDbVisualStyle
  2
Wireframe
 70
     5
177
     3
291
     0
 70
    58
 90
        0
176
     1
 90
        2
176
     1
 90
        0
176
     1
 90
        0
176
     1
 40
0.6
176
     1
 40
30.0
176
     1
 62
     7
420
 16777215
176
     1
 90
        1
176
     1
 90
        4
176
     1
 62
     7
176
     1
 62
   257
176
     1
 90
        1
176
     1
 90
        1
176
     1
 40
1.0
176
     1
 90
        0
176
     1
 62
   257
176
     1
 40
1.0
176
     1
 90
        1
176
     1
 90
        6
176
     1
 90
        2
176
     1
 62
     7
176
     1
 90
        3
176
     1
 90
        0
176
     1
 90
        0
176
     1
290
     0
176
     1
 90
        1
176
     1
 40
0.0
176
     1
 90
        0
176
     1
290
     0
176
     1
290
     1
176
     1
290
     1
176
     1
290
     0
176
     1
290
     0
176
     1
290
     0
176
     1
290
     0
176
     1
290
     0
176
     1
290
     0
176
     1
 90
       50
176
     1
 40
0.0
176
     1
 40
1.0
176
     1
 90
        0
176
     1
 62
    18
420
        0
176
     1
 90
       50
176
     1
 90
        3
176
     1
 62
     5
420
      255
176
     1
290
     0
176
     1
 90
       50
176
     1
 90
       50
176
     1
 90
       50
176
     1
290
     0
176
     1
 90
       50
176
     1
 62
   256
176
     0
 40
1.0
176
     0
 90
        2
176
     1
  1
strokes_ogs.tif
176
     1
290
     0
176
     1
 40
1.0
176
     1
 40
1.0
176
     1
  0
VISUALSTYLE
  5
40
102
{ACAD_REACTORS
330
2A
102
}
330
2A
100
AcDbVisualStyle
  2
X-Ray
 70
    25
177
     3
291
     0
 70
    58
 90
        2
176
     1
 90
        2
176
     1
 90
        1
176
     1
 90
        1
176
     1
 40
0.5
176
     1
 40
30.0
176
     1
 62
     7
420
 16777215
176
     1
 90
        1
176
     1
 90
        0
176
     1
 62
     7
176
     1
 62
   257
176
     1
 90
        1
176
     1
 90
        1
176
     1
 40
1.0
176
     1
 90
        8
176
     1
 62
     7
176
     1
 40
1.0
176
     1
 90
        1
176
     1
 90
        6
176
     1
 90
        2
176
     1
 62
     7
176
     1
 90
        3
176
     1
 90
        0
176
     1
 90
        0
176
     1
290
     0
176
     1
 90
       13
176
     1
 40
0.0
176
     1
 90
        0
176
     1
290
     0
176
     1
290
     1
176
     1
290
     1
176
     1
290
     0
176
     1
290
     0
176
     1
290
     0
176
     1
290
     0
176
     1
290
     0
176
     1
290
     0
176
     1
 90
       50
176
     1
 40
0.0
176
     1
 40
1.0
176
     1
 90
        0
176
     1
 62
    18
420
        0
176
     1
 90
       50
176
     1
 90
        3
176
     1
 62
     5
420
      255
176
     1
290
     0
176
     1
 90
       50
176
     1
 90
       50
176
     1
 90
       50
176
     1
290
     0
176
     1
 90
       50
176
     1
 62
   256
176
     0
 40
1.0
176
     0
 90
        2
176
     1
  1
strokes_ogs.tif
176
     1
290
     0
176
     1
 40
1.0
176
     1
 40
1.0
176
     1
  0
DICTIONARYVAR
  5
1B7
102
{ACAD_REACTORS
330
1B6
102
}
330
1B6
100
DictionaryVariables
280
     0
  1
1:1
  0
DICTIONARYVAR
  5
1BC
102
{ACAD_REACTORS
330
1B6
102
}
330
1B6
100
DictionaryVariables
280
     0
  1
Standard
  0
DICTIONARYVAR
  5
1BB
102
{ACAD_REACTORS
330
1B6
102
}
330
1B6
100
DictionaryVariables
280
     0
  1
Standard
  0
DICTIONARY
  5
1B8
330
6A
100
AcDbDictionary
280
     1
281
     1
  3
ACAD_ROUNDTRIP_2008_TABLESTYLE_CELLSTYLEMAP
360
1B9
  0
CELLSTYLEMAP
  5
1B9
102
{ACAD_REACTORS
330
1B8
102
}
330
1B8
100
AcDbCellStyleMap
 90
        3
300
CELLSTYLE
  1
TABLEFORMAT_BEGIN
 90
        5
170
     1
 91
        0
 92
    32768
 62
   257
 93
        1
300
CONTENTFORMAT
  1
CONTENTFORMAT_BEGIN
 90
        0
 91
        0
 92
        4
 93
        0
300

 40
0.0
140
1.0
 94
        5
 62
     0
340
11
144
0.25
309
CONTENTFORMAT_END
171
     1
301
MARGIN
  1
CELLMARGIN_BEGIN
 40
0.06
 40
0.06
 40
0.06
 40
0.06
 40
0.06
 40
0.06
309
CELLMARGIN_END
 94
        6
 95
        1
302
GRIDFORMAT
  1
GRIDFORMAT_BEGIN
 90
        0
 91
        1
 62
     0
 92
       -2
340
14
 93
        0
 40
0.045
309
GRIDFORMAT_END
 95
        2
302
GRIDFORMAT
  1
GRIDFORMAT_BEGIN
 90
        0
 91
        1
 62
     0
 92
       -2
340
14
 93
        0
 40
0.045
309
GRIDFORMAT_END
 95
        4
302
GRIDFORMAT
  1
GRIDFORMAT_BEGIN
 90
        0
 91
        1
 62
     0
 92
       -2
340
14
 93
        0
 40
0.045
309
GRIDFORMAT_END
 95
        8
302
GRIDFORMAT
  1
GRIDFORMAT_BEGIN
 90
        0
 91
        1
 62
     0
 92
       -2
340
14
 93
        0
 40
0.045
309
GRIDFORMAT_END
 95
       16
302
GRIDFORMAT
  1
GRIDFORMAT_BEGIN
 90
        0
 91
        1
 62
     0
 92
       -2
340
14
 93
        0
 40
0.045
309
GRIDFORMAT_END
 95
       32
302
GRIDFORMAT
  1
GRIDFORMAT_BEGIN
 90
        0
 91
        1
 62
     0
 92
       -2
340
14
 93
        0
 40
0.045
309
GRIDFORMAT_END
309
TABLEFORMAT_END
  1
CELLSTYLE_BEGIN
 90
        1
 91
        1
300
_TITLE
309
CELLSTYLE_END
300
CELLSTYLE
  1
TABLEFORMAT_BEGIN
 90
        5
170
     1
 91
        0
 92
        0
 62
   257
 93
        1
300
CONTENTFORMAT
  1
CONTENTFORMAT_BEGIN
 90
        0
 91
        0
 92
        4
 93
        0
300

 40
0.0
140
1.0
 94
        5
 62
     0
340
11
144
0.18
309
CONTENTFORMAT_END
171
     1
301
MARGIN
  1
CELLMARGIN_BEGIN
 40
0.06
 40
0.06
 40
0.06
 40
0.06
 40
0.06
 40
0.06
309
CELLMARGIN_END
 94
        6
 95
        1
302
GRIDFORMAT
  1
GRIDFORMAT_BEGIN
 90
        0
 91
        1
 62
     0
 92
       -2
340
14
 93
        0
 40
0.045
309
GRIDFORMAT_END
 95
        2
302
GRIDFORMAT
  1
GRIDFORMAT_BEGIN
 90
        0
 91
        1
 62
     0
 92
       -2
340
14
 93
        0
 40
0.045
309
GRIDFORMAT_END
 95
        4
302
GRIDFORMAT
  1
GRIDFORMAT_BEGIN
 90
        0
 91
        1
 62
     0
 92
       -2
340
14
 93
        0
 40
0.045
309
GRIDFORMAT_END
 95
        8
302
GRIDFORMAT
  1
GRIDFORMAT_BEGIN
 90
        0
 91
        1
 62
     0
 92
       -2
340
14
 93
        0
 40
0.045
309
GRIDFORMAT_END
 95
       16
302
GRIDFORMAT
  1
GRIDFORMAT_BEGIN
 90
        0
 91
        1
 62
     0
 92
       -2
340
14
 93
        0
 40
0.045
309
GRIDFORMAT_END
 95
       32
302
GRIDFORMAT
  1
GRIDFORMAT_BEGIN
 90
        0
 91
        1
 62
     0
 92
       -2
340
14
 93
        0
 40
0.045
309
GRIDFORMAT_END
309
TABLEFORMAT_END
  1
CELLSTYLE_BEGIN
 90
        2
 91
        1
300
_HEADER
309
CELLSTYLE_END
300
CELLSTYLE
  1
TABLEFORMAT_BEGIN
 90
        5
170
     1
 91
        0
 92
        0
 62
   257
 93
        1
300
CONTENTFORMAT
  1
CONTENTFORMAT_BEGIN
 90
        0
 91
        0
 92
        4
 93
        0
300

 40
0.0
140
1.0
 94
        2
 62
     0
340
11
144
0.18
309
CONTENTFORMAT_END
171
     1
301
MARGIN
  1
CELLMARGIN_BEGIN
 40
0.06
 40
0.06
 40
0.06
 40
0.06
 40
0.06
 40
0.06
309
CELLMARGIN_END
 94
        6
 95
        1
302
GRIDFORMAT
  1
GRIDFORMAT_BEGIN
 90
        0
 91
        1
 62
     0
 92
       -2
340
14
 93
        0
 40
0.045
309
GRIDFORMAT_END
 95
        2
302
GRIDFORMAT
  1
GRIDFORMAT_BEGIN
 90
        0
 91
        1
 62
     0
 92
       -2
340
14
 93
        0
 40
0.045
309
GRIDFORMAT_END
 95
        4
302
GRIDFORMAT
  1
GRIDFORMAT_BEGIN
 90
        0
 91
        1
 62
     0
 92
       -2
340
14
 93
        0
 40
0.045
309
GRIDFORMAT_END
 95
        8
302
GRIDFORMAT
  1
GRIDFORMAT_BEGIN
 90
        0
 91
        1
 62
     0
 92
       -2
340
14
 93
        0
 40
0.045
309
GRIDFORMAT_END
 95
       16
302
GRIDFORMAT
  1
GRIDFORMAT_BEGIN
 90
        0
 91
        1
 62
     0
 92
       -2
340
14
 93
        0
 40
0.045
309
GRIDFORMAT_END
 95
       32
302
GRIDFORMAT
  1
GRIDFORMAT_BEGIN
 90
        0
 91
        1
 62
     0
 92
       -2
340
14
 93
        0
 40
0.045
309
GRIDFORMAT_END
309
TABLEFORMAT_END
  1
CELLSTYLE_BEGIN
 90
        3
 91
        2
300
_DATA
309
CELLSTYLE_END
  0
ENDSEC
  0
EOF