0
SECTION
  2
HEADER
  9
$ACADVER
  1
AC1027
  9
$ACADMAINTVER
 70
     8
  9
$DWGCODEPAGE
  3
ANSI_1252
  9
$REQUIREDVERSIONS
160
                 0
  9
$COMMENTS
  1
File was created by Cadenas
  9
$CUSTOMPROPERTYTAG
  1
NN
  9
$CUSTOMPROPERTY
  1
Double Interlock Pillow Block 2-Bolt Base Inch Bore
  9
$CUSTOMPROPERTYTAG
  1
NT
  9
$CUSTOMPROPERTY
  1
Double-Interlock 2 Bolt and 4 Bolt Pillow Block Bearings
  9
$CUSTOMPROPERTYTAG
  1
NB
  9
$CUSTOMPROPERTY
  1
023363
  9
$CUSTOMPROPERTYTAG
  1
NBSYN
  9
$CUSTOMPROPERTY
  1
$PN.
  9
$CUSTOMPROPERTYTAG
  1
LINA
  9
$CUSTOMPROPERTY
  1
023363
  9
$CUSTOMPROPERTYTAG
  1
SS
  9
$CUSTOMPROPERTY
  1
4
  9
$CUSTOMPROPERTYTAG
  1
PN
  9
$CUSTOMPROPERTY
  1
023363
  9
$CUSTOMPROPERTYTAG
  1
DESCRIPTION
  9
$CUSTOMPROPERTY
  1
P4B-DI-400R DBL INTERLOCK
  9
$CUSTOMPROPERTYTAG
  1
EF
  9
$CUSTOMPROPERTY
  1
Non-Expansion Type
  9
$CUSTOMPROPERTYTAG
  1
A
  9
$CUSTOMPROPERTY
  1
6.25
  9
$CUSTOMPROPERTYTAG
  1
B
  9
$CUSTOMPROPERTY
  1
17.44
  9
$CUSTOMPROPERTYTAG
  1
C
  9
$CUSTOMPROPERTY
  1
4.75
  9
$CUSTOMPROPERTYTAG
  1
DMIN
  9
$CUSTOMPROPERTY
  1
13.12
  9
$CUSTOMPROPERTYTAG
  1
DMAX
  9
$CUSTOMPROPERTY
  1
14.75
  9
$CUSTOMPROPERTYTAG
  1
E
  9
$CUSTOMPROPERTY
  1
2
  9
$CUSTOMPROPERTYTAG
  1
F
  9
$CUSTOMPROPERTY
  1
3/4
  9
$CUSTOMPROPERTYTAG
  1
G
  9
$CUSTOMPROPERTY
  1
1.70
  9
$CUSTOMPROPERTYTAG
  1
H
  9
$CUSTOMPROPERTY
  1
2.75
  9
$CUSTOMPROPERTYTAG
  1
J
  9
$CUSTOMPROPERTY
  1
10.42
  9
$CUSTOMPROPERTYTAG
  1
L
  9
$CUSTOMPROPERTY
  1
6.00
  9
$CUSTOMPROPERTYTAG
  1
M
  9
$CUSTOMPROPERTY
  1
5.00
  9
$CUSTOMPROPERTYTAG
  1
P
  9
$CUSTOMPROPERTY
  1
10.71
  9
$CUSTOMPROPERTYTAG
  1
T
  9
$CUSTOMPROPERTY
  1
0.34
  9
$CUSTOMPROPERTYTAG
  1
COMPANY
  9
$CUSTOMPROPERTY
  1
baldor
  9
$INSBASE
 10
0.0
 20
0.0
 30
0.0
  9
$EXTMIN
 10
1.000000000000000E+20
 20
1.000000000000000E+20
 30
1.000000000000000E+20
  9
$EXTMAX
 10
-1.000000000000000E+20
 20
-1.000000000000000E+20
 30
-1.000000000000000E+20
  9
$LIMMIN
 10
0.0
 20
0.0
  9
$LIMMAX
 10
12.0
 20
9.0
  9
$ORTHOMODE
 70
     0
  9
$REGENMODE
 70
     1
  9
$FILLMODE
 70
     1
  9
$QTEXTMODE
 70
     0
  9
$MIRRTEXT
 70
     1
  9
$LTSCALE
 40
1.0
  9
$ATTMODE
 70
     1
  9
$TEXTSIZE
 40
0.2
  9
$TRACEWID
 40
0.05
  9
$TEXTSTYLE
  7
Standard
  9
$CLAYER
  8
0
  9
$CELTYPE
  6
ByLayer
  9
$CECOLOR
 62
   256
  9
$CELTSCALE
 40
1.0
  9
$DISPSILH
 70
     0
  9
$DIMSCALE
 40
1.0
  9
$DIMASZ
 40
0.18
  9
$DIMEXO
 40
0.0625
  9
$DIMDLI
 40
0.38
  9
$DIMRND
 40
0.0
  9
$DIMDLE
 40
0.0
  9
$DIMEXE
 40
0.18
  9
$DIMTP
 40
0.0
  9
$DIMTM
 40
0.0
  9
$DIMTXT
 40
0.18
  9
$DIMCEN
 40
0.09
  9
$DIMTSZ
 40
0.0
  9
$DIMTOL
 70
     0
  9
$DIMLIM
 70
     0
  9
$DIMTIH
 70
     1
  9
$DIMTOH
 70
     1
  9
$DIMSE1
 70
     0
  9
$DIMSE2
 70
     0
  9
$DIMTAD
 70
     0
  9
$DIMZIN
 70
     0
  9
$DIMBLK
  1

  9
$DIMASO
 70
     1
  9
$DIMSHO
 70
     1
  9
$DIMPOST
  1

  9
$DIMAPOST
  1

  9
$DIMALT
 70
     0
  9
$DIMALTD
 70
     2
  9
$DIMALTF
 40
25.4
  9
$DIMLFAC
 40
1.0
  9
$DIMTOFL
 70
     0
  9
$DIMTVP
 40
0.0
  9
$DIMTIX
 70
     0
  9
$DIMSOXD
 70
     0
  9
$DIMSAH
 70
     0
  9
$DIMBLK1
  1

  9
$DIMBLK2
  1

  9
$DIMSTYLE
  2
Standard
  9
$DIMCLRD
 70
     0
  9
$DIMCLRE
 70
     0
  9
$DIMCLRT
 70
     0
  9
$DIMTFAC
 40
1.0
  9
$DIMGAP
 40
0.09
  9
$DIMJUST
 70
     0
  9
$DIMSD1
 70
     0
  9
$DIMSD2
 70
     0
  9
$DIMTOLJ
 70
     1
  9
$DIMTZIN
 70
     0
  9
$DIMALTZ
 70
     0
  9
$DIMALTTZ
 70
     0
  9
$DIMUPT
 70
     0
  9
$DIMDEC
 70
     4
  9
$DIMTDEC
 70
     4
  9
$DIMALTU
 70
     2
  9
$DIMALTTD
 70
     2
  9
$DIMTXSTY
  7
Standard
  9
$DIMAUNIT
 70
     0
  9
$DIMADEC
 70
     0
  9
$DIMALTRND
 40
0.0
  9
$DIMAZIN
 70
     0
  9
$DIMDSEP
 70
    46
  9
$DIMATFIT
 70
     3
  9
$DIMFRAC
 70
     0
  9
$DIMLDRBLK
  1

  9
$DIMLUNIT
 70
     2
  9
$DIMLWD
 70
    -2
  9
$DIMLWE
 70
    -2
  9
$DIMTMOVE
 70
     0
  9
$DIMFXL
 40
1.0
  9
$DIMFXLON
 70
     0
  9
$DIMJOGANG
 40
0.7853981633974483
  9
$DIMTFILL
 70
     0
  9
$DIMTFILLCLR
 70
     0
  9
$DIMARCSYM
 70
     0
  9
$DIMLTYPE
  6

  9
$DIMLTEX1
  6

  9
$DIMLTEX2
  6

  9
$DIMTXTDIRECTION
 70
     0
  9
$LUNITS
 70
     2
  9
$LUPREC
 70
     4
  9
$SKETCHINC
 40
0.1
  9
$FILLETRAD
 40
0.5
  9
$AUNITS
 70
     0
  9
$AUPREC
 70
     0
  9
$MENU
  1
.
  9
$ELEVATION
 40
0.0
  9
$PELEVATION
 40
0.0
  9
$THICKNESS
 40
0.0
  9
$LIMCHECK
 70
     0
  9
$CHAMFERA
 40
0.0
  9
$CHAMFERB
 40
0.0
  9
$CHAMFERC
 40
0.0
  9
$CHAMFERD
 40
0.0
  9
$SKPOLY
 70
     0
  9
$TDCREATE
 40
2458169.015630324
  9
$TDUCREATE
 40
2458168.973963657
  9
$TDUPDATE
 40
2458169.015630509
  9
$TDUUPDATE
 40
2458168.973963843
  9
$TDINDWG
 40
0.0000000116
  9
$TDUSRTIMER
 40
0.0000000116
  9
$USRTIMER
 70
     1
  9
$ANGBASE
 50
0.0
  9
$ANGDIR
 70
     0
  9
$PDMODE
 70
     0
  9
$PDSIZE
 40
0.0
  9
$PLINEWID
 40
0.0
  9
$SPLFRAME
 70
     0
  9
$SPLINETYPE
 70
     6
  9
$SPLINESEGS
 70
     8
  9
$HANDSEED
  5
25A
  9
$SURFTAB1
 70
     6
  9
$SURFTAB2
 70
     6
  9
$SURFTYPE
 70
     6
  9
$SURFU
 70
     6
  9
$SURFV
 70
     6
  9
$UCSBASE
  2

  9
$UCSNAME
  2

  9
$UCSORG
 10
0.0
 20
0.0
 30
0.0
  9
$UCSXDIR
 10
1.0
 20
0.0
 30
0.0
  9
$UCSYDIR
 10
0.0
 20
1.0
 30
0.0
  9
$UCSORTHOREF
  2

  9
$UCSORTHOVIEW
 70
     0
  9
$UCSORGTOP
 10
0.0
 20
0.0
 30
0.0
  9
$UCSORGBOTTOM
 10
0.0
 20
0.0
 30
0.0
  9
$UCSORGLEFT
 10
0.0
 20
0.0
 30
0.0
  9
$UCSORGRIGHT
 10
0.0
 20
0.0
 30
0.0
  9
$UCSORGFRONT
 10
0.0
 20
0.0
 30
0.0
  9
$UCSORGBACK
 10
0.0
 20
0.0
 30
0.0
  9
$PUCSBASE
  2

  9
$PUCSNAME
  2

  9
$PUCSORG
 10
0.0
 20
0.0
 30
0.0
  9
$PUCSXDIR
 10
1.0
 20
0.0
 30
0.0
  9
$PUCSYDIR
 10
0.0
 20
1.0
 30
0.0
  9
$PUCSORTHOREF
  2

  9
$PUCSORTHOVIEW
 70
     0
  9
$PUCSORGTOP
 10
0.0
 20
0.0
 30
0.0
  9
$PUCSORGBOTTOM
 10
0.0
 20
0.0
 30
0.0
  9
$PUCSORGLEFT
 10
0.0
 20
0.0
 30
0.0
  9
$PUCSORGRIGHT
 10
0.0
 20
0.0
 30
0.0
  9
$PUCSORGFRONT
 10
0.0
 20
0.0
 30
0.0
  9
$PUCSORGBACK
 10
0.0
 20
0.0
 30
0.0
  9
$USERI1
 70
     0
  9
$USERI2
 70
     0
  9
$USERI3
 70
     0
  9
$USERI4
 70
     0
  9
$USERI5
 70
     0
  9
$USERR1
 40
0.0
  9
$USERR2
 40
0.0
  9
$USERR3
 40
0.0
  9
$USERR4
 40
0.0
  9
$USERR5
 40
0.0
  9
$WORLDVIEW
 70
     1
  9
$SHADEDGE
 70
     3
  9
$SHADEDIF
 70
    70
  9
$TILEMODE
 70
     1
  9
$MAXACTVP
 70
    64
  9
$PINSBASE
 10
0.0
 20
0.0
 30
0.0
  9
$PLIMCHECK
 70
     0
  9
$PEXTMIN
 10
1.000000000000000E+20
 20
1.000000000000000E+20
 30
1.000000000000000E+20
  9
$PEXTMAX
 10
-1.000000000000000E+20
 20
-1.000000000000000E+20
 30
-1.000000000000000E+20
  9
$PLIMMIN
 10
0.0
 20
0.0
  9
$PLIMMAX
 10
12.0
 20
9.0
  9
$UNITMODE
 70
     0
  9
$VISRETAIN
 70
     1
  9
$PLINEGEN
 70
     0
  9
$PSLTSCALE
 70
     1
  9
$TREEDEPTH
 70
  3020
  9
$CMLSTYLE
  2
Standard
  9
$CMLJUST
 70
     0
  9
$CMLSCALE
 40
1.0
  9
$PROXYGRAPHICS
 70
     1
  9
$MEASUREMENT
 70
     0
  9
$CELWEIGHT
370
    -1
  9
$ENDCAPS
280
     0
  9
$JOINSTYLE
280
     0
  9
$LWDISPLAY
290
     0
  9
$INSUNITS
 70
     1
  9
$HYPERLINKBASE
  1

  9
$STYLESHEET
  1

  9
$XEDIT
290
     1
  9
$CEPSNTYPE
380
     0
  9
$PSTYLEMODE
290
     1
  9
$FINGERPRINTGUID
  2
{B9AD8D96-C1CA-4C83-A963-9E25FDD0653F}
  9
$VERSIONGUID
  2
{FAEB1C32-E019-11D5-929B-00C0DF256EC4}
  9
$EXTNAMES
290
     1
  9
$PSVPSCALE
 40
0.0
  9
$OLESTARTUP
290
     0
  9
$SORTENTS
280
   127
  9
$INDEXCTL
280
     0
  9
$HIDETEXT
280
     1
  9
$XCLIPFRAME
280
     2
  9
$HALOGAP
280
     0
  9
$OBSCOLOR
 70
   257
  9
$OBSLTYPE
280
     0
  9
$INTERSECTIONDISPLAY
280
     0
  9
$INTERSECTIONCOLOR
 70
   257
  9
$DIMASSOC
280
     2
  9
$PROJECTNAME
  1

  9
$CAMERADISPLAY
290
     0
  9
$LENSLENGTH
 40
50.0
  9
$CAMERAHEIGHT
 40
0.0
  9
$STEPSPERSEC
 40
2.0
  9
$STEPSIZE
 40
6.0
  9
$3DDWFPREC
 40
2.0
  9
$PSOLWIDTH
 40
0.25
  9
$PSOLHEIGHT
 40
4.0
  9
$LOFTANG1
 40
1.570796326794897
  9
$LOFTANG2
 40
1.570796326794897
  9
$LOFTMAG1
 40
0.0
  9
$LOFTMAG2
 40
0.0
  9
$LOFTPARAM
 70
     7
  9
$LOFTNORMALS
280
     1
  9
$LATITUDE
 40
37.795
  9
$LONGITUDE
 40
-122.394
  9
$NORTHDIRECTION
 40
0.0
  9
$TIMEZONE
 70
 -8000
  9
$LIGHTGLYPHDISPLAY
280
     1
  9
$TILEMODELIGHTSYNCH
280
     1
  9
$CMATERIAL
347
44
  9
$SOLIDHIST
280
     0
  9
$SHOWHIST
280
     1
  9
$DWFFRAME
280
     2
  9
$DGNFRAME
280
     2
  9
$REALWORLDSCALE
290
     1
  9
$INTERFERECOLOR
 62
   256
  9
$CSHADOW
280
     0
  9
$SHADOWPLANELOCATION
 40
0.0
  0
ENDSEC
  0
SECTION
  2
CLASSES
  0
CLASS
  1
ACDBDICTIONARYWDFLT
  2
AcDbDictionaryWithDefault
  3
ObjectDBX Classes
 90
        0
 91
        4
280
     0
281
     0
  0
CLASS
  1
VISUALSTYLE
  2
AcDbVisualStyle
  3
ObjectDBX Classes
 90
     4095
 91
        4
280
     0
281
     0
  0
CLASS
  1
MATERIAL
  2
AcDbMaterial
  3
ObjectDBX Classes
 90
     1153
 91
        4
280
     0
281
     0
  0
CLASS
  1
SCALE
  2
AcDbScale
  3
ObjectDBX Classes
 90
     1153
 91
        4
280
     0
281
     0
  0
CLASS
  1
TABLESTYLE
  2
AcDbTableStyle
  3
ObjectDBX Classes
 90
     4095
 91
        4
280
     0
281
     0
  0
CLASS
  1
MLEADERSTYLE
  2
AcDbMLeaderStyle
  3
ACDB_MLEADERSTYLE_CLASS
 90
     4095
 91
        4
280
     0
281
     0
  0
CLASS
  1
SUN
  2
AcDbSun
  3
SCENEOE
 90
     1153
 91
        4
280
     0
281
     0
  0
CLASS
  1
DICTIONARYVAR
  2
AcDbDictionaryVar
  3
ObjectDBX Classes
 90
        0
 91
        4
280
     0
281
     0
  0
CLASS
  1
CELLSTYLEMAP
  2
AcDbCellStyleMap
  3
ObjectDBX Classes
 90
     1152
 91
        4
280
     0
281
     0
  0
ENDSEC
  0
SECTION
  2
TABLES
  0
TABLE
  2
VPORT
  5
8
330
0
100
AcDbSymbolTable
 70
     1
  0
VPORT
  5
29
330
8
100
AcDbSymbolTableRecord
100
AcDbViewportTableRecord
  2
*Active
 70
     0
 10
0.0
 20
0.0
 11
1.0
 21
1.0
 12
0.0
 22
1.431999874114991
 13
0.0
 23
0.0
 14
0.5
 24
0.5
 15
0.5
 25
0.5
 16
0.0
 26
0.0
 36
1.0
 17
0.0
 27
0.0
 37
0.0
 40
13.12127974319458
 41
0.534437199514557
 42
50.0
 43
0.0
 44
0.0
 50
0.0
 51
0.0
 71
     0
 72
   100
 73
     1
 74
     3
 75
     0
 76
     0
 77
     0
 78
     0
281
     0
 65
     1
110
0.0
120
0.0
130
0.0
111
1.0
121
0.0
131
0.0
112
0.0
122
1.0
132
0.0
 79
     0
146
0.0
348
2F
 60
     3
 61
     5
292
     1
282
     1
141
0.0
142
0.0
 63
   250
361
6D
  0
ENDTAB
  0
TABLE
  2
LTYPE
  5
5
330
0
100
AcDbSymbolTable
 70
     3
  0
LTYPE
  5
14
330
5
100
AcDbSymbolTableRecord
100
AcDbLinetypeTableRecord
  2
ByBlock
 70
     0
  3

 72
    65
 73
     0
 40
0.0
  0
LTYPE
  5
15
330
5
100
AcDbSymbolTableRecord
100
AcDbLinetypeTableRecord
  2
ByLayer
 70
     0
  3

 72
    65
 73
     0
 40
0.0
  0
LTYPE
  5
16
330
5
100
AcDbSymbolTableRecord
100
AcDbLinetypeTableRecord
  2
Continuous
 70
     0
  3
Solid line
 72
    65
 73
     0
 40
0.0
  0
LTYPE
  5
A0
330
5
100
AcDbSymbolTableRecord
100
AcDbLinetypeTableRecord
  2
Dashed
 70
     0
  3

 72
    65
 73
     2
 40
2.0
 49
1.0
 74
     0
 49
-1.0
 74
     0
  0
LTYPE
  5
1BF
330
5
100
AcDbSymbolTableRecord
100
AcDbLinetypeTableRecord
  2
Center
 70
     0
  3

 72
    65
 73
     4
 40
1.5
 49
0.45
 74
     0
 49
-0.5
 74
     0
 49
0.05
 74
     0
 49
-0.5
 74
     0
  0
ENDTAB
  0
TABLE
  2
LAYER
  5
2
330
0
100
AcDbSymbolTable
 70
     7
  0
LAYER
  5
10
330
2
100
AcDbSymbolTableRecord
100
AcDbLayerTableRecord
  2
0
 70
     0
 62
     7
  6
Continuous
370
    -3
390
F
347
46
348
0
  0
LAYER
  5
72
330
2
100
AcDbSymbolTableRecord
100
AcDbLayerTableRecord
  2
AM_6
 70
     0
 62
    -2
  6
Continuous
370
    35
390
F
347
46
348
0
  0
LAYER
  5
A1
330
2
100
AcDbSymbolTableRecord
100
AcDbLayerTableRecord
  2
AM_9
 70
     0
 62
     6
  6
Dashed
370
    25
390
F
347
46
348
0
  0
LAYER
  5
C4
330
2
100
AcDbSymbolTableRecord
100
AcDbLayerTableRecord
  2
AM_5
 70
     0
 62
     3
  6
Continuous
370
    25
390
F
347
46
348
0
  0
LAYER
  5
C7
330
2
100
AcDbSymbolTableRecord
100
AcDbLayerTableRecord
  2
AM_4
 70
     0
 62
     7
  6
Continuous
370
    50
390
F
347
46
348
0
  0
LAYER
  5
1C0
330
2
100
AcDbSymbolTableRecord
100
AcDbLayerTableRecord
  2
AM_7
 70
     0
 62
     7
  6
Center
370
    25
390
F
347
46
348
0
  0
LAYER
  5
248
330
2
100
AcDbSymbolTableRecord
100
AcDbLayerTableRecord
  2
ConnectionPoints
 70
     0
 62
     7
  6
Continuous
370
    50
390
F
347
46
348
0
  0
ENDTAB
  0
TABLE
  2
STYLE
  5
3
330
0
100
AcDbSymbolTable
 70
     1
  0
STYLE
  5
11
330
3
100
AcDbSymbolTableRecord
100
AcDbTextStyleTableRecord
  2
Standard
 70
     0
 40
0.0
 41
1.0
 50
0.0
 71
     0
 42
0.2
  3
txt
  4

  0
ENDTAB
  0
TABLE
  2
VIEW
  5
6
330
0
100
AcDbSymbolTable
 70
     0
  0
ENDTAB
  0
TABLE
  2
UCS
  5
7
330
0
100
AcDbSymbolTable
 70
     0
  0
ENDTAB
  0
TABLE
  2
APPID
  5
9
330
0
100
AcDbSymbolTable
 70
     1
  0
APPID
  5
12
330
9
100
AcDbSymbolTableRecord
100
AcDbRegAppTableRecord
  2
ACAD
 70
     0
  0
ENDTAB
  0
TABLE
  2
DIMSTYLE
  5
A
330
0
100
AcDbSymbolTable
 70
     1
100
AcDbDimStyleTable
  0
DIMSTYLE
105
27
330
A
100
AcDbSymbolTableRecord
100
AcDbDimStyleTableRecord
  2
Standard
 70
     0
178
     0
340
11
  0
ENDTAB
  0
TABLE
  2
BLOCK_RECORD
  5
1
330
0
100
AcDbSymbolTable
 70
     7
  0
BLOCK_RECORD
  5
1F
330
1
100
AcDbSymbolTableRecord
100
AcDbBlockTableRecord
  2
*Model_Space
340
22
 70
     0
280
     1
281
     0
  0
BLOCK_RECORD
  5
1B
330
1
100
AcDbSymbolTableRecord
100
AcDbBlockTableRecord
  2
*Paper_Space
340
1E
 70
     0
280
     1
281
     0
  0
BLOCK_RECORD
  5
23
330
1
100
AcDbSymbolTableRecord
100
AcDbBlockTableRecord
  2
*Paper_Space0
340
26
 70
     0
280
     1
281
     0
  0
BLOCK_RECORD
  5
6E
330
1
100
AcDbSymbolTableRecord
100
AcDbBlockTableRecord
  2
1_023363_2
340
0
102
{BLKREFS
331
6F
102
}
 70
     0
280
     1
281
     0
  0
BLOCK_RECORD
  5
8B
330
1
100
AcDbSymbolTableRecord
100
AcDbBlockTableRecord
  2
2_4C_1_0_in_023363_2
340
0
102
{BLKREFS
331
8C
102
}
 70
     0
280
     1
281
     0
  0
BLOCK_RECORD
  5
D0
330
1
100
AcDbSymbolTableRecord
100
AcDbBlockTableRecord
  2
3_4C_2_0_in_023363_2
340
0
102
{BLKREFS
331
D1
102
}
 70
     0
280
     1
281
     0
  0
BLOCK_RECORD
  5
116
330
1
100
AcDbSymbolTableRecord
100
AcDbBlockTableRecord
  2
4_405015E_Inch_0_in_023363_2
340
0
102
{BLKREFS
331
117
102
}
 70
     0
280
     1
281
     0
  0
BLOCK_RECORD
  5
154
330
1
100
AcDbSymbolTableRecord
100
AcDbBlockTableRecord
  2
5_023531_Insert_0_in_023363_2
340
0
102
{BLKREFS
331
155
102
}
 70
     0
280
     1
281
     0
  0
BLOCK_RECORD
  5
1C4
330
1
100
AcDbSymbolTableRecord
100
AcDbBlockTableRecord
  2
6_060751_0_in_023363_2
340
0
102
{BLKREFS
331
1C5
102
}
 70
     0
280
     1
281
     0
  0
ENDTAB
  0
ENDSEC
  0
SECTION
  2
BLOCKS
  0
BLOCK
  5
20
330
1F
100
AcDbEntity
  8
0
100
AcDbBlockBegin
  2
*Model_Space
 70
     0
 10
0.0
 20
0.0
 30
0.0
  3
*Model_Space
  1

  0
ENDBLK
  5
21
330
1F
100
AcDbEntity
  8
0
100
AcDbBlockEnd
  0
BLOCK
  5
1C
330
1B
100
AcDbEntity
 67
     1
  8
0
100
AcDbBlockBegin
  2
*Paper_Space
 70
     0
 10
0.0
 20
0.0
 30
0.0
  3
*Paper_Space
  1

  0
ENDBLK
  5
1D
330
1B
100
AcDbEntity
 67
     1
  8
0
100
AcDbBlockEnd
  0
BLOCK
  5
24
330
23
100
AcDbEntity
  8
0
100
AcDbBlockBegin
  2
*Paper_Space0
 70
     0
 10
0.0
 20
0.0
 30
0.0
  3
*Paper_Space0
  1

  0
ENDBLK
  5
25
330
23
100
AcDbEntity
  8
0
100
AcDbBlockEnd
  0
BLOCK
  5
70
330
6E
100
AcDbEntity
  8
0
100
AcDbBlockBegin
  2
1_023363_2
 70
     2
 10
0.0
 20
0.0
 30
0.0
  3
1_023363_2
  1

  0
ATTDEF
  5
73
330
6E
100
AcDbEntity
  8
AM_6
100
AcDbText
 10
8.4375
 20
7.863999748229982
 30
0.0
 40
0.5
  1
Double Interlock Pillow Block 2-Bolt Base Inch Bore
100
AcDbAttributeDefinition
  3

  2
NN
 70
     8
280
     0
  0
ATTDEF
  5
74
330
6E
100
AcDbEntity
  8
AM_6
100
AcDbText
 10
8.4375
 20
7.363999748229982
 30
0.0
 40
0.5
  1
Double-Interlock 2 Bolt and 4 Bolt Pillow Block Bearings
100
AcDbAttributeDefinition
  3

  2
NT
 70
     8
280
     0
  0
ATTDEF
  5
75
330
6E
100
AcDbEntity
  8
AM_6
100
AcDbText
 10
8.4375
 20
6.863999748229982
 30
0.0
 40
0.5
  1
023363
100
AcDbAttributeDefinition
  3

  2
NB
 70
     8
280
     0
  0
ATTDEF
  5
76
330
6E
100
AcDbEntity
  8
AM_6
100
AcDbText
 10
8.4375
 20
6.363999748229982
 30
0.0
 40
0.5
  1
$PN.
100
AcDbAttributeDefinition
  3

  2
NBSYN
 70
     8
280
     0
  0
ATTDEF
  5
77
330
6E
100
AcDbEntity
  8
AM_6
100
AcDbText
 10
8.4375
 20
5.863999748229982
 30
0.0
 40
0.5
  1
023363
100
AcDbAttributeDefinition
  3

  2
LINA
 70
     8
280
     0
  0
ATTDEF
  5
78
330
6E
100
AcDbEntity
  8
AM_6
100
AcDbText
 10
8.4375
 20
5.363999748229982
 30
0.0
 40
0.5
  1
4
100
AcDbAttributeDefinition
  3

  2
SS
 70
     8
280
     0
  0
ATTDEF
  5
79
330
6E
100
AcDbEntity
  8
AM_6
100
AcDbText
 10
8.4375
 20
4.863999748229982
 30
0.0
 40
0.5
  1
023363
100
AcDbAttributeDefinition
  3

  2
PN
 70
     8
280
     0
  0
ATTDEF
  5
7A
330
6E
100
AcDbEntity
  8
AM_6
100
AcDbText
 10
8.4375
 20
4.363999748229982
 30
0.0
 40
0.5
  1
P4B-DI-400R DBL INTERLOCK
100
AcDbAttributeDefinition
  3

  2
DESCRIPTION
 70
     8
280
     0
  0
ATTDEF
  5
7B
330
6E
100
AcDbEntity
  8
AM_6
100
AcDbText
 10
8.4375
 20
3.863999748229982
 30
0.0
 40
0.5
  1
Non-Expansion Type
100
AcDbAttributeDefinition
  3

  2
EF
 70
     8
280
     0
  0
ATTDEF
  5
7C
330
6E
100
AcDbEntity
  8
AM_6
100
AcDbText
 10
8.4375
 20
3.363999748229982
 30
0.0
 40
0.5
  1
6.25
100
AcDbAttributeDefinition
  3

  2
A
 70
     8
280
     0
  0
ATTDEF
  5
7D
330
6E
100
AcDbEntity
  8
AM_6
100
AcDbText
 10
8.4375
 20
2.863999748229982
 30
0.0
 40
0.5
  1
17.44
100
AcDbAttributeDefinition
  3

  2
B
 70
     8
280
     0
  0
ATTDEF
  5
7E
330
6E
100
AcDbEntity
  8
AM_6
100
AcDbText
 10
8.4375
 20
2.363999748229982
 30
0.0
 40
0.5
  1
4.75
100
AcDbAttributeDefinition
  3

  2
C
 70
     8
280
     0
  0
ATTDEF
  5
7F
330
6E
100
AcDbEntity
  8
AM_6
100
AcDbText
 10
8.4375
 20
1.863999748229982
 30
0.0
 40
0.5
  1
13.12
100
AcDbAttributeDefinition
  3

  2
DMIN
 70
     8
280
     0
  0
ATTDEF
  5
80
330
6E
100
AcDbEntity
  8
AM_6
100
AcDbText
 10
8.4375
 20
1.363999748229982
 30
0.0
 40
0.5
  1
14.75
100
AcDbAttributeDefinition
  3

  2
DMAX
 70
     8
280
     0
  0
ATTDEF
  5
81
330
6E
100
AcDbEntity
  8
AM_6
100
AcDbText
 10
8.4375
 20
0.8639997482299817
 30
0.0
 40
0.5
  1
2
100
AcDbAttributeDefinition
  3

  2
E
 70
     8
280
     0
  0
ATTDEF
  5
82
330
6E
100
AcDbEntity
  8
AM_6
100
AcDbText
 10
8.4375
 20
0.3639997482299817
 30
0.0
 40
0.5
  1
3/4
100
AcDbAttributeDefinition
  3

  2
F
 70
     8
280
     0
  0
ATTDEF
  5
83
330
6E
100
AcDbEntity
  8
AM_6
100
AcDbText
 10
8.4375
 20
-0.1360002517700183
 30
0.0
 40
0.5
  1
1.70
100
AcDbAttributeDefinition
  3

  2
G
 70
     8
280
     0
  0
ATTDEF
  5
84
330
6E
100
AcDbEntity
  8
AM_6
100
AcDbText
 10
8.4375
 20
-0.6360002517700183
 30
0.0
 40
0.5
  1
2.75
100
AcDbAttributeDefinition
  3

  2
H
 70
     8
280
     0
  0
ATTDEF
  5
85
330
6E
100
AcDbEntity
  8
AM_6
100
AcDbText
 10
8.4375
 20
-1.136000251770018
 30
0.0
 40
0.5
  1
10.42
100
AcDbAttributeDefinition
  3

  2
J
 70
     8
280
     0
  0
ATTDEF
  5
86
330
6E
100
AcDbEntity
  8
AM_6
100
AcDbText
 10
8.4375
 20
-1.636000251770018
 30
0.0
 40
0.5
  1
6.00
100
AcDbAttributeDefinition
  3

  2
L
 70
     8
280
     0
  0
ATTDEF
  5
87
330
6E
100
AcDbEntity
  8
AM_6
100
AcDbText
 10
8.4375
 20
-2.136000251770018
 30
0.0
 40
0.5
  1
5.00
100
AcDbAttributeDefinition
  3

  2
M
 70
     8
280
     0
  0
ATTDEF
  5
88
330
6E
100
AcDbEntity
  8
AM_6
100
AcDbText
 10
8.4375
 20
-2.636000251770018
 30
0.0
 40
0.5
  1
10.71
100
AcDbAttributeDefinition
  3

  2
P
 70
     8
280
     0
  0
ATTDEF
  5
89
330
6E
100
AcDbEntity
  8
AM_6
100
AcDbText
 10
8.4375
 20
-3.136000251770018
 30
0.0
 40
0.5
  1
0.34
100
AcDbAttributeDefinition
  3

  2
T
 70
     8
280
     0
  0
ATTDEF
  5
8A
330
6E
100
AcDbEntity
  8
AM_6
100
AcDbText
 10
8.4375
 20
-3.636000251770018
 30
0.0
 40
0.5
  1
baldor
100
AcDbAttributeDefinition
  3

  2
COMPANY
 70
     8
280
     0
  0
INSERT
  5
8C
330
6E
100
AcDbEntity
  8
0
100
AcDbBlockReference
  2
2_4C_1_0_in_023363_2
 10
0.0
 20
0.0
 30
0.0
  0
INSERT
  5
D1
330
6E
100
AcDbEntity
  8
0
100
AcDbBlockReference
  2
3_4C_2_0_in_023363_2
 10
0.0
 20
0.0
 30
0.0
  0
INSERT
  5
117
330
6E
100
AcDbEntity
  8
0
100
AcDbBlockReference
  2
4_405015E_Inch_0_in_023363_2
 10
0.0
 20
0.0
 30
0.0
  0
INSERT
  5
155
330
6E
100
AcDbEntity
  8
0
100
AcDbBlockReference
  2
5_023531_Insert_0_in_023363_2
 10
0.0
 20
0.0
 30
0.0
  0
INSERT
  5
1C5
330
6E
100
AcDbEntity
  8
0
100
AcDbBlockReference
  2
6_060751_0_in_023363_2
 10
0.0
 20
0.0
 30
0.0
  0
ENDBLK
  5
71
330
6E
100
AcDbEntity
  8
0
100
AcDbBlockEnd
  0
BLOCK
  5
8D
330
8B
100
AcDbEntity
  8
0
100
AcDbBlockBegin
  2
2_4C_1_0_in_023363_2
 70
     2
 10
0.0
 20
0.0
 30
0.0
  3
2_4C_1_0_in_023363_2
  1

  0
ATTDEF
  5
8F
330
8B
100
AcDbEntity
  8
AM_6
100
AcDbText
 10
2.875
 20
3.0625
 30
0.0
 40
0.5
  1
E-Type Collar -Inch
100
AcDbAttributeDefinition
  3

  2
NN
 70
     8
280
     0
  0
ATTDEF
  5
90
330
8B
100
AcDbEntity
  8
AM_6
100
AcDbText
 10
2.875
 20
2.5625
 30
0.0
 40
0.5
  1
E-Type Bearings
100
AcDbAttributeDefinition
  3

  2
NT
 70
     8
280
     0
  0
ATTDEF
  5
91
330
8B
100
AcDbEntity
  8
AM_6
100
AcDbText
 10
2.875
 20
2.0625
 30
0.0
 40
0.5
  1
4C
100
AcDbAttributeDefinition
  3

  2
NB
 70
     8
280
     0
  0
ATTDEF
  5
92
330
8B
100
AcDbEntity
  8
AM_6
100
AcDbText
 10
2.875
 20
1.5625
 30
0.0
 40
0.5
  1
$BORE.C
100
AcDbAttributeDefinition
  3

  2
NBSYN
 70
     8
280
     0
  0
ATTDEF
  5
93
330
8B
100
AcDbEntity
  8
AM_6
100
AcDbText
 10
2.875
 20
1.0625
 30
0.0
 40
0.5
  1
4C
100
AcDbAttributeDefinition
  3

  2
LINA
 70
     8
280
     0
  0
ATTDEF
  5
94
330
8B
100
AcDbEntity
  8
AM_6
100
AcDbText
 10
2.875
 20
0.5625000000000004
 30
0.0
 40
0.5
  1
4
100
AcDbAttributeDefinition
  3

  2
BORE
 70
     8
280
     0
  0
ATTDEF
  5
95
330
8B
100
AcDbEntity
  8
AM_6
100
AcDbText
 10
2.875
 20
0.0625000000000004
 30
0.0
 40
0.5
  1
6.12500
100
AcDbAttributeDefinition
  3

  2
L
 70
     8
280
     0
  0
ATTDEF
  5
96
330
8B
100
AcDbEntity
  8
AM_6
100
AcDbText
 10
2.875
 20
-0.4374999999999996
 30
0.0
 40
0.5
  1
6.25
100
AcDbAttributeDefinition
  3

  2
A
 70
     8
280
     0
  0
ATTDEF
  5
97
330
8B
100
AcDbEntity
  8
AM_6
100
AcDbText
 10
2.875
 20
-0.9374999999999996
 30
0.0
 40
0.5
  1
3.12
100
AcDbAttributeDefinition
  3

  2
B
 70
     8
280
     0
  0
ATTDEF
  5
98
330
8B
100
AcDbEntity
  8
AM_6
100
AcDbText
 10
2.875
 20
-1.4375
 30
0.0
 40
0.5
  1
4.50
100
AcDbAttributeDefinition
  3

  2
C
 70
     8
280
     0
  0
ATTDEF
  5
99
330
8B
100
AcDbEntity
  8
AM_6
100
AcDbText
 10
2.875
 20
-1.9375
 30
0.0
 40
0.5
  1
6.38
100
AcDbAttributeDefinition
  3

  2
D
 70
     8
280
     0
  0
ATTDEF
  5
9A
330
8B
100
AcDbEntity
  8
AM_6
100
AcDbText
 10
2.875
 20
-2.4375
 30
0.0
 40
0.5
  1
0.66
100
AcDbAttributeDefinition
  3

  2
E
 70
     8
280
     0
  0
ATTDEF
  5
9B
330
8B
100
AcDbEntity
  8
AM_6
100
AcDbText
 10
2.875
 20
-2.9375
 30
0.0
 40
0.5
  1
0.50
100
AcDbAttributeDefinition
  3

  2
F
 70
     8
280
     0
  0
ATTDEF
  5
9C
330
8B
100
AcDbEntity
  8
AM_6
100
AcDbText
 10
2.875
 20
-3.4375
 30
0.0
 40
0.5
  1
5/8-11
100
AcDbAttributeDefinition
  3

  2
CS
 70
     8
280
     0
  0
ATTDEF
  5
9D
330
8B
100
AcDbEntity
  8
AM_6
100
AcDbText
 10
2.875
 20
-3.9375
 30
0.0
 40
0.5
  1
0.6250
100
AcDbAttributeDefinition
  3

  2
NDM
 70
     8
280
     0
  0
ATTDEF
  5
9E
330
8B
100
AcDbEntity
  8
AM_6
100
AcDbText
 10
2.875
 20
-4.4375
 30
0.0
 40
0.5
  1
0.5270
100
AcDbAttributeDefinition
  3

  2
KDM
 70
     8
280
     0
  0
ATTDEF
  5
9F
330
8B
100
AcDbEntity
  8
AM_6
100
AcDbText
 10
2.875
 20
-4.9375
 30
0.0
 40
0.5
  1
baldor
100
AcDbAttributeDefinition
  3

  2
COMPANY
 70
     8
280
     0
  0
ELLIPSE
  5
A2
330
8B
100
AcDbEntity
  8
AM_9
100
AcDbEllipse
 10
-2.625
 20
1.273475608103249
 30
0.0
 11
0.2633000000000005
 21
0.0
 31
0.0
210
0.0
220
0.0
230
1.0
 40
0.9063077870366495
 41
0.0
 42
3.141592653589793
  0
LINE
  5
A3
330
8B
100
AcDbEntity
  8
AM_9
100
AcDbLine
 10
-2.3617
 20
0.9540748131550202
 30
0.0
 11
-2.3617
 21
1.273475608103249
 31
0.0
  0
LINE
  5
A4
330
8B
100
AcDbEntity
  8
AM_9
100
AcDbLine
 10
-2.8883
 20
1.273475608103249
 30
0.0
 11
-2.8883
 21
0.9540748131550202
 31
0.0
  0
ELLIPSE
  5
A5
330
8B
100
AcDbEntity
  8
AM_9
100
AcDbEllipse
 10
-2.624999999999997
 20
1.27347560810325
 30
0.0
 11
0.2633000000000028
 21
0.0
 31
0.0
210
0.0
220
0.0
230
1.0
 40
0.9063077870366495
 41
3.141592653589793
 42
4.011566133951028
  0
ELLIPSE
  5
A6
330
8B
100
AcDbEntity
  8
AM_9
100
AcDbEllipse
 10
-2.624999999999996
 20
1.273475608103244
 30
0.0
 11
0.2632999999999948
 21
0.0
 31
0.0
210
0.0
220
0.0
230
1.0
 40
0.9063077870366449
 41
4.011566133951007
 42
6.283185307179586
  0
ELLIPSE
  5
A7
330
8B
100
AcDbEntity
  8
AM_9
100
AcDbEllipse
 10
-2.624999999999879
 20
0.9540748131554183
 30
0.0
 11
0.2632999999998717
 21
0.0
 31
0.0
210
0.0
220
0.0
230
1.0
 40
0.9063077870361825
 41
3.141592653589793
 42
9.04287114036865
  0
ELLIPSE
  5
A8
330
8B
100
AcDbEntity
  8
AM_9
100
AcDbEllipse
 10
-2.624999999999979
 20
0.954074813155024
 30
0.0
 11
0.263300000000021
 21
0.0
 31
0.0
210
0.0
220
0.0
230
1.0
 40
0.9063077870366438
 41
2.759685833187565
 42
3.141592653589793
  0
LINE
  5
A9
330
8B
100
AcDbEntity
  8
AM_9
100
AcDbLine
 10
-2.8883
 20
2.257533333333333
 30
0.0
 11
-2.895512784635821
 21
2.250320548697513
 31
0.0
  0
LINE
  5
AA
330
8B
100
AcDbEntity
  8
AM_9
100
AcDbLine
 10
-2.354619242727109
 20
2.250452576060442
 30
0.0
 11
-2.3617
 21
2.257533333333333
 31
0.0
  0
LINE
  5
AB
330
8B
100
AcDbEntity
  8
AM_9
100
AcDbLine
 10
-2.3617
 20
3.0133
 30
0.0
 11
-2.312653128339127
 21
3.062346871660873
 31
0.0
  0
LINE
  5
AC
330
8B
100
AcDbEntity
  8
AM_9
100
AcDbLine
 10
-2.936948968284959
 20
3.061948968284959
 30
0.0
 11
-2.8883
 21
3.0133
 31
0.0
  0
LINE
  5
AD
330
8B
100
AcDbEntity
  8
AM_9
100
AcDbLine
 10
-2.3617
 20
2.257533333333333
 30
0.0
 11
-2.3617
 21
3.0133
 31
0.0
  0
LINE
  5
AE
330
8B
100
AcDbEntity
  8
AM_9
100
AcDbLine
 10
-2.8883
 20
3.0133
 30
0.0
 11
-2.8883
 21
2.257533333333333
 31
0.0
  0
LINE
  5
AF
330
8B
100
AcDbEntity
  8
AM_9
100
AcDbLine
 10
-2.8883
 20
3.0133
 30
0.0
 11
-2.3617
 21
3.0133
 31
0.0
  0
LINE
  5
B0
330
8B
100
AcDbEntity
  8
AM_9
100
AcDbLine
 10
-2.8883
 20
2.257533333333333
 30
0.0
 11
-2.3617
 21
2.257533333333333
 31
0.0
  0
LWPOLYLINE
  5
B1
330
8B
100
AcDbEntity
  8
AM_9
100
AcDbPolyline
 90
        4
 70
     0
 43
0.0
 10
-2.37395201501407
 20
0.8515571876617636
 10
-2.383696355065427
 20
0.8303727433870342
 10
-2.404405345489852
 20
0.7962759555620313
 10
-2.430735211364563
 20
0.7644799658275648
  0
LWPOLYLINE
  5
B2
330
8B
100
AcDbEntity
  8
AM_9
100
AcDbPolyline
 90
        6
 70
     0
 43
0.0
 10
-2.366010918855432
 20
1.026787678822592
 10
-2.361669989647122
 20
1.011648930882936
 10
-2.354710563360627
 20
0.9674378301967653
 10
-2.355919465138447
 20
0.9210618298021317
 10
-2.365442175541581
 20
0.8755066019787976
 10
-2.37395201501407
 20
0.8515571876617636
  0
LINE
  5
B3
330
8B
100
AcDbEntity
  8
AM_9
100
AcDbLine
 10
-2.374730812146185
 20
1.049816692456652
 30
0.0
 11
-2.366010918855432
 21
1.026787678822592
 31
0.0
  0
LWPOLYLINE
  5
B4
330
8B
100
AcDbEntity
  8
AM_9
100
AcDbPolyline
 90
       17
 70
     0
 43
0.0
 10
-2.884414908351134
 20
1.025451916825374
 10
-2.873646827757242
 20
1.053443629930978
 10
-2.850000172924427
 20
1.094251202998459
 10
-2.820151131989309
 20
1.128810902280082
 10
-2.782593089846569
 20
1.158897733563939
 10
-2.74282770580223
 20
1.180649907074633
 10
-2.697643841859466
 20
1.196307066982151
 10
-2.654701320489271
 20
1.203902817055953
 10
-2.60943962131652
 20
1.204988627495685
 10
-2.568120692678949
 20
1.199867021059699
 10
-2.52724844128487
 20
1.18866204894858
 10
-2.489807228378662
 20
1.172197841702228
 10
-2.455021789540426
 20
1.150196226666262
 10
-2.423819443424516
 20
1.122789082397281
 10
-2.39731363970213
 20
1.090421366245112
 10
-2.376160028593252
 20
1.053020034990264
 10
-2.374730812146185
 20
1.049816692456652
  0
LWPOLYLINE
  5
B5
330
8B
100
AcDbEntity
  8
AM_9
100
AcDbPolyline
 90
       18
 70
     0
 43
0.0
 10
-2.430735211364563
 20
0.7644799658275648
 10
-2.460439735924683
 20
0.7377101135059102
 10
-2.494840353049987
 20
0.7148458225873742
 10
-2.536135796202668
 20
0.6960301305903352
 10
-2.581774836284429
 20
0.6841566556652464
 10
-2.624535921085054
 20
0.6805722173805185
 10
-2.66862715521264
 20
0.6842240537355554
 10
-2.70886390285018
 20
0.6942987487419172
 10
-2.747880977350693
 20
0.7109061231910963
 10
-2.783590902897186
 20
0.7331908505472827
 10
-2.815967199008946
 20
0.7611063470768873
 10
-2.844330235923443
 20
0.7945106388713049
 10
-2.867328153422485
 20
0.8323919298078102
 10
-2.884201068495301
 20
0.8743385835999269
 10
-2.893834159892084
 20
0.9190341305332519
 10
-2.895462607440459
 20
0.9645586955133844
 10
-2.88861806861081
 20
1.010495020928126
 10
-2.884414908351134
 20
1.025451916825374
  0
LWPOLYLINE
  5
B6
330
8B
100
AcDbEntity
  8
AM_9
100
AcDbPolyline
 90
        6
 70
     0
 43
0.0
 10
-2.424082972374702
 20
2.241632062175615
 10
-2.399763396888957
 20
2.244268473149524
 10
-2.380359313984091
 20
2.246583163266534
 10
-2.364108572602769
 20
2.248660355130569
 10
-2.355525839022781
 20
2.249814457297956
 10
-2.354166666666733
 20
2.249999999999991
  0
LINE
  5
B7
330
8B
100
AcDbEntity
  8
AM_9
100
AcDbLine
 10
-3.125
 20
-2.25
 30
0.0
 11
-2.374999999999999
 21
-2.25
 31
0.0
  0
LINE
  5
B8
330
8B
100
AcDbEntity
  8
AM_9
100
AcDbLine
 10
-2.125
 20
2.25
 30
0.0
 11
-2.355217839648494
 21
2.25
 31
0.0
  0
LINE
  5
B9
330
8B
100
AcDbEntity
  8
AM_9
100
AcDbLine
 10
-2.895086381870144
 20
2.25
 30
0.0
 11
-3.125
 21
2.25
 31
0.0
  0
LWPOLYLINE
  5
BA
330
8B
100
AcDbEntity
  8
AM_9
100
AcDbPolyline
 90
        4
 70
     0
 43
0.0
 10
-2.880773063510924
 20
2.247994388366468
 10
-2.889606347972983
 20
2.249157323301504
 10
-2.895595235730551
 20
2.249963312185637
 10
-2.895833333332689
 20
2.249999999999912
  0
LINE
  5
BB
330
8B
100
AcDbEntity
  8
AM_9
100
AcDbLine
 10
-2.408003769507306
 20
2.243342660021664
 30
0.0
 11
-2.427203054727009
 21
2.241315051907744
 31
0.0
  0
LWPOLYLINE
  5
BC
330
8B
100
AcDbEntity
  8
AM_9
100
AcDbPolyline
 90
       15
 70
     0
 43
0.0
 10
-2.895833333332689
 20
2.249999999999912
 10
-2.893348926536561
 20
2.249661529971779
 10
-2.882562895888697
 20
2.248223346573706
 10
-2.863536016522357
 20
2.245835127006266
 10
-2.836839356576486
 20
2.242779602990524
 10
-2.803045015133619
 20
2.239421181516243
 10
-2.764596931006785
 20
2.236302292988758
 10
-2.721392751805567
 20
2.233682102038341
 10
-2.677962729005909
 20
2.232022395724883
 10
-2.632836869066099
 20
2.231308285050134
 10
-2.59018222178112
 20
2.231611150103828
 10
-2.548521681249181
 20
2.232797401260049
 10
-2.509372715778862
 20
2.234732784730375
 10
-2.473280229800552
 20
2.237201837890911
 10
-2.424082972374702
 20
2.241632062175615
  0
LWPOLYLINE
  5
BD
330
8B
100
AcDbEntity
  8
AM_9
100
AcDbPolyline
 90
       39
 70
     0
 43
0.0
 10
-2.409038501657308
 20
1.09596897362173
 10
-2.378293999030464
 20
1.126302575680296
 10
-2.352184302563256
 20
1.16120505777857
 10
-2.330679345382352
 20
1.202890739075216
 10
-2.316993321100946
 20
1.248506340999335
 10
-2.312511660087832
 20
1.291937391624052
 10
-2.316364188673969
 20
1.336415137385735
 10
-2.327863685547852
 20
1.377242084494781
 10
-2.347225504573121
 20
1.416611681100127
 10
-2.373253700854286
 20
1.452017523156329
 10
-2.406235021022639
 20
1.483895031271883
 10
-2.445215298746451
 20
1.510980059554066
 10
-2.489824193208893
 20
1.532716606947886
 10
-2.538757032163892
 20
1.548142655696852
 10
-2.591344420951939
 20
1.556677892016762
 10
-2.644943905495578
 20
1.55765363415178
 10
-2.699496661741504
 20
1.550730262532842
 10
-2.750834228741049
 20
1.536279121393685
 10
-2.799989448102393
 20
1.513733134542917
 10
-2.841976268288858
 20
1.485350085484716
 10
-2.878748219438782
 20
1.44970167873198
 10
-2.905846642915295
 20
1.411428806525793
 10
-2.925501483050374
 20
1.367853997173736
 10
-2.935438087309889
 20
1.325129401945537
 10
-2.93705200994823
 20
1.279809932057396
 10
-2.930521316926254
 20
1.237298242685765
 10
-2.915913603985693
 20
1.194908406515497
 10
-2.894411869708007
 20
1.155958023401802
 10
-2.865627237334802
 20
1.119571416008727
 10
-2.830582360535034
 20
1.087491066174375
 10
-2.789423960297644
 20
1.060245806775314
 10
-2.743226532860237
 20
1.0390646492183
 10
-2.69265697279029
 20
1.024781495263666
 10
-2.639853742653766
 20
1.018395088564344
 10
-2.585160247710522
 20
1.020383377753426
 10
-2.532298454948959
 20
1.030795635495611
 10
-2.480592874092777
 20
1.050003772177851
 10
-2.443456407984777
 20
1.070470118225304
 10
-2.409038501613284
 20
1.095968973468149
  0
LINE
  5
BE
330
8B
100
AcDbEntity
  8
AM_9
100
AcDbLine
 10
-2.375
 20
-3.0625
 30
0.0
 11
-2.125
 21
-3.0625
 31
0.0
  0
LINE
  5
BF
330
8B
100
AcDbEntity
  8
AM_9
100
AcDbLine
 10
-2.125
 20
3.0625
 30
0.0
 11
-2.312778889525999
 21
3.0625
 31
0.0
  0
LINE
  5
C0
330
8B
100
AcDbEntity
  8
AM_9
100
AcDbLine
 10
-2.125
 20
3.0625
 30
0.0
 11
-2.125
 21
-3.0625
 31
0.0
  0
LWPOLYLINE
  5
C1
330
8B
100
AcDbEntity
  8
AM_9
100
AcDbPolyline
 90
        4
 70
     0
 43
0.0
 10
-2.318923372381493
 20
3.061911253144978
 10
-2.317216726338115
 20
3.062066506327778
 10
-2.312550753690212
 20
3.062492800955106
 10
-2.312500000000064
 20
3.062499999999994
  0
LINE
  5
C2
330
8B
100
AcDbEntity
  8
AM_9
100
AcDbLine
 10
-2.420813894013437
 20
3.054188526622005
 30
0.0
 11
-2.385319915120085
 21
3.056532454799497
 31
0.0
  0
LINE
  5
C3
330
8B
100
AcDbEntity
  8
AM_9
100
AcDbLine
 10
-2.312500000000064
 20
3.062499999999994
 30
0.0
 11
-2.373662379551733
 21
3.057383257384089
 31
0.0
  0
LINE
  5
C5
330
8B
100
AcDbEntity
  8
AM_5
100
AcDbLine
 10
-2.9375
 20
3.0625
 30
0.0
 11
-2.9375
 21
2.25
 31
0.0
  0
LINE
  5
C6
330
8B
100
AcDbEntity
  8
AM_5
100
AcDbLine
 10
-2.3125
 20
3.0625
 30
0.0
 11
-2.3125
 21
2.25
 31
0.0
  0
LINE
  5
C8
330
8B
100
AcDbEntity
  8
AM_4
100
AcDbLine
 10
-3.125
 20
2.895833333333333
 30
0.0
 11
-3.125
 21
-2.895833333333333
 31
0.0
  0
ARC
  5
C9
330
8B
100
AcDbEntity
  8
AM_4
100
AcDbCircle
 10
-2.958333333333333
 20
-2.895833333333333
 30
0.0
 40
0.1666666666666674
100
AcDbArc
 50
180.0
 51
270.0
  0
ARC
  5
CA
330
8B
100
AcDbEntity
  8
AM_4
100
AcDbCircle
 10
-2.958333333333333
 20
2.895833333333333
 30
0.0
 40
0.1666666666666674
100
AcDbArc
 50
90.0
 51
180.0
  0
LWPOLYLINE
  5
CB
330
8B
100
AcDbEntity
  8
AM_4
100
AcDbPolyline
 90
       16
 70
     0
 43
0.0
 10
-2.386669224162556
 20
3.056436559717802
 10
-2.419324124323393
 20
3.054280794777517
 10
-2.456249300311387
 20
3.052219879539561
 10
-2.502728121440681
 20
3.050206744738342
 10
-2.552392895672697
 20
3.048757455786052
 10
-2.605765715781386
 20
3.048031090931427
 10
-2.659664745061727
 20
3.048149409728581
 10
-2.713447471209891
 20
3.049144246394877
 10
-2.764707014395128
 20
3.050883990595889
 10
-2.811575755604574
 20
3.053167149364176
 10
-2.852977054622231
 20
3.055718564696991
 10
-2.886480688049366
 20
3.058156108307787
 10
-2.912334954168392
 20
3.060262238627412
 10
-2.928801648034093
 20
3.061703388285627
 10
-2.936793940430575
 20
3.062434696705212
 10
-2.937499999999967
 20
3.062499999999997
  0
LINE
  5
CC
330
8B
100
AcDbEntity
  8
AM_4
100
AcDbLine
 10
-2.958333333333333
 20
-3.0625
 30
0.0
 11
-2.375
 21
-3.0625
 31
0.0
  0
LINE
  5
CD
330
8B
100
AcDbEntity
  8
AM_4
100
AcDbLine
 10
-2.936491964330509
 20
3.0625
 30
0.0
 11
-2.958333333333333
 21
3.0625
 31
0.0
  0
LINE
  5
CE
330
8B
100
AcDbEntity
  8
AM_4
100
AcDbLine
 10
-2.958333333333333
 20
3.0625
 30
0.0
 11
-2.958333333333333
 21
-3.0625
 31
0.0
  0
LINE
  5
CF
330
8B
100
AcDbEntity
  8
AM_4
100
AcDbLine
 10
-2.373662379551733
 20
3.057383257384089
 30
0.0
 11
-2.386669224162556
 21
3.056436559717802
 31
0.0
  0
ENDBLK
  5
8E
330
8B
100
AcDbEntity
  8
0
100
AcDbBlockEnd
  0
BLOCK
  5
D2
330
D0
100
AcDbEntity
  8
0
100
AcDbBlockBegin
  2
3_4C_2_0_in_023363_2
 70
     2
 10
0.0
 20
0.0
 30
0.0
  3
3_4C_2_0_in_023363_2
  1

  0
ATTDEF
  5
D4
330
D0
100
AcDbEntity
  8
AM_6
100
AcDbText
 10
8.125
 20
3.0625
 30
0.0
 40
0.5
  1
E-Type Collar -Inch
100
AcDbAttributeDefinition
  3

  2
NN
 70
     8
280
     0
  0
ATTDEF
  5
D5
330
D0
100
AcDbEntity
  8
AM_6
100
AcDbText
 10
8.125
 20
2.5625
 30
0.0
 40
0.5
  1
E-Type Bearings
100
AcDbAttributeDefinition
  3

  2
NT
 70
     8
280
     0
  0
ATTDEF
  5
D6
330
D0
100
AcDbEntity
  8
AM_6
100
AcDbText
 10
8.125
 20
2.0625
 30
0.0
 40
0.5
  1
4C
100
AcDbAttributeDefinition
  3

  2
NB
 70
     8
280
     0
  0
ATTDEF
  5
D7
330
D0
100
AcDbEntity
  8
AM_6
100
AcDbText
 10
8.125
 20
1.5625
 30
0.0
 40
0.5
  1
$BORE.C
100
AcDbAttributeDefinition
  3

  2
NBSYN
 70
     8
280
     0
  0
ATTDEF
  5
D8
330
D0
100
AcDbEntity
  8
AM_6
100
AcDbText
 10
8.125
 20
1.0625
 30
0.0
 40
0.5
  1
4C
100
AcDbAttributeDefinition
  3

  2
LINA
 70
     8
280
     0
  0
ATTDEF
  5
D9
330
D0
100
AcDbEntity
  8
AM_6
100
AcDbText
 10
8.125
 20
0.5625
 30
0.0
 40
0.5
  1
4
100
AcDbAttributeDefinition
  3

  2
BORE
 70
     8
280
     0
  0
ATTDEF
  5
DA
330
D0
100
AcDbEntity
  8
AM_6
100
AcDbText
 10
8.125
 20
0.0625
 30
0.0
 40
0.5
  1
6.12500
100
AcDbAttributeDefinition
  3

  2
L
 70
     8
280
     0
  0
ATTDEF
  5
DB
330
D0
100
AcDbEntity
  8
AM_6
100
AcDbText
 10
8.125
 20
-0.4375
 30
0.0
 40
0.5
  1
6.25
100
AcDbAttributeDefinition
  3

  2
A
 70
     8
280
     0
  0
ATTDEF
  5
DC
330
D0
100
AcDbEntity
  8
AM_6
100
AcDbText
 10
8.125
 20
-0.9375
 30
0.0
 40
0.5
  1
3.12
100
AcDbAttributeDefinition
  3

  2
B
 70
     8
280
     0
  0
ATTDEF
  5
DD
330
D0
100
AcDbEntity
  8
AM_6
100
AcDbText
 10
8.125
 20
-1.4375
 30
0.0
 40
0.5
  1
4.50
100
AcDbAttributeDefinition
  3

  2
C
 70
     8
280
     0
  0
ATTDEF
  5
DE
330
D0
100
AcDbEntity
  8
AM_6
100
AcDbText
 10
8.125
 20
-1.9375
 30
0.0
 40
0.5
  1
6.38
100
AcDbAttributeDefinition
  3

  2
D
 70
     8
280
     0
  0
ATTDEF
  5
DF
330
D0
100
AcDbEntity
  8
AM_6
100
AcDbText
 10
8.125
 20
-2.4375
 30
0.0
 40
0.5
  1
0.66
100
AcDbAttributeDefinition
  3

  2
E
 70
     8
280
     0
  0
ATTDEF
  5
E0
330
D0
100
AcDbEntity
  8
AM_6
100
AcDbText
 10
8.125
 20
-2.9375
 30
0.0
 40
0.5
  1
0.50
100
AcDbAttributeDefinition
  3

  2
F
 70
     8
280
     0
  0
ATTDEF
  5
E1
330
D0
100
AcDbEntity
  8
AM_6
100
AcDbText
 10
8.125
 20
-3.4375
 30
0.0
 40
0.5
  1
5/8-11
100
AcDbAttributeDefinition
  3

  2
CS
 70
     8
280
     0
  0
ATTDEF
  5
E2
330
D0
100
AcDbEntity
  8
AM_6
100
AcDbText
 10
8.125
 20
-3.9375
 30
0.0
 40
0.5
  1
0.6250
100
AcDbAttributeDefinition
  3

  2
NDM
 70
     8
280
     0
  0
ATTDEF
  5
E3
330
D0
100
AcDbEntity
  8
AM_6
100
AcDbText
 10
8.125
 20
-4.4375
 30
0.0
 40
0.5
  1
0.5270
100
AcDbAttributeDefinition
  3

  2
KDM
 70
     8
280
     0
  0
ATTDEF
  5
E4
330
D0
100
AcDbEntity
  8
AM_6
100
AcDbText
 10
8.125
 20
-4.9375
 30
0.0
 40
0.5
  1
baldor
100
AcDbAttributeDefinition
  3

  2
COMPANY
 70
     8
280
     0
  0
ELLIPSE
  5
E5
330
D0
100
AcDbEntity
  8
AM_9
100
AcDbEllipse
 10
2.624999999999999
 20
1.273475608103248
 30
0.0
 11
0.2633000000000014
 21
0.0
 31
0.0
210
0.0
220
0.0
230
1.0
 40
0.9063077870366498
 41
0.0
 42
1.570796326794897
  0
LINE
  5
E6
330
D0
100
AcDbEntity
  8
AM_9
100
AcDbLine
 10
2.8883
 20
0.9540748131550203
 30
0.0
 11
2.8883
 21
1.273475608103249
 31
0.0
  0
LINE
  5
E7
330
D0
100
AcDbEntity
  8
AM_9
100
AcDbLine
 10
2.3617
 20
1.273475608103249
 30
0.0
 11
2.3617
 21
0.9540748131550203
 31
0.0
  0
ELLIPSE
  5
E8
330
D0
100
AcDbEntity
  8
AM_9
100
AcDbEllipse
 10
2.625000000000034
 20
1.273475608103255
 30
0.0
 11
0.2633000000000343
 21
0.0
 31
0.0
210
0.0
220
0.0
230
1.0
 40
0.9063077870366506
 41
3.141592653589793
 42
3.874773042675177
  0
ELLIPSE
  5
E9
330
D0
100
AcDbEntity
  8
AM_9
100
AcDbEllipse
 10
2.624999999999963
 20
1.273475608103274
 30
0.0
 11
0.2632999999999472
 21
3.923475742339302E-9
 31
0.0
210
0.0
220
0.0
230
1.0
 40
0.9063077870368144
 41
3.87477302754894
 42
4.00900470983547
  0
ELLIPSE
  5
EA
330
D0
100
AcDbEntity
  8
AM_9
100
AcDbEllipse
 10
2.625
 20
1.27347560810325
 30
0.0
 11
0.2633000000000005
 21
0.0
 31
0.0
210
0.0
220
0.0
230
1.0
 40
0.9063077870366478
 41
4.009004724568952
 42
5.550004918094128
  0
ELLIPSE
  5
EB
330
D0
100
AcDbEntity
  8
AM_9
100
AcDbEllipse
 10
2.624999999999998
 20
1.27347560810325
 30
0.0
 11
0.2633000000000019
 21
0.0
 31
0.0
210
0.0
220
0.0
230
1.0
 40
0.90630778703665
 41
5.550004918094133
 42
6.283185307179586
  0
ELLIPSE
  5
EC
330
D0
100
AcDbEntity
  8
AM_9
100
AcDbEllipse
 10
2.625000000000001
 20
1.273475608103249
 30
0.0
 11
0.263300000000001
 21
0.0
 31
0.0
210
0.0
220
0.0
230
1.0
 40
0.9063077870366496
 41
1.570796326794897
 42
3.141592653589793
  0
ELLIPSE
  5
ED
330
D0
100
AcDbEntity
  8
AM_9
100
AcDbEllipse
 10
2.625000000000014
 20
0.9540748131550191
 30
0.0
 11
0.2633000000000139
 21
0.0
 31
0.0
210
0.0
220
0.0
230
1.0
 40
0.906307787036647
 41
3.141592653589793
 42
3.460791030544877
  0
ELLIPSE
  5
EE
330
D0
100
AcDbEntity
  8
AM_9
100
AcDbEllipse
 10
2.625
 20
0.9540748131550203
 30
0.0
 11
0.2633000000000001
 21
0.0
 31
0.0
210
0.0
220
0.0
230
1.0
 40
0.9063077870366495
 41
1.570796326794897
 42
2.822394276634698
  0
ELLIPSE
  5
EF
330
D0
100
AcDbEntity
  8
AM_9
100
AcDbEllipse
 10
2.625000000000031
 20
0.9540748131550274
 30
0.0
 11
0.2633000000000307
 21
0.0
 31
0.0
210
0.0
220
0.0
230
1.0
 40
0.9063077870366434
 41
2.82239427663476
 42
3.141592653589793
  0
ELLIPSE
  5
F0
330
D0
100
AcDbEntity
  8
AM_9
100
AcDbEllipse
 10
2.625
 20
0.9540748131550195
 30
0.0
 11
0.2633000000000005
 21
0.0
 31
0.0
210
0.0
220
0.0
230
1.0
 40
0.9063077870366504
 41
3.460791030544895
 42
7.853981633974483
  0
LINE
  5
F1
330
D0
100
AcDbEntity
  8
AM_9
100
AcDbLine
 10
2.8883
 20
2.257533333333333
 30
0.0
 11
2.8883
 21
3.0133
 31
0.0
  0
LINE
  5
F2
330
D0
100
AcDbEntity
  8
AM_9
100
AcDbLine
 10
2.3617
 20
3.0133
 30
0.0
 11
2.3617
 21
2.257533333333333
 31
0.0
  0
LINE
  5
F3
330
D0
100
AcDbEntity
  8
AM_9
100
AcDbLine
 10
2.3617
 20
2.257533333333333
 30
0.0
 11
2.354588192613643
 21
2.250421525946976
 31
0.0
  0
LINE
  5
F4
330
D0
100
AcDbEntity
  8
AM_9
100
AcDbLine
 10
2.895461664881004
 20
2.250371668452329
 30
0.0
 11
2.8883
 21
2.257533333333333
 31
0.0
  0
LINE
  5
F5
330
D0
100
AcDbEntity
  8
AM_9
100
AcDbLine
 10
2.3617
 20
2.257533333333333
 30
0.0
 11
2.8883
 21
2.257533333333333
 31
0.0
  0
LINE
  5
F6
330
D0
100
AcDbEntity
  8
AM_9
100
AcDbLine
 10
2.8883
 20
3.0133
 30
0.0
 11
2.9375
 21
3.0625
 31
0.0
  0
LINE
  5
F7
330
D0
100
AcDbEntity
  8
AM_9
100
AcDbLine
 10
2.3125
 20
3.0625
 30
0.0
 11
2.3617
 21
3.0133
 31
0.0
  0
LINE
  5
F8
330
D0
100
AcDbEntity
  8
AM_9
100
AcDbLine
 10
2.3617
 20
3.0133
 30
0.0
 11
2.8883
 21
3.0133
 31
0.0
  0
LWPOLYLINE
  5
F9
330
D0
100
AcDbEntity
  8
AM_9
100
AcDbPolyline
 90
       16
 70
     0
 43
0.0
 10
2.430735211364563
 20
2.240962040650285
 10
2.460439735924683
 20
2.238240713540724
 10
2.494840353049987
 20
2.235645149247013
 10
2.536135796202668
 20
2.233323779266403
 10
2.581774836284429
 20
2.231773467115404
 10
2.624535921085054
 20
2.231292525916194
 10
2.66862715521264
 20
2.231782452930967
 10
2.70886390285018
 20
2.233101817930693
 10
2.747880977350693
 20
2.235172889363511
 10
2.783590902897186
 20
2.23774740067116
 10
2.815967199008946
 20
2.24063810182178
 10
2.844330235923442
 20
2.243601645490085
 10
2.867328153422485
 20
2.246297639887808
 10
2.884201068495301
 20
2.24844117210337
 10
2.893834159892084
 20
2.24972740104254
 10
2.895833333332891
 20
2.24999999999994
  0
LWPOLYLINE
  5
FA
330
D0
100
AcDbEntity
  8
AM_9
100
AcDbPolyline
 90
       17
 70
     0
 43
0.0
 10
2.883931320752643
 20
1.026966847011657
 10
2.889606347972983
 20
1.006339788910266
 10
2.895595235730551
 20
0.9612350181282083
 10
2.893348926536561
 20
0.9153788040192268
 10
2.882562895888697
 20
0.8692890937681831
 10
2.863536016522357
 20
0.8251137778181078
 10
2.836839356576486
 20
0.7846568450662028
 10
2.803045015133619
 20
0.7489101138516935
 10
2.764596931006785
 20
0.7204334824210551
 10
2.721392751805567
 20
0.698848613993494
 10
2.677962729005909
 20
0.6860077466515151
 10
2.632836869066099
 20
0.6806889675079348
 10
2.59018222178112
 20
0.682922921084827
 10
2.548521681249181
 20
0.6919417727237017
 10
2.509372715778862
 20
0.7072830282267352
 10
2.473280229800552
 20
0.728293606104793
 10
2.424082972374702
 20
0.771648472251829
  0
LWPOLYLINE
  5
FB
330
D0
100
AcDbEntity
  8
AM_9
100
AcDbPolyline
 90
       17
 70
     0
 43
0.0
 10
2.374214240069869
 20
1.048627553247111
 10
2.379095114298602
 20
1.059172018061535
 10
2.403381185166674
 20
1.098863482832118
 10
2.434588846538541
 20
1.13323176035889
 10
2.472250357517014
 20
1.16202493681386
 10
2.513137637236524
 20
1.183183016440649
 10
2.557795473323702
 20
1.197639748952636
 10
2.601444316209666
 20
1.204430008401932
 10
2.645820447616849
 20
1.204664506826899
 10
2.687520023580483
 20
1.198675843361116
 10
2.727492995204234
 20
1.186929354302573
 10
2.765078911131668
 20
1.169518463868775
 10
2.798991935643685
 20
1.147141469842896
 10
2.830042125346482
 20
1.118683004646004
 10
2.855590758007776
 20
1.086099236352993
 10
2.876188683155972
 20
1.047629301160185
 10
2.883931320752643
 20
1.026966847011657
  0
LINE
  5
FC
330
D0
100
AcDbEntity
  8
AM_9
100
AcDbLine
 10
2.365441049788271
 20
1.024993986531284
 30
0.0
 11
2.374214240069869
 21
1.048627553247111
 31
0.0
  0
LWPOLYLINE
  5
FD
330
D0
100
AcDbEntity
  8
AM_9
100
AcDbPolyline
 90
        6
 70
     0
 43
0.0
 10
2.374162338306431
 20
0.8510446891937323
 10
2.364108572602769
 20
0.8801378002185124
 10
2.355525839022781
 20
0.924625120130649
 10
2.354982978911711
 20
0.9708114462547965
 10
2.362801822298493
 20
1.015969927057263
 10
2.365441049788271
 20
1.024993986531284
  0
LWPOLYLINE
  5
FE
330
D0
100
AcDbEntity
  8
AM_9
100
AcDbPolyline
 90
        4
 70
     0
 43
0.0
 10
2.424082972374702
 20
0.771648472251829
 10
2.399763396888957
 20
0.8030400480951182
 10
2.380359313984091
 20
0.8371084369274372
 10
2.374162338306431
 20
0.8510446891937323
  0
LINE
  5
FF
330
D0
100
AcDbEntity
  8
AM_9
100
AcDbLine
 10
3.125
 20
2.25
 30
0.0
 11
2.894971946695017
 21
2.25
 31
0.0
  0
LINE
  5
100
330
D0
100
AcDbEntity
  8
AM_9
100
AcDbLine
 10
2.355143352662146
 20
2.25
 30
0.0
 11
2.125
 21
2.25
 31
0.0
  0
LINE
  5
101
330
D0
100
AcDbEntity
  8
AM_9
100
AcDbLine
 10
2.375000000000001
 20
-2.25
 30
0.0
 11
3.125
 21
-2.25
 31
0.0
  0
LINE
  5
102
330
D0
100
AcDbEntity
  8
AM_9
100
AcDbLine
 10
2.35637662898675
 20
2.249698772092692
 30
0.0
 11
2.354166666666969
 21
2.249999999999959
 31
0.0
  0
LINE
  5
103
330
D0
100
AcDbEntity
  8
AM_9
100
AcDbLine
 10
2.443781097608019
 20
2.239712317469307
 30
0.0
 11
2.42664902628808
 21
2.241370988118549
 31
0.0
  0
LWPOLYLINE
  5
104
330
D0
100
AcDbEntity
  8
AM_9
100
AcDbPolyline
 90
        6
 70
     0
 43
0.0
 10
2.354166666666969
 20
2.249999999999959
 10
2.355919465138447
 20
2.249760890640092
 10
2.365442175541581
 20
2.248487999368756
 10
2.383696355065427
 20
2.246171986671709
 10
2.404405345489852
 20
2.24374307594698
 10
2.430735211364563
 20
2.240962040650285
  0
LINE
  5
105
330
D0
100
AcDbEntity
  8
AM_9
100
AcDbLine
 10
2.374695740048097
 20
3.05730622547592
 30
0.0
 11
2.312500000000035
 21
3.062499999999996
 31
0.0
  0
LWPOLYLINE
  5
106
330
D0
100
AcDbEntity
  8
AM_9
100
AcDbPolyline
 90
       38
 70
     0
 43
0.0
 10
2.386669224223005
 20
1.117134448123157
 10
2.419324124323393
 20
1.087585064665388
 10
2.456249300311386
 20
1.0626952056183
 10
2.502728121440681
 20
1.040612789425983
 10
2.552392895672697
 20
1.025812289236124
 10
2.605765715781386
 20
1.01863979004798
 10
2.659664745061727
 20
1.019821053414429
 10
2.713447471209891
 20
1.029663220791344
 10
2.764707014395128
 20
1.047843778614473
 10
2.811575755604573
 20
1.073798436903541
 10
2.852977054622231
 20
1.106795106068807
 10
2.886480688049366
 20
1.144711120729017
 10
2.912334954168392
 20
1.187237142326993
 10
2.928801648034093
 20
1.230854512730279
 10
2.936793940430575
 20
1.276115161524302
 10
2.936066908349553
 20
1.319724556296899
 10
2.927284698360943
 20
1.362296344456282
 10
2.910854155132226
 20
1.402238134251223
 10
2.887397751366645
 20
1.439025734648666
 10
2.85670269498981
 20
1.472588734701264
 10
2.820324030547974
 20
1.501254431591668
 10
2.777237509533978
 20
1.525351194563044
 10
2.730266433147623
 20
1.543068849156442
 10
2.678498866304247
 20
1.554343684277105
 10
2.625291056265331
 20
1.558180005571719
 10
2.570845484767137
 20
1.554246667393414
 10
2.517926403221255
 20
1.542528014786452
 10
2.468053092116228
 20
1.523115579517615
 10
2.422748950221814
 20
1.496488023177302
 10
2.384374815552091
 20
1.463931133354641
 10
2.353075900607327
 20
1.42575921839867
 10
2.330961778577955
 20
1.384836968316625
 10
2.317216726338115
 20
1.340783922017594
 10
2.312550753690212
 20
1.297038560531353
 10
2.316171210940321
 20
1.252891921828291
 10
2.327720709455908
 20
1.210587598458019
 10
2.346663868003402
 20
1.170321621124607
 10
2.386669224151817
 20
1.117134448017203
  0
LINE
  5
107
330
D0
100
AcDbEntity
  8
AM_9
100
AcDbLine
 10
2.3125
 20
3.0625
 30
0.0
 11
2.125
 21
3.0625
 31
0.0
  0
LINE
  5
108
330
D0
100
AcDbEntity
  8
AM_9
100
AcDbLine
 10
2.125
 20
-3.0625
 30
0.0
 11
2.375
 21
-3.0625
 31
0.0
  0
LINE
  5
109
330
D0
100
AcDbEntity
  8
AM_9
100
AcDbLine
 10
2.929716386293107
 20
3.061788120374863
 30
0.0
 11
2.937499999999877
 21
3.062499999999988
 31
0.0
  0
LINE
  5
10A
330
D0
100
AcDbEntity
  8
AM_9
100
AcDbLine
 10
2.407372318753173
 20
3.055032448740926
 30
0.0
 11
2.444309013040155
 21
3.052841691395306
 31
0.0
  0
LINE
  5
10B
330
D0
100
AcDbEntity
  8
AM_9
100
AcDbLine
 10
2.125
 20
-3.0625
 30
0.0
 11
2.125
 21
3.0625
 31
0.0
  0
LINE
  5
10C
330
D0
100
AcDbEntity
  8
AM_5
100
AcDbLine
 10
2.9375
 20
3.0625
 30
0.0
 11
2.9375
 21
2.25
 31
0.0
  0
LINE
  5
10D
330
D0
100
AcDbEntity
  8
AM_5
100
AcDbLine
 10
2.3125
 20
3.0625
 30
0.0
 11
2.3125
 21
2.25
 31
0.0
  0
LINE
  5
10E
330
D0
100
AcDbEntity
  8
AM_4
100
AcDbLine
 10
3.125
 20
-2.895833333333333
 30
0.0
 11
3.125
 21
2.895833333333333
 31
0.0
  0
ARC
  5
10F
330
D0
100
AcDbEntity
  8
AM_4
100
AcDbCircle
 10
2.958333333333333
 20
2.895833333333333
 30
0.0
 40
0.1666666666666674
100
AcDbArc
 50
0.0
 51
90.0
  0
ARC
  5
110
330
D0
100
AcDbEntity
  8
AM_4
100
AcDbCircle
 10
2.958333333333333
 20
-2.895833333333333
 30
0.0
 40
0.1666666666666674
100
AcDbArc
 50
270.0
 51
0.0
  0
LINE
  5
111
330
D0
100
AcDbEntity
  8
AM_4
100
AcDbLine
 10
2.958333333333333
 20
-3.0625
 30
0.0
 11
2.958333333333333
 21
3.0625
 31
0.0
  0
LINE
  5
112
330
D0
100
AcDbEntity
  8
AM_4
100
AcDbLine
 10
2.409038501595008
 20
3.054924941596102
 30
0.0
 11
2.374695740048097
 21
3.05730622547592
 31
0.0
  0
LINE
  5
113
330
D0
100
AcDbEntity
  8
AM_4
100
AcDbLine
 10
2.958333333333333
 20
3.0625
 30
0.0
 11
2.9375
 21
3.0625
 31
0.0
  0
LINE
  5
114
330
D0
100
AcDbEntity
  8
AM_4
100
AcDbLine
 10
2.375
 20
-3.0625
 30
0.0
 11
2.958333333333333
 21
-3.0625
 31
0.0
  0
LWPOLYLINE
  5
115
330
D0
100
AcDbEntity
  8
AM_4
100
AcDbPolyline
 90
       16
 70
     0
 43
0.0
 10
2.937499999999877
 20
3.062499999999988
 10
2.93705200994823
 20
3.062458548663156
 10
2.930521316926254
 20
3.061860919740621
 10
2.915913603985693
 20
3.060569187987243
 10
2.894411869708007
 20
3.058781310850605
 10
2.865627237334802
 20
3.056600088806399
 10
2.830582360535034
 20
3.054273705648242
 10
2.789423960297644
 20
3.05200499234796
 10
2.743226532860237
 20
3.050057277091168
 10
2.69265697279029
 20
3.048653744949526
 10
2.639853742653766
 20
3.048002821825299
 10
2.585160247710521
 20
3.048207018850698
 10
2.532298454948959
 20
3.049253539111513
 10
2.480592874092776
 20
3.05108318230522
 10
2.443456407984777
 20
3.05288770866852
 10
2.409038501595008
 20
3.054924941596102
  0
ENDBLK
  5
D3
330
D0
100
AcDbEntity
  8
0
100
AcDbBlockEnd
  0
BLOCK
  5
118
330
116
100
AcDbEntity
  8
0
100
AcDbBlockBegin
  2
4_405015E_Inch_0_in_023363_2
 70
     2
 10
0.0
 20
0.0
 30
0.0
  3
4_405015E_Inch_0_in_023363_2
  1

  0
ATTDEF
  5
11A
330
116
100
AcDbEntity
  8
AM_6
100
AcDbText
 10
5.252590742770462
 20
5.159999999999999
 30
0.0
 40
0.5
  1
405015E -Inch
100
AcDbAttributeDefinition
  3

  2
NN
 70
     8
280
     0
  0
ATTDEF
  5
11B
330
116
100
AcDbEntity
  8
AM_6
100
AcDbText
 10
5.252590742770462
 20
4.659999999999999
 30
0.0
 40
0.5
  1
Grease Fitting
100
AcDbAttributeDefinition
  3

  2
NT
 70
     8
280
     0
  0
ATTDEF
  5
11C
330
116
100
AcDbEntity
  8
AM_6
100
AcDbText
 10
5.252590742770462
 20
4.159999999999999
 30
0.0
 40
0.5
  1
405015E-Inch
100
AcDbAttributeDefinition
  3

  2
NB
 70
     8
280
     0
  0
ATTDEF
  5
11D
330
116
100
AcDbEntity
  8
AM_6
100
AcDbText
 10
5.252590742770462
 20
3.659999999999999
 30
0.0
 40
0.5
  1
$MN.-Inch
100
AcDbAttributeDefinition
  3

  2
NBSYN
 70
     8
280
     0
  0
ATTDEF
  5
11E
330
116
100
AcDbEntity
  8
AM_6
100
AcDbText
 10
5.252590742770462
 20
3.159999999999999
 30
0.0
 40
0.5
  1
405015E
100
AcDbAttributeDefinition
  3

  2
LINA
 70
     8
280
     0
  0
ATTDEF
  5
11F
330
116
100
AcDbEntity
  8
AM_6
100
AcDbText
 10
5.252590742770462
 20
2.659999999999999
 30
0.0
 40
0.5
  1
405015E
100
AcDbAttributeDefinition
  3

  2
MN
 70
     8
280
     0
  0
ATTDEF
  5
120
330
116
100
AcDbEntity
  8
AM_6
100
AcDbText
 10
5.252590742770462
 20
2.159999999999999
 30
0.0
 40
0.5
  1
1/8 x 27PTF
100
AcDbAttributeDefinition
  3

  2
T
 70
     8
280
     0
  0
ATTDEF
  5
121
330
116
100
AcDbEntity
  8
AM_6
100
AcDbText
 10
5.252590742770462
 20
1.659999999999999
 30
0.0
 40
0.5
  1
baldor
100
AcDbAttributeDefinition
  3

  2
COMPANY
 70
     8
280
     0
  0
LINE
  5
122
330
116
100
AcDbEntity
  8
AM_9
100
AcDbLine
 10
0.105
 20
4.99
 30
0.0
 11
0.105
 21
5.02
 31
0.0
  0
LINE
  5
123
330
116
100
AcDbEntity
  8
AM_9
100
AcDbLine
 10
-0.105
 20
5.02
 30
0.0
 11
-0.105
 21
4.99
 31
0.0
  0
LINE
  5
124
330
116
100
AcDbEntity
  8
AM_9
100
AcDbLine
 10
-0.21875
 20
4.885
 30
0.0
 11
0.21875
 21
4.885
 31
0.0
  0
LINE
  5
125
330
116
100
AcDbEntity
  8
AM_9
100
AcDbLine
 10
0.2525907427704612
 20
4.875932400303386
 30
0.0
 11
0.21875
 21
4.885
 31
0.0
  0
LINE
  5
126
330
116
100
AcDbEntity
  8
AM_9
100
AcDbLine
 10
0.21875
 20
4.785
 30
0.0
 11
0.2525907427704612
 21
4.794067599696614
 31
0.0
  0
LINE
  5
127
330
116
100
AcDbEntity
  8
AM_9
100
AcDbLine
 10
-0.21875
 20
4.885
 30
0.0
 11
-0.2525907427704612
 21
4.875932400303386
 31
0.0
  0
LINE
  5
128
330
116
100
AcDbEntity
  8
AM_9
100
AcDbLine
 10
-0.2525907427704612
 20
4.794067599696614
 30
0.0
 11
-0.21875
 21
4.785
 31
0.0
  0
LINE
  5
129
330
116
100
AcDbEntity
  8
AM_9
100
AcDbLine
 10
-0.105
 20
4.99
 30
0.0
 11
-0.1188200907348975
 21
4.957753121618572
 31
0.0
  0
LINE
  5
12A
330
116
100
AcDbEntity
  8
AM_9
100
AcDbLine
 10
0.1188200907348975
 20
4.957753121618572
 30
0.0
 11
0.105
 21
4.99
 31
0.0
  0
LINE
  5
12B
330
116
100
AcDbEntity
  8
AM_9
100
AcDbLine
 10
-0.105
 20
4.99
 30
0.0
 11
0.105
 21
4.99
 31
0.0
  0
LINE
  5
12C
330
116
100
AcDbEntity
  8
AM_9
100
AcDbLine
 10
0.105
 20
5.02
 30
0.0
 11
0.135
 21
5.079999999999999
 31
0.0
  0
LINE
  5
12D
330
116
100
AcDbEntity
  8
AM_9
100
AcDbLine
 10
-0.135
 20
5.079999999999999
 30
0.0
 11
-0.105
 21
5.02
 31
0.0
  0
LINE
  5
12E
330
116
100
AcDbEntity
  8
AM_9
100
AcDbLine
 10
-0.105
 20
5.02
 30
0.0
 11
0.105
 21
5.02
 31
0.0
  0
LINE
  5
12F
330
116
100
AcDbEntity
  8
AM_9
100
AcDbLine
 10
-0.1026779019331875
 20
5.159999999999999
 30
0.0
 11
-0.135
 21
5.079999999999999
 31
0.0
  0
LINE
  5
130
330
116
100
AcDbEntity
  8
AM_9
100
AcDbLine
 10
0.135
 20
5.079999999999999
 30
0.0
 11
0.1026779019331875
 21
5.159999999999999
 31
0.0
  0
LINE
  5
131
330
116
100
AcDbEntity
  8
AM_9
100
AcDbLine
 10
-0.1026779019331875
 20
5.159999999999999
 30
0.0
 11
0.1026779019331875
 21
5.159999999999999
 31
0.0
  0
LINE
  5
132
330
116
100
AcDbEntity
  8
AM_9
100
AcDbLine
 10
-0.135
 20
5.079999999999999
 30
0.0
 11
0.135
 21
5.079999999999999
 31
0.0
  0
LINE
  5
133
330
116
100
AcDbEntity
  8
AM_9
100
AcDbLine
 10
-0.1188200907348975
 20
4.957753121618572
 30
0.0
 11
-0.1725340532830154
 21
4.903318198540882
 31
0.0
  0
LINE
  5
134
330
116
100
AcDbEntity
  8
AM_9
100
AcDbLine
 10
0.1725340532830154
 20
4.903318198540882
 30
0.0
 11
0.1188200907348975
 21
4.957753121618572
 31
0.0
  0
LINE
  5
135
330
116
100
AcDbEntity
  8
AM_9
100
AcDbLine
 10
-0.1188200907348975
 20
4.957753121618572
 30
0.0
 11
0.1188200907348975
 21
4.957753121618572
 31
0.0
  0
LINE
  5
136
330
116
100
AcDbEntity
  8
AM_9
100
AcDbLine
 10
0.161902872472269
 20
4.52
 30
0.0
 11
0.1986176267812154
 21
4.556714754308946
 31
0.0
  0
LINE
  5
137
330
116
100
AcDbEntity
  8
AM_9
100
AcDbLine
 10
-0.1986176267812154
 20
4.556714754308946
 30
0.0
 11
-0.161902872472269
 21
4.52
 31
0.0
  0
LINE
  5
138
330
116
100
AcDbEntity
  8
AM_9
100
AcDbLine
 10
-0.161902872472269
 20
4.52
 30
0.0
 11
0.161902872472269
 21
4.52
 31
0.0
  0
LINE
  5
139
330
116
100
AcDbEntity
  8
AM_9
100
AcDbLine
 10
0.1986176267812154
 20
4.556714754308946
 30
0.0
 11
0.2057518972230696
 21
4.785
 31
0.0
  0
LINE
  5
13A
330
116
100
AcDbEntity
  8
AM_9
100
AcDbLine
 10
-0.2057518972230696
 20
4.785
 30
0.0
 11
-0.1986176267812154
 21
4.556714754308946
 31
0.0
  0
LINE
  5
13B
330
116
100
AcDbEntity
  8
AM_9
100
AcDbLine
 10
-0.1986176267812154
 20
4.556714754308946
 30
0.0
 11
0.1986176267812154
 21
4.556714754308946
 31
0.0
  0
LINE
  5
13C
330
116
100
AcDbEntity
  8
AM_9
100
AcDbLine
 10
-0.1725340532830154
 20
4.903318198540882
 30
0.0
 11
-0.21375
 21
4.885
 31
0.0
  0
LINE
  5
13D
330
116
100
AcDbEntity
  8
AM_9
100
AcDbLine
 10
0.21375
 20
4.885
 30
0.0
 11
0.1725340532830154
 21
4.903318198540882
 31
0.0
  0
LINE
  5
13E
330
116
100
AcDbEntity
  8
AM_9
100
AcDbLine
 10
-0.1725340532830154
 20
4.903318198540882
 30
0.0
 11
0.1725340532830154
 21
4.903318198540882
 31
0.0
  0
LINE
  5
13F
330
116
100
AcDbEntity
  8
AM_9
100
AcDbLine
 10
0.2525907427704612
 20
4.875932400303386
 30
0.0
 11
0.2525907427704612
 21
4.794067599696614
 31
0.0
  0
LWPOLYLINE
  5
140
330
116
100
AcDbEntity
  8
AM_9
100
AcDbPolyline
 90
        4
 70
     0
 43
0.0
 10
0.1894430570778459
 20
4.885
 10
0.2052299785009997
 20
4.884392585996001
 10
0.2210168999241535
 20
4.882606619214965
 10
0.2525907427704612
 20
4.875932400303386
  0
LWPOLYLINE
  5
141
330
116
100
AcDbEntity
  8
AM_9
100
AcDbPolyline
 90
        4
 70
     0
 43
0.0
 10
0.2525907427704612
 20
4.794067599696614
 10
0.2211588644235643
 20
4.78741452494962
 10
0.205323075602153
 20
4.785614561814227
 10
0.1894430570778459
 20
4.785
  0
LWPOLYLINE
  5
142
330
116
100
AcDbEntity
  8
AM_9
100
AcDbPolyline
 90
        4
 70
     0
 43
0.0
 10
0.1262953713852306
 20
4.875932400303386
 10
0.1577272497321276
 20
4.88258547505038
 10
0.1735630385535388
 20
4.884385438185772
 10
0.1894430570778459
 20
4.885
  0
LWPOLYLINE
  5
143
330
116
100
AcDbEntity
  8
AM_9
100
AcDbPolyline
 90
        4
 70
     0
 43
0.0
 10
-0.1894430570778459
 20
4.885
 10
-0.1736561356546922
 20
4.884392585996001
 10
-0.1578692142315383
 20
4.882606619214965
 10
-0.1262953713852306
 20
4.875932400303386
  0
LWPOLYLINE
  5
144
330
116
100
AcDbEntity
  8
AM_9
100
AcDbPolyline
 90
        4
 70
     0
 43
0.0
 10
-0.2525907427704612
 20
4.875932400303386
 10
-0.2211588644235643
 20
4.88258547505038
 10
-0.2053230756021531
 20
4.884385438185772
 10
-0.1894430570778459
 20
4.885
  0
LINE
  5
145
330
116
100
AcDbEntity
  8
AM_9
100
AcDbLine
 10
-0.2525907427704612
 20
4.875932400303386
 30
0.0
 11
-0.2525907427704612
 21
4.794067599696614
 31
0.0
  0
LWPOLYLINE
  5
146
330
116
100
AcDbEntity
  8
AM_9
100
AcDbPolyline
 90
        4
 70
     0
 43
0.0
 10
-0.1894430570778459
 20
4.785
 10
-0.2052299785009998
 20
4.785607414003999
 10
-0.2210168999241536
 20
4.787393380785034
 10
-0.2525907427704612
 20
4.794067599696614
  0
LWPOLYLINE
  5
147
330
116
100
AcDbEntity
  8
AM_9
100
AcDbPolyline
 90
        4
 70
     0
 43
0.0
 10
-0.1262953713852306
 20
4.794067599696614
 10
-0.1577272497321276
 20
4.78741452494962
 10
-0.1735630385535388
 20
4.785614561814227
 10
-0.1894430570778459
 20
4.785
  0
LINE
  5
148
330
116
100
AcDbEntity
  8
AM_9
100
AcDbLine
 10
0.1262953713852306
 20
4.875932400303386
 30
0.0
 11
0.1262953713852306
 21
4.794067599696614
 31
0.0
  0
LWPOLYLINE
  5
149
330
116
100
AcDbEntity
  8
AM_9
100
AcDbPolyline
 90
        4
 70
     0
 43
0.0
 10
0.0
 20
4.885
 10
0.0315738428463077
 20
4.884392585996001
 10
0.0631476856926153
 20
4.882606619214965
 10
0.1262953713852306
 20
4.875932400303386
  0
LWPOLYLINE
  5
14A
330
116
100
AcDbEntity
  8
AM_9
100
AcDbPolyline
 90
        4
 70
     0
 43
0.0
 10
-0.1262953713852306
 20
4.875932400303386
 10
-0.0967996321117978
 20
4.879517587482156
 10
-0.0485424412477544
 20
4.883574171756928
 10
0.0
 20
4.885
  0
LINE
  5
14B
330
116
100
AcDbEntity
  8
AM_9
100
AcDbLine
 10
-0.1262953713852306
 20
4.875932400303386
 30
0.0
 11
-0.1262953713852306
 21
4.794067599696614
 31
0.0
  0
LWPOLYLINE
  5
14C
330
116
100
AcDbEntity
  8
AM_9
100
AcDbPolyline
 90
        4
 70
     0
 43
0.0
 10
0.0
 20
4.785
 10
-0.0483998160558989
 20
4.786417560717138
 10
-0.0967996321117978
 20
4.790482412517844
 10
-0.1262953713852306
 20
4.794067599696614
  0
LWPOLYLINE
  5
14D
330
116
100
AcDbEntity
  8
AM_9
100
AcDbPolyline
 90
        4
 70
     0
 43
0.0
 10
0.1894430570778459
 20
4.785
 10
0.1736561356546921
 20
4.785607414003999
 10
0.1578692142315383
 20
4.787393380785034
 10
0.1262953713852306
 20
4.794067599696614
  0
LWPOLYLINE
  5
14E
330
116
100
AcDbEntity
  8
AM_9
100
AcDbPolyline
 90
        4
 70
     0
 43
0.0
 10
0.1262953713852306
 20
4.794067599696614
 10
0.0634316146914367
 20
4.78741452494962
 10
0.0317600370486143
 20
4.785614561814228
 10
0.0
 20
4.785
  0
LINE
  5
14F
330
116
100
AcDbEntity
  8
AM_5
100
AcDbLine
 10
0.1681491248523479
 20
4.719870087748463
 30
0.0
 11
0.161902872472269
 21
4.52
 31
0.0
  0
LINE
  5
150
330
116
100
AcDbEntity
  8
AM_5
100
AcDbLine
 10
0.2057518972230696
 20
4.785
 30
0.0
 11
0.1681491248523479
 21
4.719870087748463
 31
0.0
  0
LINE
  5
151
330
116
100
AcDbEntity
  8
AM_5
100
AcDbLine
 10
-0.2037164857515567
 20
4.719870087748463
 30
0.0
 11
0.2037164857515569
 21
4.719870087748463
 31
0.0
  0
LINE
  5
152
330
116
100
AcDbEntity
  8
AM_5
100
AcDbLine
 10
-0.1681491248523479
 20
4.719870087748463
 30
0.0
 11
-0.161902872472269
 21
4.52
 31
0.0
  0
LINE
  5
153
330
116
100
AcDbEntity
  8
AM_5
100
AcDbLine
 10
-0.2057518972230696
 20
4.785
 30
0.0
 11
-0.1681491248523479
 21
4.719870087748463
 31
0.0
  0
ENDBLK
  5
119
330
116
100
AcDbEntity
  8
0
100
AcDbBlockEnd
  0
BLOCK
  5
156
330
154
100
AcDbEntity
  8
0
100
AcDbBlockBegin
  2
5_023531_Insert_0_in_023363_2
 70
     2
 10
0.0
 20
0.0
 30
0.0
  3
5_023531_Insert_0_in_023363_2
  1

  0
ATTDEF
  5
158
330
154
100
AcDbEntity
  8
AM_6
100
AcDbText
 10
8.4375
 20
4.785
 30
0.0
 40
0.5
  1
S-1 Unit -Insert -Inch
100
AcDbAttributeDefinition
  3

  2
NN
 70
     8
280
     0
  0
ATTDEF
  5
159
330
154
100
AcDbEntity
  8
AM_6
100
AcDbText
 10
8.4375
 20
4.285
 30
0.0
 40
0.5
  1
Double-Interlock Bearings
100
AcDbAttributeDefinition
  3

  2
NT
 70
     8
280
     0
  0
ATTDEF
  5
15A
330
154
100
AcDbEntity
  8
AM_6
100
AcDbText
 10
8.4375
 20
3.785
 30
0.0
 40
0.5
  1
023531-Insert
100
AcDbAttributeDefinition
  3

  2
NB
 70
     8
280
     0
  0
ATTDEF
  5
15B
330
154
100
AcDbEntity
  8
AM_6
100
AcDbText
 10
8.4375
 20
3.285
 30
0.0
 40
0.5
  1
$PN.-Insert
100
AcDbAttributeDefinition
  3

  2
NBSYN
 70
     8
280
     0
  0
ATTDEF
  5
15C
330
154
100
AcDbEntity
  8
AM_6
100
AcDbText
 10
8.4375
 20
2.785
 30
0.0
 40
0.5
  1
023531-Insert
100
AcDbAttributeDefinition
  3

  2
LINA
 70
     8
280
     0
  0
ATTDEF
  5
15D
330
154
100
AcDbEntity
  8
AM_6
100
AcDbText
 10
8.4375
 20
2.285
 30
0.0
 40
0.5
  1
4
100
AcDbAttributeDefinition
  3

  2
SS
 70
     8
280
     0
  0
ATTDEF
  5
15E
330
154
100
AcDbEntity
  8
AM_6
100
AcDbText
 10
8.4375
 20
1.785
 30
0.0
 40
0.5
  1
023531
100
AcDbAttributeDefinition
  3

  2
PN
 70
     8
280
     0
  0
ATTDEF
  5
15F
330
154
100
AcDbEntity
  8
AM_6
100
AcDbText
 10
8.4375
 20
1.285
 30
0.0
 40
0.5
  1
S1U-DI-400R
100
AcDbAttributeDefinition
  3

  2
DESCRIPTION
 70
     8
280
     0
  0
ATTDEF
  5
160
330
154
100
AcDbEntity
  8
AM_6
100
AcDbText
 10
8.4375
 20
0.7850000000000001
 30
0.0
 40
0.5
  1
6-1/4
100
AcDbAttributeDefinition
  3

  2
A
 70
     8
280
     0
  0
ATTDEF
  5
161
330
154
100
AcDbEntity
  8
AM_6
100
AcDbText
 10
8.4375
 20
0.2850000000000001
 30
0.0
 40
0.5
  1
4-1/2
100
AcDbAttributeDefinition
  3

  2
B
 70
     8
280
     0
  0
ATTDEF
  5
162
330
154
100
AcDbEntity
  8
AM_6
100
AcDbText
 10
8.4375
 20
-0.2149999999999999
 30
0.0
 40
0.5
  1
2-3/8
100
AcDbAttributeDefinition
  3

  2
C
 70
     8
280
     0
  0
ATTDEF
  5
163
330
154
100
AcDbEntity
  8
AM_6
100
AcDbText
 10
8.4375
 20
-0.7149999999999999
 30
0.0
 40
0.5
  1
7.438
100
AcDbAttributeDefinition
  3

  2
EM
 70
     8
280
     0
  0
ATTDEF
  5
164
330
154
100
AcDbEntity
  8
AM_6
100
AcDbText
 10
8.4375
 20
-1.215
 30
0.0
 40
0.5
  1
7-9/16
100
AcDbAttributeDefinition
  3

  2
EC
 70
     8
280
     0
  0
ATTDEF
  5
165
330
154
100
AcDbEntity
  8
AM_6
100
AcDbText
 10
8.4375
 20
-1.715
 30
0.0
 40
0.5
  1
15/16
100
AcDbAttributeDefinition
  3

  2
H
 70
     8
280
     0
  0
ATTDEF
  5
166
330
154
100
AcDbEntity
  8
AM_6
100
AcDbText
 10
8.4375
 20
-2.215
 30
0.0
 40
0.5
  1
7.997
100
AcDbAttributeDefinition
  3

  2
K
 70
     8
280
     0
  0
ATTDEF
  5
167
330
154
100
AcDbEntity
  8
AM_6
100
AcDbText
 10
8.4375
 20
-2.715
 30
0.0
 40
0.5
  1
+0.000 to -0.003
100
AcDbAttributeDefinition
  3

  2
TOL
 70
     8
280
     0
  0
ATTDEF
  5
168
330
154
100
AcDbEntity
  8
AM_6
100
AcDbText
 10
8.4375
 20
-3.215
 30
0.0
 40
0.5
  1
6
100
AcDbAttributeDefinition
  3

  2
L
 70
     8
280
     0
  0
ATTDEF
  5
169
330
154
100
AcDbEntity
  8
AM_6
100
AcDbText
 10
8.4375
 20
-3.715
 30
0.0
 40
0.5
  1
5.16
100
AcDbAttributeDefinition
  3

  2
M
 70
     8
280
     0
  0
ATTDEF
  5
16A
330
154
100
AcDbEntity
  8
AM_6
100
AcDbText
 10
8.4375
 20
-4.215
 30
0.0
 40
0.5
  1
baldor
100
AcDbAttributeDefinition
  3

  2
COMPANY
 70
     8
280
     0
  0
LINE
  5
16B
330
154
100
AcDbEntity
  8
AM_9
100
AcDbLine
 10
2.295
 20
0.9508809500184401
 30
0.0
 11
2.295
 21
0.8451598085659608
 31
0.0
  0
LINE
  5
16C
330
154
100
AcDbEntity
  8
AM_9
100
AcDbLine
 10
2.955
 20
0.845217376797025
 30
0.0
 11
2.955
 21
0.9508234954370166
 31
0.0
  0
LWPOLYLINE
  5
16D
330
154
100
AcDbEntity
  8
AM_9
100
AcDbPolyline
 90
       17
 70
     0
 43
0.0
 10
2.374146996567008
 20
1.034689078457976
 10
2.389476202861907
 20
1.049062129493238
 10
2.431668356922971
 20
1.079992468147507
 10
2.479348005275761
 20
1.104294291997169
 10
2.531318427462528
 20
1.121339436838271
 10
2.586000732955672
 20
1.130799934342449
 10
2.641179829023852
 20
1.132375090305178
 10
2.69589808643234
 20
1.126287245488511
 10
2.748255385322476
 20
1.112686701843845
 10
2.797186668919194
 20
1.091962259385443
 10
2.841683566615474
 20
1.064204575470605
 10
2.880148000599814
 20
1.030271249225422
 10
2.911720680536393
 20
0.9904179282272394
 10
2.935177313712353
 20
0.9459903170687622
 10
2.949661479718624
 20
0.8982679798875242
 10
2.954981488807184
 20
0.8484030402548529
 10
2.954999999381124
 20
0.8452548402402371
  0
LWPOLYLINE
  5
16E
330
154
100
AcDbEntity
  8
AM_9
100
AcDbPolyline
 90
        6
 70
     0
 43
0.0
 10
2.295000001096718
 20
0.8452121399573194
 10
2.296976376863691
 20
0.8777828172341164
 10
2.307519621650041
 20
0.9258694208644437
 10
2.326759701212152
 20
0.9711454933374011
 10
2.35439584172821
 20
1.012587922363621
 10
2.374146996567008
 20
1.034689078457976
  0
LWPOLYLINE
  5
16F
330
154
100
AcDbEntity
  8
AM_9
100
AcDbPolyline
 90
       10
 70
     0
 43
0.0
 10
2.954999999381124
 20
0.8452548402402371
 10
2.950942083682298
 20
0.7983879167460197
 10
2.937915620034843
 20
0.7490908295689368
 10
2.916195455211361
 20
0.7020331305249946
 10
2.886510357578389
 20
0.6585266253289144
 10
2.849124557343372
 20
0.6195337917670753
 10
2.805454930418447
 20
0.5867288847438304
 10
2.756283251944819
 20
0.5611373469196402
 10
2.703323052966464
 20
0.5437726152427508
 10
2.625
 20
0.5345697758501138
  0
LWPOLYLINE
  5
170
330
154
100
AcDbEntity
  8
AM_9
100
AcDbPolyline
 90
       21
 70
     0
 43
0.0
 10
2.954999998805263
 20
0.9508656390812037
 10
2.952974039456843
 20
0.9838557987138689
 10
2.942316269347093
 20
1.032132419329275
 10
2.922914660889279
 20
1.077638087448723
 10
2.895097285822628
 20
1.119293738316906
 10
2.859810786466519
 20
1.155974339088606
 10
2.817508931055774
 20
1.187003759664208
 10
2.769749495644122
 20
1.211369544640846
 10
2.717758232267907
 20
1.228419383126994
 10
2.663096912303112
 20
1.237827779064613
 10
2.607836268224656
 20
1.239286300248901
 10
2.553063307342161
 20
1.232988271536408
 10
2.500604226687895
 20
1.219066562927685
 10
2.451612749819562
 20
1.197930277826203
 10
2.407188754082995
 20
1.169745602650391
 10
2.368845228979192
 20
1.135374453640431
 10
2.337511746803392
 20
1.095200640735685
 10
2.314309699709472
 20
1.050534773329087
 10
2.300074294062983
 20
1.002644890037912
 10
2.295006200298957
 20
0.9527240823420596
 10
2.295000000248493
 20
0.9509026955013132
  0
LWPOLYLINE
  5
171
330
154
100
AcDbEntity
  8
AM_9
100
AcDbPolyline
 90
        4
 70
     0
 43
0.0
 10
2.474461455336023
 20
0.6766078752307235
 10
2.495622882027201
 20
0.6670944780324816
 10
2.548634936451604
 20
0.6501981840910688
 10
2.625
 20
0.6415265571449762
  0
LINE
  5
172
330
154
100
AcDbEntity
  8
AM_9
100
AcDbLine
 10
2.455153850900511
 20
0.6869166988877875
 30
0.0
 11
2.474461455336023
 21
0.6766078752307235
 31
0.0
  0
LWPOLYLINE
  5
173
330
154
100
AcDbEntity
  8
AM_9
100
AcDbPolyline
 90
        4
 70
     0
 43
0.0
 10
2.374291159082766
 20
0.7520802976404529
 10
2.402402875115725
 20
0.7245467656363989
 10
2.44632672826898
 20
0.6921834139399324
 10
2.455153850900511
 20
0.6869166988877875
  0
LWPOLYLINE
  5
174
330
154
100
AcDbEntity
  8
AM_9
100
AcDbPolyline
 90
        5
 70
     0
 43
0.0
 10
2.300492600794233
 20
0.8962131116053026
 10
2.312630468604248
 20
0.8533773503322214
 10
2.334684465591986
 20
0.8064382935248676
 10
2.364730272438295
 20
0.76314735583973
 10
2.374291159082766
 20
0.7520802976404529
  0
LWPOLYLINE
  5
175
330
154
100
AcDbEntity
  8
AM_9
100
AcDbPolyline
 90
        3
 70
     0
 43
0.0
 10
2.295000000248493
 20
0.9509026955013132
 10
2.299308630939521
 20
0.9026391610941976
 10
2.300492600794233
 20
0.8962131116053026
  0
LINE
  5
176
330
154
100
AcDbEntity
  8
AM_9
100
AcDbLine
 10
-2.955
 20
0.95088095001844
 30
0.0
 11
-2.955
 21
0.8451598085659608
 31
0.0
  0
LINE
  5
177
330
154
100
AcDbEntity
  8
AM_9
100
AcDbLine
 10
-2.295
 20
0.845217376797025
 30
0.0
 11
-2.295
 21
0.9508234954370164
 31
0.0
  0
LWPOLYLINE
  5
178
330
154
100
AcDbEntity
  8
AM_9
100
AcDbPolyline
 90
        7
 70
     0
 43
0.0
 10
-2.374591085937105
 20
1.035135322816909
 10
-2.369851999400186
 20
1.030271249225422
 10
-2.338279319463607
 20
0.9904179282272394
 10
-2.314822686287647
 20
0.9459903170687622
 10
-2.300338520281375
 20
0.8982679798875242
 10
-2.295018511192816
 20
0.848403040254853
 10
-2.295000000618876
 20
0.8452548402402369
  0
LWPOLYLINE
  5
179
330
154
100
AcDbEntity
  8
AM_9
100
AcDbPolyline
 90
       16
 70
     0
 43
0.0
 10
-2.954999998903282
 20
0.8452121399573194
 10
-2.953023623136308
 20
0.8777828172341166
 10
-2.942480378349958
 20
0.9258694208644437
 10
-2.923240298787848
 20
0.9711454933374012
 10
-2.89560415827179
 20
1.012587922363621
 10
-2.860523797138093
 20
1.049062129493238
 10
-2.818331643077029
 20
1.079992468147507
 10
-2.770651994724239
 20
1.104294291997169
 10
-2.718681572537472
 20
1.121339436838271
 10
-2.663999267044328
 20
1.130799934342449
 10
-2.608820170976148
 20
1.132375090305178
 10
-2.55410191356766
 20
1.126287245488511
 10
-2.501744614677525
 20
1.112686701843845
 10
-2.452813331080806
 20
1.091962259385443
 10
-2.408316433384526
 20
1.064204575470605
 10
-2.374591085937105
 20
1.035135322816909
  0
LWPOLYLINE
  5
17A
330
154
100
AcDbEntity
  8
AM_9
100
AcDbPolyline
 90
        4
 70
     0
 43
0.0
 10
-2.474475165157032
 20
0.5699192579461038
 10
-2.493716748055181
 20
0.5611373469196405
 10
-2.546676947033536
 20
0.5437726152427509
 10
-2.625
 20
0.5345697758501138
  0
LWPOLYLINE
  5
17B
330
154
100
AcDbEntity
  8
AM_9
100
AcDbPolyline
 90
        5
 70
     0
 43
0.0
 10
-2.342838505429436
 20
0.687041857037911
 10
-2.363489642421611
 20
0.6585266253289147
 10
-2.400875442656627
 20
0.6195337917670758
 10
-2.444545069581553
 20
0.5867288847438307
 10
-2.474475165157032
 20
0.5699192579461038
  0
LWPOLYLINE
  5
17C
330
154
100
AcDbEntity
  8
AM_9
100
AcDbPolyline
 90
        5
 70
     0
 43
0.0
 10
-2.295000000618876
 20
0.8452548402402369
 10
-2.299057916317701
 20
0.7983879167460198
 10
-2.312084379965157
 20
0.7490908295689369
 10
-2.333804544788639
 20
0.7020331305249949
 10
-2.342838505429436
 20
0.687041857037911
  0
LWPOLYLINE
  5
17D
330
154
100
AcDbEntity
  8
AM_9
100
AcDbPolyline
 90
       21
 70
     0
 43
0.0
 10
-2.295000001194736
 20
0.9508656390812036
 10
-2.297025960543156
 20
0.9838557987138687
 10
-2.307683730652907
 20
1.032132419329275
 10
-2.327085339110721
 20
1.077638087448723
 10
-2.354902714177372
 20
1.119293738316906
 10
-2.390189213533481
 20
1.155974339088606
 10
-2.432491068944226
 20
1.187003759664208
 10
-2.480250504355878
 20
1.211369544640846
 10
-2.532241767732093
 20
1.228419383126994
 10
-2.586903087696888
 20
1.237827779064613
 10
-2.642163731775345
 20
1.239286300248901
 10
-2.696936692657839
 20
1.232988271536408
 10
-2.749395773312105
 20
1.219066562927685
 10
-2.798387250180438
 20
1.197930277826203
 10
-2.842811245917006
 20
1.169745602650391
 10
-2.881154771020808
 20
1.135374453640431
 10
-2.912488253196607
 20
1.095200640735685
 10
-2.935690300290527
 20
1.050534773329088
 10
-2.949925705937017
 20
1.002644890037913
 10
-2.954993799701043
 20
0.9527240823420599
 10
-2.954999999751507
 20
0.9509026955013131
  0
LWPOLYLINE
  5
17E
330
154
100
AcDbEntity
  8
AM_9
100
AcDbPolyline
 90
        9
 70
     0
 43
0.0
 10
-2.949507399205767
 20
0.8962131116053023
 10
-2.937369531395752
 20
0.8533773503322214
 10
-2.915315534408016
 20
0.8064382935248676
 10
-2.885269727561705
 20
0.76314735583973
 10
-2.847597124884275
 20
0.7245467656363989
 10
-2.80367327173102
 20
0.6921834139399324
 10
-2.754377117972799
 20
0.6670944780324816
 10
-2.701365063548396
 20
0.6501981840910688
 10
-2.625
 20
0.6415265571449762
  0
LWPOLYLINE
  5
17F
330
154
100
AcDbEntity
  8
AM_9
100
AcDbPolyline
 90
        3
 70
     0
 43
0.0
 10
-2.954999999751507
 20
0.9509026955013131
 10
-2.950691369060479
 20
0.9026391610941978
 10
-2.949507399205767
 20
0.8962131116053023
  0
LINE
  5
180
330
154
100
AcDbEntity
  8
AM_9
100
AcDbLine
 10
2.295
 20
2.25
 30
0.0
 11
2.295
 21
2.0
 31
0.0
  0
LINE
  5
181
330
154
100
AcDbEntity
  8
AM_9
100
AcDbLine
 10
2.955
 20
2.0
 30
0.0
 11
2.955
 21
2.25
 31
0.0
  0
LINE
  5
182
330
154
100
AcDbEntity
  8
AM_9
100
AcDbLine
 10
-2.955
 20
2.25
 30
0.0
 11
-2.955
 21
2.0
 31
0.0
  0
LINE
  5
183
330
154
100
AcDbEntity
  8
AM_9
100
AcDbLine
 10
-2.295
 20
2.0
 30
0.0
 11
-2.295
 21
2.25
 31
0.0
  0
LINE
  5
184
330
154
100
AcDbEntity
  8
AM_9
100
AcDbLine
 10
0.4123806733501189
 20
4.785
 30
0.0
 11
-0.4123806747594111
 21
4.785
 31
0.0
  0
ARC
  5
185
330
154
100
AcDbEntity
  8
AM_9
100
AcDbCircle
 10
-0.4123806747594122
 20
4.719000000000001
 30
0.0
 40
0.0659999999999989
100
AcDbArc
 50
90.0
 51
171.0000000000005
  0
ARC
  5
186
330
154
100
AcDbEntity
  8
AM_9
100
AcDbCircle
 10
0.4123806747594122
 20
4.719000000000001
 30
0.0
 40
0.0659999999999987
100
AcDbArc
 50
8.999999999999496
 51
90.0
  0
LINE
  5
187
330
154
100
AcDbEntity
  8
AM_9
100
AcDbLine
 10
-0.4775681052386901
 20
4.729324674692656
 30
0.0
 11
-0.6005020030957008
 21
3.953150590893047
 31
0.0
  0
LINE
  5
188
330
154
100
AcDbEntity
  8
AM_9
100
AcDbLine
 10
0.6005020030957008
 20
3.953150590893047
 30
0.0
 11
0.4775681052386901
 21
4.729324674692656
 31
0.0
  0
LINE
  5
189
330
154
100
AcDbEntity
  8
AM_9
100
AcDbLine
 10
0.4775681052386901
 20
4.729324674692656
 30
0.0
 11
-0.4775681052386901
 21
4.729324674692656
 31
0.0
  0
LWPOLYLINE
  5
18A
330
154
100
AcDbEntity
  8
AM_9
100
AcDbPolyline
 90
       20
 70
     0
 43
0.0
 10
-2.955
 20
2.0
 10
-2.95051874615201
 20
1.999265478643689
 10
-2.936688652962386
 20
1.997060293627988
 10
-2.914700674576634
 20
1.993746844724815
 10
-2.883947405595885
 20
1.989510934592932
 10
-2.846634433325684
 20
1.984999199505027
 10
-2.801908663540032
 20
1.98050414673525
 10
-2.753168717127445
 20
1.976746625152069
 10
-2.69921703860477
 20
1.973982818775093
 10
-2.645156612708378
 20
1.972690114801581
 10
-2.58891545846734
 20
1.97291715338927
 10
-2.535820758668002
 20
1.974601969280024
 10
-2.483760083321872
 20
1.977637154298848
 10
-2.436812680189641
 20
1.981543455828664
 10
-2.39387528964843
 20
1.986081224858414
 10
-2.358056763062944
 20
1.990567429590476
 10
-2.328887798241607
 20
1.994688556148604
 10
-2.30881837295428
 20
1.997766458143013
 10
-2.297315356493644
 20
1.999619270158669
 10
-2.295000000001198
 20
1.999999999999802
  0
LWPOLYLINE
  5
18B
330
154
100
AcDbEntity
  8
AM_9
100
AcDbPolyline
 90
       20
 70
     0
 43
0.0
 10
2.295
 20
2.0
 10
2.29948125384799
 20
1.999265478643689
 10
2.313311347037614
 20
1.997060293627988
 10
2.335299325423366
 20
1.993746844724815
 10
2.366052594404115
 20
1.989510934592932
 10
2.403365566674317
 20
1.984999199505027
 10
2.448091336459969
 20
1.98050414673525
 10
2.496831282872555
 20
1.976746625152069
 10
2.55078296139523
 20
1.973982818775093
 10
2.604843387291622
 20
1.972690114801581
 10
2.66108454153266
 20
1.972917153389271
 10
2.714179241331998
 20
1.974601969280024
 10
2.766239916678128
 20
1.977637154298848
 10
2.813187319810359
 20
1.981543455828664
 10
2.85612471035157
 20
1.986081224858414
 10
2.891943236937057
 20
1.990567429590476
 10
2.921112201758393
 20
1.994688556148604
 10
2.941181627045721
 20
1.997766458143013
 10
2.952684643506355
 20
1.999619270158669
 10
2.954999999998802
 20
1.999999999999802
  0
LWPOLYLINE
  5
18C
330
154
100
AcDbEntity
  8
AM_9
100
AcDbPolyline
 90
        5
 70
     0
 43
0.0
 10
2.342693023264032
 20
0.6872681749351157
 10
2.320626996714668
 20
0.7280386575088411
 10
2.303457360997091
 20
0.7773774487781188
 10
2.29560311243727
 20
0.8276440340592552
 10
2.295000001096718
 20
0.8452121399573194
  0
LWPOLYLINE
  5
18D
330
154
100
AcDbEntity
  8
AM_9
100
AcDbPolyline
 90
        6
 70
     0
 43
0.0
 10
2.474684913118839
 20
0.5698151672272539
 10
2.466323303057779
 20
0.5741420228142282
 10
2.420459409033967
 20
0.6034185676331684
 10
2.380015467026176
 20
0.6397201971822257
 10
2.346433442174547
 20
0.6815790304768328
 10
2.342693023264032
 20
0.6872681749351157
  0
LWPOLYLINE
  5
18E
330
154
100
AcDbEntity
  8
AM_9
100
AcDbPolyline
 90
        4
 70
     0
 43
0.0
 10
2.625
 20
0.5345697758501138
 10
2.570026900802711
 20
0.5391078089198418
 10
2.516613664562362
 20
0.552419220320992
 10
2.474684913118839
 20
0.5698151672272539
  0
LWPOLYLINE
  5
18F
330
154
100
AcDbEntity
  8
AM_9
100
AcDbPolyline
 90
       11
 70
     0
 43
0.0
 10
-2.625
 20
0.5345697758501138
 10
-2.679973099197289
 20
0.5391078089198418
 10
-2.733386335437638
 20
0.552419220320992
 10
-2.783676696942221
 20
0.574142022814228
 10
-2.829540590966032
 20
0.6034185676331681
 10
-2.869984532973824
 20
0.6397201971822254
 10
-2.903566557825453
 20
0.6815790304768325
 10
-2.929373003285332
 20
0.7280386575088409
 10
-2.946542639002909
 20
0.7773774487781187
 10
-2.95439688756273
 20
0.8276440340592552
 10
-2.954999998903282
 20
0.8452121399573194
  0
LINE
  5
190
330
154
100
AcDbEntity
  8
AM_9
100
AcDbLine
 10
3.125
 20
2.0
 30
0.0
 11
2.955
 21
2.0
 31
0.0
  0
LINE
  5
191
330
154
100
AcDbEntity
  8
AM_9
100
AcDbLine
 10
2.294999999999999
 20
2.0
 30
0.0
 11
-2.295
 21
2.0
 31
0.0
  0
LINE
  5
192
330
154
100
AcDbEntity
  8
AM_9
100
AcDbLine
 10
-2.955000000000001
 20
2.0
 30
0.0
 11
-3.124999999999999
 21
2.0
 31
0.0
  0
LINE
  5
193
330
154
100
AcDbEntity
  8
AM_9
100
AcDbLine
 10
-3.124999999999999
 20
-2.0
 30
0.0
 11
3.125
 21
-2.0
 31
0.0
  0
LWPOLYLINE
  5
194
330
154
100
AcDbEntity
  8
AM_9
100
AcDbPolyline
 90
        3
 70
     0
 43
0.0
 10
2.950199010693241
 20
0.899764735066857
 10
2.954421562493002
 20
0.9336854096388378
 10
2.954999998805263
 20
0.9508656390812037
  0
LWPOLYLINE
  5
195
330
154
100
AcDbEntity
  8
AM_9
100
AcDbPolyline
 90
       10
 70
     0
 43
0.0
 10
2.625
 20
0.6415265571449762
 10
2.680062261214315
 20
0.6460418247264762
 10
2.733564345510763
 20
0.6592930070427678
 10
2.783943696294787
 20
0.6809344250376754
 10
2.829879477737553
 20
0.7101253979294719
 10
2.870296235998819
 20
0.7462817108212859
 10
2.90383300116073
 20
0.7879978272721648
 10
2.929546066386122
 20
0.8342696352803073
 10
2.946629471052651
 20
0.8834438071145081
 10
2.950199010693241
 20
0.899764735066857
  0
LINE
  5
196
330
154
100
AcDbEntity
  8
AM_9
100
AcDbLine
 10
3.125
 20
2.25
 30
0.0
 11
2.955
 21
2.25
 31
0.0
  0
LINE
  5
197
330
154
100
AcDbEntity
  8
AM_9
100
AcDbLine
 10
2.295
 20
2.25
 30
0.0
 11
2.075
 21
2.25
 31
0.0
  0
LINE
  5
198
330
154
100
AcDbEntity
  8
AM_9
100
AcDbLine
 10
2.375
 20
-2.25
 30
0.0
 11
3.125
 21
-2.25
 31
0.0
  0
LWPOLYLINE
  5
199
330
154
100
AcDbEntity
  8
AM_9
100
AcDbPolyline
 90
        5
 70
     0
 43
0.0
 10
2.374413594884886
 20
2.239730686138071
 10
2.347560291513556
 20
2.24289384319567
 10
2.321748089825615
 20
2.246232784246641
 10
2.303959843990017
 20
2.248703355663195
 10
2.295
 20
2.25
  0
LWPOLYLINE
  5
19A
330
154
100
AcDbEntity
  8
AM_9
100
AcDbPolyline
 90
       17
 70
     0
 43
0.0
 10
2.954999999999317
 20
2.2499999999999
 10
2.954594527925824
 20
2.249940566512513
 10
2.947065958760096
 20
2.248850035416337
 10
2.930942229525777
 20
2.246597571397068
 10
2.905771033774173
 20
2.243308354508273
 10
2.873394136882296
 20
2.239486469536599
 10
2.833039637251267
 20
2.235370325173804
 10
2.787662023038995
 20
2.231604564823065
 10
2.736221654770109
 20
2.228445704182581
 10
2.683247997121236
 20
2.226430512989039
 10
2.627007439299181
 20
2.225669344222663
 10
2.572822708181572
 20
2.226279962129989
 10
2.518580002600196
 20
2.228211214370526
 10
2.468843560586426
 20
2.231139805922149
 10
2.422137209845148
 20
2.234894474383391
 10
2.3819428139848
 20
2.238900800766668
 10
2.374413594884886
 20
2.239730686138071
  0
LWPOLYLINE
  5
19B
330
154
100
AcDbEntity
  8
AM_9
100
AcDbPolyline
 90
        3
 70
     0
 43
0.0
 10
-2.299800989306759
 20
0.8997647350668568
 10
-2.295578437506997
 20
0.9336854096388378
 10
-2.295000001194736
 20
0.9508656390812036
  0
LWPOLYLINE
  5
19C
330
154
100
AcDbEntity
  8
AM_9
100
AcDbPolyline
 90
        5
 70
     0
 43
0.0
 10
-2.374552779353311
 20
0.7517912401400236
 10
-2.34616699883927
 20
0.787997827272165
 10
-2.320453933613878
 20
0.8342696352803076
 10
-2.303370528947349
 20
0.8834438071145082
 10
-2.299800989306759
 20
0.8997647350668568
  0
LWPOLYLINE
  5
19D
330
154
100
AcDbEntity
  8
AM_9
100
AcDbPolyline
 90
        4
 70
     0
 43
0.0
 10
-2.455295581299591
 20
0.6868350773913305
 10
-2.420120522262447
 20
0.7101253979294719
 10
-2.379703764001181
 20
0.7462817108212859
 10
-2.374552779353311
 20
0.7517912401400236
  0
LWPOLYLINE
  5
19E
330
154
100
AcDbEntity
  8
AM_9
100
AcDbPolyline
 90
        3
 70
     0
 43
0.0
 10
-2.474677574658997
 20
0.676501399196909
 10
-2.466056303705213
 20
0.6809344250376754
 10
-2.455295581299591
 20
0.6868350773913305
  0
LWPOLYLINE
  5
19F
330
154
100
AcDbEntity
  8
AM_9
100
AcDbPolyline
 90
        4
 70
     0
 43
0.0
 10
-2.625
 20
0.6415265571449762
 10
-2.569937738785685
 20
0.6460418247264762
 10
-2.516435654489237
 20
0.6592930070427678
 10
-2.474677574658997
 20
0.676501399196909
  0
LINE
  5
1A0
330
154
100
AcDbEntity
  8
AM_9
100
AcDbLine
 10
-2.075
 20
2.25
 30
0.0
 11
-2.295
 21
2.25
 31
0.0
  0
LINE
  5
1A1
330
154
100
AcDbEntity
  8
AM_9
100
AcDbLine
 10
-2.955
 20
2.25
 30
0.0
 11
-3.125
 21
2.25
 31
0.0
  0
LINE
  5
1A2
330
154
100
AcDbEntity
  8
AM_9
100
AcDbLine
 10
-3.125
 20
-2.25
 30
0.0
 11
-2.375
 21
-2.25
 31
0.0
  0
LWPOLYLINE
  5
1A3
330
154
100
AcDbEntity
  8
AM_9
100
AcDbPolyline
 90
       16
 70
     0
 43
0.0
 10
-2.374839390748027
 20
2.239683087050782
 10
-2.376605863117704
 20
2.239486469536599
 10
-2.416960362748733
 20
2.235370325173804
 10
-2.462337976961005
 20
2.231604564823065
 10
-2.513778345229891
 20
2.228445704182581
 10
-2.566752002878764
 20
2.226430512989039
 10
-2.622992560700819
 20
2.225669344222663
 10
-2.677177291818428
 20
2.226279962129989
 10
-2.731419997399804
 20
2.228211214370526
 10
-2.781156439413574
 20
2.231139805922149
 10
-2.827862790154851
 20
2.234894474383391
 10
-2.8680571860152
 20
2.238900800766668
 10
-2.902439708486444
 20
2.242893843195671
 10
-2.928251910174386
 20
2.246232784246641
 10
-2.946040156009982
 20
2.248703355663195
 10
-2.955
 20
2.25
  0
LWPOLYLINE
  5
1A4
330
154
100
AcDbEntity
  8
AM_9
100
AcDbPolyline
 90
        6
 70
     0
 43
0.0
 10
-2.295000000000684
 20
2.2499999999999
 10
-2.295405472074176
 20
2.249940566512513
 10
-2.302934041239904
 20
2.248850035416337
 10
-2.319057770474222
 20
2.246597571397068
 10
-2.344228966225827
 20
2.243308354508273
 10
-2.374839390748027
 20
2.239683087050782
  0
LINE
  5
1A5
330
154
100
AcDbEntity
  8
AM_9
100
AcDbLine
 10
2.075
 20
-3.076923076923077
 30
0.0
 11
2.075
 21
3.076923076923077
 31
0.0
  0
LINE
  5
1A6
330
154
100
AcDbEntity
  8
AM_9
100
AcDbLine
 10
2.075
 20
-3.076923076923077
 30
0.0
 11
2.25
 21
-3.107780298547058
 31
0.0
  0
LINE
  5
1A7
330
154
100
AcDbEntity
  8
AM_9
100
AcDbLine
 10
2.25
 20
3.107780298547058
 30
0.0
 11
2.075
 21
3.076923076923077
 31
0.0
  0
LINE
  5
1A8
330
154
100
AcDbEntity
  8
AM_9
100
AcDbLine
 10
-2.075
 20
3.076923076923078
 30
0.0
 11
-2.25
 21
3.107780298547059
 31
0.0
  0
LINE
  5
1A9
330
154
100
AcDbEntity
  8
AM_9
100
AcDbLine
 10
-2.25
 20
-3.107780298547059
 30
0.0
 11
-2.075
 21
-3.076923076923078
 31
0.0
  0
LINE
  5
1AA
330
154
100
AcDbEntity
  8
AM_9
100
AcDbLine
 10
-2.075
 20
3.076923076923078
 30
0.0
 11
-2.075
 21
-3.076923076923078
 31
0.0
  0
LINE
  5
1AB
330
154
100
AcDbEntity
  8
AM_9
100
AcDbLine
 10
2.184000000000001
 20
3.719
 30
0.0
 11
1.1875
 21
3.719
 31
0.0
  0
LINE
  5
1AC
330
154
100
AcDbEntity
  8
AM_9
100
AcDbLine
 10
1.1875
 20
-3.719
 30
0.0
 11
2.184000000000001
 21
-3.719
 31
0.0
  0
LINE
  5
1AD
330
154
100
AcDbEntity
  8
AM_9
100
AcDbLine
 10
2.25
 20
-3.653000000983476
 30
0.0
 11
2.25
 21
3.653000000983476
 31
0.0
  0
ARC
  5
1AE
330
154
100
AcDbEntity
  8
AM_9
100
AcDbCircle
 10
2.184
 20
3.653
 30
0.0
 40
0.0660000000000003
100
AcDbArc
 50
0.0
 51
90.0
  0
ARC
  5
1AF
330
154
100
AcDbEntity
  8
AM_9
100
AcDbCircle
 10
2.184
 20
-3.653
 30
0.0
 40
0.0660000000000003
100
AcDbArc
 50
270.0
 51
0.0
  0
LINE
  5
1B0
330
154
100
AcDbEntity
  8
AM_9
100
AcDbLine
 10
2.184000000000001
 20
-3.719
 30
0.0
 11
2.184000000000001
 21
3.719
 31
0.0
  0
LINE
  5
1B1
330
154
100
AcDbEntity
  8
AM_9
100
AcDbLine
 10
-1.1875
 20
3.78125
 30
0.0
 11
-2.184
 21
3.78125
 31
0.0
  0
LINE
  5
1B2
330
154
100
AcDbEntity
  8
AM_9
100
AcDbLine
 10
-2.184
 20
-3.78125
 30
0.0
 11
-1.1875
 21
-3.78125
 31
0.0
  0
LINE
  5
1B3
330
154
100
AcDbEntity
  8
AM_9
100
AcDbLine
 10
-2.25
 20
-3.715250000000001
 30
0.0
 11
-2.25
 21
3.715250000000001
 31
0.0
  0
ARC
  5
1B4
330
154
100
AcDbEntity
  8
AM_9
100
AcDbCircle
 10
-2.183999999999999
 20
3.71525
 30
0.0
 40
0.0660000000000003
100
AcDbArc
 50
90.0
 51
180.0
  0
ARC
  5
1B5
330
154
100
AcDbEntity
  8
AM_9
100
AcDbCircle
 10
-2.183999999999999
 20
-3.71525
 30
0.0
 40
0.0660000000000007
100
AcDbArc
 50
180.0
 51
270.0
  0
LINE
  5
1B6
330
154
100
AcDbEntity
  8
AM_9
100
AcDbLine
 10
-2.184
 20
-3.78125
 30
0.0
 11
-2.184
 21
3.78125
 31
0.0
  0
LINE
  5
1B7
330
154
100
AcDbEntity
  8
AM_9
100
AcDbLine
 10
1.1875
 20
3.6133333514
 30
0.0
 11
1.1875
 21
3.818094550950775
 31
0.0
  0
LINE
  5
1B8
330
154
100
AcDbEntity
  8
AM_9
100
AcDbLine
 10
-1.1875
 20
3.6133333514
 30
0.0
 11
-1.1875
 21
3.818094550950774
 31
0.0
  0
ARC
  5
1B9
330
154
100
AcDbEntity
  8
AM_9
100
AcDbCircle
 10
0.0000000000000075
 20
0.0000000000000364
 30
0.0
 40
3.998499999999963
100
AcDbArc
 50
72.72331289740532
 51
81.36253662352397
  0
ARC
  5
1BA
330
154
100
AcDbEntity
  8
AM_9
100
AcDbCircle
 10
-0.0000000000004714
 20
0.0000000000020592
 30
0.0
 40
3.998499999997893
100
AcDbArc
 50
98.63746337647376
 51
107.2766871025969
  0
ARC
  5
1BB
330
154
100
AcDbEntity
  8
AM_9
100
AcDbCircle
 10
0.0000000000000017
 20
0.0000000000001594
 30
0.0
 40
3.998500000000145
100
AcDbArc
 50
252.723312897406
 51
287.2766871025939
  0
LINE
  5
1BC
330
154
100
AcDbEntity
  8
AM_9
100
AcDbLine
 10
1.1875
 20
-3.818094550950768
 30
0.0
 11
1.1875
 21
-2.25
 31
0.0
  0
LINE
  5
1BD
330
154
100
AcDbEntity
  8
AM_9
100
AcDbLine
 10
0.6005020030957025
 20
3.953150590893047
 30
0.0
 11
-0.600502003095699
 21
3.953150590893047
 31
0.0
  0
LINE
  5
1BE
330
154
100
AcDbEntity
  8
AM_9
100
AcDbLine
 10
-1.1875
 20
-3.818094550950767
 30
0.0
 11
-1.1875
 21
-2.25
 31
0.0
  0
LINE
  5
1C1
330
154
100
AcDbEntity
  8
AM_7
100
AcDbLine
 10
3.4375
 20
0.0
 30
0.0
 11
-3.437499999999998
 21
0.0
 31
0.0
  0
LINE
  5
1C2
330
154
100
AcDbEntity
  8
AM_7
100
AcDbLine
 10
2.625
 20
-0.15
 30
0.0
 11
2.625
 21
3.149999999999999
 31
0.0
  0
LINE
  5
1C3
330
154
100
AcDbEntity
  8
AM_7
100
AcDbLine
 10
-2.625
 20
-0.15
 30
0.0
 11
-2.625
 21
3.149999999999999
 31
0.0
  0
ENDBLK
  5
157
330
154
100
AcDbEntity
  8
0
100
AcDbBlockEnd
  0
BLOCK
  5
1C6
330
1C4
100
AcDbEntity
  8
0
100
AcDbBlockBegin
  2
6_060751_0_in_023363_2
 70
     2
 10
0.0
 20
0.0
 30
0.0
  3
6_060751_0_in_023363_2
  1

  0
ATTDEF
  5
1C8
330
1C4
100
AcDbEntity
  8
AM_6
100
AcDbText
 10
7.475000000000001
 20
7.863999748229982
 30
0.0
 40
0.5
  1
H2S-K/DI (H2S-K/DI-E) and H4S-K/DI (H4S-K/DI-E)-Inch
100
AcDbAttributeDefinition
  3

  2
NN
 70
     8
280
     0
  0
ATTDEF
  5
1C9
330
1C4
100
AcDbEntity
  8
AM_6
100
AcDbText
 10
7.475000000000001
 20
7.363999748229982
 30
0.0
 40
0.5
  1
Double-Interlock 2 Bolt and 4 Bolt Pillow Block Bearings
100
AcDbAttributeDefinition
  3

  2
NT
 70
     8
280
     0
  0
ATTDEF
  5
1CA
330
1C4
100
AcDbEntity
  8
AM_6
100
AcDbText
 10
7.475000000000001
 20
6.863999748229982
 30
0.0
 40
0.5
  1
060751
100
AcDbAttributeDefinition
  3

  2
NB
 70
     8
280
     0
  0
ATTDEF
  5
1CB
330
1C4
100
AcDbEntity
  8
AM_6
100
AcDbText
 10
7.475000000000001
 20
6.363999748229982
 30
0.0
 40
0.5
  1
$PN.
100
AcDbAttributeDefinition
  3

  2
NBSYN
 70
     8
280
     0
  0
ATTDEF
  5
1CC
330
1C4
100
AcDbEntity
  8
AM_6
100
AcDbText
 10
7.475000000000001
 20
5.863999748229982
 30
0.0
 40
0.5
  1
060751
100
AcDbAttributeDefinition
  3

  2
LINA
 70
     8
280
     0
  0
ATTDEF
  5
1CD
330
1C4
100
AcDbEntity
  8
AM_6
100
AcDbText
 10
7.475000000000001
 20
5.363999748229982
 30
0.0
 40
0.5
  1
060751
100
AcDbAttributeDefinition
  3

  2
PN
 70
     8
280
     0
  0
ATTDEF
  5
1CE
330
1C4
100
AcDbEntity
  8
AM_6
100
AcDbText
 10
7.475000000000001
 20
4.863999748229982
 30
0.0
 40
0.5
  1
H4S-K/DI-315 (315-400)
100
AcDbAttributeDefinition
  3

  2
DESCRIPTION
 70
     8
280
     0
  0
ATTDEF
  5
1CF
330
1C4
100
AcDbEntity
  8
AM_6
100
AcDbText
 10
7.475000000000001
 20
4.363999748229982
 30
0.0
 40
0.5
  1
Non-Expansion Type
100
AcDbAttributeDefinition
  3

  2
EF
 70
     8
280
     0
  0
ATTDEF
  5
1D0
330
1C4
100
AcDbEntity
  8
AM_6
100
AcDbText
 10
7.475000000000001
 20
3.863999748229982
 30
0.0
 40
0.5
  1
6.25
100
AcDbAttributeDefinition
  3

  2
A
 70
     8
280
     0
  0
ATTDEF
  5
1D1
330
1C4
100
AcDbEntity
  8
AM_6
100
AcDbText
 10
7.475000000000001
 20
3.363999748229982
 30
0.0
 40
0.5
  1
17.44
100
AcDbAttributeDefinition
  3

  2
B
 70
     8
280
     0
  0
ATTDEF
  5
1D2
330
1C4
100
AcDbEntity
  8
AM_6
100
AcDbText
 10
7.475000000000001
 20
2.863999748229982
 30
0.0
 40
0.5
  1
4.75
100
AcDbAttributeDefinition
  3

  2
C
 70
     8
280
     0
  0
ATTDEF
  5
1D3
330
1C4
100
AcDbEntity
  8
AM_6
100
AcDbText
 10
7.475000000000001
 20
2.363999748229982
 30
0.0
 40
0.5
  1
13.12
100
AcDbAttributeDefinition
  3

  2
DMIN
 70
     8
280
     0
  0
ATTDEF
  5
1D4
330
1C4
100
AcDbEntity
  8
AM_6
100
AcDbText
 10
7.475000000000001
 20
1.863999748229982
 30
0.0
 40
0.5
  1
14.75
100
AcDbAttributeDefinition
  3

  2
DMAX
 70
     8
280
     0
  0
ATTDEF
  5
1D5
330
1C4
100
AcDbEntity
  8
AM_6
100
AcDbText
 10
7.475000000000001
 20
1.363999748229982
 30
0.0
 40
0.5
  1
2
100
AcDbAttributeDefinition
  3

  2
E
 70
     8
280
     0
  0
ATTDEF
  5
1D6
330
1C4
100
AcDbEntity
  8
AM_6
100
AcDbText
 10
7.475000000000001
 20
0.8639997482299817
 30
0.0
 40
0.5
  1
3/4
100
AcDbAttributeDefinition
  3

  2
F
 70
     8
280
     0
  0
ATTDEF
  5
1D7
330
1C4
100
AcDbEntity
  8
AM_6
100
AcDbText
 10
7.475000000000001
 20
0.3639997482299817
 30
0.0
 40
0.5
  1
1.70
100
AcDbAttributeDefinition
  3

  2
G
 70
     8
280
     0
  0
ATTDEF
  5
1D8
330
1C4
100
AcDbEntity
  8
AM_6
100
AcDbText
 10
7.475000000000001
 20
-0.1360002517700183
 30
0.0
 40
0.5
  1
2.75
100
AcDbAttributeDefinition
  3

  2
H
 70
     8
280
     0
  0
ATTDEF
  5
1D9
330
1C4
100
AcDbEntity
  8
AM_6
100
AcDbText
 10
7.475000000000001
 20
-0.6360002517700183
 30
0.0
 40
0.5
  1
10.42
100
AcDbAttributeDefinition
  3

  2
J
 70
     8
280
     0
  0
ATTDEF
  5
1DA
330
1C4
100
AcDbEntity
  8
AM_6
100
AcDbText
 10
7.475000000000001
 20
-1.136000251770018
 30
0.0
 40
0.5
  1
6.00
100
AcDbAttributeDefinition
  3

  2
L
 70
     8
280
     0
  0
ATTDEF
  5
1DB
330
1C4
100
AcDbEntity
  8
AM_6
100
AcDbText
 10
7.475000000000001
 20
-1.636000251770018
 30
0.0
 40
0.5
  1
5.00
100
AcDbAttributeDefinition
  3

  2
M
 70
     8
280
     0
  0
ATTDEF
  5
1DC
330
1C4
100
AcDbEntity
  8
AM_6
100
AcDbText
 10
7.475000000000001
 20
-2.136000251770018
 30
0.0
 40
0.5
  1
10.71
100
AcDbAttributeDefinition
  3

  2
P
 70
     8
280
     0
  0
ATTDEF
  5
1DD
330
1C4
100
AcDbEntity
  8
AM_6
100
AcDbText
 10
7.475000000000001
 20
-2.636000251770018
 30
0.0
 40
0.5
  1
baldor
100
AcDbAttributeDefinition
  3

  2
COMPANY
 70
     8
280
     0
  0
LINE
  5
1DE
330
1C4
100
AcDbEntity
  8
AM_9
100
AcDbLine
 10
-1.12455
 20
5.519999999999999
 30
0.0
 11
-1.12455
 21
5.42
 31
0.0
  0
LINE
  5
1DF
330
1C4
100
AcDbEntity
  8
AM_9
100
AcDbLine
 10
0.2677499840408554
 20
5.519999999999999
 30
0.0
 11
0.2677499840408553
 21
5.42
 31
0.0
  0
LINE
  5
1E0
330
1C4
100
AcDbEntity
  8
AM_9
100
AcDbLine
 10
-1.1875
 20
5.42
 30
0.0
 11
-1.1875
 21
3.9985
 31
0.0
  0
LINE
  5
1E1
330
1C4
100
AcDbEntity
  8
AM_9
100
AcDbLine
 10
1.1875
 20
3.9985
 30
0.0
 11
1.1875
 21
5.42
 31
0.0
  0
LWPOLYLINE
  5
1E2
330
1C4
100
AcDbEntity
  8
AM_9
100
AcDbPolyline
 90
       39
 70
     0
 43
0.0
 10
-1.1875
 20
3.9985
 10
-1.18358669799115
 20
3.997337851826939
 10
-1.171911016382055
 20
3.993898024526618
 10
-1.151851776511173
 20
3.988056643589045
 10
-1.123847396789476
 20
3.980060171815305
 10
-1.0892607712944
 20
3.970431661696841
 10
-1.047674547353055
 20
3.959225676463951
 10
-0.9979394063365082
 20
3.946356042383455
 10
-0.9414859869696849
 20
3.932460026962802
 10
-0.8788190805958156
 20
3.917929547502494
 10
-0.8102454021660872
 20
3.903119728080511
 10
-0.7340393837384105
 20
3.888016340640622
 10
-0.6525322026418638
 20
3.87345379157731
 10
-0.5668497040787668
 20
3.859946226956297
 10
-0.4770090177086121
 20
3.847776449194435
 10
-0.3806751543400003
 20
3.83702932681802
 10
-0.2812723969051222
 20
3.828440957003354
 10
-0.1853926196634642
 20
3.822597424686143
 10
-0.0881475764112372
 20
3.819111938033131
 10
0.0128183144239429
 20
3.818121583029293
 10
0.1136829507915582
 20
3.819786618817951
 10
0.2073533111481821
 20
3.82372475657046
 10
0.2996017049722853
 20
3.829831221036026
 10
0.3923300810863525
 20
3.838202043496545
 10
0.4822871360214626
 20
3.848434341595525
 10
0.567723930278816
 20
3.860074236147497
 10
0.6493831824435228
 20
3.872924543241254
 10
0.728785576118401
 20
3.887027743287813
 10
0.8032204943059202
 20
3.901667484867598
 10
0.8730810772238544
 20
3.916646519114926
 10
0.9369410842691971
 20
3.931374390132735
 10
0.9959105841353174
 20
3.945843444232715
 10
1.047660936317611
 20
3.959222074787659
 10
1.090849808255423
 20
3.970867715652425
 10
1.126424881894935
 20
3.98078874276845
 10
1.154793248282683
 20
3.988906882003224
 10
1.174487414923417
 20
3.994654764533913
 10
1.184855779306134
 20
3.997713754132468
 10
1.187499999999224
 20
3.998499999999769
  0
LINE
  5
1E3
330
1C4
100
AcDbEntity
  8
AM_9
100
AcDbLine
 10
2.261904761904762
 20
3.9985
 30
0.0
 11
1.1875
 21
3.9985
 31
0.0
  0
LINE
  5
1E4
330
1C4
100
AcDbEntity
  8
AM_9
100
AcDbLine
 10
-1.187500000000001
 20
3.9985
 30
0.0
 11
-2.261904761904762
 21
3.9985
 31
0.0
  0
LINE
  5
1E5
330
1C4
100
AcDbEntity
  8
AM_9
100
AcDbLine
 10
-2.261904761904762
 20
-3.9985
 30
0.0
 11
2.261904761904762
 21
-3.9985
 31
0.0
  0
LWPOLYLINE
  5
1E6
330
1C4
100
AcDbEntity
  8
AM_9
100
AcDbPolyline
 90
        3
 70
     0
 43
0.0
 10
-1.69935438363113
 20
3.688864578975648
 10
-1.735961350949072
 20
3.662590103687804
 10
-1.797022067279839
 20
3.613333333333333
  0
LWPOLYLINE
  5
1E7
330
1C4
100
AcDbEntity
  8
AM_9
100
AcDbPolyline
 90
        9
 70
     0
 43
0.0
 10
-1.10876188356274
 20
3.843464120905975
 10
-1.171633464596855
 20
3.851832578921903
 10
-1.256364101960885
 20
3.852231054787902
 10
-1.343660624943044
 20
3.841127438158528
 10
-1.431113712799963
 20
3.819598444555979
 10
-1.517596173501674
 20
3.788313507777918
 10
-1.600394280123969
 20
3.748981894511035
 10
-1.670233980135565
 20
3.708113669364874
 10
-1.69935438363113
 20
3.688864578975648
  0
LWPOLYLINE
  5
1E8
330
1C4
100
AcDbEntity
  8
AM_9
100
AcDbPolyline
 90
       12
 70
     0
 43
0.0
 10
1.700114427445845
 20
3.68834294085538
 10
1.69991441161447
 20
3.688480310720573
 10
1.645992725884848
 20
3.723145857933925
 10
1.589418045987898
 20
3.754747764198679
 10
1.496130776859395
 20
3.797017267339705
 10
1.396009687445984
 20
3.829479173203183
 10
1.346339977194254
 20
3.840657346235269
 10
1.296681898366715
 20
3.848475313438258
 10
1.24556315159418
 20
3.852819193378013
 10
1.195487571028377
 20
3.853188438724661
 10
1.14253500574444
 20
3.848931250905697
 10
1.109043050802829
 20
3.843519373485413
  0
LINE
  5
1E9
330
1C4
100
AcDbEntity
  8
AM_9
100
AcDbLine
 10
1.79702206727984
 20
3.613333333333333
 30
0.0
 11
1.700114427445845
 21
3.68834294085538
 31
0.0
  0
LINE
  5
1EA
330
1C4
100
AcDbEntity
  8
AM_9
100
AcDbLine
 10
-2.261904761904762
 20
-4.212702702702702
 30
0.0
 11
-2.261904761904762
 21
4.212702702702702
 31
0.0
  0
ARC
  5
1EB
330
1C4
100
AcDbEntity
  8
AM_9
100
AcDbCircle
 10
-2.37190476190476
 20
4.212702702702704
 30
0.0
 40
0.1099999999999981
100
AcDbArc
 50
0.0
 51
90.0
  0
ARC
  5
1EC
330
1C4
100
AcDbEntity
  8
AM_9
100
AcDbCircle
 10
-2.371904761904761
 20
-4.212702702702703
 30
0.0
 40
0.1099999999999994
100
AcDbArc
 50
270.0
 51
0.0
  0
LINE
  5
1ED
330
1C4
100
AcDbEntity
  8
AM_9
100
AcDbLine
 10
2.261904761904762
 20
-4.212702704341832
 30
0.0
 11
2.261904761904762
 21
4.212702704341832
 31
0.0
  0
ARC
  5
1EE
330
1C4
100
AcDbEntity
  8
AM_9
100
AcDbCircle
 10
2.37190476190476
 20
4.212702702702705
 30
0.0
 40
0.1099999999999977
100
AcDbArc
 50
90.0
 51
180.0
  0
ARC
  5
1EF
330
1C4
100
AcDbEntity
  8
AM_9
100
AcDbCircle
 10
2.37190476190476
 20
-4.212702702702705
 30
0.0
 40
0.1099999999999981
100
AcDbArc
 50
180.0
 51
270.0
  0
LINE
  5
1F0
330
1C4
100
AcDbEntity
  8
AM_9
100
AcDbLine
 10
-2.371904761904761
 20
-4.322702702702703
 30
0.0
 11
-2.371904761904761
 21
4.322702702702703
 31
0.0
  0
LINE
  5
1F1
330
1C4
100
AcDbEntity
  8
AM_9
100
AcDbLine
 10
-2.371904761904761
 20
4.322702702702703
 30
0.0
 11
-2.375
 21
4.322702702702703
 31
0.0
  0
LINE
  5
1F2
330
1C4
100
AcDbEntity
  8
AM_9
100
AcDbLine
 10
-2.375
 20
-4.322702702702703
 30
0.0
 11
-2.371904761904761
 21
-4.322702702702703
 31
0.0
  0
LINE
  5
1F3
330
1C4
100
AcDbEntity
  8
AM_9
100
AcDbLine
 10
2.371904761904761
 20
-4.322702702702703
 30
0.0
 11
2.371904761904761
 21
4.322702702702703
 31
0.0
  0
LINE
  5
1F4
330
1C4
100
AcDbEntity
  8
AM_9
100
AcDbLine
 10
2.375
 20
4.322702702702703
 30
0.0
 11
2.371904761904761
 21
4.322702702702703
 31
0.0
  0
LINE
  5
1F5
330
1C4
100
AcDbEntity
  8
AM_9
100
AcDbLine
 10
2.371904761904761
 20
-4.322702702702703
 30
0.0
 11
2.375
 21
-4.322702702702703
 31
0.0
  0
LINE
  5
1F6
330
1C4
100
AcDbEntity
  8
AM_9
100
AcDbLine
 10
1.442499999999999
 20
-2.25
 30
0.0
 11
1.442499999999999
 21
-5.0
 31
0.0
  0
LINE
  5
1F7
330
1C4
100
AcDbEntity
  8
AM_9
100
AcDbLine
 10
0.5574999999999998
 20
-2.25
 30
0.0
 11
0.5574999999999998
 21
-5.0
 31
0.0
  0
LINE
  5
1F8
330
1C4
100
AcDbEntity
  8
AM_9
100
AcDbLine
 10
-0.5575000000000014
 20
-2.25
 30
0.0
 11
-0.5575000000000014
 21
-5.0
 31
0.0
  0
LINE
  5
1F9
330
1C4
100
AcDbEntity
  8
AM_9
100
AcDbLine
 10
-1.442499999999997
 20
-2.25
 30
0.0
 11
-1.442499999999997
 21
-5.0
 31
0.0
  0
LINE
  5
1FA
330
1C4
100
AcDbEntity
  8
AM_7
100
AcDbLine
 10
1.484375
 20
3.530833333333333
 30
0.0
 11
1.484375
 21
3.695833333333333
 31
0.0
  0
LINE
  5
1FB
330
1C4
100
AcDbEntity
  8
AM_7
100
AcDbLine
 10
-1.484375
 20
3.530833333333333
 30
0.0
 11
-1.484375
 21
3.695833333333333
 31
0.0
  0
LINE
  5
1FC
330
1C4
100
AcDbEntity
  8
AM_7
100
AcDbLine
 10
0.0
 20
-0.396
 30
0.0
 11
0.0
 21
7.863999748229982
 31
0.0
  0
LINE
  5
1FD
330
1C4
100
AcDbEntity
  8
AM_4
100
AcDbLine
 10
-0.6105169619361416
 20
5.719999999999999
 30
0.0
 11
-0.6105169619361416
 21
5.519999999999999
 31
0.0
  0
LINE
  5
1FE
330
1C4
100
AcDbEntity
  8
AM_4
100
AcDbLine
 10
-0.7259870157740665
 20
5.719999999999999
 30
0.0
 11
-0.7259870157740665
 21
5.519999999999999
 31
0.0
  0
LINE
  5
1FF
330
1C4
100
AcDbEntity
  8
AM_4
100
AcDbLine
 10
-0.9569271234499169
 20
5.719999999999999
 30
0.0
 11
-0.9569271234499169
 21
5.519999999999999
 31
0.0
  0
LINE
  5
200
330
1C4
100
AcDbEntity
  8
AM_4
100
AcDbLine
 10
-1.072397177287842
 20
5.719999999999999
 30
0.0
 11
-0.6105169619361416
 21
5.719999999999999
 31
0.0
  0
LINE
  5
201
330
1C4
100
AcDbEntity
  8
AM_4
100
AcDbLine
 10
-1.072397177287842
 20
5.719999999999999
 30
0.0
 11
-1.072397177287842
 21
5.519999999999999
 31
0.0
  0
LINE
  5
202
330
1C4
100
AcDbEntity
  8
AM_4
100
AcDbLine
 10
0.6105169619361416
 20
5.719999999999999
 30
0.0
 11
1.072397177287842
 21
5.719999999999999
 31
0.0
  0
LINE
  5
203
330
1C4
100
AcDbEntity
  8
AM_4
100
AcDbLine
 10
1.072397177287842
 20
5.719999999999999
 30
0.0
 11
1.072397177287842
 21
5.519999999999999
 31
0.0
  0
LINE
  5
204
330
1C4
100
AcDbEntity
  8
AM_4
100
AcDbLine
 10
0.9569271234499169
 20
5.719999999999999
 30
0.0
 11
0.9569271234499169
 21
5.519999999999999
 31
0.0
  0
LINE
  5
205
330
1C4
100
AcDbEntity
  8
AM_4
100
AcDbLine
 10
0.7259870157740665
 20
5.719999999999999
 30
0.0
 11
0.7259870157740665
 21
5.519999999999999
 31
0.0
  0
LINE
  5
206
330
1C4
100
AcDbEntity
  8
AM_4
100
AcDbLine
 10
0.6105169619361416
 20
5.719999999999999
 30
0.0
 11
0.6105169619361416
 21
5.519999999999999
 31
0.0
  0
LINE
  5
207
330
1C4
100
AcDbEntity
  8
AM_4
100
AcDbLine
 10
-0.2677500000000005
 20
5.519999999999999
 30
0.0
 11
-0.2677500000000005
 21
5.42
 31
0.0
  0
LINE
  5
208
330
1C4
100
AcDbEntity
  8
AM_4
100
AcDbLine
 10
-1.33875
 20
5.519999999999999
 30
0.0
 11
-1.33875
 21
5.42
 31
0.0
  0
LINE
  5
209
330
1C4
100
AcDbEntity
  8
AM_4
100
AcDbLine
 10
-1.33875
 20
5.519999999999999
 30
0.0
 11
1.33875
 21
5.519999999999999
 31
0.0
  0
LINE
  5
20A
330
1C4
100
AcDbEntity
  8
AM_4
100
AcDbLine
 10
1.33875
 20
5.519999999999999
 30
0.0
 11
1.33875
 21
5.42
 31
0.0
  0
LINE
  5
20B
330
1C4
100
AcDbEntity
  8
AM_4
100
AcDbLine
 10
1.12455
 20
5.519999999999999
 30
0.0
 11
1.12455
 21
5.42
 31
0.0
  0
LWPOLYLINE
  5
20C
330
1C4
100
AcDbEntity
  8
AM_4
100
AcDbPolyline
 90
       19
 70
     0
 43
0.0
 10
-2.031250000000001
 20
5.420000000000001
 10
-2.061209786569508
 20
5.418691927469038
 10
-2.090941561073008
 20
5.414777665097947
 10
-2.120219046753992
 20
5.408287002786867
 10
-2.148819424268199
 20
5.399269338395157
 10
-2.176525027473366
 20
5.387793301793849
 10
-2.203125
 20
5.373946232550901
 10
-2.228416899995672
 20
5.357833515224342
 10
-2.252208240829748
 20
5.33957777732215
 10
-2.274317956032876
 20
5.319317956032877
 10
-2.294577777322149
 20
5.297208240829749
 10
-2.312833515224341
 20
5.273416899995674
 10
-2.328946232550901
 20
5.248125000000003
 10
-2.342793301793848
 20
5.221525027473368
 10
-2.354269338395156
 20
5.193819424268201
 10
-2.363287002786867
 20
5.165219046753995
 10
-2.369777665097947
 20
5.135941561073011
 10
-2.373691927469038
 20
5.106209786569512
 10
-2.375
 20
5.076250000000003
  0
LWPOLYLINE
  5
20D
330
1C4
100
AcDbEntity
  8
AM_4
100
AcDbPolyline
 90
       19
 70
     0
 43
0.0
 10
2.375
 20
5.076250000000002
 10
2.373691927469038
 20
5.106209786569509
 10
2.369777665097947
 20
5.135941561073008
 10
2.363287002786867
 20
5.165219046753992
 10
2.354269338395156
 20
5.1938194242682
 10
2.342793301793849
 20
5.221525027473366
 10
2.328946232550901
 20
5.248125000000002
 10
2.312833515224341
 20
5.273416899995673
 10
2.29457777732215
 20
5.297208240829749
 10
2.274317956032877
 20
5.319317956032876
 10
2.252208240829749
 20
5.339577777322148
 10
2.228416899995673
 20
5.357833515224341
 10
2.203125000000001
 20
5.3739462325509
 10
2.176525027473367
 20
5.387793301793849
 10
2.148819424268201
 20
5.399269338395157
 10
2.120219046753994
 20
5.408287002786867
 10
2.090941561073009
 20
5.414777665097947
 10
2.06120978656951
 20
5.418691927469038
 10
2.031250000000003
 20
5.420000000000001
  0
LINE
  5
20E
330
1C4
100
AcDbEntity
  8
AM_4
100
AcDbLine
 10
2.03125
 20
5.42
 30
0.0
 11
-2.03125
 21
5.42
 31
0.0
  0
LINE
  5
20F
330
1C4
100
AcDbEntity
  8
AM_4
100
AcDbLine
 10
2.375
 20
5.076250000000002
 30
0.0
 11
1.237873193294812
 21
5.076250000000001
 31
0.0
  0
LINE
  5
210
330
1C4
100
AcDbEntity
  8
AM_4
100
AcDbLine
 10
-1.237873193294813
 20
5.076250000000001
 30
0.0
 11
-2.375
 21
5.07625
 31
0.0
  0
LINE
  5
211
330
1C4
100
AcDbEntity
  8
AM_4
100
AcDbLine
 10
-1.092107534898198
 20
5.118543957102701
 30
0.0
 11
-2.375
 21
4.752061559207751
 31
0.0
  0
LINE
  5
212
330
1C4
100
AcDbEntity
  8
AM_4
100
AcDbLine
 10
2.375
 20
4.752061559207751
 30
0.0
 11
1.092107534898199
 21
5.118543957102701
 31
0.0
  0
LINE
  5
213
330
1C4
100
AcDbEntity
  8
AM_4
100
AcDbLine
 10
1.092107534898199
 20
3.839887108490954
 30
0.0
 11
1.092107534898199
 21
5.118543957102701
 31
0.0
  0
LINE
  5
214
330
1C4
100
AcDbEntity
  8
AM_4
100
AcDbLine
 10
1.092107534898199
 20
5.118543957102701
 30
0.0
 11
-1.092107534898198
 21
5.118543957102701
 31
0.0
  0
LINE
  5
215
330
1C4
100
AcDbEntity
  8
AM_4
100
AcDbLine
 10
-1.092107534898216
 20
3.839887108490964
 30
0.0
 11
-1.092107534898198
 21
5.118543957102701
 31
0.0
  0
LINE
  5
216
330
1C4
100
AcDbEntity
  8
AM_4
100
AcDbLine
 10
-1.092107534898216
 20
3.839887108490964
 30
0.0
 11
-1.10876188356274
 21
3.843464120905975
 31
0.0
  0
LWPOLYLINE
  5
217
330
1C4
100
AcDbEntity
  8
AM_4
100
AcDbPolyline
 90
        6
 70
     0
 43
0.0
 10
-0.866102335898663
 20
3.613333351399999
 10
-0.8995824074665042
 20
3.663074814459139
 10
-0.9379472942895498
 20
3.710632105537017
 10
-0.9821031607912272
 20
3.756146723815911
 10
-1.031960743674587
 20
3.798545686341015
 10
-1.092107534898216
 20
3.839887108490965
  0
LWPOLYLINE
  5
218
330
1C4
100
AcDbEntity
  8
AM_4
100
AcDbPolyline
 90
        6
 70
     0
 43
0.0
 10
1.092107534898199
 20
3.839887108490954
 10
1.038275840794888
 20
3.803348063429337
 10
0.9890864147235197
 20
3.762605324496858
 10
0.9439657710061464
 20
3.717357227917982
 10
0.9037932207090207
 20
3.668733467379818
 10
0.8661023358986626
 20
3.613333351399999
  0
LINE
  5
219
330
1C4
100
AcDbEntity
  8
AM_4
100
AcDbLine
 10
1.109043050802829
 20
3.843519373485413
 30
0.0
 11
1.092107534898199
 21
3.839887108490954
 31
0.0
  0
LINE
  5
21A
330
1C4
100
AcDbEntity
  8
AM_4
100
AcDbLine
 10
-1.859375
 20
3.988333333333333
 30
0.0
 11
-1.109375
 21
3.988333333333333
 31
0.0
  0
LINE
  5
21B
330
1C4
100
AcDbEntity
  8
AM_4
100
AcDbLine
 10
-1.859375
 20
3.988333333333333
 30
0.0
 11
-1.859375
 21
3.688333333333333
 31
0.0
  0
LINE
  5
21C
330
1C4
100
AcDbEntity
  8
AM_4
100
AcDbLine
 10
1.109375
 20
3.988333333333333
 30
0.0
 11
1.859375
 21
3.988333333333333
 31
0.0
  0
LINE
  5
21D
330
1C4
100
AcDbEntity
  8
AM_4
100
AcDbLine
 10
1.109375
 20
3.988333333333333
 30
0.0
 11
1.109375
 21
3.688333333333333
 31
0.0
  0
LINE
  5
21E
330
1C4
100
AcDbEntity
  8
AM_4
100
AcDbLine
 10
-1.484375
 20
3.988333333333333
 30
0.0
 11
-1.484375
 21
3.688333333333333
 31
0.0
  0
LINE
  5
21F
330
1C4
100
AcDbEntity
  8
AM_4
100
AcDbLine
 10
-1.109375
 20
3.988333333333333
 30
0.0
 11
-1.109375
 21
3.688333333333333
 31
0.0
  0
LINE
  5
220
330
1C4
100
AcDbEntity
  8
AM_4
100
AcDbLine
 10
1.484375
 20
3.988333333333333
 30
0.0
 11
1.484375
 21
3.688333333333333
 31
0.0
  0
LINE
  5
221
330
1C4
100
AcDbEntity
  8
AM_4
100
AcDbLine
 10
1.859375
 20
3.988333333333333
 30
0.0
 11
1.859375
 21
3.688333333333333
 31
0.0
  0
LINE
  5
222
330
1C4
100
AcDbEntity
  8
AM_4
100
AcDbLine
 10
1.015625
 20
3.688333333333333
 30
0.0
 11
1.015625
 21
3.6133333514
 31
0.0
  0
LINE
  5
223
330
1C4
100
AcDbEntity
  8
AM_4
100
AcDbLine
 10
1.953125
 20
3.6133333514
 30
0.0
 11
1.953125
 21
3.688333333333333
 31
0.0
  0
LINE
  5
224
330
1C4
100
AcDbEntity
  8
AM_4
100
AcDbLine
 10
1.015625
 20
3.688333333333333
 30
0.0
 11
1.953125
 21
3.688333333333333
 31
0.0
  0
LINE
  5
225
330
1C4
100
AcDbEntity
  8
AM_4
100
AcDbLine
 10
-1.953125
 20
3.688333333333333
 30
0.0
 11
-1.953125
 21
3.6133333514
 31
0.0
  0
LINE
  5
226
330
1C4
100
AcDbEntity
  8
AM_4
100
AcDbLine
 10
-1.015625
 20
3.6133333514
 30
0.0
 11
-1.015625
 21
3.688333333333333
 31
0.0
  0
LINE
  5
227
330
1C4
100
AcDbEntity
  8
AM_4
100
AcDbLine
 10
-1.953125
 20
3.688333333333333
 30
0.0
 11
-1.015625
 21
3.688333333333333
 31
0.0
  0
LINE
  5
228
330
1C4
100
AcDbEntity
  8
AM_4
100
AcDbLine
 10
-0.5694141961293024
 20
0.6875
 30
0.0
 11
-0.5694141961293024
 21
0.0
 31
0.0
  0
LINE
  5
229
330
1C4
100
AcDbEntity
  8
AM_4
100
AcDbLine
 10
0.5694141858082594
 20
0.6875
 30
0.0
 11
0.5694141858082594
 21
0.0
 31
0.0
  0
LINE
  5
22A
330
1C4
100
AcDbEntity
  8
AM_4
100
AcDbLine
 10
-0.6732974165029951
 20
3.6133333514
 30
0.0
 11
-0.6732974165029952
 21
0.6874999999999997
 31
0.0
  0
LINE
  5
22B
330
1C4
100
AcDbEntity
  8
AM_4
100
AcDbLine
 10
-1.1875
 20
3.6133333514
 30
0.0
 11
-1.187499999999999
 21
-2.25
 31
0.0
  0
LINE
  5
22C
330
1C4
100
AcDbEntity
  8
AM_4
100
AcDbLine
 10
-0.6732974165029951
 20
0.0
 30
0.0
 11
-0.6732974165029951
 21
-2.25
 31
0.0
  0
LINE
  5
22D
330
1C4
100
AcDbEntity
  8
AM_4
100
AcDbLine
 10
0.6732974165029975
 20
0.0
 30
0.0
 11
0.6732974165029975
 21
-2.25
 31
0.0
  0
LINE
  5
22E
330
1C4
100
AcDbEntity
  8
AM_4
100
AcDbLine
 10
0.6732974165029975
 20
3.6133333514
 30
0.0
 11
0.6732974165029975
 21
0.6874999999999997
 31
0.0
  0
LINE
  5
22F
330
1C4
100
AcDbEntity
  8
AM_4
100
AcDbLine
 10
-1.781249999999999
 20
0.0
 30
0.0
 11
-1.781249999999999
 21
-2.25
 31
0.0
  0
LINE
  5
230
330
1C4
100
AcDbEntity
  8
AM_4
100
AcDbLine
 10
-2.375
 20
5.07625
 30
0.0
 11
-2.375
 21
0.6875000000000002
 31
0.0
  0
LINE
  5
231
330
1C4
100
AcDbEntity
  8
AM_4
100
AcDbLine
 10
-1.781249999999999
 20
3.6133333514
 30
0.0
 11
-1.781249999999999
 21
0.6874999999999997
 31
0.0
  0
LINE
  5
232
330
1C4
100
AcDbEntity
  8
AM_4
100
AcDbLine
 10
1.781249991152436
 20
0.0
 30
0.0
 11
1.781249991152436
 21
-2.25
 31
0.0
  0
LINE
  5
233
330
1C4
100
AcDbEntity
  8
AM_4
100
AcDbLine
 10
1.1875
 20
3.6133333514
 30
0.0
 11
1.1875
 21
-2.25
 31
0.0
  0
LINE
  5
234
330
1C4
100
AcDbEntity
  8
AM_4
100
AcDbLine
 10
1.781249991152436
 20
3.6133333514
 30
0.0
 11
1.781249991152436
 21
0.6874999999999997
 31
0.0
  0
LINE
  5
235
330
1C4
100
AcDbEntity
  8
AM_4
100
AcDbLine
 10
2.375
 20
5.076250000000002
 30
0.0
 11
2.375
 21
0.6875000000000002
 31
0.0
  0
LINE
  5
236
330
1C4
100
AcDbEntity
  8
AM_4
100
AcDbLine
 10
-2.375
 20
3.6133333514
 30
0.0
 11
2.375
 21
3.6133333514
 31
0.0
  0
LINE
  5
237
330
1C4
100
AcDbEntity
  8
AM_4
100
AcDbLine
 10
0.6475636788015763
 20
0.6875
 30
0.0
 11
0.6475636788015763
 21
0.0
 31
0.0
  0
LINE
  5
238
330
1C4
100
AcDbEntity
  8
AM_4
100
AcDbLine
 10
2.475000000000001
 20
0.6875
 30
0.0
 11
2.475000000000001
 21
0.0
 31
0.0
  0
LINE
  5
239
330
1C4
100
AcDbEntity
  8
AM_4
100
AcDbLine
 10
1.88125
 20
0.6875
 30
0.0
 11
1.88125
 21
0.0
 31
0.0
  0
LINE
  5
23A
330
1C4
100
AcDbEntity
  8
AM_4
100
AcDbLine
 10
-2.475
 20
0.0
 30
0.0
 11
2.475000000000001
 21
0.0
 31
0.0
  0
LINE
  5
23B
330
1C4
100
AcDbEntity
  8
AM_4
100
AcDbLine
 10
-2.475
 20
0.6875
 30
0.0
 11
2.475000000000001
 21
0.6875
 31
0.0
  0
LINE
  5
23C
330
1C4
100
AcDbEntity
  8
AM_4
100
AcDbLine
 10
-2.475
 20
0.6875
 30
0.0
 11
-2.475
 21
0.0
 31
0.0
  0
LINE
  5
23D
330
1C4
100
AcDbEntity
  8
AM_4
100
AcDbLine
 10
-1.88125
 20
0.6875
 30
0.0
 11
-1.88125
 21
0.0
 31
0.0
  0
LINE
  5
23E
330
1C4
100
AcDbEntity
  8
AM_4
100
AcDbLine
 10
-0.64756367731758
 20
0.6875
 30
0.0
 11
-0.64756367731758
 21
0.0
 31
0.0
  0
LINE
  5
23F
330
1C4
100
AcDbEntity
  8
AM_4
100
AcDbLine
 10
-2.375
 20
0.0
 30
0.0
 11
-2.375
 21
-5.0
 31
0.0
  0
LINE
  5
240
330
1C4
100
AcDbEntity
  8
AM_4
100
AcDbLine
 10
-2.375
 20
-5.0
 30
0.0
 11
2.375
 21
-5.0
 31
0.0
  0
LINE
  5
241
330
1C4
100
AcDbEntity
  8
AM_4
100
AcDbLine
 10
2.375
 20
0.0
 30
0.0
 11
2.375
 21
-5.0
 31
0.0
  0
LINE
  5
242
330
1C4
100
AcDbEntity
  8
AM_4
100
AcDbLine
 10
-1.899999999999999
 20
-2.8
 30
0.0
 11
-1.899999999999999
 21
-5.0
 31
0.0
  0
LINE
  5
243
330
1C4
100
AcDbEntity
  8
AM_4
100
AcDbLine
 10
1.900000000000001
 20
-2.8
 30
0.0
 11
1.900000000000001
 21
-5.0
 31
0.0
  0
LWPOLYLINE
  5
244
330
1C4
100
AcDbEntity
  8
AM_4
100
AcDbPolyline
 90
       18
 70
     0
 43
0.0
 10
-2.375
 20
-2.255137632057416
 10
-2.327797513269835
 20
-2.263747678571959
 10
-2.281525061251565
 20
-2.276438929050573
 10
-2.236534805245121
 20
-2.293114795413931
 10
-2.19316914826457
 20
-2.313648364249843
 10
-2.151758129144433
 20
-2.337883362700961
 10
-2.112616910744873
 20
-2.36563534779558
 10
-2.076043381372024
 20
-2.396693110170021
 10
-2.042315887668114
 20
-2.430820281499428
 10
-2.011691116225446
 20
-2.467757133403432
 10
-1.984402140046443
 20
-2.507222554135964
 10
-1.960656644717361
 20
-2.548916188015377
 10
-1.940635347795576
 20
-2.592520721312543
 10
-1.924490623439853
 20
-2.637704297199935
 10
-1.91234534275099
 20
-2.68412304138246
 10
-1.90429193864855
 20
-2.731423679188485
 10
-1.900391702400531
 20
-2.7792462242034
 10
-1.899999999999999
 20
-2.799999967217448
  0
LINE
  5
245
330
1C4
100
AcDbEntity
  8
AM_4
100
AcDbLine
 10
1.900000000000001
 20
-2.8
 30
0.0
 11
-1.899999999999999
 21
-2.8
 31
0.0
  0
LWPOLYLINE
  5
246
330
1C4
100
AcDbEntity
  8
AM_4
100
AcDbPolyline
 90
       18
 70
     0
 43
0.0
 10
1.900000000000001
 20
-2.799999967217448
 10
1.902092918906729
 20
-2.752064308830983
 10
1.908355741535917
 20
-2.704493469998676
 10
1.918740804025762
 20
-2.657649493528099
 10
1.933169069780045
 20
-2.61188889036536
 10
1.951530730984349
 20
-2.567559926331533
 10
1.973686044309837
 20
-2.524999971609477
 10
1.999466394444356
 20
-2.48453293315303
 10
2.028675577356783
 20
-2.446466789559511
 10
2.061091293528166
 20
-2.411091247166634
 10
2.096466839785299
 20
-2.378675535212344
 10
2.134532986860823
 20
-2.349466356837755
 10
2.175000028390527
 20
-2.323686011527283
 10
2.217559985753702
 20
-2.301530703275338
 10
2.261888951976409
 20
-2.283169047355457
 10
2.307649556859132
 20
-2.268740787056264
 10
2.354493534567704
 20
-2.258355730150656
 10
2.375000000000001
 20
-2.255137632057416
  0
LINE
  5
247
330
1C4
100
AcDbEntity
  8
AM_4
100
AcDbLine
 10
2.375
 20
-2.25
 30
0.0
 11
-2.375
 21
-2.25
 31
0.0
  0
ENDBLK
  5
1C7
330
1C4
100
AcDbEntity
  8
0
100
AcDbBlockEnd
  0
ENDSEC
  0
SECTION
  2
ENTITIES
  0
INSERT
  5
6F
330
1F
100
AcDbEntity
  8
0
100
AcDbBlockReference
  2
1_023363_2
 10
0.0
 20
0.0
 30
0.0
  0
POINT
  5
249
330
1F
100
AcDbEntity
  8
ConnectionPoints
100
AcDbPoint
 10
3.125
 20
0.0
 30
-0.0000000000000002
  0
POINT
  5
24A
330
1F
100
AcDbEntity
  8
ConnectionPoints
100
AcDbPoint
 10
0.0
 20
4.785
 30
0.0
  0
POINT
  5
24B
330
1F
100
AcDbEntity
  8
ConnectionPoints
100
AcDbPoint
 10
0.0
 20
0.0
 30
0.0
  0
POINT
  5
24C
330
1F
100
AcDbEntity
  8
ConnectionPoints
100
AcDbPoint
 10
3.125
 20
0.0
 30
-0.0000000000000002
  0
POINT
  5
24D
330
1F
100
AcDbEntity
  8
ConnectionPoints
100
AcDbPoint
 10
-3.125
 20
0.0
 30
0.0000000000000002
  0
POINT
  5
24E
330
1F
100
AcDbEntity
  8
ConnectionPoints
100
AcDbPoint
 10
0.0
 20
4.785
 30
0.0
  0
POINT
  5
24F
330
1F
100
AcDbEntity
  8
ConnectionPoints
100
AcDbPoint
 10
0.0
 20
4.785
 30
0.0
  0
POINT
  5
250
330
1F
100
AcDbEntity
  8
ConnectionPoints
100
AcDbPoint
 10
0.0
 20
0.0
 30
0.0
  0
ENDSEC
  0
SECTION
  2
OBJECTS
  0
DICTIONARY
  5
C
330
0
100
AcDbDictionary
281
     1
  3
ACAD_DETAILVIEWSTYLE
350
258
  3
ACAD_GROUP
350
D
  3
ACAD_LAYOUT
350
1A
  3
ACAD_MATERIAL
350
43
  3
ACAD_MLEADERSTYLE
350
6B
  3
ACAD_MLINESTYLE
350
17
  3
ACAD_PLOTSETTINGS
350
19
  3
ACAD_PLOTSTYLENAME
350
E
  3
ACAD_SCALELIST
350
47
  3
ACAD_SECTIONVIEWSTYLE
350
259
  3
ACAD_TABLESTYLE
350
69
  3
ACAD_VISUALSTYLE
350
2A
  3
ACDB_RECOMPOSE_DATA
350
255
  3
AcDbVariableDictionary
350
251
  0
SUN
  5
6D
330
29
100
AcDbSun
 90
        1
290
     0
 63
     7
421
 16777215
 40
1.0
291
     1
 91
  2455826
 92
 54000000
292
     0
 70
     2
 71
   256
280
     1
  0
DICTIONARY
  5
258
102
{ACAD_REACTORS
330
C
102
}
330
C
100
AcDbDictionary
281
     1
  0
DICTIONARY
  5
D
102
{ACAD_REACTORS
330
C
102
}
330
C
100
AcDbDictionary
281
     1
  0
DICTIONARY
  5
1A
102
{ACAD_REACTORS
330
C
102
}
330
C
100
AcDbDictionary
281
     1
  3
Layout1
350
1E
  3
Layout2
350
26
  3
Model
350
22
  0
DICTIONARY
  5
43
102
{ACAD_REACTORS
330
C
102
}
330
C
100
AcDbDictionary
281
     1
  3
ByBlock
350
45
  3
ByLayer
350
44
  3
Global
350
46
  0
DICTIONARY
  5
6B
102
{ACAD_REACTORS
330
C
102
}
330
C
100
AcDbDictionary
281
     1
  3
Standard
350
6C
  0
DICTIONARY
  5
17
102
{ACAD_REACTORS
330
C
102
}
330
C
100
AcDbDictionary
281
     1
  3
Standard
350
18
  0
DICTIONARY
  5
19
102
{ACAD_REACTORS
330
C
102
}
330
C
100
AcDbDictionary
281
     1
  0
ACDBDICTIONARYWDFLT
  5
E
102
{ACAD_REACTORS
330
C
102
}
330
C
100
AcDbDictionary
281
     1
  3
Normal
350
F
100
AcDbDictionaryWithDefault
340
F
  0
DICTIONARY
  5
47
102
{ACAD_REACTORS
330
C
102
}
330
C
100
AcDbDictionary
281
     1
  3
A0
350
48
  3
A1
350
49
  3
A2
350
4A
  3
A3
350
4B
  3
A4
350
4C
  3
A5
350
4D
  3
A6
350
4E
  3
A7
350
4F
  3
A8
350
50
  3
A9
350
51
  3
B0
350
52
  3
B1
350
53
  3
B2
350
54
  3
B3
350
55
  3
B4
350
56
  3
B5
350
57
  3
B6
350
58
  3
B7
350
59
  3
B8
350
5A
  3
B9
350
5B
  3
C0
350
5C
  3
C1
350
5D
  3
C2
350
5E
  3
C3
350
5F
  3
C4
350
60
  3
C5
350
61
  3
C6
350
62
  3
C7
350
63
  3
C8
350
64
  3
C9
350
65
  3
D0
350
66
  3
D1
350
67
  3
D2
350
68
  0
DICTIONARY
  5
259
102
{ACAD_REACTORS
330
C
102
}
330
C
100
AcDbDictionary
281
     1
  0
DICTIONARY
  5
69
102
{ACAD_REACTORS
330
C
102
}
330
C
100
AcDbDictionary
281
     1
  3
Standard
350
6A
  0
DICTIONARY
  5
2A
102
{ACAD_REACTORS
330
C
102
}
330
C
100
AcDbDictionary
281
     1
  3
2dWireframe
350
2F
  3
Basic
350
32
  3
Brighten
350
36
  3
ColorChange
350
3A
  3
Conceptual
350
34
  3
Dim
350
35
  3
EdgeColorOff
350
3D
  3
Facepattern
350
39
  3
Flat
350
2B
  3
FlatWithEdges
350
2C
  3
Gouraud
350
2D
  3
GouraudWithEdges
350
2E
  3
Hidden
350
31
  3
JitterOff
350
3B
  3
Linepattern
350
38
  3
OverhangOff
350
3C
  3
Realistic
350
33
  3
Shaded
350
42
  3
Shaded with edges
350
41
  3
Shades of Gray
350
3E
  3
Sketchy
350
3F
  3
Thicken
350
37
  3
Wireframe
350
30
  3
X-Ray
350
40
  0
XRECORD
  5
255
102
{ACAD_REACTORS
330
C
102
}
330
C
100
AcDbXrecord
280
     1
 90
        1
330
6A
  0
DICTIONARY
  5
251
102
{ACAD_REACTORS
330
C
102
}
330
C
100
AcDbDictionary
281
     1
  3
CANNOSCALE
350
252
  3
CMLEADERSTYLE
350
257
  3
CTABLESTYLE
350
256
  0
LAYOUT
  5
1E
102
{ACAD_REACTORS
330
1A
102
}
330
1A
100
AcDbPlotSettings
  1

  2
none_device
  4

  6

 40
0.0
 41
0.0
 42
0.0
 43
0.0
 44
0.0
 45
0.0
 46
0.0
 47
0.0
 48
0.0
 49
0.0
140
0.0
141
0.0
142
1.0
143
1.0
 70
   688
 72
     0
 73
     0
 74
     5
  7

 75
    16
 76
     0
 77
     2
 78
   300
147
1.0
148
0.0
149
0.0
100
AcDbLayout
  1
Layout1
 70
     1
 71
     1
 10
0.0
 20
0.0
 11
12.0
 21
9.0
 12
0.0
 22
0.0
 32
0.0
 14
1.000000000000000E+20
 24
1.000000000000000E+20
 34
1.000000000000000E+20
 15
-1.000000000000000E+20
 25
-1.000000000000000E+20
 35
-1.000000000000000E+20
146
0.0
 13
0.0
 23
0.0
 33
0.0
 16
1.0
 26
0.0
 36
0.0
 17
0.0
 27
1.0
 37
0.0
 76
     0
330
1B
  0
LAYOUT
  5
26
102
{ACAD_REACTORS
330
1A
102
}
330
1A
100
AcDbPlotSettings
  1

  2
none_device
  4

  6

 40
0.0
 41
0.0
 42
0.0
 43
0.0
 44
0.0
 45
0.0
 46
0.0
 47
0.0
 48
0.0
 49
0.0
140
0.0
141
0.0
142
1.0
143
1.0
 70
   688
 72
     0
 73
     0
 74
     5
  7

 75
    16
 76
     0
 77
     2
 78
   300
147
1.0
148
0.0
149
0.0
100
AcDbLayout
  1
Layout2
 70
     1
 71
     2
 10
0.0
 20
0.0
 11
0.0
 21
0.0
 12
0.0
 22
0.0
 32
0.0
 14
0.0
 24
0.0
 34
0.0
 15
0.0
 25
0.0
 35
0.0
146
0.0
 13
0.0
 23
0.0
 33
0.0
 16
1.0
 26
0.0
 36
0.0
 17
0.0
 27
1.0
 37
0.0
 76
     0
330
23
  0
LAYOUT
  5
22
102
{ACAD_REACTORS
330
1A
102
}
330
1A
100
AcDbPlotSettings
  1

  2
none_device
  4
Letter_(8.50_x_11.00_Inches)
  6

 40
6.35
 41
6.35
 42
6.35000508
 43
6.35000508
 44
215.9
 45
279.4
 46
0.0
 47
0.0
 48
0.0
 49
0.0
140
0.0
141
0.0
142
1.0
143
1.0
 70
  1712
 72
     0
 73
     0
 74
     0
  7

 75
     0
 76
     0
 77
     2
 78
   300
147
1.0
148
0.0
149
0.0
100
AcDbLayout
  1
Model
 70
     1
 71
     0
 10
0.0
 20
0.0
 11
12.0
 21
9.0
 12
0.0
 22
0.0
 32
0.0
 14
1.000000000000000E+20
 24
1.000000000000000E+20
 34
1.000000000000000E+20
 15
-1.000000000000000E+20
 25
-1.000000000000000E+20
 35
-1.000000000000000E+20
146
0.0
 13
0.0
 23
0.0
 33
0.0
 16
1.0
 26
0.0
 36
0.0
 17
0.0
 27
1.0
 37
0.0
 76
     0
330
1F
331
29
  0
MATERIAL
  5
45
102
{ACAD_REACTORS
330
43
102
}
330
43
100
AcDbMaterial
  1
ByBlock
 72
     1
 94
      127
  0
MATERIAL
  5
44
102
{ACAD_REACTORS
330
43
102
}
330
43
100
AcDbMaterial
  1
ByLayer
 72
     1
 94
      127
  0
MATERIAL
  5
46
102
{ACAD_REACTORS
330
43
102
}
330
43
100
AcDbMaterial
  1
Global
 72
     1
 94
      127
  0
MLEADERSTYLE
  5
6C
102
{ACAD_REACTORS
330
6B
102
}
330
6B
100
AcDbMLeaderStyle
179
     2
170
     2
171
     1
172
     0
 90
        2
 40
0.0
 41
0.0
173
     1
 91
-1056964608
340
14
 92
       -2
290
     1
 42
0.09
291
     1
 43
0.36
  3
Standard
341
0
 44
0.18
300

342
11
174
     1
178
     6
175
     1
176
     0
 93
-1056964608
 45
0.18
292
     0
297
     0
 46
0.18
343
0
 94
-1056964608
 47
1.0
 49
1.0
140
1.0
293
     1
141
0.0
294
     1
177
     0
142
1.0
295
     0
296
     0
143
0.125
271
     0
272
     9
273
     9
298
     0
  0
MLINESTYLE
  5
18
102
{ACAD_REACTORS
330
17
102
}
330
17
100
AcDbMlineStyle
  2
Standard
 70
     0
  3

 62
   256
 51
90.0
 52
90.0
 71
     2
 49
0.5
 62
   256
  6
BYLAYER
 49
-0.5
 62
   256
  6
BYLAYER
  0
ACDBPLACEHOLDER
  5
F
102
{ACAD_REACTORS
330
E
102
}
330
E
  0
SCALE
  5
48
102
{ACAD_REACTORS
330
47
102
}
330
47
100
AcDbScale
 70
     0
300
1:1
140
1.0
141
1.0
290
     1
  0
SCALE
  5
49
102
{ACAD_REACTORS
330
47
102
}
330
47
100
AcDbScale
 70
     0
300
1:2
140
1.0
141
2.0
290
     0
  0
SCALE
  5
4A
102
{ACAD_REACTORS
330
47
102
}
330
47
100
AcDbScale
 70
     0
300
1:4
140
1.0
141
4.0
290
     0
  0
SCALE
  5
4B
102
{ACAD_REACTORS
330
47
102
}
330
47
100
AcDbScale
 70
     0
300
1:5
140
1.0
141
5.0
290
     0
  0
SCALE
  5
4C
102
{ACAD_REACTORS
330
47
102
}
330
47
100
AcDbScale
 70
     0
300
1:8
140
1.0
141
8.0
290
     0
  0
SCALE
  5
4D
102
{ACAD_REACTORS
330
47
102
}
330
47
100
AcDbScale
 70
     0
300
1:10
140
1.0
141
10.0
290
     0
  0
SCALE
  5
4E
102
{ACAD_REACTORS
330
47
102
}
330
47
100
AcDbScale
 70
     0
300
1:16
140
1.0
141
16.0
290
     0
  0
SCALE
  5
4F
102
{ACAD_REACTORS
330
47
102
}
330
47
100
AcDbScale
 70
     0
300
1:20
140
1.0
141
20.0
290
     0
  0
SCALE
  5
50
102
{ACAD_REACTORS
330
47
102
}
330
47
100
AcDbScale
 70
     0
300
1:30
140
1.0
141
30.0
290
     0
  0
SCALE
  5
51
102
{ACAD_REACTORS
330
47
102
}
330
47
100
AcDbScale
 70
     0
300
1:40
140
1.0
141
40.0
290
     0
  0
SCALE
  5
52
102
{ACAD_REACTORS
330
47
102
}
330
47
100
AcDbScale
 70
     0
300
1:50
140
1.0
141
50.0
290
     0
  0
SCALE
  5
53
102
{ACAD_REACTORS
330
47
102
}
330
47
100
AcDbScale
 70
     0
300
1:100
140
1.0
141
100.0
290
     0
  0
SCALE
  5
54
102
{ACAD_REACTORS
330
47
102
}
330
47
100
AcDbScale
 70
     0
300
2:1
140
2.0
141
1.0
290
     0
  0
SCALE
  5
55
102
{ACAD_REACTORS
330
47
102
}
330
47
100
AcDbScale
 70
     0
300
4:1
140
4.0
141
1.0
290
     0
  0
SCALE
  5
56
102
{ACAD_REACTORS
330
47
102
}
330
47
100
AcDbScale
 70
     0
300
8:1
140
8.0
141
1.0
290
     0
  0
SCALE
  5
57
102
{ACAD_REACTORS
330
47
102
}
330
47
100
AcDbScale
 70
     0
300
10:1
140
10.0
141
1.0
290
     0
  0
SCALE
  5
58
102
{ACAD_REACTORS
330
47
102
}
330
47
100
AcDbScale
 70
     0
300
100:1
140
100.0
141
1.0
290
     0
  0
SCALE
  5
59
102
{ACAD_REACTORS
330
47
102
}
330
47
100
AcDbScale
 70
     0
300
1/128" = 1'-0"
140
0.0078125
141
12.0
290
     0
  0
SCALE
  5
5A
102
{ACAD_REACTORS
330
47
102
}
330
47
100
AcDbScale
 70
     0
300
1/64" = 1'-0"
140
0.015625
141
12.0
290
     0
  0
SCALE
  5
5B
102
{ACAD_REACTORS
330
47
102
}
330
47
100
AcDbScale
 70
     0
300
1/32" = 1'-0"
140
0.03125
141
12.0
290
     0
  0
SCALE
  5
5C
102
{ACAD_REACTORS
330
47
102
}
330
47
100
AcDbScale
 70
     0
300
1/16" = 1'-0"
140
0.0625
141
12.0
290
     0
  0
SCALE
  5
5D
102
{ACAD_REACTORS
330
47
102
}
330
47
100
AcDbScale
 70
     0
300
3/32" = 1'-0"
140
0.09375
141
12.0
290
     0
  0
SCALE
  5
5E
102
{ACAD_REACTORS
330
47
102
}
330
47
100
AcDbScale
 70
     0
300
1/8" = 1'-0"
140
0.125
141
12.0
290
     0
  0
SCALE
  5
5F
102
{ACAD_REACTORS
330
47
102
}
330
47
100
AcDbScale
 70
     0
300
3/16" = 1'-0"
140
0.1875
141
12.0
290
     0
  0
SCALE
  5
60
102
{ACAD_REACTORS
330
47
102
}
330
47
100
AcDbScale
 70
     0
300
1/4" = 1'-0"
140
0.25
141
12.0
290
     0
  0
SCALE
  5
61
102
{ACAD_REACTORS
330
47
102
}
330
47
100
AcDbScale
 70
     0
300
3/8" = 1'-0"
140
0.375
141
12.0
290
     0
  0
SCALE
  5
62
102
{ACAD_REACTORS
330
47
102
}
330
47
100
AcDbScale
 70
     0
300
1/2" = 1'-0"
140
0.5
141
12.0
290
     0
  0
SCALE
  5
63
102
{ACAD_REACTORS
330
47
102
}
330
47
100
AcDbScale
 70
     0
300
3/4" = 1'-0"
140
0.75
141
12.0
290
     0
  0
SCALE
  5
64
102
{ACAD_REACTORS
330
47
102
}
330
47
100
AcDbScale
 70
     0
300
1" = 1'-0"
140
1.0
141
12.0
290
     0
  0
SCALE
  5
65
102
{ACAD_REACTORS
330
47
102
}
330
47
100
AcDbScale
 70
     0
300
1-1/2" = 1'-0"
140
1.5
141
12.0
290
     0
  0
SCALE
  5
66
102
{ACAD_REACTORS
330
47
102
}
330
47
100
AcDbScale
 70
     0
300
3" = 1'-0"
140
3.0
141
12.0
290
     0
  0
SCALE
  5
67
102
{ACAD_REACTORS
330
47
102
}
330
47
100
AcDbScale
 70
     0
300
6" = 1'-0"
140
6.0
141
12.0
290
     0
  0
SCALE
  5
68
102
{ACAD_REACTORS
330
47
102
}
330
47
100
AcDbScale
 70
     0
300
1'-0" = 1'-0"
140
12.0
141
12.0
290
     0
  0
TABLESTYLE
  5
6A
102
{ACAD_REACTORS
330
69
102
}
102
{ACAD_XDICTIONARY
360
253
102
}
330
69
100
AcDbTableStyle
  3
Standard
 70
     0
 71
     0
 40
0.06
 41
0.06
280
     0
281
     0
  7
Standard
140
0.18
170
     2
 62
     0
 63
   257
283
     0
 90
        4
 91
        0
  1

274
    -2
284
     1
 64
     0
275
    -2
285
     1
 65
     0
276
    -2
286
     1
 66
     0
277
    -2
287
     1
 67
     0
278
    -2
288
     1
 68
     0
279
    -2
289
     1
 69
     0
  7
Standard
140
0.25
170
     5
 62
     0
 63
   257
283
     0
 90
        4
 91
        0
  1

274
    -2
284
     1
 64
     0
275
    -2
285
     1
 65
     0
276
    -2
286
     1
 66
     0
277
    -2
287
     1
 67
     0
278
    -2
288
     1
 68
     0
279
    -2
289
     1
 69
     0
  7
Standard
140
0.18
170
     5
 62
     0
 63
   257
283
     0
 90
        4
 91
        0
  1

274
    -2
284
     1
 64
     0
275
    -2
285
     1
 65
     0
276
    -2
286
     1
 66
     0
277
    -2
287
     1
 67
     0
278
    -2
288
     1
 68
     0
279
    -2
289
     1
 69
     0
  0
VISUALSTYLE
  5
2F
102
{ACAD_REACTORS
330
2A
102
}
330
2A
100
AcDbVisualStyle
  2
2dWireframe
 70
     4
177
     3
291
     0
 70
    58
 90
        0
176
     1
 90
        2
176
     1
 90
        0
176
     1
 90
        0
176
     1
 40
0.6
176
     1
 40
30.0
176
     1
 62
     7
420
 16777215
176
     1
 90
        1
176
     1
 90
        4
176
     1
 62
     7
176
     1
 62
   257
176
     1
 90
        1
176
     1
 90
        1
176
     1
 40
1.0
176
     1
 90
        0
176
     1
 62
   257
176
     1
 40
1.0
176
     1
 90
        1
176
     1
 90
        6
176
     1
 90
        2
176
     1
 62
     7
176
     1
 90
        5
176
     1
 90
        0
176
     1
 90
        0
176
     1
290
     0
176
     1
 90
        1
176
     1
 40
0.0
176
     1
 90
        0
176
     1
290
     1
176
     1
290
     1
176
     1
290
     0
176
     1
290
     0
176
     1
290
     0
176
     1
290
     0
176
     1
290
     0
176
     1
290
     0
176
     1
290
     0
176
     1
 90
       50
176
     1
 40
0.0
176
     1
 40
1.0
176
     1
 90
        0
176
     1
 62
    18
420
        0
176
     1
 90
       50
176
     1
 90
        3
176
     1
 62
     5
420
      255
176
     1
290
     0
176
     1
 90
       50
176
     1
 90
       50
176
     1
 90
       50
176
     1
290
     0
176
     1
 90
       50
176
     1
 62
   256
176
     0
 40
1.0
176
     0
 90
        2
176
     1
  1
strokes_ogs.tif
176
     1
290
     0
176
     1
 40
1.0
176
     1
 40
1.0
176
     1
  0
VISUALSTYLE
  5
32
102
{ACAD_REACTORS
330
2A
102
}
330
2A
100
AcDbVisualStyle
  2
Basic
 70
     7
177
     3
291
     1
 70
    58
 90
        1
176
     1
 90
        0
176
     1
 90
        1
176
     1
 90
        0
176
     1
 40
0.6
176
     1
 40
30.0
176
     1
 62
     7
420
 16777215
176
     1
 90
        0
176
     1
 90
        4
176
     1
 62
     7
176
     1
 62
   257
176
     1
 90
        1
176
     1
 90
        1
176
     1
 40
1.0
176
     1
 90
        8
176
     1
 62
     7
176
     1
 40
1.0
176
     1
 90
        1
176
     1
 90
        6
176
     1
 90
        2
176
     1
 62
     7
176
     1
 90
        5
176
     1
 90
        0
176
     1
 90
        0
176
     1
290
     0
176
     1
 90
        1
176
     1
 40
0.0
176
     1
 90
        0
176
     1
290
     0
176
     1
290
     1
176
     1
290
     1
176
     1
290
     0
176
     1
290
     0
176
     1
290
     0
176
     1
290
     0
176
     1
290
     0
176
     1
290
     0
176
     1
 90
       50
176
     1
 40
0.0
176
     1
 40
1.0
176
     1
 90
        0
176
     1
 62
    18
420
        0
176
     1
 90
       50
176
     1
 90
        3
176
     1
 62
     5
420
      255
176
     1
290
     0
176
     1
 90
       50
176
     1
 90
       50
176
     1
 90
       50
176
     1
290
     0
176
     1
 90
       50
176
     1
 62
   256
176
     0
 40
1.0
176
     0
 90
        2
176
     1
  1
strokes_ogs.tif
176
     1
290
     0
176
     1
 40
1.0
176
     1
 40
1.0
176
     1
  0
VISUALSTYLE
  5
36
102
{ACAD_REACTORS
330
2A
102
}
330
2A
100
AcDbVisualStyle
  2
Brighten
 70
    12
177
     3
291
     1
 70
    58
 90
        2
176
     1
 90
        2
176
     1
 90
        0
176
     1
 90
        0
176
     1
 40
0.6
176
     1
 40
30.0
176
     1
 62
     7
420
 16777215
176
     1
 90
        1
176
     1
 90
        4
176
     1
 62
     7
176
     1
 62
   257
176
     1
 90
        1
176
     1
 90
        1
176
     1
 40
1.0
176
     1
 90
        8
176
     1
 62
     7
176
     1
 40
1.0
176
     1
 90
        1
176
     1
 90
        6
176
     1
 90
        2
176
     1
 62
     7
176
     1
 90
        5
176
     1
 90
        0
176
     1
 90
        0
176
     1
290
     0
176
     1
 90
        1
176
     1
 40
50.0
176
     1
 90
        0
176
     1
290
     0
176
     1
290
     1
176
     1
290
     1
176
     1
290
     0
176
     1
290
     0
176
     1
290
     0
176
     1
290
     0
176
     1
290
     0
176
     1
290
     0
176
     1
 90
       50
176
     1
 40
0.0
176
     1
 40
1.0
176
     1
 90
        0
176
     1
 62
    18
420
        0
176
     1
 90
       50
176
     1
 90
        3
176
     1
 62
     5
420
      255
176
     1
290
     0
176
     1
 90
       50
176
     1
 90
       50
176
     1
 90
       50
176
     1
290
     0
176
     1
 90
       50
176
     1
 62
   256
176
     0
 40
1.0
176
     0
 90
        2
176
     1
  1
strokes_ogs.tif
176
     1
290
     0
176
     1
 40
1.0
176
     1
 40
1.0
176
     1
  0
VISUALSTYLE
  5
3A
102
{ACAD_REACTORS
330
2A
102
}
330
2A
100
AcDbVisualStyle
  2
ColorChange
 70
    16
177
     3
291
     1
 70
    58
 90
        2
176
     1
 90
        2
176
     1
 90
        3
176
     1
 90
        0
176
     1
 40
0.6
176
     1
 40
30.0
176
     1
 62
     8
420
  8421504
176
     1
 90
        1
176
     1
 90
        4
176
     1
 62
     7
176
     1
 62
   257
176
     1
 90
        1
176
     1
 90
        1
176
     1
 40
1.0
176
     1
 90
        8
176
     1
 62
     8
420
  8421504
176
     1
 40
1.0
176
     1
 90
        1
176
     1
 90
        6
176
     1
 90
        2
176
     1
 62
     7
176
     1
 90
        5
176
     1
 90
        0
176
     1
 90
        0
176
     1
290
     0
176
     1
 90
        1
176
     1
 40
0.0
176
     1
 90
        0
176
     1
290
     0
176
     1
290
     1
176
     1
290
     1
176
     1
290
     0
176
     1
290
     0
176
     1
290
     0
176
     1
290
     0
176
     1
290
     0
176
     1
290
     0
176
     1
 90
       50
176
     1
 40
0.0
176
     1
 40
1.0
176
     1
 90
        0
176
     1
 62
    18
420
        0
176
     1
 90
       50
176
     1
 90
        3
176
     1
 62
     5
420
      255
176
     1
290
     0
176
     1
 90
       50
176
     1
 90
       50
176
     1
 90
       50
176
     1
290
     0
176
     1
 90
       50
176
     1
 62
   256
176
     0
 40
1.0
176
     0
 90
        2
176
     1
  1
strokes_ogs.tif
176
     1
290
     0
176
     1
 40
1.0
176
     1
 40
1.0
176
     1
  0
VISUALSTYLE
  5
34
102
{ACAD_REACTORS
330
2A
102
}
330
2A
100
AcDbVisualStyle
  2
Conceptual
 70
     9
177
     3
291
     0
 70
    58
 90
        3
176
     1
 90
        2
176
     1
 90
        0
176
     1
 90
        0
176
     1
 40
0.6
176
     1
 40
30.0
176
     1
 62
     7
420
 16777215
176
     1
 90
        2
176
     1
 90
        2
176
     1
 62
     7
176
     1
 62
   257
176
     1
 90
        1
176
     1
 90
        1
176
     1
 40
179.0
176
     1
 90
        8
176
     1
 62
     7
176
     1
 40
1.0
176
     1
 90
        1
176
     1
 90
        6
176
     1
 90
        2
176
     1
 62
     7
176
     1
 90
        3
176
     1
 90
        0
176
     1
 90
        0
176
     1
290
     0
176
     1
 90
        1
176
     1
 40
0.0
176
     1
 90
        0
176
     1
290
     0
176
     1
290
     1
176
     1
290
     1
176
     1
290
     0
176
     1
290
     0
176
     1
290
     0
176
     1
290
     0
176
     1
290
     0
176
     1
290
     0
176
     1
 90
       50
176
     1
 40
0.0
176
     1
 40
1.0
176
     1
 90
        0
176
     1
 62
    18
420
        0
176
     1
 90
       50
176
     1
 90
        3
176
     1
 62
     5
420
      255
176
     1
290
     0
176
     1
 90
       50
176
     1
 90
       50
176
     1
 90
       50
176
     1
290
     0
176
     1
 90
       50
176
     1
 62
   256
176
     0
 40
1.0
176
     0
 90
        2
176
     1
  1
strokes_ogs.tif
176
     1
290
     0
176
     1
 40
1.0
176
     1
 40
1.0
176
     1
  0
VISUALSTYLE
  5
35
102
{ACAD_REACTORS
330
2A
102
}
330
2A
100
AcDbVisualStyle
  2
Dim
 70
    11
177
     3
291
     1
 70
    58
 90
        2
176
     1
 90
        2
176
     1
 90
        0
176
     1
 90
        0
176
     1
 40
0.6
176
     1
 40
30.0
176
     1
 62
     7
420
 16777215
176
     1
 90
        1
176
     1
 90
        4
176
     1
 62
     7
176
     1
 62
   257
176
     1
 90
        1
176
     1
 90
        1
176
     1
 40
1.0
176
     1
 90
        8
176
     1
 62
     7
176
     1
 40
1.0
176
     1
 90
        1
176
     1
 90
        6
176
     1
 90
        2
176
     1
 62
     7
176
     1
 90
        5
176
     1
 90
        0
176
     1
 90
        0
176
     1
290
     0
176
     1
 90
        1
176
     1
 40
-50.0
176
     1
 90
        0
176
     1
290
     0
176
     1
290
     1
176
     1
290
     1
176
     1
290
     0
176
     1
290
     0
176
     1
290
     0
176
     1
290
     0
176
     1
290
     0
176
     1
290
     0
176
     1
 90
       50
176
     1
 40
0.0
176
     1
 40
1.0
176
     1
 90
        0
176
     1
 62
    18
420
        0
176
     1
 90
       50
176
     1
 90
        3
176
     1
 62
     5
420
      255
176
     1
290
     0
176
     1
 90
       50
176
     1
 90
       50
176
     1
 90
       50
176
     1
290
     0
176
     1
 90
       50
176
     1
 62
   256
176
     0
 40
1.0
176
     0
 90
        2
176
     1
  1
strokes_ogs.tif
176
     1
290
     0
176
     1
 40
1.0
176
     1
 40
1.0
176
     1
  0
VISUALSTYLE
  5
3D
102
{ACAD_REACTORS
330
2A
102
}
330
2A
100
AcDbVisualStyle
  2
EdgeColorOff
 70
    22
177
     3
291
     1
 70
    58
 90
        2
176
     0
 90
        2
176
     0
 90
        0
176
     0
 90
        0
176
     0
 40
0.6
176
     0
 40
30.0
176
     0
 62
     7
420
 16777215
176
     0
 90
        1
176
     0
 90
        4
176
     0
 62
     7
176
     0
 62
   257
176
     0
 90
        1
176
     0
 90
        1
176
     0
 40
1.0
176
     0
 90
        8
176
     2
 62
     7
176
     0
 40
1.0
176
     0
 90
        1
176
     0
 90
        6
176
     0
 90
        2
176
     0
 62
     7
176
     0
 90
        5
176
     0
 90
        0
176
     0
 90
        0
176
     0
290
     0
176
     0
 90
        1
176
     0
 40
0.0
176
     0
 90
        0
176
     0
290
     0
176
     0
290
     1
176
     0
290
     1
176
     0
290
     0
176
     0
290
     0
176
     0
290
     0
176
     0
290
     0
176
     0
290
     0
176
     0
290
     0
176
     0
 90
       50
176
     0
 40
0.0
176
     0
 40
1.0
176
     0
 90
        0
176
     0
 62
    18
420
        0
176
     0
 90
       50
176
     0
 90
        3
176
     0
 62
     5
420
      255
176
     0
290
     0
176
     0
 90
       50
176
     0
 90
       50
176
     0
 90
       50
176
     0
290
     0
176
     0
 90
       50
176
     0
 62
   256
176
     0
 40
1.0
176
     0
 90
        2
176
     0
  1
strokes_ogs.tif
176
     0
290
     0
176
     0
 40
1.0
176
     0
 40
1.0
176
     0
  0
VISUALSTYLE
  5
39
102
{ACAD_REACTORS
330
2A
102
}
330
2A
100
AcDbVisualStyle
  2
Facepattern
 70
    15
177
     3
291
     1
 70
    58
 90
        2
176
     1
 90
        2
176
     1
 90
        0
176
     1
 90
        0
176
     1
 40
0.6
176
     1
 40
30.0
176
     1
 62
     7
420
 16777215
176
     1
 90
        1
176
     1
 90
        4
176
     1
 62
     7
176
     1
 62
   257
176
     1
 90
        1
176
     1
 90
        1
176
     1
 40
1.0
176
     1
 90
        8
176
     1
 62
     7
176
     1
 40
1.0
176
     1
 90
        1
176
     1
 90
        6
176
     1
 90
        2
176
     1
 62
     7
176
     1
 90
        5
176
     1
 90
        0
176
     1
 90
        0
176
     1
290
     0
176
     1
 90
        1
176
     1
 40
0.0
176
     1
 90
        0
176
     1
290
     0
176
     1
290
     1
176
     1
290
     1
176
     1
290
     0
176
     1
290
     0
176
     1
290
     0
176
     1
290
     0
176
     1
290
     0
176
     1
290
     0
176
     1
 90
       50
176
     1
 40
0.0
176
     1
 40
1.0
176
     1
 90
        0
176
     1
 62
    18
420
        0
176
     1
 90
       50
176
     1
 90
        3
176
     1
 62
     5
420
      255
176
     1
290
     0
176
     1
 90
       50
176
     1
 90
       50
176
     1
 90
       50
176
     1
290
     0
176
     1
 90
       50
176
     1
 62
   256
176
     0
 40
1.0
176
     0
 90
        2
176
     1
  1
strokes_ogs.tif
176
     1
290
     0
176
     1
 40
1.0
176
     1
 40
1.0
176
     1
  0
VISUALSTYLE
  5
2B
102
{ACAD_REACTORS
330
2A
102
}
330
2A
100
AcDbVisualStyle
  2
Flat
 70
     0
177
     3
291
     1
 70
    58
 90
        2
176
     1
 90
        1
176
     1
 90
        1
176
     1
 90
        2
176
     1
 40
0.6
176
     1
 40
30.0
176
     1
 62
     7
420
 16777215
176
     1
 90
        0
176
     1
 90
        0
176
     1
 62
     7
176
     1
 62
   257
176
     1
 90
        1
176
     1
 90
        1
176
     1
 40
1.0
176
     1
 90
        8
176
     1
 62
     7
176
     1
 40
1.0
176
     1
 90
        1
176
     1
 90
        6
176
     1
 90
        2
176
     1
 62
     7
176
     1
 90
        5
176
     1
 90
        0
176
     1
 90
        0
176
     1
290
     0
176
     1
 90
       13
176
     1
 40
0.0
176
     1
 90
        0
176
     1
290
     0
176
     1
290
     1
176
     1
290
     1
176
     1
290
     0
176
     1
290
     0
176
     1
290
     0
176
     1
290
     0
176
     1
290
     0
176
     1
290
     0
176
     1
 90
       50
176
     1
 40
0.0
176
     1
 40
1.0
176
     1
 90
        0
176
     1
 62
    18
420
        0
176
     1
 90
       50
176
     1
 90
        3
176
     1
 62
     5
420
      255
176
     1
290
     0
176
     1
 90
       50
176
     1
 90
       50
176
     1
 90
       50
176
     1
290
     0
176
     1
 90
       50
176
     1
 62
   256
176
     0
 40
1.0
176
     0
 90
        2
176
     1
  1
strokes_ogs.tif
176
     1
290
     0
176
     1
 40
1.0
176
     1
 40
1.0
176
     1
  0
VISUALSTYLE
  5
2C
102
{ACAD_REACTORS
330
2A
102
}
330
2A
100
AcDbVisualStyle
  2
FlatWithEdges
 70
     1
177
     3
291
     1
 70
    58
 90
        2
176
     1
 90
        1
176
     1
 90
        1
176
     1
 90
        2
176
     1
 40
0.6
176
     1
 40
30.0
176
     1
 62
     7
420
 16777215
176
     1
 90
        1
176
     1
 90
        0
176
     1
 62
     7
176
     1
 62
   257
176
     1
 90
        1
176
     1
 90
        1
176
     1
 40
1.0
176
     1
 90
        0
176
     1
 62
   257
176
     1
 40
1.0
176
     1
 90
        1
176
     1
 90
        6
176
     1
 90
        2
176
     1
 62
     7
176
     1
 90
        5
176
     1
 90
        0
176
     1
 90
        0
176
     1
290
     0
176
     1
 90
       13
176
     1
 40
0.0
176
     1
 90
        0
176
     1
290
     0
176
     1
290
     1
176
     1
290
     1
176
     1
290
     0
176
     1
290
     0
176
     1
290
     0
176
     1
290
     0
176
     1
290
     0
176
     1
290
     0
176
     1
 90
       50
176
     1
 40
0.0
176
     1
 40
1.0
176
     1
 90
        0
176
     1
 62
    18
420
        0
176
     1
 90
       50
176
     1
 90
        3
176
     1
 62
     5
420
      255
176
     1
290
     0
176
     1
 90
       50
176
     1
 90
       50
176
     1
 90
       50
176
     1
290
     0
176
     1
 90
       50
176
     1
 62
   256
176
     0
 40
1.0
176
     0
 90
        2
176
     1
  1
strokes_ogs.tif
176
     1
290
     0
176
     1
 40
1.0
176
     1
 40
1.0
176
     1
  0
VISUALSTYLE
  5
2D
102
{ACAD_REACTORS
330
2A
102
}
330
2A
100
AcDbVisualStyle
  2
Gouraud
 70
     2
177
     3
291
     1
 70
    58
 90
        2
176
     1
 90
        2
176
     1
 90
        1
176
     1
 90
        2
176
     1
 40
0.6
176
     1
 40
30.0
176
     1
 62
     7
420
 16777215
176
     1
 90
        0
176
     1
 90
        0
176
     1
 62
     7
176
     1
 62
   257
176
     1
 90
        1
176
     1
 90
        1
176
     1
 40
1.0
176
     1
 90
        0
176
     1
 62
     7
176
     1
 40
1.0
176
     1
 90
        1
176
     1
 90
        6
176
     1
 90
        2
176
     1
 62
     7
176
     1
 90
        5
176
     1
 90
        0
176
     1
 90
        0
176
     1
290
     0
176
     1
 90
       13
176
     1
 40
0.0
176
     1
 90
        0
176
     1
290
     0
176
     1
290
     1
176
     1
290
     1
176
     1
290
     0
176
     1
290
     0
176
     1
290
     0
176
     1
290
     0
176
     1
290
     0
176
     1
290
     0
176
     1
 90
       50
176
     1
 40
0.0
176
     1
 40
1.0
176
     1
 90
        0
176
     1
 62
    18
420
        0
176
     1
 90
       50
176
     1
 90
        3
176
     1
 62
     5
420
      255
176
     1
290
     0
176
     1
 90
       50
176
     1
 90
       50
176
     1
 90
       50
176
     1
290
     0
176
     1
 90
       50
176
     1
 62
   256
176
     0
 40
1.0
176
     0
 90
        2
176
     1
  1
strokes_ogs.tif
176
     1
290
     0
176
     1
 40
1.0
176
     1
 40
1.0
176
     1
  0
VISUALSTYLE
  5
2E
102
{ACAD_REACTORS
330
2A
102
}
330
2A
100
AcDbVisualStyle
  2
GouraudWithEdges
 70
     3
177
     3
291
     1
 70
    58
 90
        2
176
     1
 90
        2
176
     1
 90
        1
176
     1
 90
        2
176
     1
 40
0.6
176
     1
 40
30.0
176
     1
 62
     7
420
 16777215
176
     1
 90
        1
176
     1
 90
        0
176
     1
 62
     7
176
     1
 62
   257
176
     1
 90
        1
176
     1
 90
        1
176
     1
 40
1.0
176
     1
 90
        0
176
     1
 62
   257
176
     1
 40
1.0
176
     1
 90
        1
176
     1
 90
        6
176
     1
 90
        2
176
     1
 62
     7
176
     1
 90
        5
176
     1
 90
        0
176
     1
 90
        0
176
     1
290
     0
176
     1
 90
       13
176
     1
 40
0.0
176
     1
 90
        0
176
     1
290
     0
176
     1
290
     1
176
     1
290
     1
176
     1
290
     0
176
     1
290
     0
176
     1
290
     0
176
     1
290
     0
176
     1
290
     0
176
     1
290
     0
176
     1
 90
       50
176
     1
 40
0.0
176
     1
 40
1.0
176
     1
 90
        0
176
     1
 62
    18
420
        0
176
     1
 90
       50
176
     1
 90
        3
176
     1
 62
     5
420
      255
176
     1
290
     0
176
     1
 90
       50
176
     1
 90
       50
176
     1
 90
       50
176
     1
290
     0
176
     1
 90
       50
176
     1
 62
   256
176
     0
 40
1.0
176
     0
 90
        2
176
     1
  1
strokes_ogs.tif
176
     1
290
     0
176
     1
 40
1.0
176
     1
 40
1.0
176
     1
  0
VISUALSTYLE
  5
31
102
{ACAD_REACTORS
330
2A
102
}
330
2A
100
AcDbVisualStyle
  2
Hidden
 70
     6
177
     3
291
     0
 70
    58
 90
        1
176
     1
 90
        2
176
     1
 90
        2
176
     1
 90
        0
176
     1
 40
0.6
176
     1
 40
30.0
176
     1
 62
     7
420
 16777215
176
     1
 90
        2
176
     1
 90
        2
176
     1
 62
     7
176
     1
 62
   257
176
     1
 90
        2
176
     1
 90
        1
176
     1
 40
40.0
176
     1
 90
        0
176
     1
 62
   257
176
     1
 40
1.0
176
     1
 90
        1
176
     1
 90
        6
176
     1
 90
        2
176
     1
 62
     7
176
     1
 90
        3
176
     1
 90
        0
176
     1
 90
        0
176
     1
290
     0
176
     1
 90
        1
176
     1
 40
0.0
176
     1
 90
        0
176
     1
290
     0
176
     1
290
     1
176
     1
290
     1
176
     1
290
     0
176
     1
290
     0
176
     1
290
     0
176
     1
290
     0
176
     1
290
     0
176
     1
290
     0
176
     1
 90
       50
176
     1
 40
0.0
176
     1
 40
1.0
176
     1
 90
        0
176
     1
 62
    18
420
        0
176
     1
 90
       50
176
     1
 90
        3
176
     1
 62
     5
420
      255
176
     1
290
     0
176
     1
 90
       50
176
     1
 90
       50
176
     1
 90
       50
176
     1
290
     0
176
     1
 90
       50
176
     1
 62
   256
176
     0
 40
1.0
176
     0
 90
        2
176
     1
  1
strokes_ogs.tif
176
     1
290
     0
176
     1
 40
1.0
176
     1
 40
1.0
176
     1
  0
VISUALSTYLE
  5
3B
102
{ACAD_REACTORS
330
2A
102
}
330
2A
100
AcDbVisualStyle
  2
JitterOff
 70
    20
177
     3
291
     1
 70
    58
 90
        2
176
     0
 90
        2
176
     0
 90
        0
176
     0
 90
        0
176
     0
 40
0.6
176
     0
 40
30.0
176
     0
 62
     7
420
 16777215
176
     0
 90
        1
176
     0
 90
        4
176
     0
 62
     7
176
     0
 62
   257
176
     0
 90
        1
176
     0
 90
        1
176
     0
 40
1.0
176
     0
 90
       10
176
     2
 62
     7
176
     0
 40
1.0
176
     0
 90
        1
176
     0
 90
        6
176
     0
 90
        2
176
     0
 62
     7
176
     0
 90
        5
176
     0
 90
        0
176
     0
 90
        0
176
     0
290
     0
176
     0
 90
        1
176
     0
 40
0.0
176
     0
 90
        0
176
     0
290
     0
176
     0
290
     1
176
     0
290
     1
176
     0
290
     0
176
     0
290
     0
176
     0
290
     0
176
     0
290
     0
176
     0
290
     0
176
     0
290
     0
176
     0
 90
       50
176
     0
 40
0.0
176
     0
 40
1.0
176
     0
 90
        0
176
     0
 62
    18
420
        0
176
     0
 90
       50
176
     0
 90
        3
176
     0
 62
     5
420
      255
176
     0
290
     0
176
     0
 90
       50
176
     0
 90
       50
176
     0
 90
       50
176
     0
290
     0
176
     0
 90
       50
176
     0
 62
   256
176
     0
 40
1.0
176
     0
 90
        2
176
     0
  1
strokes_ogs.tif
176
     0
290
     0
176
     0
 40
1.0
176
     0
 40
1.0
176
     0
  0
VISUALSTYLE
  5
38
102
{ACAD_REACTORS
330
2A
102
}
330
2A
100
AcDbVisualStyle
  2
Linepattern
 70
    14
177
     3
291
     1
 70
    58
 90
        2
176
     1
 90
        2
176
     1
 90
        0
176
     1
 90
        0
176
     1
 40
0.6
176
     1
 40
30.0
176
     1
 62
     7
420
 16777215
176
     1
 90
        1
176
     1
 90
        4
176
     1
 62
     7
176
     1
 62
   257
176
     1
 90
        7
176
     1
 90
        7
176
     1
 40
1.0
176
     1
 90
        8
176
     1
 62
     7
176
     1
 40
1.0
176
     1
 90
        1
176
     1
 90
        6
176
     1
 90
        2
176
     1
 62
     7
176
     1
 90
        5
176
     1
 90
        0
176
     1
 90
        0
176
     1
290
     0
176
     1
 90
        1
176
     1
 40
0.0
176
     1
 90
        0
176
     1
290
     0
176
     1
290
     1
176
     1
290
     1
176
     1
290
     0
176
     1
290
     0
176
     1
290
     0
176
     1
290
     0
176
     1
290
     0
176
     1
290
     0
176
     1
 90
       50
176
     1
 40
0.0
176
     1
 40
1.0
176
     1
 90
        0
176
     1
 62
    18
420
        0
176
     1
 90
       50
176
     1
 90
        3
176
     1
 62
     5
420
      255
176
     1
290
     0
176
     1
 90
       50
176
     1
 90
       50
176
     1
 90
       50
176
     1
290
     0
176
     1
 90
       50
176
     1
 62
   256
176
     0
 40
1.0
176
     0
 90
        2
176
     1
  1
strokes_ogs.tif
176
     1
290
     0
176
     1
 40
1.0
176
     1
 40
1.0
176
     1
  0
VISUALSTYLE
  5
3C
102
{ACAD_REACTORS
330
2A
102
}
330
2A
100
AcDbVisualStyle
  2
OverhangOff
 70
    21
177
     3
291
     1
 70
    58
 90
        2
176
     0
 90
        2
176
     0
 90
        0
176
     0
 90
        0
176
     0
 40
0.6
176
     0
 40
30.0
176
     0
 62
     7
420
 16777215
176
     0
 90
        1
176
     0
 90
        4
176
     0
 62
     7
176
     0
 62
   257
176
     0
 90
        1
176
     0
 90
        1
176
     0
 40
1.0
176
     0
 90
        9
176
     2
 62
     7
176
     0
 40
1.0
176
     0
 90
        1
176
     0
 90
        6
176
     0
 90
        2
176
     0
 62
     7
176
     0
 90
        5
176
     0
 90
        0
176
     0
 90
        0
176
     0
290
     0
176
     0
 90
        1
176
     0
 40
0.0
176
     0
 90
        0
176
     0
290
     0
176
     0
290
     1
176
     0
290
     1
176
     0
290
     0
176
     0
290
     0
176
     0
290
     0
176
     0
290
     0
176
     0
290
     0
176
     0
290
     0
176
     0
 90
       50
176
     0
 40
0.0
176
     0
 40
1.0
176
     0
 90
        0
176
     0
 62
    18
420
        0
176
     0
 90
       50
176
     0
 90
        3
176
     0
 62
     5
420
      255
176
     0
290
     0
176
     0
 90
       50
176
     0
 90
       50
176
     0
 90
       50
176
     0
290
     0
176
     0
 90
       50
176
     0
 62
   256
176
     0
 40
1.0
176
     0
 90
        2
176
     0
  1
strokes_ogs.tif
176
     0
290
     0
176
     0
 40
1.0
176
     0
 40
1.0
176
     0
  0
VISUALSTYLE
  5
33
102
{ACAD_REACTORS
330
2A
102
}
330
2A
100
AcDbVisualStyle
  2
Realistic
 70
     8
177
     3
291
     0
 70
    58
 90
        2
176
     1
 90
        3
176
     1
 90
        0
176
     1
 90
        2
176
     1
 40
0.6
176
     1
 40
30.0
176
     1
 62
     7
420
 16777215
176
     1
 90
        0
176
     1
 90
        0
176
     1
 62
     7
176
     1
 62
   257
176
     1
 90
        1
176
     1
 90
        1
176
     1
 40
1.0
176
     1
 90
        8
176
     1
 62
   257
176
     1
 40
1.0
176
     1
 90
        1
176
     1
 90
        6
176
     1
 90
        2
176
     1
 62
     7
176
     1
 90
        3
176
     1
 90
        0
176
     1
 90
        0
176
     1
290
     0
176
     1
 90
       13
176
     1
 40
0.0
176
     1
 90
        0
176
     1
290
     0
176
     1
290
     1
176
     1
290
     1
176
     1
290
     0
176
     1
290
     0
176
     1
290
     0
176
     1
290
     0
176
     1
290
     0
176
     1
290
     0
176
     1
 90
       50
176
     1
 40
0.0
176
     1
 40
1.0
176
     1
 90
        0
176
     1
 62
    18
420
        0
176
     1
 90
       50
176
     1
 90
        3
176
     1
 62
     5
420
      255
176
     1
290
     0
176
     1
 90
       50
176
     1
 90
       50
176
     1
 90
       50
176
     1
290
     0
176
     1
 90
       50
176
     1
 62
   256
176
     0
 40
1.0
176
     0
 90
        2
176
     1
  1
strokes_ogs.tif
176
     1
290
     0
176
     1
 40
1.0
176
     1
 40
1.0
176
     1
  0
VISUALSTYLE
  5
42
102
{ACAD_REACTORS
330
2A
102
}
330
2A
100
AcDbVisualStyle
  2
Shaded
 70
    27
177
     3
291
     0
 70
    58
 90
        2
176
     1
 90
        2
176
     1
 90
        1
176
     1
 90
        2
176
     1
 40
0.6
176
     1
 40
30.0
176
     1
 62
     7
420
 16777215
176
     1
 90
        0
176
     1
 90
        4
176
     1
 62
     7
176
     1
 62
   257
176
     1
 90
        1
176
     1
 90
        1
176
     1
 40
1.0
176
     1
 90
        8
176
     1
 62
   257
176
     1
 40
1.0
176
     1
 90
        1
176
     1
 90
        6
176
     1
 90
        2
176
     1
 62
     8
420
  7895160
176
     1
 90
        3
176
     1
 90
        0
176
     1
 90
        0
176
     1
290
     0
176
     1
 90
        5
176
     1
 40
0.0
176
     1
 90
        0
176
     1
290
     0
176
     1
290
     1
176
     1
290
     1
176
     1
290
     0
176
     1
290
     0
176
     1
290
     0
176
     1
290
     0
176
     1
290
     0
176
     1
290
     0
176
     1
 90
       50
176
     1
 40
0.0
176
     1
 40
1.0
176
     1
 90
        0
176
     1
 62
    18
420
        0
176
     1
 90
       50
176
     1
 90
        3
176
     1
 62
     5
420
      255
176
     1
290
     0
176
     1
 90
       50
176
     1
 90
       50
176
     1
 90
       50
176
     1
290
     0
176
     1
 90
       50
176
     1
 62
   256
176
     0
 40
1.0
176
     0
 90
        2
176
     1
  1
strokes_ogs.tif
176
     1
290
     0
176
     1
 40
1.0
176
     1
 40
1.0
176
     1
  0
VISUALSTYLE
  5
41
102
{ACAD_REACTORS
330
2A
102
}
330
2A
100
AcDbVisualStyle
  2
Shaded with edges
 70
    26
177
     3
291
     0
 70
    58
 90
        2
176
     1
 90
        2
176
     1
 90
        1
176
     1
 90
        2
176
     1
 40
0.6
176
     1
 40
30.0
176
     1
 62
     7
420
 16777215
176
     1
 90
        1
176
     1
 90
       10
176
     1
 62
     7
176
     1
 62
   257
176
     1
 90
        2
176
     1
 90
        1
176
     1
 40
1.0
176
     1
 90
        8
176
     1
 62
   257
176
     1
 40
1.0
176
     1
 90
        1
176
     1
 90
        6
176
     1
 90
        2
176
     1
 62
     7
176
     1
 90
        3
176
     1
 90
        0
176
     1
 90
        0
176
     1
290
     0
176
     1
 90
        5
176
     1
 40
0.0
176
     1
 90
        0
176
     1
290
     0
176
     1
290
     1
176
     1
290
     1
176
     1
290
     0
176
     1
290
     0
176
     1
290
     0
176
     1
290
     0
176
     1
290
     0
176
     1
290
     0
176
     1
 90
       50
176
     1
 40
0.0
176
     1
 40
1.0
176
     1
 90
        0
176
     1
 62
    18
420
        0
176
     1
 90
       50
176
     1
 90
        3
176
     1
 62
     5
420
      255
176
     1
290
     0
176
     1
 90
       50
176
     1
 90
       50
176
     1
 90
       50
176
     1
290
     0
176
     1
 90
       50
176
     1
 62
   256
176
     0
 40
1.0
176
     0
 90
        2
176
     1
  1
strokes_ogs.tif
176
     1
290
     0
176
     1
 40
1.0
176
     1
 40
1.0
176
     1
  0
VISUALSTYLE
  5
3E
102
{ACAD_REACTORS
330
2A
102
}
330
2A
100
AcDbVisualStyle
  2
Shades of Gray
 70
    23
177
     3
291
     0
 70
    58
 90
        2
176
     1
 90
        2
176
     1
 90
        3
176
     1
 90
        0
176
     1
 40
0.6
176
     1
 40
30.0
176
     1
 62
     7
420
 16777215
176
     1
 90
        2
176
     1
 90
        2
176
     1
 62
     7
176
     1
 62
     7
176
     1
 90
        1
176
     1
 90
        1
176
     1
 40
40.0
176
     1
 90
        8
176
     1
 62
     7
176
     1
 40
1.0
176
     1
 90
        1
176
     1
 90
        6
176
     1
 90
        2
176
     1
 62
     7
176
     1
 90
        3
176
     1
 90
        0
176
     1
 90
        0
176
     1
290
     0
176
     1
 90
        1
176
     1
 40
0.0
176
     1
 90
        0
176
     1
290
     0
176
     1
290
     1
176
     1
290
     1
176
     1
290
     0
176
     1
290
     0
176
     1
290
     0
176
     1
290
     0
176
     1
290
     0
176
     1
290
     0
176
     1
 90
       50
176
     1
 40
0.0
176
     1
 40
1.0
176
     1
 90
        0
176
     1
 62
    18
420
        0
176
     1
 90
       50
176
     1
 90
        3
176
     1
 62
     5
420
      255
176
     1
290
     0
176
     1
 90
       50
176
     1
 90
       50
176
     1
 90
       50
176
     1
290
     0
176
     1
 90
       50
176
     1
 62
   256
176
     0
 40
1.0
176
     0
 90
        2
176
     1
  1
strokes_ogs.tif
176
     1
290
     0
176
     1
 40
1.0
176
     1
 40
1.0
176
     1
  0
VISUALSTYLE
  5
3F
102
{ACAD_REACTORS
330
2A
102
}
330
2A
100
AcDbVisualStyle
  2
Sketchy
 70
    24
177
     3
291
     0
 70
    58
 90
        1
176
     1
 90
        2
176
     1
 90
        2
176
     1
 90
        0
176
     1
 40
0.6
176
     1
 40
30.0
176
     1
 62
     7
420
 16777215
176
     1
 90
        2
176
     1
 90
        2
176
     1
 62
     7
176
     1
 62
     7
176
     1
 90
        1
176
     1
 90
        1
176
     1
 40
40.0
176
     1
 90
       11
176
     1
 62
     7
176
     1
 40
1.0
176
     1
 90
        1
176
     1
 90
        6
176
     1
 90
        2
176
     1
 62
     7
176
     1
 90
        6
176
     1
 90
        0
176
     1
 90
        0
176
     1
290
     0
176
     1
 90
        1
176
     1
 40
0.0
176
     1
 90
        0
176
     1
290
     0
176
     1
290
     1
176
     1
290
     1
176
     1
290
     0
176
     1
290
     0
176
     1
290
     0
176
     1
290
     0
176
     1
290
     0
176
     1
290
     0
176
     1
 90
       50
176
     1
 40
0.0
176
     1
 40
1.0
176
     1
 90
        0
176
     1
 62
    18
420
        0
176
     1
 90
       50
176
     1
 90
        3
176
     1
 62
     5
420
      255
176
     1
290
     0
176
     1
 90
       50
176
     1
 90
       50
176
     1
 90
       50
176
     1
290
     0
176
     1
 90
       50
176
     1
 62
   256
176
     0
 40
1.0
176
     0
 90
        2
176
     1
  1
strokes_ogs.tif
176
     1
290
     0
176
     1
 40
1.0
176
     1
 40
1.0
176
     1
  0
VISUALSTYLE
  5
37
102
{ACAD_REACTORS
330
2A
102
}
330
2A
100
AcDbVisualStyle
  2
Thicken
 70
    13
177
     3
291
     1
 70
    58
 90
        2
176
     1
 90
        2
176
     1
 90
        0
176
     1
 90
        0
176
     1
 40
0.6
176
     1
 40
30.0
176
     1
 62
     7
420
 16777215
176
     1
 90
        1
176
     1
 90
        4
176
     1
 62
     7
176
     1
 62
   257
176
     1
 90
        1
176
     1
 90
        1
176
     1
 40
1.0
176
     1
 90
       12
176
     1
 62
     7
176
     1
 40
1.0
176
     1
 90
        1
176
     1
 90
        6
176
     1
 90
        2
176
     1
 62
     7
176
     1
 90
        5
176
     1
 90
        0
176
     1
 90
        0
176
     1
290
     0
176
     1
 90
        1
176
     1
 40
0.0
176
     1
 90
        0
176
     1
290
     0
176
     1
290
     1
176
     1
290
     1
176
     1
290
     0
176
     1
290
     0
176
     1
290
     0
176
     1
290
     0
176
     1
290
     0
176
     1
290
     0
176
     1
 90
       50
176
     1
 40
0.0
176
     1
 40
1.0
176
     1
 90
        0
176
     1
 62
    18
420
        0
176
     1
 90
       50
176
     1
 90
        3
176
     1
 62
     5
420
      255
176
     1
290
     0
176
     1
 90
       50
176
     1
 90
       50
176
     1
 90
       50
176
     1
290
     0
176
     1
 90
       50
176
     1
 62
   256
176
     0
 40
1.0
176
     0
 90
        2
176
     1
  1
strokes_ogs.tif
176
     1
290
     0
176
     1
 40
1.0
176
     1
 40
1.0
176
     1
  0
VISUALSTYLE
  5
30
102
{ACAD_REACTORS
330
2A
102
}
330
2A
100
AcDbVisualStyle
  2
Wireframe
 70
     5
177
     3
291
     0
 70
    58
 90
        0
176
     1
 90
        2
176
     1
 90
        0
176
     1
 90
        0
176
     1
 40
0.6
176
     1
 40
30.0
176
     1
 62
     7
420
 16777215
176
     1
 90
        1
176
     1
 90
        4
176
     1
 62
     7
176
     1
 62
   257
176
     1
 90
        1
176
     1
 90
        1
176
     1
 40
1.0
176
     1
 90
        0
176
     1
 62
   257
176
     1
 40
1.0
176
     1
 90
        1
176
     1
 90
        6
176
     1
 90
        2
176
     1
 62
     7
176
     1
 90
        3
176
     1
 90
        0
176
     1
 90
        0
176
     1
290
     0
176
     1
 90
        1
176
     1
 40
0.0
176
     1
 90
        0
176
     1
290
     0
176
     1
290
     1
176
     1
290
     1
176
     1
290
     0
176
     1
290
     0
176
     1
290
     0
176
     1
290
     0
176
     1
290
     0
176
     1
290
     0
176
     1
 90
       50
176
     1
 40
0.0
176
     1
 40
1.0
176
     1
 90
        0
176
     1
 62
    18
420
        0
176
     1
 90
       50
176
     1
 90
        3
176
     1
 62
     5
420
      255
176
     1
290
     0
176
     1
 90
       50
176
     1
 90
       50
176
     1
 90
       50
176
     1
290
     0
176
     1
 90
       50
176
     1
 62
   256
176
     0
 40
1.0
176
     0
 90
        2
176
     1
  1
strokes_ogs.tif
176
     1
290
     0
176
     1
 40
1.0
176
     1
 40
1.0
176
     1
  0
VISUALSTYLE
  5
40
102
{ACAD_REACTORS
330
2A
102
}
330
2A
100
AcDbVisualStyle
  2
X-Ray
 70
    25
177
     3
291
     0
 70
    58
 90
        2
176
     1
 90
        2
176
     1
 90
        1
176
     1
 90
        1
176
     1
 40
0.5
176
     1
 40
30.0
176
     1
 62
     7
420
 16777215
176
     1
 90
        1
176
     1
 90
        0
176
     1
 62
     7
176
     1
 62
   257
176
     1
 90
        1
176
     1
 90
        1
176
     1
 40
1.0
176
     1
 90
        8
176
     1
 62
     7
176
     1
 40
1.0
176
     1
 90
        1
176
     1
 90
        6
176
     1
 90
        2
176
     1
 62
     7
176
     1
 90
        3
176
     1
 90
        0
176
     1
 90
        0
176
     1
290
     0
176
     1
 90
       13
176
     1
 40
0.0
176
     1
 90
        0
176
     1
290
     0
176
     1
290
     1
176
     1
290
     1
176
     1
290
     0
176
     1
290
     0
176
     1
290
     0
176
     1
290
     0
176
     1
290
     0
176
     1
290
     0
176
     1
 90
       50
176
     1
 40
0.0
176
     1
 40
1.0
176
     1
 90
        0
176
     1
 62
    18
420
        0
176
     1
 90
       50
176
     1
 90
        3
176
     1
 62
     5
420
      255
176
     1
290
     0
176
     1
 90
       50
176
     1
 90
       50
176
     1
 90
       50
176
     1
290
     0
176
     1
 90
       50
176
     1
 62
   256
176
     0
 40
1.0
176
     0
 90
        2
176
     1
  1
strokes_ogs.tif
176
     1
290
     0
176
     1
 40
1.0
176
     1
 40
1.0
176
     1
  0
DICTIONARYVAR
  5
252
102
{ACAD_REACTORS
330
251
102
}
330
251
100
DictionaryVariables
280
     0
  1
1:1
  0
DICTIONARYVAR
  5
257
102
{ACAD_REACTORS
330
251
102
}
330
251
100
DictionaryVariables
280
     0
  1
Standard
  0
DICTIONARYVAR
  5
256
102
{ACAD_REACTORS
330
251
102
}
330
251
100
DictionaryVariables
280
     0
  1
Standard
  0
DICTIONARY
  5
253
330
6A
100
AcDbDictionary
280
     1
281
     1
  3
ACAD_ROUNDTRIP_2008_TABLESTYLE_CELLSTYLEMAP
360
254
  0
CELLSTYLEMAP
  5
254
102
{ACAD_REACTORS
330
253
102
}
330
253
100
AcDbCellStyleMap
 90
        3
300
CELLSTYLE
  1
TABLEFORMAT_BEGIN
 90
        5
170
     1
 91
        0
 92
    32768
 62
   257
 93
        1
300
CONTENTFORMAT
  1
CONTENTFORMAT_BEGIN
 90
        0
 91
        0
 92
        4
 93
        0
300

 40
0.0
140
1.0
 94
        5
 62
     0
340
11
144
0.25
309
CONTENTFORMAT_END
171
     1
301
MARGIN
  1
CELLMARGIN_BEGIN
 40
0.06
 40
0.06
 40
0.06
 40
0.06
 40
0.06
 40
0.06
309
CELLMARGIN_END
 94
        6
 95
        1
302
GRIDFORMAT
  1
GRIDFORMAT_BEGIN
 90
        0
 91
        1
 62
     0
 92
       -2
340
14
 93
        0
 40
0.045
309
GRIDFORMAT_END
 95
        2
302
GRIDFORMAT
  1
GRIDFORMAT_BEGIN
 90
        0
 91
        1
 62
     0
 92
       -2
340
14
 93
        0
 40
0.045
309
GRIDFORMAT_END
 95
        4
302
GRIDFORMAT
  1
GRIDFORMAT_BEGIN
 90
        0
 91
        1
 62
     0
 92
       -2
340
14
 93
        0
 40
0.045
309
GRIDFORMAT_END
 95
        8
302
GRIDFORMAT
  1
GRIDFORMAT_BEGIN
 90
        0
 91
        1
 62
     0
 92
       -2
340
14
 93
        0
 40
0.045
309
GRIDFORMAT_END
 95
       16
302
GRIDFORMAT
  1
GRIDFORMAT_BEGIN
 90
        0
 91
        1
 62
     0
 92
       -2
340
14
 93
        0
 40
0.045
309
GRIDFORMAT_END
 95
       32
302
GRIDFORMAT
  1
GRIDFORMAT_BEGIN
 90
        0
 91
        1
 62
     0
 92
       -2
340
14
 93
        0
 40
0.045
309
GRIDFORMAT_END
309
TABLEFORMAT_END
  1
CELLSTYLE_BEGIN
 90
        1
 91
        1
300
_TITLE
309
CELLSTYLE_END
300
CELLSTYLE
  1
TABLEFORMAT_BEGIN
 90
        5
170
     1
 91
        0
 92
        0
 62
   257
 93
        1
300
CONTENTFORMAT
  1
CONTENTFORMAT_BEGIN
 90
        0
 91
        0
 92
        4
 93
        0
300

 40
0.0
140
1.0
 94
        5
 62
     0
340
11
144
0.18
309
CONTENTFORMAT_END
171
     1
301
MARGIN
  1
CELLMARGIN_BEGIN
 40
0.06
 40
0.06
 40
0.06
 40
0.06
 40
0.06
 40
0.06
309
CELLMARGIN_END
 94
        6
 95
        1
302
GRIDFORMAT
  1
GRIDFORMAT_BEGIN
 90
        0
 91
        1
 62
     0
 92
       -2
340
14
 93
        0
 40
0.045
309
GRIDFORMAT_END
 95
        2
302
GRIDFORMAT
  1
GRIDFORMAT_BEGIN
 90
        0
 91
        1
 62
     0
 92
       -2
340
14
 93
        0
 40
0.045
309
GRIDFORMAT_END
 95
        4
302
GRIDFORMAT
  1
GRIDFORMAT_BEGIN
 90
        0
 91
        1
 62
     0
 92
       -2
340
14
 93
        0
 40
0.045
309
GRIDFORMAT_END
 95
        8
302
GRIDFORMAT
  1
GRIDFORMAT_BEGIN
 90
        0
 91
        1
 62
     0
 92
       -2
340
14
 93
        0
 40
0.045
309
GRIDFORMAT_END
 95
       16
302
GRIDFORMAT
  1
GRIDFORMAT_BEGIN
 90
        0
 91
        1
 62
     0
 92
       -2
340
14
 93
        0
 40
0.045
309
GRIDFORMAT_END
 95
       32
302
GRIDFORMAT
  1
GRIDFORMAT_BEGIN
 90
        0
 91
        1
 62
     0
 92
       -2
340
14
 93
        0
 40
0.045
309
GRIDFORMAT_END
309
TABLEFORMAT_END
  1
CELLSTYLE_BEGIN
 90
        2
 91
        1
300
_HEADER
309
CELLSTYLE_END
300
CELLSTYLE
  1
TABLEFORMAT_BEGIN
 90
        5
170
     1
 91
        0
 92
        0
 62
   257
 93
        1
300
CONTENTFORMAT
  1
CONTENTFORMAT_BEGIN
 90
        0
 91
        0
 92
        4
 93
        0
300

 40
0.0
140
1.0
 94
        2
 62
     0
340
11
144
0.18
309
CONTENTFORMAT_END
171
     1
301
MARGIN
  1
CELLMARGIN_BEGIN
 40
0.06
 40
0.06
 40
0.06
 40
0.06
 40
0.06
 40
0.06
309
CELLMARGIN_END
 94
        6
 95
        1
302
GRIDFORMAT
  1
GRIDFORMAT_BEGIN
 90
        0
 91
        1
 62
     0
 92
       -2
340
14
 93
        0
 40
0.045
309
GRIDFORMAT_END
 95
        2
302
GRIDFORMAT
  1
GRIDFORMAT_BEGIN
 90
        0
 91
        1
 62
     0
 92
       -2
340
14
 93
        0
 40
0.045
309
GRIDFORMAT_END
 95
        4
302
GRIDFORMAT
  1
GRIDFORMAT_BEGIN
 90
        0
 91
        1
 62
     0
 92
       -2
340
14
 93
        0
 40
0.045
309
GRIDFORMAT_END
 95
        8
302
GRIDFORMAT
  1
GRIDFORMAT_BEGIN
 90
        0
 91
        1
 62
     0
 92
       -2
340
14
 93
        0
 40
0.045
309
GRIDFORMAT_END
 95
       16
302
GRIDFORMAT
  1
GRIDFORMAT_BEGIN
 90
        0
 91
        1
 62
     0
 92
       -2
340
14
 93
        0
 40
0.045
309
GRIDFORMAT_END
 95
       32
302
GRIDFORMAT
  1
GRIDFORMAT_BEGIN
 90
        0
 91
        1
 62
     0
 92
       -2
340
14
 93
        0
 40
0.045
309
GRIDFORMAT_END
309
TABLEFORMAT_END
  1
CELLSTYLE_BEGIN
 90
        3
 91
        2
300
_DATA
309
CELLSTYLE_END
  0
ENDSEC
  0
EOF