0
SECTION
  2
HEADER
  9
$ACADVER
  1
AC1027
  9
$ACADMAINTVER
 70
     8
  9
$DWGCODEPAGE
  3
ANSI_1252
  9
$REQUIREDVERSIONS
160
                 0
  9
$COMMENTS
  1
File was created by Cadenas
  9
$CUSTOMPROPERTYTAG
  1
NN
  9
$CUSTOMPROPERTY
  1
Type K  S-1 Units Gray Iron Inch Bore
  9
$CUSTOMPROPERTYTAG
  1
NT
  9
$CUSTOMPROPERTY
  1
Type K
  9
$CUSTOMPROPERTYTAG
  1
NB
  9
$CUSTOMPROPERTY
  1
023275
  9
$CUSTOMPROPERTYTAG
  1
NBSYN
  9
$CUSTOMPROPERTY
  1
$PN.
  9
$CUSTOMPROPERTYTAG
  1
LINA
  9
$CUSTOMPROPERTY
  1
023275
  9
$CUSTOMPROPERTYTAG
  1
SS
  9
$CUSTOMPROPERTY
  1
1-1/2
  9
$CUSTOMPROPERTYTAG
  1
PN
  9
$CUSTOMPROPERTY
  1
023275
  9
$CUSTOMPROPERTYTAG
  1
PNA
  9
$CUSTOMPROPERTY
  1
S1U-K-108R
  9
$CUSTOMPROPERTYTAG
  1
WEIGHT
  9
$CUSTOMPROPERTY
  1
5
  9
$CUSTOMPROPERTYTAG
  1
A
  9
$CUSTOMPROPERTY
  1
2-27/32
  9
$CUSTOMPROPERTYTAG
  1
B
  9
$CUSTOMPROPERTY
  1
2-5/16
  9
$CUSTOMPROPERTYTAG
  1
C
  9
$CUSTOMPROPERTY
  1
1-3/16
  9
$CUSTOMPROPERTYTAG
  1
D
  9
$CUSTOMPROPERTY
  1
3-15/16
  9
$CUSTOMPROPERTYTAG
  1
E
  9
$CUSTOMPROPERTY
  1
0.450
  9
$CUSTOMPROPERTYTAG
  1
EC
  9
$CUSTOMPROPERTY
  1
3-13/16
  9
$CUSTOMPROPERTYTAG
  1
EM
  9
$CUSTOMPROPERTY
  1
3.750
  9
$CUSTOMPROPERTYTAG
  1
H
  9
$CUSTOMPROPERTY
  1
11/16
  9
$CUSTOMPROPERTYTAG
  1
J
  9
$CUSTOMPROPERTY
  1
2-7/8
  9
$CUSTOMPROPERTYTAG
  1
K
  9
$CUSTOMPROPERTY
  1
4.125
  9
$CUSTOMPROPERTYTAG
  1
L
  9
$CUSTOMPROPERTY
  1
3-3/16
  9
$CUSTOMPROPERTYTAG
  1
M
  9
$CUSTOMPROPERTY
  1
2-13/16
  9
$CUSTOMPROPERTYTAG
  1
R
  9
$CUSTOMPROPERTY
  1
1-5/32
  9
$CUSTOMPROPERTYTAG
  1
S
  9
$CUSTOMPROPERTY
  1
1-11/16
  9
$CUSTOMPROPERTYTAG
  1
CS
  9
$CUSTOMPROPERTY
  1
33000
  9
$CUSTOMPROPERTYTAG
  1
CD
  9
$CUSTOMPROPERTY
  1
6140
  9
$CUSTOMPROPERTYTAG
  1
RN
  9
$CUSTOMPROPERTY
  1
18
  9
$CUSTOMPROPERTYTAG
  1
RM
  9
$CUSTOMPROPERTY
  1
.35
  9
$CUSTOMPROPERTYTAG
  1
PDI
  9
$CUSTOMPROPERTY
  1
2.411
  9
$CUSTOMPROPERTYTAG
  1
EP
  9
$CUSTOMPROPERTY
  1
.004-.012
  9
$CUSTOMPROPERTYTAG
  1
SC
  9
$CUSTOMPROPERTY
  1
5/16-18*5/8
  9
$CUSTOMPROPERTYTAG
  1
TC
  9
$CUSTOMPROPERTY
  1
165
  9
$CUSTOMPROPERTYTAG
  1
MH
  9
$CUSTOMPROPERTY
  1
C.I. ASTM A48 CLASS 30
  9
$CUSTOMPROPERTYTAG
  1
MC
  9
$CUSTOMPROPERTY
  1
4118 CASE CARB.
  9
$CUSTOMPROPERTYTAG
  1
MCU
  9
$CUSTOMPROPERTY
  1
4118 CASE CARB.
  9
$CUSTOMPROPERTYTAG
  1
MR
  9
$CUSTOMPROPERTY
  1
STEEL
  9
$CUSTOMPROPERTYTAG
  1
MRO
  9
$CUSTOMPROPERTY
  1
4118 CASE CARB.
  9
$CUSTOMPROPERTYTAG
  1
SM
  9
$CUSTOMPROPERTY
  1
±.001 PER INCH
  9
$CUSTOMPROPERTYTAG
  1
COMPANY
  9
$CUSTOMPROPERTY
  1
baldor
  9
$INSBASE
 10
0.0
 20
0.0
 30
0.0
  9
$EXTMIN
 10
1.000000000000000E+20
 20
1.000000000000000E+20
 30
1.000000000000000E+20
  9
$EXTMAX
 10
-1.000000000000000E+20
 20
-1.000000000000000E+20
 30
-1.000000000000000E+20
  9
$LIMMIN
 10
0.0
 20
0.0
  9
$LIMMAX
 10
12.0
 20
9.0
  9
$ORTHOMODE
 70
     0
  9
$REGENMODE
 70
     1
  9
$FILLMODE
 70
     1
  9
$QTEXTMODE
 70
     0
  9
$MIRRTEXT
 70
     1
  9
$LTSCALE
 40
1.0
  9
$ATTMODE
 70
     1
  9
$TEXTSIZE
 40
0.2
  9
$TRACEWID
 40
0.05
  9
$TEXTSTYLE
  7
Standard
  9
$CLAYER
  8
0
  9
$CELTYPE
  6
ByLayer
  9
$CECOLOR
 62
   256
  9
$CELTSCALE
 40
1.0
  9
$DISPSILH
 70
     0
  9
$DIMSCALE
 40
1.0
  9
$DIMASZ
 40
0.18
  9
$DIMEXO
 40
0.0625
  9
$DIMDLI
 40
0.38
  9
$DIMRND
 40
0.0
  9
$DIMDLE
 40
0.0
  9
$DIMEXE
 40
0.18
  9
$DIMTP
 40
0.0
  9
$DIMTM
 40
0.0
  9
$DIMTXT
 40
0.18
  9
$DIMCEN
 40
0.09
  9
$DIMTSZ
 40
0.0
  9
$DIMTOL
 70
     0
  9
$DIMLIM
 70
     0
  9
$DIMTIH
 70
     1
  9
$DIMTOH
 70
     1
  9
$DIMSE1
 70
     0
  9
$DIMSE2
 70
     0
  9
$DIMTAD
 70
     0
  9
$DIMZIN
 70
     0
  9
$DIMBLK
  1

  9
$DIMASO
 70
     1
  9
$DIMSHO
 70
     1
  9
$DIMPOST
  1

  9
$DIMAPOST
  1

  9
$DIMALT
 70
     0
  9
$DIMALTD
 70
     2
  9
$DIMALTF
 40
25.4
  9
$DIMLFAC
 40
1.0
  9
$DIMTOFL
 70
     0
  9
$DIMTVP
 40
0.0
  9
$DIMTIX
 70
     0
  9
$DIMSOXD
 70
     0
  9
$DIMSAH
 70
     0
  9
$DIMBLK1
  1

  9
$DIMBLK2
  1

  9
$DIMSTYLE
  2
Standard
  9
$DIMCLRD
 70
     0
  9
$DIMCLRE
 70
     0
  9
$DIMCLRT
 70
     0
  9
$DIMTFAC
 40
1.0
  9
$DIMGAP
 40
0.09
  9
$DIMJUST
 70
     0
  9
$DIMSD1
 70
     0
  9
$DIMSD2
 70
     0
  9
$DIMTOLJ
 70
     1
  9
$DIMTZIN
 70
     0
  9
$DIMALTZ
 70
     0
  9
$DIMALTTZ
 70
     0
  9
$DIMUPT
 70
     0
  9
$DIMDEC
 70
     4
  9
$DIMTDEC
 70
     4
  9
$DIMALTU
 70
     2
  9
$DIMALTTD
 70
     2
  9
$DIMTXSTY
  7
Standard
  9
$DIMAUNIT
 70
     0
  9
$DIMADEC
 70
     0
  9
$DIMALTRND
 40
0.0
  9
$DIMAZIN
 70
     0
  9
$DIMDSEP
 70
    46
  9
$DIMATFIT
 70
     3
  9
$DIMFRAC
 70
     0
  9
$DIMLDRBLK
  1

  9
$DIMLUNIT
 70
     2
  9
$DIMLWD
 70
    -2
  9
$DIMLWE
 70
    -2
  9
$DIMTMOVE
 70
     0
  9
$DIMFXL
 40
1.0
  9
$DIMFXLON
 70
     0
  9
$DIMJOGANG
 40
0.7853981633974483
  9
$DIMTFILL
 70
     0
  9
$DIMTFILLCLR
 70
     0
  9
$DIMARCSYM
 70
     0
  9
$DIMLTYPE
  6

  9
$DIMLTEX1
  6

  9
$DIMLTEX2
  6

  9
$DIMTXTDIRECTION
 70
     0
  9
$LUNITS
 70
     2
  9
$LUPREC
 70
     4
  9
$SKETCHINC
 40
0.1
  9
$FILLETRAD
 40
0.5
  9
$AUNITS
 70
     0
  9
$AUPREC
 70
     0
  9
$MENU
  1
.
  9
$ELEVATION
 40
0.0
  9
$PELEVATION
 40
0.0
  9
$THICKNESS
 40
0.0
  9
$LIMCHECK
 70
     0
  9
$CHAMFERA
 40
0.0
  9
$CHAMFERB
 40
0.0
  9
$CHAMFERC
 40
0.0
  9
$CHAMFERD
 40
0.0
  9
$SKPOLY
 70
     0
  9
$TDCREATE
 40
2458169.005373472
  9
$TDUCREATE
 40
2458168.963706805
  9
$TDUPDATE
 40
2458169.005373657
  9
$TDUUPDATE
 40
2458168.963706991
  9
$TDINDWG
 40
0.0000000116
  9
$TDUSRTIMER
 40
0.0000000116
  9
$USRTIMER
 70
     1
  9
$ANGBASE
 50
0.0
  9
$ANGDIR
 70
     0
  9
$PDMODE
 70
     0
  9
$PDSIZE
 40
0.0
  9
$PLINEWID
 40
0.0
  9
$SPLFRAME
 70
     0
  9
$SPLINETYPE
 70
     6
  9
$SPLINESEGS
 70
     8
  9
$HANDSEED
  5
18D
  9
$SURFTAB1
 70
     6
  9
$SURFTAB2
 70
     6
  9
$SURFTYPE
 70
     6
  9
$SURFU
 70
     6
  9
$SURFV
 70
     6
  9
$UCSBASE
  2

  9
$UCSNAME
  2

  9
$UCSORG
 10
0.0
 20
0.0
 30
0.0
  9
$UCSXDIR
 10
1.0
 20
0.0
 30
0.0
  9
$UCSYDIR
 10
0.0
 20
1.0
 30
0.0
  9
$UCSORTHOREF
  2

  9
$UCSORTHOVIEW
 70
     0
  9
$UCSORGTOP
 10
0.0
 20
0.0
 30
0.0
  9
$UCSORGBOTTOM
 10
0.0
 20
0.0
 30
0.0
  9
$UCSORGLEFT
 10
0.0
 20
0.0
 30
0.0
  9
$UCSORGRIGHT
 10
0.0
 20
0.0
 30
0.0
  9
$UCSORGFRONT
 10
0.0
 20
0.0
 30
0.0
  9
$UCSORGBACK
 10
0.0
 20
0.0
 30
0.0
  9
$PUCSBASE
  2

  9
$PUCSNAME
  2

  9
$PUCSORG
 10
0.0
 20
0.0
 30
0.0
  9
$PUCSXDIR
 10
1.0
 20
0.0
 30
0.0
  9
$PUCSYDIR
 10
0.0
 20
1.0
 30
0.0
  9
$PUCSORTHOREF
  2

  9
$PUCSORTHOVIEW
 70
     0
  9
$PUCSORGTOP
 10
0.0
 20
0.0
 30
0.0
  9
$PUCSORGBOTTOM
 10
0.0
 20
0.0
 30
0.0
  9
$PUCSORGLEFT
 10
0.0
 20
0.0
 30
0.0
  9
$PUCSORGRIGHT
 10
0.0
 20
0.0
 30
0.0
  9
$PUCSORGFRONT
 10
0.0
 20
0.0
 30
0.0
  9
$PUCSORGBACK
 10
0.0
 20
0.0
 30
0.0
  9
$USERI1
 70
     0
  9
$USERI2
 70
     0
  9
$USERI3
 70
     0
  9
$USERI4
 70
     0
  9
$USERI5
 70
     0
  9
$USERR1
 40
0.0
  9
$USERR2
 40
0.0
  9
$USERR3
 40
0.0
  9
$USERR4
 40
0.0
  9
$USERR5
 40
0.0
  9
$WORLDVIEW
 70
     1
  9
$SHADEDGE
 70
     3
  9
$SHADEDIF
 70
    70
  9
$TILEMODE
 70
     1
  9
$MAXACTVP
 70
    64
  9
$PINSBASE
 10
0.0
 20
0.0
 30
0.0
  9
$PLIMCHECK
 70
     0
  9
$PEXTMIN
 10
1.000000000000000E+20
 20
1.000000000000000E+20
 30
1.000000000000000E+20
  9
$PEXTMAX
 10
-1.000000000000000E+20
 20
-1.000000000000000E+20
 30
-1.000000000000000E+20
  9
$PLIMMIN
 10
0.0
 20
0.0
  9
$PLIMMAX
 10
12.0
 20
9.0
  9
$UNITMODE
 70
     0
  9
$VISRETAIN
 70
     1
  9
$PLINEGEN
 70
     0
  9
$PSLTSCALE
 70
     1
  9
$TREEDEPTH
 70
  3020
  9
$CMLSTYLE
  2
Standard
  9
$CMLJUST
 70
     0
  9
$CMLSCALE
 40
1.0
  9
$PROXYGRAPHICS
 70
     1
  9
$MEASUREMENT
 70
     0
  9
$CELWEIGHT
370
    -1
  9
$ENDCAPS
280
     0
  9
$JOINSTYLE
280
     0
  9
$LWDISPLAY
290
     0
  9
$INSUNITS
 70
     1
  9
$HYPERLINKBASE
  1

  9
$STYLESHEET
  1

  9
$XEDIT
290
     1
  9
$CEPSNTYPE
380
     0
  9
$PSTYLEMODE
290
     1
  9
$FINGERPRINTGUID
  2
{4066D008-5F22-4CD4-AF93-29F42E97E2C9}
  9
$VERSIONGUID
  2
{FAEB1C32-E019-11D5-929B-00C0DF256EC4}
  9
$EXTNAMES
290
     1
  9
$PSVPSCALE
 40
0.0
  9
$OLESTARTUP
290
     0
  9
$SORTENTS
280
   127
  9
$INDEXCTL
280
     0
  9
$HIDETEXT
280
     1
  9
$XCLIPFRAME
280
     2
  9
$HALOGAP
280
     0
  9
$OBSCOLOR
 70
   257
  9
$OBSLTYPE
280
     0
  9
$INTERSECTIONDISPLAY
280
     0
  9
$INTERSECTIONCOLOR
 70
   257
  9
$DIMASSOC
280
     2
  9
$PROJECTNAME
  1

  9
$CAMERADISPLAY
290
     0
  9
$LENSLENGTH
 40
50.0
  9
$CAMERAHEIGHT
 40
0.0
  9
$STEPSPERSEC
 40
2.0
  9
$STEPSIZE
 40
6.0
  9
$3DDWFPREC
 40
2.0
  9
$PSOLWIDTH
 40
0.25
  9
$PSOLHEIGHT
 40
4.0
  9
$LOFTANG1
 40
1.570796326794897
  9
$LOFTANG2
 40
1.570796326794897
  9
$LOFTMAG1
 40
0.0
  9
$LOFTMAG2
 40
0.0
  9
$LOFTPARAM
 70
     7
  9
$LOFTNORMALS
280
     1
  9
$LATITUDE
 40
37.795
  9
$LONGITUDE
 40
-122.394
  9
$NORTHDIRECTION
 40
0.0
  9
$TIMEZONE
 70
 -8000
  9
$LIGHTGLYPHDISPLAY
280
     1
  9
$TILEMODELIGHTSYNCH
280
     1
  9
$CMATERIAL
347
44
  9
$SOLIDHIST
280
     0
  9
$SHOWHIST
280
     1
  9
$DWFFRAME
280
     2
  9
$DGNFRAME
280
     2
  9
$REALWORLDSCALE
290
     1
  9
$INTERFERECOLOR
 62
   256
  9
$CSHADOW
280
     0
  9
$SHADOWPLANELOCATION
 40
0.0
  0
ENDSEC
  0
SECTION
  2
CLASSES
  0
CLASS
  1
ACDBDICTIONARYWDFLT
  2
AcDbDictionaryWithDefault
  3
ObjectDBX Classes
 90
        0
 91
        4
280
     0
281
     0
  0
CLASS
  1
VISUALSTYLE
  2
AcDbVisualStyle
  3
ObjectDBX Classes
 90
     4095
 91
        4
280
     0
281
     0
  0
CLASS
  1
MATERIAL
  2
AcDbMaterial
  3
ObjectDBX Classes
 90
     1153
 91
        4
280
     0
281
     0
  0
CLASS
  1
SCALE
  2
AcDbScale
  3
ObjectDBX Classes
 90
     1153
 91
        4
280
     0
281
     0
  0
CLASS
  1
TABLESTYLE
  2
AcDbTableStyle
  3
ObjectDBX Classes
 90
     4095
 91
        4
280
     0
281
     0
  0
CLASS
  1
MLEADERSTYLE
  2
AcDbMLeaderStyle
  3
ACDB_MLEADERSTYLE_CLASS
 90
     4095
 91
        4
280
     0
281
     0
  0
CLASS
  1
SUN
  2
AcDbSun
  3
SCENEOE
 90
     1153
 91
        4
280
     0
281
     0
  0
CLASS
  1
DICTIONARYVAR
  2
AcDbDictionaryVar
  3
ObjectDBX Classes
 90
        0
 91
        4
280
     0
281
     0
  0
CLASS
  1
CELLSTYLEMAP
  2
AcDbCellStyleMap
  3
ObjectDBX Classes
 90
     1152
 91
        4
280
     0
281
     0
  0
ENDSEC
  0
SECTION
  2
TABLES
  0
TABLE
  2
VPORT
  5
8
330
0
100
AcDbSymbolTable
 70
     1
  0
VPORT
  5
29
330
8
100
AcDbSymbolTableRecord
100
AcDbViewportTableRecord
  2
*Active
 70
     0
 10
0.0
 20
0.0
 11
1.0
 21
1.0
 12
-0.1890625000000004
 22
0.4298750000000044
 13
0.0
 23
0.0
 14
0.5
 24
0.5
 15
0.5
 25
0.5
 16
0.0
 26
0.0
 36
1.0
 17
0.0
 27
0.0
 37
0.0
 40
5.084444999999993
 41
0.6582576859421245
 42
50.0
 43
0.0
 44
0.0
 50
0.0
 51
0.0
 71
     0
 72
   100
 73
     1
 74
     3
 75
     0
 76
     0
 77
     0
 78
     0
281
     0
 65
     1
110
0.0
120
0.0
130
0.0
111
1.0
121
0.0
131
0.0
112
0.0
122
1.0
132
0.0
 79
     0
146
0.0
348
2F
 60
     3
 61
     5
292
     1
282
     1
141
0.0
142
0.0
 63
   250
361
6D
  0
ENDTAB
  0
TABLE
  2
LTYPE
  5
5
330
0
100
AcDbSymbolTable
 70
     3
  0
LTYPE
  5
14
330
5
100
AcDbSymbolTableRecord
100
AcDbLinetypeTableRecord
  2
ByBlock
 70
     0
  3

 72
    65
 73
     0
 40
0.0
  0
LTYPE
  5
15
330
5
100
AcDbSymbolTableRecord
100
AcDbLinetypeTableRecord
  2
ByLayer
 70
     0
  3

 72
    65
 73
     0
 40
0.0
  0
LTYPE
  5
16
330
5
100
AcDbSymbolTableRecord
100
AcDbLinetypeTableRecord
  2
Continuous
 70
     0
  3
Solid line
 72
    65
 73
     0
 40
0.0
  0
LTYPE
  5
AE
330
5
100
AcDbSymbolTableRecord
100
AcDbLinetypeTableRecord
  2
Dashed
 70
     0
  3

 72
    65
 73
     2
 40
2.0
 49
1.0
 74
     0
 49
-1.0
 74
     0
  0
LTYPE
  5
C6
330
5
100
AcDbSymbolTableRecord
100
AcDbLinetypeTableRecord
  2
Center
 70
     0
  3

 72
    65
 73
     4
 40
1.5
 49
0.45
 74
     0
 49
-0.5
 74
     0
 49
0.05
 74
     0
 49
-0.5
 74
     0
  0
ENDTAB
  0
TABLE
  2
LAYER
  5
2
330
0
100
AcDbSymbolTable
 70
     7
  0
LAYER
  5
10
330
2
100
AcDbSymbolTableRecord
100
AcDbLayerTableRecord
  2
0
 70
     0
 62
     7
  6
Continuous
370
    -3
390
F
347
46
348
0
  0
LAYER
  5
72
330
2
100
AcDbSymbolTableRecord
100
AcDbLayerTableRecord
  2
AM_6
 70
     0
 62
    -2
  6
Continuous
370
    35
390
F
347
46
348
0
  0
LAYER
  5
AF
330
2
100
AcDbSymbolTableRecord
100
AcDbLayerTableRecord
  2
AM_9
 70
     0
 62
     6
  6
Dashed
370
    25
390
F
347
46
348
0
  0
LAYER
  5
C3
330
2
100
AcDbSymbolTableRecord
100
AcDbLayerTableRecord
  2
AM_5
 70
     0
 62
     3
  6
Continuous
370
    25
390
F
347
46
348
0
  0
LAYER
  5
C7
330
2
100
AcDbSymbolTableRecord
100
AcDbLayerTableRecord
  2
AM_7
 70
     0
 62
     7
  6
Center
370
    25
390
F
347
46
348
0
  0
LAYER
  5
C9
330
2
100
AcDbSymbolTableRecord
100
AcDbLayerTableRecord
  2
AM_4
 70
     0
 62
     7
  6
Continuous
370
    50
390
F
347
46
348
0
  0
LAYER
  5
17E
330
2
100
AcDbSymbolTableRecord
100
AcDbLayerTableRecord
  2
ConnectionPoints
 70
     0
 62
     7
  6
Continuous
370
    50
390
F
347
46
348
0
  0
ENDTAB
  0
TABLE
  2
STYLE
  5
3
330
0
100
AcDbSymbolTable
 70
     1
  0
STYLE
  5
11
330
3
100
AcDbSymbolTableRecord
100
AcDbTextStyleTableRecord
  2
Standard
 70
     0
 40
0.0
 41
1.0
 50
0.0
 71
     0
 42
0.2
  3
txt
  4

  0
ENDTAB
  0
TABLE
  2
VIEW
  5
6
330
0
100
AcDbSymbolTable
 70
     0
  0
ENDTAB
  0
TABLE
  2
UCS
  5
7
330
0
100
AcDbSymbolTable
 70
     0
  0
ENDTAB
  0
TABLE
  2
APPID
  5
9
330
0
100
AcDbSymbolTable
 70
     1
  0
APPID
  5
12
330
9
100
AcDbSymbolTableRecord
100
AcDbRegAppTableRecord
  2
ACAD
 70
     0
  0
ENDTAB
  0
TABLE
  2
DIMSTYLE
  5
A
330
0
100
AcDbSymbolTable
 70
     1
100
AcDbDimStyleTable
  0
DIMSTYLE
105
27
330
A
100
AcDbSymbolTableRecord
100
AcDbDimStyleTableRecord
  2
Standard
 70
     0
178
     0
340
11
  0
ENDTAB
  0
TABLE
  2
BLOCK_RECORD
  5
1
330
0
100
AcDbSymbolTable
 70
     5
  0
BLOCK_RECORD
  5
1F
330
1
100
AcDbSymbolTableRecord
100
AcDbBlockTableRecord
  2
*Model_Space
340
22
 70
     0
280
     1
281
     0
  0
BLOCK_RECORD
  5
1B
330
1
100
AcDbSymbolTableRecord
100
AcDbBlockTableRecord
  2
*Paper_Space
340
1E
 70
     0
280
     1
281
     0
  0
BLOCK_RECORD
  5
23
330
1
100
AcDbSymbolTableRecord
100
AcDbBlockTableRecord
  2
*Paper_Space0
340
26
 70
     0
280
     1
281
     0
  0
BLOCK_RECORD
  5
6E
330
1
100
AcDbSymbolTableRecord
100
AcDbBlockTableRecord
  2
1_023275_2
340
0
102
{BLKREFS
331
6F
102
}
 70
     0
280
     1
281
     0
  0
BLOCK_RECORD
  5
99
330
1
100
AcDbSymbolTableRecord
100
AcDbBlockTableRecord
  2
2_1_1_2C_0_in_023275_2
340
0
102
{BLKREFS
331
9A
102
}
 70
     0
280
     1
281
     0
  0
BLOCK_RECORD
  5
D7
330
1
100
AcDbSymbolTableRecord
100
AcDbBlockTableRecord
  2
3_405020c_Inch_0_in_023275_2
340
0
102
{BLKREFS
331
D8
102
}
 70
     0
280
     1
281
     0
  0
BLOCK_RECORD
  5
11B
330
1
100
AcDbSymbolTableRecord
100
AcDbBlockTableRecord
  2
4_S1U_K_108R_0_in_023275_2
340
0
102
{BLKREFS
331
11C
102
}
 70
     0
280
     1
281
     0
  0
ENDTAB
  0
ENDSEC
  0
SECTION
  2
BLOCKS
  0
BLOCK
  5
20
330
1F
100
AcDbEntity
  8
0
100
AcDbBlockBegin
  2
*Model_Space
 70
     0
 10
0.0
 20
0.0
 30
0.0
  3
*Model_Space
  1

  0
ENDBLK
  5
21
330
1F
100
AcDbEntity
  8
0
100
AcDbBlockEnd
  0
BLOCK
  5
1C
330
1B
100
AcDbEntity
 67
     1
  8
0
100
AcDbBlockBegin
  2
*Paper_Space
 70
     0
 10
0.0
 20
0.0
 30
0.0
  3
*Paper_Space
  1

  0
ENDBLK
  5
1D
330
1B
100
AcDbEntity
 67
     1
  8
0
100
AcDbBlockEnd
  0
BLOCK
  5
24
330
23
100
AcDbEntity
  8
0
100
AcDbBlockBegin
  2
*Paper_Space0
 70
     0
 10
0.0
 20
0.0
 30
0.0
  3
*Paper_Space0
  1

  0
ENDBLK
  5
25
330
23
100
AcDbEntity
  8
0
100
AcDbBlockEnd
  0
BLOCK
  5
70
330
6E
100
AcDbEntity
  8
0
100
AcDbBlockBegin
  2
1_023275_2
 70
     2
 10
0.0
 20
0.0
 30
0.0
  3
1_023275_2
  1

  0
ATTDEF
  5
73
330
6E
100
AcDbEntity
  8
AM_6
100
AcDbText
 10
6.4515625
 20
2.92225
 30
0.0
 40
0.5
  1
Type K  S-1 Units Gray Iron Inch Bore
100
AcDbAttributeDefinition
  3

  2
NN
 70
     8
280
     0
  0
ATTDEF
  5
74
330
6E
100
AcDbEntity
  8
AM_6
100
AcDbText
 10
6.4515625
 20
2.42225
 30
0.0
 40
0.5
  1
Type K
100
AcDbAttributeDefinition
  3

  2
NT
 70
     8
280
     0
  0
ATTDEF
  5
75
330
6E
100
AcDbEntity
  8
AM_6
100
AcDbText
 10
6.4515625
 20
1.92225
 30
0.0
 40
0.5
  1
023275
100
AcDbAttributeDefinition
  3

  2
NB
 70
     8
280
     0
  0
ATTDEF
  5
76
330
6E
100
AcDbEntity
  8
AM_6
100
AcDbText
 10
6.4515625
 20
1.42225
 30
0.0
 40
0.5
  1
$PN.
100
AcDbAttributeDefinition
  3

  2
NBSYN
 70
     8
280
     0
  0
ATTDEF
  5
77
330
6E
100
AcDbEntity
  8
AM_6
100
AcDbText
 10
6.4515625
 20
0.9222500000000005
 30
0.0
 40
0.5
  1
023275
100
AcDbAttributeDefinition
  3

  2
LINA
 70
     8
280
     0
  0
ATTDEF
  5
78
330
6E
100
AcDbEntity
  8
AM_6
100
AcDbText
 10
6.4515625
 20
0.4222500000000005
 30
0.0
 40
0.5
  1
1-1/2
100
AcDbAttributeDefinition
  3

  2
SS
 70
     8
280
     0
  0
ATTDEF
  5
79
330
6E
100
AcDbEntity
  8
AM_6
100
AcDbText
 10
6.4515625
 20
-0.0777499999999995
 30
0.0
 40
0.5
  1
023275
100
AcDbAttributeDefinition
  3

  2
PN
 70
     8
280
     0
  0
ATTDEF
  5
7A
330
6E
100
AcDbEntity
  8
AM_6
100
AcDbText
 10
6.4515625
 20
-0.5777499999999995
 30
0.0
 40
0.5
  1
S1U-K-108R
100
AcDbAttributeDefinition
  3

  2
PNA
 70
     8
280
     0
  0
ATTDEF
  5
7B
330
6E
100
AcDbEntity
  8
AM_6
100
AcDbText
 10
6.4515625
 20
-1.07775
 30
0.0
 40
0.5
  1
5
100
AcDbAttributeDefinition
  3

  2
WEIGHT
 70
     8
280
     0
  0
ATTDEF
  5
7C
330
6E
100
AcDbEntity
  8
AM_6
100
AcDbText
 10
6.4515625
 20
-1.57775
 30
0.0
 40
0.5
  1
2-27/32
100
AcDbAttributeDefinition
  3

  2
A
 70
     8
280
     0
  0
ATTDEF
  5
7D
330
6E
100
AcDbEntity
  8
AM_6
100
AcDbText
 10
6.4515625
 20
-2.07775
 30
0.0
 40
0.5
  1
2-5/16
100
AcDbAttributeDefinition
  3

  2
B
 70
     8
280
     0
  0
ATTDEF
  5
7E
330
6E
100
AcDbEntity
  8
AM_6
100
AcDbText
 10
6.4515625
 20
-2.57775
 30
0.0
 40
0.5
  1
1-3/16
100
AcDbAttributeDefinition
  3

  2
C
 70
     8
280
     0
  0
ATTDEF
  5
7F
330
6E
100
AcDbEntity
  8
AM_6
100
AcDbText
 10
6.4515625
 20
-3.07775
 30
0.0
 40
0.5
  1
3-15/16
100
AcDbAttributeDefinition
  3

  2
D
 70
     8
280
     0
  0
ATTDEF
  5
80
330
6E
100
AcDbEntity
  8
AM_6
100
AcDbText
 10
6.4515625
 20
-3.57775
 30
0.0
 40
0.5
  1
0.450
100
AcDbAttributeDefinition
  3

  2
E
 70
     8
280
     0
  0
ATTDEF
  5
81
330
6E
100
AcDbEntity
  8
AM_6
100
AcDbText
 10
6.4515625
 20
-4.07775
 30
0.0
 40
0.5
  1
3-13/16
100
AcDbAttributeDefinition
  3

  2
EC
 70
     8
280
     0
  0
ATTDEF
  5
82
330
6E
100
AcDbEntity
  8
AM_6
100
AcDbText
 10
6.4515625
 20
-4.57775
 30
0.0
 40
0.5
  1
3.750
100
AcDbAttributeDefinition
  3

  2
EM
 70
     8
280
     0
  0
ATTDEF
  5
83
330
6E
100
AcDbEntity
  8
AM_6
100
AcDbText
 10
6.4515625
 20
-5.07775
 30
0.0
 40
0.5
  1
11/16
100
AcDbAttributeDefinition
  3

  2
H
 70
     8
280
     0
  0
ATTDEF
  5
84
330
6E
100
AcDbEntity
  8
AM_6
100
AcDbText
 10
6.4515625
 20
-5.57775
 30
0.0
 40
0.5
  1
2-7/8
100
AcDbAttributeDefinition
  3

  2
J
 70
     8
280
     0
  0
ATTDEF
  5
85
330
6E
100
AcDbEntity
  8
AM_6
100
AcDbText
 10
6.4515625
 20
-6.07775
 30
0.0
 40
0.5
  1
4.125
100
AcDbAttributeDefinition
  3

  2
K
 70
     8
280
     0
  0
ATTDEF
  5
86
330
6E
100
AcDbEntity
  8
AM_6
100
AcDbText
 10
6.4515625
 20
-6.57775
 30
0.0
 40
0.5
  1
3-3/16
100
AcDbAttributeDefinition
  3

  2
L
 70
     8
280
     0
  0
ATTDEF
  5
87
330
6E
100
AcDbEntity
  8
AM_6
100
AcDbText
 10
6.4515625
 20
-7.07775
 30
0.0
 40
0.5
  1
2-13/16
100
AcDbAttributeDefinition
  3

  2
M
 70
     8
280
     0
  0
ATTDEF
  5
88
330
6E
100
AcDbEntity
  8
AM_6
100
AcDbText
 10
6.4515625
 20
-7.57775
 30
0.0
 40
0.5
  1
1-5/32
100
AcDbAttributeDefinition
  3

  2
R
 70
     8
280
     0
  0
ATTDEF
  5
89
330
6E
100
AcDbEntity
  8
AM_6
100
AcDbText
 10
6.4515625
 20
-8.07775
 30
0.0
 40
0.5
  1
1-11/16
100
AcDbAttributeDefinition
  3

  2
S
 70
     8
280
     0
  0
ATTDEF
  5
8A
330
6E
100
AcDbEntity
  8
AM_6
100
AcDbText
 10
6.4515625
 20
-8.57775
 30
0.0
 40
0.5
  1
33000
100
AcDbAttributeDefinition
  3

  2
CS
 70
     8
280
     0
  0
ATTDEF
  5
8B
330
6E
100
AcDbEntity
  8
AM_6
100
AcDbText
 10
6.4515625
 20
-9.07775
 30
0.0
 40
0.5
  1
6140
100
AcDbAttributeDefinition
  3

  2
CD
 70
     8
280
     0
  0
ATTDEF
  5
8C
330
6E
100
AcDbEntity
  8
AM_6
100
AcDbText
 10
6.4515625
 20
-9.57775
 30
0.0
 40
0.5
  1
18
100
AcDbAttributeDefinition
  3

  2
RN
 70
     8
280
     0
  0
ATTDEF
  5
8D
330
6E
100
AcDbEntity
  8
AM_6
100
AcDbText
 10
6.4515625
 20
-10.07775
 30
0.0
 40
0.5
  1
.35
100
AcDbAttributeDefinition
  3

  2
RM
 70
     8
280
     0
  0
ATTDEF
  5
8E
330
6E
100
AcDbEntity
  8
AM_6
100
AcDbText
 10
6.4515625
 20
-10.57775
 30
0.0
 40
0.5
  1
2.411
100
AcDbAttributeDefinition
  3

  2
PDI
 70
     8
280
     0
  0
ATTDEF
  5
8F
330
6E
100
AcDbEntity
  8
AM_6
100
AcDbText
 10
6.4515625
 20
-11.07775
 30
0.0
 40
0.5
  1
.004-.012
100
AcDbAttributeDefinition
  3

  2
EP
 70
     8
280
     0
  0
ATTDEF
  5
90
330
6E
100
AcDbEntity
  8
AM_6
100
AcDbText
 10
6.4515625
 20
-11.57775
 30
0.0
 40
0.5
  1
5/16-18*5/8
100
AcDbAttributeDefinition
  3

  2
SC
 70
     8
280
     0
  0
ATTDEF
  5
91
330
6E
100
AcDbEntity
  8
AM_6
100
AcDbText
 10
6.4515625
 20
-12.07775
 30
0.0
 40
0.5
  1
165
100
AcDbAttributeDefinition
  3

  2
TC
 70
     8
280
     0
  0
ATTDEF
  5
92
330
6E
100
AcDbEntity
  8
AM_6
100
AcDbText
 10
6.4515625
 20
-12.57775
 30
0.0
 40
0.5
  1
C.I. ASTM A48 CLASS 30
100
AcDbAttributeDefinition
  3

  2
MH
 70
     8
280
     0
  0
ATTDEF
  5
93
330
6E
100
AcDbEntity
  8
AM_6
100
AcDbText
 10
6.4515625
 20
-13.07775
 30
0.0
 40
0.5
  1
4118 CASE CARB.
100
AcDbAttributeDefinition
  3

  2
MC
 70
     8
280
     0
  0
ATTDEF
  5
94
330
6E
100
AcDbEntity
  8
AM_6
100
AcDbText
 10
6.4515625
 20
-13.57775
 30
0.0
 40
0.5
  1
4118 CASE CARB.
100
AcDbAttributeDefinition
  3

  2
MCU
 70
     8
280
     0
  0
ATTDEF
  5
95
330
6E
100
AcDbEntity
  8
AM_6
100
AcDbText
 10
6.4515625
 20
-14.07775
 30
0.0
 40
0.5
  1
STEEL
100
AcDbAttributeDefinition
  3

  2
MR
 70
     8
280
     0
  0
ATTDEF
  5
96
330
6E
100
AcDbEntity
  8
AM_6
100
AcDbText
 10
6.4515625
 20
-14.57775
 30
0.0
 40
0.5
  1
4118 CASE CARB.
100
AcDbAttributeDefinition
  3

  2
MRO
 70
     8
280
     0
  0
ATTDEF
  5
97
330
6E
100
AcDbEntity
  8
AM_6
100
AcDbText
 10
6.4515625
 20
-15.07775
 30
0.0
 40
0.5
  1
±.001 PER INCH
100
AcDbAttributeDefinition
  3

  2
SM
 70
     8
280
     0
  0
ATTDEF
  5
98
330
6E
100
AcDbEntity
  8
AM_6
100
AcDbText
 10
6.4515625
 20
-15.57775
 30
0.0
 40
0.5
  1
baldor
100
AcDbAttributeDefinition
  3

  2
COMPANY
 70
     8
280
     0
  0
INSERT
  5
9A
330
6E
100
AcDbEntity
  8
0
100
AcDbBlockReference
  2
2_1_1_2C_0_in_023275_2
 10
0.0
 20
0.0
 30
0.0
  0
INSERT
  5
D8
330
6E
100
AcDbEntity
  8
0
100
AcDbBlockReference
  2
3_405020c_Inch_0_in_023275_2
 10
0.0
 20
0.0
 30
0.0
  0
INSERT
  5
11C
330
6E
100
AcDbEntity
  8
0
100
AcDbBlockReference
  2
4_S1U_K_108R_0_in_023275_2
 10
0.0
 20
0.0
 30
0.0
  0
ENDBLK
  5
71
330
6E
100
AcDbEntity
  8
0
100
AcDbBlockEnd
  0
BLOCK
  5
9B
330
99
100
AcDbEntity
  8
0
100
AcDbBlockBegin
  2
2_1_1_2C_0_in_023275_2
 70
     2
 10
0.0
 20
0.0
 30
0.0
  3
2_1_1_2C_0_in_023275_2
  1

  0
ATTDEF
  5
9D
330
99
100
AcDbEntity
  8
AM_6
100
AcDbText
 10
3.8725
 20
1.622979166666667
 30
0.0
 40
0.5
  1
E-Type Collar -Inch
100
AcDbAttributeDefinition
  3

  2
NN
 70
     8
280
     0
  0
ATTDEF
  5
9E
330
99
100
AcDbEntity
  8
AM_6
100
AcDbText
 10
3.8725
 20
1.122979166666667
 30
0.0
 40
0.5
  1
E-Type Bearings
100
AcDbAttributeDefinition
  3

  2
NT
 70
     8
280
     0
  0
ATTDEF
  5
9F
330
99
100
AcDbEntity
  8
AM_6
100
AcDbText
 10
3.8725
 20
0.6229791666666666
 30
0.0
 40
0.5
  1
1-1/2C
100
AcDbAttributeDefinition
  3

  2
NB
 70
     8
280
     0
  0
ATTDEF
  5
A0
330
99
100
AcDbEntity
  8
AM_6
100
AcDbText
 10
3.8725
 20
0.1229791666666666
 30
0.0
 40
0.5
  1
$BORE.C
100
AcDbAttributeDefinition
  3

  2
NBSYN
 70
     8
280
     0
  0
ATTDEF
  5
A1
330
99
100
AcDbEntity
  8
AM_6
100
AcDbText
 10
3.8725
 20
-0.3770208333333334
 30
0.0
 40
0.5
  1
1-1/2C
100
AcDbAttributeDefinition
  3

  2
LINA
 70
     8
280
     0
  0
ATTDEF
  5
A2
330
99
100
AcDbEntity
  8
AM_6
100
AcDbText
 10
3.8725
 20
-0.8770208333333334
 30
0.0
 40
0.5
  1
1-1/2
100
AcDbAttributeDefinition
  3

  2
BORE
 70
     8
280
     0
  0
ATTDEF
  5
A3
330
99
100
AcDbEntity
  8
AM_6
100
AcDbText
 10
3.8725
 20
-1.377020833333333
 30
0.0
 40
0.5
  1
3.18750
100
AcDbAttributeDefinition
  3

  2
L
 70
     8
280
     0
  0
ATTDEF
  5
A4
330
99
100
AcDbEntity
  8
AM_6
100
AcDbText
 10
3.8725
 20
-1.877020833333333
 30
0.0
 40
0.5
  1
3.38
100
AcDbAttributeDefinition
  3

  2
A
 70
     8
280
     0
  0
ATTDEF
  5
A5
330
99
100
AcDbEntity
  8
AM_6
100
AcDbText
 10
3.8725
 20
-2.377020833333333
 30
0.0
 40
0.5
  1
1.50
100
AcDbAttributeDefinition
  3

  2
B
 70
     8
280
     0
  0
ATTDEF
  5
A6
330
99
100
AcDbEntity
  8
AM_6
100
AcDbText
 10
3.8725
 20
-2.877020833333333
 30
0.0
 40
0.5
  1
2.06
100
AcDbAttributeDefinition
  3

  2
C
 70
     8
280
     0
  0
ATTDEF
  5
A7
330
99
100
AcDbEntity
  8
AM_6
100
AcDbText
 10
3.8725
 20
-3.377020833333333
 30
0.0
 40
0.5
  1
3.25
100
AcDbAttributeDefinition
  3

  2
D
 70
     8
280
     0
  0
ATTDEF
  5
A8
330
99
100
AcDbEntity
  8
AM_6
100
AcDbText
 10
3.8725
 20
-3.877020833333333
 30
0.0
 40
0.5
  1
0.35
100
AcDbAttributeDefinition
  3

  2
E
 70
     8
280
     0
  0
ATTDEF
  5
A9
330
99
100
AcDbEntity
  8
AM_6
100
AcDbText
 10
3.8725
 20
-4.377020833333333
 30
0.0
 40
0.5
  1
0.28
100
AcDbAttributeDefinition
  3

  2
F
 70
     8
280
     0
  0
ATTDEF
  5
AA
330
99
100
AcDbEntity
  8
AM_6
100
AcDbText
 10
3.8725
 20
-4.877020833333333
 30
0.0
 40
0.5
  1
5/16-18
100
AcDbAttributeDefinition
  3

  2
CS
 70
     8
280
     0
  0
ATTDEF
  5
AB
330
99
100
AcDbEntity
  8
AM_6
100
AcDbText
 10
3.8725
 20
-5.377020833333333
 30
0.0
 40
0.5
  1
0.3125
100
AcDbAttributeDefinition
  3

  2
NDM
 70
     8
280
     0
  0
ATTDEF
  5
AC
330
99
100
AcDbEntity
  8
AM_6
100
AcDbText
 10
3.8725
 20
-5.877020833333333
 30
0.0
 40
0.5
  1
0.2520
100
AcDbAttributeDefinition
  3

  2
KDM
 70
     8
280
     0
  0
ATTDEF
  5
AD
330
99
100
AcDbEntity
  8
AM_6
100
AcDbText
 10
3.8725
 20
-6.377020833333333
 30
0.0
 40
0.5
  1
baldor
100
AcDbAttributeDefinition
  3

  2
COMPANY
 70
     8
280
     0
  0
LINE
  5
B0
330
99
100
AcDbEntity
  8
AM_9
100
AcDbLine
 10
-1.2813
 20
1.039216666666667
 30
0.0
 11
-1.2813
 21
1.5637
 31
0.0
  0
LINE
  5
B1
330
99
100
AcDbEntity
  8
AM_9
100
AcDbLine
 10
-1.5337
 20
1.5637
 30
0.0
 11
-1.5337
 21
1.039216666666667
 31
0.0
  0
LINE
  5
B2
330
99
100
AcDbEntity
  8
AM_9
100
AcDbLine
 10
-1.5337
 20
1.039216666666667
 30
0.0
 11
-1.2813
 21
1.039216666666667
 31
0.0
  0
LINE
  5
B3
330
99
100
AcDbEntity
  8
AM_9
100
AcDbLine
 10
-1.5337
 20
1.039216666666667
 30
0.0
 11
-1.542754312460441
 21
1.030162354206226
 31
0.0
  0
LINE
  5
B4
330
99
100
AcDbEntity
  8
AM_9
100
AcDbLine
 10
-1.272304100935121
 20
1.030220767601788
 30
0.0
 11
-1.2813
 21
1.039216666666667
 31
0.0
  0
LINE
  5
B5
330
99
100
AcDbEntity
  8
AM_9
100
AcDbLine
 10
-1.5337
 20
1.5637
 30
0.0
 11
-1.2813
 21
1.5637
 31
0.0
  0
LINE
  5
B6
330
99
100
AcDbEntity
  8
AM_9
100
AcDbLine
 10
-1.2813
 20
1.5637
 30
0.0
 11
-1.25125
 21
1.59375
 31
0.0
  0
LINE
  5
B7
330
99
100
AcDbEntity
  8
AM_9
100
AcDbLine
 10
-1.56375
 20
1.59375
 30
0.0
 11
-1.5337
 21
1.5637
 31
0.0
  0
LWPOLYLINE
  5
B8
330
99
100
AcDbEntity
  8
AM_9
100
AcDbPolyline
 90
       38
 70
     0
 43
0.0
 10
-1.309616833062567
 20
0.3420727600107151
 10
-1.297002989187923
 20
0.3576428693506657
 10
-1.286823037174168
 20
0.3746144374717409
 10
-1.278105260310256
 20
0.3961116607543918
 10
-1.273191538561014
 20
0.4184119341135786
 10
-1.272259337983454
 20
0.4417378314205256
 10
-1.275533471004588
 20
0.4646207901325336
 10
-1.283100752480754
 20
0.4866404434838077
 10
-1.29474012113757
 20
0.5069596956867768
 10
-1.309976601168281
 20
0.5246885637191135
 10
-1.328569779287331
 20
0.5396547463403899
 10
-1.348901886865825
 20
0.5507655984540465
 10
-1.3712605724102
 20
0.5585090037749477
 10
-1.393039899785715
 20
0.5623167344003627
 10
-1.41527526370562
 20
0.5628367738380131
 10
-1.436028298899274
 20
0.5602421549397789
 10
-1.455990383472098
 20
0.5547947228341842
 10
-1.474783698131492
 20
0.5465640775371878
 10
-1.491826636269272
 20
0.5358741898888102
 10
-1.507618201389452
 20
0.5221132796922195
 10
-1.520746269160133
 20
0.5062673685663547
 10
-1.531594504743316
 20
0.487316336983258
 10
-1.53890434658858
 20
0.4668691695546917
 10
-1.542586372368504
 20
0.4442869216571738
 10
-1.5421442526852
 20
0.4212014264218888
 10
-1.537404798856063
 20
0.3977991796571292
 10
-1.52848522440442
 20
0.3752258111704299
 10
-1.515616433877429
 20
0.3543550828782469
 10
-1.499082906120251
 20
0.3357525884283231
 10
-1.480062102812569
 20
0.3207549751852315
 10
-1.458511188780093
 20
0.3092069346310651
 10
-1.43683959565837
 20
0.3021742393179064
 10
-1.414204484274783
 20
0.2989613574359888
 10
-1.392958653744419
 20
0.2996231599950119
 10
-1.372132304702638
 20
0.3037049028914041
 10
-1.352604663110747
 20
0.3109370494732722
 10
-1.334520782964523
 20
0.3210083704885994
 10
-1.309616833062567
 20
0.342072760010715
  0
LINE
  5
B9
330
99
100
AcDbEntity
  8
AM_9
100
AcDbLine
 10
-1.6875
 20
-1.03
 30
0.0
 11
-1.1275
 21
-1.03
 31
0.0
  0
LINE
  5
BA
330
99
100
AcDbEntity
  8
AM_9
100
AcDbLine
 10
-1.1275
 20
1.03
 30
0.0
 11
-1.27260349920866
 21
1.03
 31
0.0
  0
LINE
  5
BB
330
99
100
AcDbEntity
  8
AM_9
100
AcDbLine
 10
-1.542533840512479
 20
1.03
 30
0.0
 11
-1.6875
 21
1.03
 31
0.0
  0
LWPOLYLINE
  5
BC
330
99
100
AcDbEntity
  8
AM_9
100
AcDbPolyline
 90
       21
 70
     0
 43
0.0
 10
-1.54291666666625
 20
1.029999999999937
 10
-1.542791658032939
 20
1.029981085276194
 10
-1.539575427349383
 20
1.029500183660362
 10
-1.532247146372806
 20
1.028445838517683
 10
-1.520533245786089
 20
1.026880884928272
 10
-1.505647654098444
 20
1.025108016048413
 10
-1.486828395851474
 20
1.023216557386044
 10
-1.466903331636061
 20
1.021644975878269
 10
-1.444188340667502
 20
1.020400023263992
 10
-1.422767540522129
 20
1.019763875754072
 10
-1.400156395295419
 20
1.019661377182346
 10
-1.37967173964392
 20
1.020073403156144
 10
-1.359398058575516
 20
1.02095243956671
 10
-1.340802805808238
 20
1.022168520518038
 10
-1.323505404729402
 20
1.02364885571841
 10
-1.30784745347145
 20
1.025276196241047
 10
-1.294499373010244
 20
1.02687673508421
 10
-1.283698321888069
 20
1.028314017784905
 10
-1.276210214943634
 20
1.029384392792492
 10
-1.27245831150405
 20
1.029943313047362
 10
-1.272083333333415
 20
1.029999999999988
  0
LINE
  5
BD
330
99
100
AcDbEntity
  8
AM_9
100
AcDbLine
 10
-1.2813
 20
0.4391919412386306
 30
0.0
 11
-1.2813
 21
0.6608481758839317
 31
0.0
  0
LINE
  5
BE
330
99
100
AcDbEntity
  8
AM_9
100
AcDbLine
 10
-1.5337
 20
0.6608481758839317
 30
0.0
 11
-1.5337
 21
0.4391919412386306
 31
0.0
  0
ELLIPSE
  5
BF
330
99
100
AcDbEntity
  8
AM_9
100
AcDbEllipse
 10
-1.4075
 20
0.4391919412386304
 30
0.0
 11
0.1262000000000005
 21
0.0
 31
0.0
210
0.0
220
0.0
230
1.0
 40
0.9063077870366498
 41
1.820522343075739
 42
7.604255617693632
  0
LINE
  5
C0
330
99
100
AcDbEntity
  8
AM_9
100
AcDbLine
 10
-1.15625
 20
-1.59375
 30
0.0
 11
-1.1275
 21
-1.59375
 31
0.0
  0
LINE
  5
C1
330
99
100
AcDbEntity
  8
AM_9
100
AcDbLine
 10
-1.1275
 20
1.59375
 30
0.0
 11
-1.15625
 21
1.59375
 31
0.0
  0
LINE
  5
C2
330
99
100
AcDbEntity
  8
AM_9
100
AcDbLine
 10
-1.1275
 20
1.59375
 30
0.0
 11
-1.1275
 21
-1.59375
 31
0.0
  0
LINE
  5
C4
330
99
100
AcDbEntity
  8
AM_5
100
AcDbLine
 10
-1.56375
 20
1.59375
 30
0.0
 11
-1.56375
 21
1.03
 31
0.0
  0
LINE
  5
C5
330
99
100
AcDbEntity
  8
AM_5
100
AcDbLine
 10
-1.25125
 20
1.59375
 30
0.0
 11
-1.25125
 21
1.03
 31
0.0
  0
LINE
  5
C8
330
99
100
AcDbEntity
  8
AM_7
100
AcDbLine
 10
-1.4075
 20
1.622979166666667
 30
0.0
 11
-1.4075
 21
0.9799375000000001
 31
0.0
  0
ELLIPSE
  5
CA
330
99
100
AcDbEntity
  8
AM_4
100
AcDbEllipse
 10
-1.407499999999998
 20
0.4391919412386158
 30
0.0
 11
0.1262000000000159
 21
0.0
 31
0.0
210
0.0
220
0.0
230
1.0
 40
0.9063077870366533
 41
1.570796326794897
 42
1.820522343075729
  0
ELLIPSE
  5
CB
330
99
100
AcDbEntity
  8
AM_4
100
AcDbEllipse
 10
-1.4075
 20
0.6608481758839317
 30
0.0
 11
0.1262000000000001
 21
0.0
 31
0.0
210
0.0
220
0.0
230
1.0
 40
0.9063077870366504
 41
3.141592653589793
 42
7.853981633974483
  0
ELLIPSE
  5
CC
330
99
100
AcDbEntity
  8
AM_4
100
AcDbEllipse
 10
-1.407500000000002
 20
0.4391919412386158
 30
0.0
 11
0.1262000000000159
 21
0.0
 31
0.0
210
0.0
220
0.0
230
1.0
 40
0.9063077870366533
 41
1.321070310514065
 42
1.570796326794897
  0
ELLIPSE
  5
CD
330
99
100
AcDbEntity
  8
AM_4
100
AcDbEllipse
 10
-1.4075
 20
0.6608481758839323
 30
0.0
 11
0.1261999999999994
 21
0.0
 31
0.0
210
0.0
220
0.0
230
1.0
 40
0.9063077870366489
 41
1.570796326794897
 42
3.141592653589793
  0
LWPOLYLINE
  5
CE
330
99
100
AcDbEntity
  8
AM_4
100
AcDbPolyline
 90
       38
 70
     0
 43
0.0
 10
-1.28834951027333
 20
0.5848545772668292
 10
-1.304678609735321
 20
0.5700743126870094
 10
-1.323147004987602
 20
0.5576247338838193
 10
-1.346387287332711
 20
0.5465852425632535
 10
-1.37122381104208
 20
0.5391873417499022
 10
-1.397887277666545
 20
0.5356067433712883
 10
-1.424813924642639
 20
0.5361957528074054
 10
-1.451671625897947
 20
0.5411048796538456
 10
-1.47726960305444
 20
0.5501724093843886
 10
-1.500679726787317
 20
0.5631188668689174
 10
-1.521362607660419
 20
0.5795776434617812
 10
-1.538122498636584
 20
0.5985094048049059
 10
-1.551066828964733
 20
0.6197463743376418
 10
-1.559341925913577
 20
0.6415758889309606
 10
-1.563379859576699
 20
0.6642374024907527
 10
-1.563053023449874
 20
0.6861215243049689
 10
-1.558683521067353
 20
0.7074963421248202
 10
-1.550469767863824
 20
0.7275667368583613
 10
-1.538722479355882
 20
0.7460600094637523
 10
-1.523353208639566
 20
0.762917771005613
 10
-1.505127433708658
 20
0.7773187408950307
 10
-1.483571226220943
 20
0.7894040953361525
 10
-1.460067664558427
 20
0.7982895717618065
 10
-1.434197724623304
 20
0.8039339491388862
 10
-1.407608152414684
 20
0.8058513160003625
 10
-1.380417962225475
 20
0.8038771538863404
 10
-1.353991165259019
 20
0.7980072460642719
 10
-1.329087030362224
 20
0.7882899679304802
 10
-1.306463648093419
 20
0.774968383639352
 10
-1.287285863312418
 20
0.7586783950642088
 10
-1.271637214481603
 20
0.7395880656732269
 10
-1.260552410748301
 20
0.7190969862344345
 10
-1.253647953907423
 20
0.697043897536407
 10
-1.251277463179808
 20
0.6751048333647564
 10
-1.253060676893019
 20
0.6529654919579864
 10
-1.258827242269759
 20
0.631732395736916
 10
-1.268310563615015
 20
0.6115231794476769
 10
-1.288349510244519
 20
0.5848545772238692
  0
LINE
  5
CF
330
99
100
AcDbEntity
  8
AM_4
100
AcDbLine
 10
-1.594166666666667
 20
-1.59375
 30
0.0
 11
-1.15625
 21
-1.59375
 31
0.0
  0
LINE
  5
D0
330
99
100
AcDbEntity
  8
AM_4
100
AcDbLine
 10
-1.15625
 20
1.59375
 30
0.0
 11
-1.25125
 21
1.59375
 31
0.0
  0
LINE
  5
D1
330
99
100
AcDbEntity
  8
AM_4
100
AcDbLine
 10
-1.56375
 20
1.59375
 30
0.0
 11
-1.594166666666667
 21
1.59375
 31
0.0
  0
LWPOLYLINE
  5
D2
330
99
100
AcDbEntity
  8
AM_4
100
AcDbPolyline
 90
       20
 70
     0
 43
0.0
 10
-1.251250000000016
 20
1.593749999999998
 10
-1.253183727619192
 20
1.593578397293294
 10
-1.258951722489891
 20
1.593079036533507
 10
-1.268670150415564
 20
1.592280098117872
 10
-1.281729446524596
 20
1.591290592070509
 10
-1.298282669028555
 20
1.590175373421191
 10
-1.317814577097021
 20
1.589060120756184
 10
-1.340167852795879
 20
1.588051315870141
 10
-1.36464403571168
 20
1.587275351148451
 10
-1.390944257258941
 20
1.586825466223331
 10
-1.41771832858838
 20
1.586776598595671
 10
-1.444961597008439
 20
1.587150630109865
 10
-1.470584275756936
 20
1.587891980158529
 10
-1.495109886466756
 20
1.588954409810338
 10
-1.516059562986879
 20
1.590134276945568
 10
-1.534401400593611
 20
1.591372456441679
 10
-1.547933912963624
 20
1.592408291728029
 10
-1.55774765109706
 20
1.593224211786769
 10
-1.562719618922951
 20
1.593658300223111
 10
-1.563749999999947
 20
1.593749999999995
  0
LINE
  5
D3
330
99
100
AcDbEntity
  8
AM_4
100
AcDbLine
 10
-1.6875
 20
1.500416666666667
 30
0.0
 11
-1.6875
 21
-1.500416666666667
 31
0.0
  0
ARC
  5
D4
330
99
100
AcDbEntity
  8
AM_4
100
AcDbCircle
 10
-1.594166666666667
 20
-1.500416666666667
 30
0.0
 40
0.0933333333333333
100
AcDbArc
 50
180.0
 51
270.0
  0
ARC
  5
D5
330
99
100
AcDbEntity
  8
AM_4
100
AcDbCircle
 10
-1.594166666666667
 20
1.500416666666667
 30
0.0
 40
0.0933333333333335
100
AcDbArc
 50
90.0
 51
180.0
  0
LINE
  5
D6
330
99
100
AcDbEntity
  8
AM_4
100
AcDbLine
 10
-1.594166666666667
 20
1.59375
 30
0.0
 11
-1.594166666666667
 21
-1.59375
 31
0.0
  0
ENDBLK
  5
9C
330
99
100
AcDbEntity
  8
0
100
AcDbBlockEnd
  0
BLOCK
  5
D9
330
D7
100
AcDbEntity
  8
0
100
AcDbBlockBegin
  2
3_405020c_Inch_0_in_023275_2
 70
     2
 10
0.0
 20
0.0
 30
0.0
  3
3_405020c_Inch_0_in_023275_2
  1

  0
ATTDEF
  5
DB
330
D7
100
AcDbEntity
  8
AM_6
100
AcDbText
 10
5.162408630723042
 20
2.895
 30
0.0
 40
0.5
  1
405020C -Inch
100
AcDbAttributeDefinition
  3

  2
NN
 70
     8
280
     0
  0
ATTDEF
  5
DC
330
D7
100
AcDbEntity
  8
AM_6
100
AcDbText
 10
5.162408630723042
 20
2.395
 30
0.0
 40
0.5
  1
Grease fitting
100
AcDbAttributeDefinition
  3

  2
NT
 70
     8
280
     0
  0
ATTDEF
  5
DD
330
D7
100
AcDbEntity
  8
AM_6
100
AcDbText
 10
5.162408630723042
 20
1.895
 30
0.0
 40
0.5
  1
405020c-Inch
100
AcDbAttributeDefinition
  3

  2
NB
 70
     8
280
     0
  0
ATTDEF
  5
DE
330
D7
100
AcDbEntity
  8
AM_6
100
AcDbText
 10
5.162408630723042
 20
1.395
 30
0.0
 40
0.5
  1
$MN.-Inch
100
AcDbAttributeDefinition
  3

  2
NBSYN
 70
     8
280
     0
  0
ATTDEF
  5
DF
330
D7
100
AcDbEntity
  8
AM_6
100
AcDbText
 10
5.162408630723042
 20
0.8950000000000005
 30
0.0
 40
0.5
  1
405020c
100
AcDbAttributeDefinition
  3

  2
LINA
 70
     8
280
     0
  0
ATTDEF
  5
E0
330
D7
100
AcDbEntity
  8
AM_6
100
AcDbText
 10
5.162408630723042
 20
0.3950000000000005
 30
0.0
 40
0.5
  1
405020c
100
AcDbAttributeDefinition
  3

  2
MN
 70
     8
280
     0
  0
ATTDEF
  5
E1
330
D7
100
AcDbEntity
  8
AM_6
100
AcDbText
 10
5.162408630723042
 20
-0.1049999999999995
 30
0.0
 40
0.5
  1
0.230
100
AcDbAttributeDefinition
  3

  2
NDR
 70
     8
280
     0
  0
ATTDEF
  5
E2
330
D7
100
AcDbEntity
  8
AM_6
100
AcDbText
 10
5.162408630723042
 20
-0.6049999999999995
 30
0.0
 40
0.5
  1
0.210
100
AcDbAttributeDefinition
  3

  2
KDR
 70
     8
280
     0
  0
ATTDEF
  5
E3
330
D7
100
AcDbEntity
  8
AM_6
100
AcDbText
 10
5.162408630723042
 20
-1.105
 30
0.0
 40
0.5
  1
0.157
100
AcDbAttributeDefinition
  3

  2
BZE
 70
     8
280
     0
  0
ATTDEF
  5
E4
330
D7
100
AcDbEntity
  8
AM_6
100
AcDbText
 10
5.162408630723042
 20
-1.605
 30
0.0
 40
0.5
  1
9/32
100
AcDbAttributeDefinition
  3

  2
WAF
 70
     8
280
     0
  0
ATTDEF
  5
E5
330
D7
100
AcDbEntity
  8
AM_6
100
AcDbText
 10
5.162408630723042
 20
-2.105
 30
0.0
 40
0.5
  1
0.2813
100
AcDbAttributeDefinition
  3

  2
WAF1
 70
     8
280
     0
  0
ATTDEF
  5
E6
330
D7
100
AcDbEntity
  8
AM_6
100
AcDbText
 10
5.162408630723042
 20
-2.605
 30
0.0
 40
0.5
  1
0.545
100
AcDbAttributeDefinition
  3

  2
BL
 70
     8
280
     0
  0
ATTDEF
  5
E7
330
D7
100
AcDbEntity
  8
AM_6
100
AcDbText
 10
5.162408630723042
 20
-3.105
 30
0.0
 40
0.5
  1
0.200
100
AcDbAttributeDefinition
  3

  2
TL
 70
     8
280
     0
  0
ATTDEF
  5
E8
330
D7
100
AcDbEntity
  8
AM_6
100
AcDbText
 10
5.162408630723042
 20
-3.605
 30
0.0
 40
0.5
  1
baldor
100
AcDbAttributeDefinition
  3

  2
COMPANY
 70
     8
280
     0
  0
LINE
  5
E9
330
D7
100
AcDbEntity
  8
AM_9
100
AcDbLine
 10
0.1000886227036577
 20
2.350000000000001
 30
0.0
 11
-0.1000886227036577
 21
2.350000000000001
 31
0.0
  0
LINE
  5
EA
330
D7
100
AcDbEntity
  8
AM_9
100
AcDbLine
 10
0.1000886227036577
 20
2.350000000000001
 30
0.0
 11
0.1104162595939891
 21
2.360327636890332
 31
0.0
  0
LINE
  5
EB
330
D7
100
AcDbEntity
  8
AM_9
100
AcDbLine
 10
-0.1104162595939891
 20
2.360327636890332
 30
0.0
 11
-0.1000886227036577
 21
2.350000000000001
 31
0.0
  0
LINE
  5
EC
330
D7
100
AcDbEntity
  8
AM_9
100
AcDbLine
 10
0.1104162595939891
 20
2.360327636890332
 30
0.0
 11
-0.1104162595939891
 21
2.360327636890332
 31
0.0
  0
LINE
  5
ED
330
D7
100
AcDbEntity
  8
AM_9
100
AcDbLine
 10
0.1104162595939891
 20
2.360327636890332
 30
0.0
 11
0.1163438171532771
 21
2.55
 31
0.0
  0
LINE
  5
EE
330
D7
100
AcDbEntity
  8
AM_9
100
AcDbLine
 10
-0.1163438171532771
 20
2.55
 30
0.0
 11
-0.1104162595939891
 21
2.360327636890332
 31
0.0
  0
LINE
  5
EF
330
D7
100
AcDbEntity
  8
AM_5
100
AcDbLine
 10
-0.1057663861878746
 20
2.531679352154371
 30
0.0
 11
-0.1000886227036577
 21
2.350000000000001
 31
0.0
  0
LINE
  5
F0
330
D7
100
AcDbEntity
  8
AM_5
100
AcDbLine
 10
-0.1163438171532771
 20
2.55
 30
0.0
 11
-0.1057663861878746
 21
2.531679352154371
 31
0.0
  0
LINE
  5
F1
330
D7
100
AcDbEntity
  8
AM_5
100
AcDbLine
 10
0.11577126829667
 20
2.531679352154371
 30
0.0
 11
-0.11577126829667
 21
2.531679352154371
 31
0.0
  0
LINE
  5
F2
330
D7
100
AcDbEntity
  8
AM_5
100
AcDbLine
 10
0.1057663861878746
 20
2.531679352154371
 30
0.0
 11
0.1000886227036577
 21
2.350000000000001
 31
0.0
  0
LINE
  5
F3
330
D7
100
AcDbEntity
  8
AM_5
100
AcDbLine
 10
0.1163438171532771
 20
2.55
 30
0.0
 11
0.1057663861878746
 21
2.531679352154371
 31
0.0
  0
LINE
  5
F4
330
D7
100
AcDbEntity
  8
AM_4
100
AcDbLine
 10
0.1406499999999998
 20
2.55
 30
0.0
 11
0.1624086307230417
 21
2.555830207530646
 31
0.0
  0
LINE
  5
F5
330
D7
100
AcDbEntity
  8
AM_4
100
AcDbLine
 10
-0.1624086307230417
 20
2.555830207530646
 30
0.0
 11
-0.1406499999999998
 21
2.55
 31
0.0
  0
LINE
  5
F6
330
D7
100
AcDbEntity
  8
AM_4
100
AcDbLine
 10
0.1624086307230417
 20
2.610836459136021
 30
0.0
 11
0.14065
 21
2.616666666666667
 31
0.0
  0
LINE
  5
F7
330
D7
100
AcDbEntity
  8
AM_4
100
AcDbLine
 10
-0.14065
 20
2.616666666666667
 30
0.0
 11
-0.1624086307230417
 21
2.610836459136021
 31
0.0
  0
LINE
  5
F8
330
D7
100
AcDbEntity
  8
AM_4
100
AcDbLine
 10
0.080806429716728
 20
2.895
 30
0.0
 11
-0.0808064278379067
 21
2.895
 31
0.0
  0
ARC
  5
F9
330
D7
100
AcDbEntity
  8
AM_4
100
AcDbCircle
 10
-0.0808064297167297
 20
2.870000000000003
 30
0.0
 40
0.0249999999999972
100
AcDbArc
 50
90.0
 51
157.0000000000045
  0
ARC
  5
FA
330
D7
100
AcDbEntity
  8
AM_4
100
AcDbCircle
 10
0.0808064297167297
 20
2.870000000000003
 30
0.0
 40
0.0249999999999974
100
AcDbArc
 50
22.9999999999955
 51
90.0
  0
ARC
  5
FB
330
D7
100
AcDbEntity
  8
AM_4
100
AcDbCircle
 10
-0.1446847896390993
 20
2.683342555146223
 30
0.0
 40
0.0500000000000006
100
AcDbArc
 50
315.0000000000001
 51
24.99999999999955
  0
ARC
  5
FC
330
D7
100
AcDbEntity
  8
AM_4
100
AcDbCircle
 10
0.1446847896390993
 20
2.683342555146223
 30
0.0
 40
0.0500000000000003
100
AcDbArc
 50
155.0000000000005
 51
224.9999999999999
  0
LINE
  5
FD
330
D7
100
AcDbEntity
  8
AM_4
100
AcDbLine
 10
0.0993694002872663
 20
2.704473468233258
 30
0.0
 11
-0.0993694002872663
 21
2.704473468233258
 31
0.0
  0
LINE
  5
FE
330
D7
100
AcDbEntity
  8
AM_4
100
AcDbLine
 10
0.0993694002872663
 20
2.704473468233258
 30
0.0
 11
0.1312419113468905
 21
2.77282428877464
 31
0.0
  0
LINE
  5
FF
330
D7
100
AcDbEntity
  8
AM_4
100
AcDbLine
 10
-0.1312419113468905
 20
2.77282428877464
 30
0.0
 11
-0.0993694002872663
 21
2.704473468233258
 31
0.0
  0
LINE
  5
100
330
D7
100
AcDbEntity
  8
AM_4
100
AcDbLine
 10
0.1038190510530391
 20
2.879768278212232
 30
0.0
 11
-0.1038190510530391
 21
2.879768278212232
 31
0.0
  0
LINE
  5
101
330
D7
100
AcDbEntity
  8
AM_4
100
AcDbLine
 10
-0.1038190510530391
 20
2.879768278212232
 30
0.0
 11
-0.13195176466768
 21
2.813491758286138
 31
0.0
  0
LINE
  5
102
330
D7
100
AcDbEntity
  8
AM_4
100
AcDbLine
 10
0.13195176466768
 20
2.813491758286138
 30
0.0
 11
0.1038190510530391
 21
2.879768278212232
 31
0.0
  0
LINE
  5
103
330
D7
100
AcDbEntity
  8
AM_4
100
AcDbLine
 10
0.13195176466768
 20
2.813491758286138
 30
0.0
 11
-0.13195176466768
 21
2.813491758286138
 31
0.0
  0
LINE
  5
104
330
D7
100
AcDbEntity
  8
AM_4
100
AcDbLine
 10
0.1312419113468905
 20
2.77282428877464
 30
0.0
 11
-0.1312419113468905
 21
2.77282428877464
 31
0.0
  0
ARC
  5
105
330
D7
100
AcDbEntity
  8
AM_4
100
AcDbCircle
 10
-0.0859265219950572
 20
2.793955201861674
 30
0.0
 40
0.050000000000001
100
AcDbArc
 50
156.9999999999997
 51
204.9999999999989
  0
ARC
  5
106
330
D7
100
AcDbEntity
  8
AM_4
100
AcDbCircle
 10
0.0859265219950572
 20
2.793955201861674
 30
0.0
 40
0.0500000000000004
100
AcDbArc
 50
335.000000000001
 51
23.00000000000027
  0
LWPOLYLINE
  5
107
330
D7
100
AcDbEntity
  8
AM_4
100
AcDbPolyline
 90
        3
 70
     0
 43
0.0
 10
0.0
 20
2.55
 10
-0.0406021576807604
 20
2.551538875462469
 10
-0.0812043153615208
 20
2.555830207530646
  0
LWPOLYLINE
  5
108
330
D7
100
AcDbEntity
  8
AM_4
100
AcDbPolyline
 90
        4
 70
     0
 43
0.0
 10
0.0812043153615209
 20
2.555830207530646
 10
0.0623017518439031
 20
2.553531798436252
 10
0.0312428256208204
 20
2.550918591732273
 10
0.0
 20
2.55
  0
LWPOLYLINE
  5
109
330
D7
100
AcDbEntity
  8
AM_4
100
AcDbPolyline
 90
        4
 70
     0
 43
0.0
 10
0.0
 20
2.616666666666667
 10
0.0311508759219516
 20
2.615753410066302
 10
0.0623017518439031
 20
2.613134868230415
 10
0.0812043153615209
 20
2.610836459136021
  0
LWPOLYLINE
  5
10A
330
D7
100
AcDbEntity
  8
AM_4
100
AcDbPolyline
 90
        3
 70
     0
 43
0.0
 10
-0.0812043153615208
 20
2.610836459136021
 10
-0.0407847159147455
 20
2.615114196110488
 10
0.0
 20
2.616666666666667
  0
LINE
  5
10B
330
D7
100
AcDbEntity
  8
AM_4
100
AcDbLine
 10
0.0812043153615209
 20
2.610836459136021
 30
0.0
 11
0.0812043153615209
 21
2.555830207530646
 31
0.0
  0
LWPOLYLINE
  5
10C
330
D7
100
AcDbEntity
  8
AM_4
100
AcDbPolyline
 90
        3
 70
     0
 43
0.0
 10
0.1218064730422813
 20
2.55
 10
0.1015053942019011
 20
2.551538875462469
 10
0.0812043153615209
 20
2.555830207530646
  0
LWPOLYLINE
  5
10D
330
D7
100
AcDbEntity
  8
AM_4
100
AcDbPolyline
 90
        3
 70
     0
 43
0.0
 10
0.1624086307230417
 20
2.555830207530646
 10
0.1421988309996541
 20
2.551552470556179
 10
0.1218064730422813
 20
2.55
  0
LINE
  5
10E
330
D7
100
AcDbEntity
  8
AM_4
100
AcDbLine
 10
0.1624086307230417
 20
2.610836459136021
 30
0.0
 11
0.1624086307230417
 21
2.555830207530646
 31
0.0
  0
LWPOLYLINE
  5
10F
330
D7
100
AcDbEntity
  8
AM_4
100
AcDbPolyline
 90
        3
 70
     0
 43
0.0
 10
0.1218064730422813
 20
2.616666666666667
 10
0.1421075518826615
 20
2.615127791204198
 10
0.1624086307230417
 20
2.610836459136021
  0
LWPOLYLINE
  5
110
330
D7
100
AcDbEntity
  8
AM_4
100
AcDbPolyline
 90
        3
 70
     0
 43
0.0
 10
0.0812043153615209
 20
2.610836459136021
 10
0.1014141150849086
 20
2.615114196110488
 10
0.1218064730422813
 20
2.616666666666667
  0
LINE
  5
111
330
D7
100
AcDbEntity
  8
AM_4
100
AcDbLine
 10
-0.1624086307230417
 20
2.610836459136021
 30
0.0
 11
-0.1624086307230417
 21
2.555830207530646
 31
0.0
  0
LWPOLYLINE
  5
112
330
D7
100
AcDbEntity
  8
AM_4
100
AcDbPolyline
 90
        3
 70
     0
 43
0.0
 10
-0.1218064730422813
 20
2.55
 10
-0.1421075518826615
 20
2.551538875462469
 10
-0.1624086307230417
 20
2.555830207530646
  0
LWPOLYLINE
  5
113
330
D7
100
AcDbEntity
  8
AM_4
100
AcDbPolyline
 90
        3
 70
     0
 43
0.0
 10
-0.0812043153615208
 20
2.555830207530646
 10
-0.1014141150849086
 20
2.551552470556179
 10
-0.1218064730422813
 20
2.55
  0
LINE
  5
114
330
D7
100
AcDbEntity
  8
AM_4
100
AcDbLine
 10
-0.0812043153615208
 20
2.610836459136021
 30
0.0
 11
-0.0812043153615208
 21
2.555830207530646
 31
0.0
  0
LWPOLYLINE
  5
115
330
D7
100
AcDbEntity
  8
AM_4
100
AcDbPolyline
 90
        3
 70
     0
 43
0.0
 10
-0.1218064730422813
 20
2.616666666666667
 10
-0.1015053942019011
 20
2.615127791204198
 10
-0.0812043153615208
 20
2.610836459136021
  0
LWPOLYLINE
  5
116
330
D7
100
AcDbEntity
  8
AM_4
100
AcDbPolyline
 90
        3
 70
     0
 43
0.0
 10
-0.1624086307230417
 20
2.610836459136021
 10
-0.142198830999654
 20
2.615114196110488
 10
-0.1218064730422813
 20
2.616666666666667
  0
LINE
  5
117
330
D7
100
AcDbEntity
  8
AM_4
100
AcDbLine
 10
0.14065
 20
2.616666666666667
 30
0.0
 11
-0.14065
 21
2.616666666666667
 31
0.0
  0
LINE
  5
118
330
D7
100
AcDbEntity
  8
AM_4
100
AcDbLine
 10
0.1093294505797714
 20
2.647987216086896
 30
0.0
 11
-0.1093294505797714
 21
2.647987216086896
 31
0.0
  0
LINE
  5
119
330
D7
100
AcDbEntity
  8
AM_4
100
AcDbLine
 10
-0.1093294505797714
 20
2.647987216086896
 30
0.0
 11
-0.14065
 21
2.616666666666667
 31
0.0
  0
LINE
  5
11A
330
D7
100
AcDbEntity
  8
AM_4
100
AcDbLine
 10
0.14065
 20
2.616666666666667
 30
0.0
 11
0.1093294505797714
 21
2.647987216086896
 31
0.0
  0
ENDBLK
  5
DA
330
D7
100
AcDbEntity
  8
0
100
AcDbBlockEnd
  0
BLOCK
  5
11D
330
11B
100
AcDbEntity
  8
0
100
AcDbBlockBegin
  2
4_S1U_K_108R_0_in_023275_2
 70
     2
 10
0.0
 20
0.0
 30
0.0
  3
4_S1U_K_108R_0_in_023275_2
  1

  0
ATTDEF
  5
11F
330
11B
100
AcDbEntity
  8
AM_6
100
AcDbText
 10
6.4515625
 20
2.92225
 30
0.0
 40
0.5
  1
Type K Units - Inch
100
AcDbAttributeDefinition
  3

  2
NN
 70
     8
280
     0
  0
ATTDEF
  5
120
330
11B
100
AcDbEntity
  8
AM_6
100
AcDbText
 10
6.4515625
 20
2.42225
 30
0.0
 40
0.5
  1
Type K
100
AcDbAttributeDefinition
  3

  2
NT
 70
     8
280
     0
  0
ATTDEF
  5
121
330
11B
100
AcDbEntity
  8
AM_6
100
AcDbText
 10
6.4515625
 20
1.92225
 30
0.0
 40
0.5
  1
S1U-K-108R
100
AcDbAttributeDefinition
  3

  2
NB
 70
     8
280
     0
  0
ATTDEF
  5
122
330
11B
100
AcDbEntity
  8
AM_6
100
AcDbText
 10
6.4515625
 20
1.42225
 30
0.0
 40
0.5
  1
$PN.
100
AcDbAttributeDefinition
  3

  2
NBSYN
 70
     8
280
     0
  0
ATTDEF
  5
123
330
11B
100
AcDbEntity
  8
AM_6
100
AcDbText
 10
6.4515625
 20
0.9222500000000005
 30
0.0
 40
0.5
  1
S1U-K-108R
100
AcDbAttributeDefinition
  3

  2
LINA
 70
     8
280
     0
  0
ATTDEF
  5
124
330
11B
100
AcDbEntity
  8
AM_6
100
AcDbText
 10
6.4515625
 20
0.4222500000000005
 30
0.0
 40
0.5
  1
1-1/2
100
AcDbAttributeDefinition
  3

  2
SS
 70
     8
280
     0
  0
ATTDEF
  5
125
330
11B
100
AcDbEntity
  8
AM_6
100
AcDbText
 10
6.4515625
 20
-0.0777499999999995
 30
0.0
 40
0.5
  1
1.500000
100
AcDbAttributeDefinition
  3

  2
SS1
 70
     8
280
     0
  0
ATTDEF
  5
126
330
11B
100
AcDbEntity
  8
AM_6
100
AcDbText
 10
6.4515625
 20
-0.5777499999999995
 30
0.0
 40
0.5
  1
S1U-K-108R
100
AcDbAttributeDefinition
  3

  2
PN
 70
     8
280
     0
  0
ATTDEF
  5
127
330
11B
100
AcDbEntity
  8
AM_6
100
AcDbText
 10
6.4515625
 20
-1.07775
 30
0.0
 40
0.5
  1
S1U-K-108R
100
AcDbAttributeDefinition
  3

  2
PNA
 70
     8
280
     0
  0
ATTDEF
  5
128
330
11B
100
AcDbEntity
  8
AM_6
100
AcDbText
 10
6.4515625
 20
-1.57775
 30
0.0
 40
0.5
  1
5
100
AcDbAttributeDefinition
  3

  2
WEIGHT
 70
     8
280
     0
  0
ATTDEF
  5
129
330
11B
100
AcDbEntity
  8
AM_6
100
AcDbText
 10
6.4515625
 20
-2.07775
 30
0.0
 40
0.5
  1
2-27/32
100
AcDbAttributeDefinition
  3

  2
A
 70
     8
280
     0
  0
ATTDEF
  5
12A
330
11B
100
AcDbEntity
  8
AM_6
100
AcDbText
 10
6.4515625
 20
-2.57775
 30
0.0
 40
0.5
  1
2.843750
100
AcDbAttributeDefinition
  3

  2
A1
 70
     8
280
     0
  0
ATTDEF
  5
12B
330
11B
100
AcDbEntity
  8
AM_6
100
AcDbText
 10
6.4515625
 20
-3.07775
 30
0.0
 40
0.5
  1
2-5/16
100
AcDbAttributeDefinition
  3

  2
B
 70
     8
280
     0
  0
ATTDEF
  5
12C
330
11B
100
AcDbEntity
  8
AM_6
100
AcDbText
 10
6.4515625
 20
-3.57775
 30
0.0
 40
0.5
  1
2.312500
100
AcDbAttributeDefinition
  3

  2
B1
 70
     8
280
     0
  0
ATTDEF
  5
12D
330
11B
100
AcDbEntity
  8
AM_6
100
AcDbText
 10
6.4515625
 20
-4.07775
 30
0.0
 40
0.5
  1
1-3/16
100
AcDbAttributeDefinition
  3

  2
C
 70
     8
280
     0
  0
ATTDEF
  5
12E
330
11B
100
AcDbEntity
  8
AM_6
100
AcDbText
 10
6.4515625
 20
-4.57775
 30
0.0
 40
0.5
  1
1.187500
100
AcDbAttributeDefinition
  3

  2
C1
 70
     8
280
     0
  0
ATTDEF
  5
12F
330
11B
100
AcDbEntity
  8
AM_6
100
AcDbText
 10
6.4515625
 20
-5.07775
 30
0.0
 40
0.5
  1
3-15/16
100
AcDbAttributeDefinition
  3

  2
D
 70
     8
280
     0
  0
ATTDEF
  5
130
330
11B
100
AcDbEntity
  8
AM_6
100
AcDbText
 10
6.4515625
 20
-5.57775
 30
0.0
 40
0.5
  1
3.937500
100
AcDbAttributeDefinition
  3

  2
D1
 70
     8
280
     0
  0
ATTDEF
  5
131
330
11B
100
AcDbEntity
  8
AM_6
100
AcDbText
 10
6.4515625
 20
-6.07775
 30
0.0
 40
0.5
  1
0.450
100
AcDbAttributeDefinition
  3

  2
E
 70
     8
280
     0
  0
ATTDEF
  5
132
330
11B
100
AcDbEntity
  8
AM_6
100
AcDbText
 10
6.4515625
 20
-6.57775
 30
0.0
 40
0.5
  1
3.750
100
AcDbAttributeDefinition
  3

  2
EM
 70
     8
280
     0
  0
ATTDEF
  5
133
330
11B
100
AcDbEntity
  8
AM_6
100
AcDbText
 10
6.4515625
 20
-7.07775
 30
0.0
 40
0.5
  1
3.820
100
AcDbAttributeDefinition
  3

  2
EC
 70
     8
280
     0
  0
ATTDEF
  5
134
330
11B
100
AcDbEntity
  8
AM_6
100
AcDbText
 10
6.4515625
 20
-7.57775
 30
0.0
 40
0.5
  1
11/16
100
AcDbAttributeDefinition
  3

  2
H
 70
     8
280
     0
  0
ATTDEF
  5
135
330
11B
100
AcDbEntity
  8
AM_6
100
AcDbText
 10
6.4515625
 20
-8.07775
 30
0.0
 40
0.5
  1
0.687500
100
AcDbAttributeDefinition
  3

  2
H1
 70
     8
280
     0
  0
ATTDEF
  5
136
330
11B
100
AcDbEntity
  8
AM_6
100
AcDbText
 10
6.4515625
 20
-8.57775
 30
0.0
 40
0.5
  1
2-7/8
100
AcDbAttributeDefinition
  3

  2
J
 70
     8
280
     0
  0
ATTDEF
  5
137
330
11B
100
AcDbEntity
  8
AM_6
100
AcDbText
 10
6.4515625
 20
-9.07775
 30
0.0
 40
0.5
  1
2.875000
100
AcDbAttributeDefinition
  3

  2
J1
 70
     8
280
     0
  0
ATTDEF
  5
138
330
11B
100
AcDbEntity
  8
AM_6
100
AcDbText
 10
6.4515625
 20
-9.57775
 30
0.0
 40
0.5
  1
4.125
100
AcDbAttributeDefinition
  3

  2
K
 70
     8
280
     0
  0
ATTDEF
  5
139
330
11B
100
AcDbEntity
  8
AM_6
100
AcDbText
 10
6.4515625
 20
-10.07775
 30
0.0
 40
0.5
  1
3-3/16
100
AcDbAttributeDefinition
  3

  2
L
 70
     8
280
     0
  0
ATTDEF
  5
13A
330
11B
100
AcDbEntity
  8
AM_6
100
AcDbText
 10
6.4515625
 20
-10.57775
 30
0.0
 40
0.5
  1
3.187500
100
AcDbAttributeDefinition
  3

  2
L1
 70
     8
280
     0
  0
ATTDEF
  5
13B
330
11B
100
AcDbEntity
  8
AM_6
100
AcDbText
 10
6.4515625
 20
-11.07775
 30
0.0
 40
0.5
  1
2-13/16
100
AcDbAttributeDefinition
  3

  2
M
 70
     8
280
     0
  0
ATTDEF
  5
13C
330
11B
100
AcDbEntity
  8
AM_6
100
AcDbText
 10
6.4515625
 20
-11.57775
 30
0.0
 40
0.5
  1
2.812500
100
AcDbAttributeDefinition
  3

  2
M1
 70
     8
280
     0
  0
ATTDEF
  5
13D
330
11B
100
AcDbEntity
  8
AM_6
100
AcDbText
 10
6.4515625
 20
-12.07775
 30
0.0
 40
0.5
  1
1-5/32
100
AcDbAttributeDefinition
  3

  2
R
 70
     8
280
     0
  0
ATTDEF
  5
13E
330
11B
100
AcDbEntity
  8
AM_6
100
AcDbText
 10
6.4515625
 20
-12.57775
 30
0.0
 40
0.5
  1
1.156250
100
AcDbAttributeDefinition
  3

  2
R1
 70
     8
280
     0
  0
ATTDEF
  5
13F
330
11B
100
AcDbEntity
  8
AM_6
100
AcDbText
 10
6.4515625
 20
-13.07775
 30
0.0
 40
0.5
  1
1-11/16
100
AcDbAttributeDefinition
  3

  2
S
 70
     8
280
     0
  0
ATTDEF
  5
140
330
11B
100
AcDbEntity
  8
AM_6
100
AcDbText
 10
6.4515625
 20
-13.57775
 30
0.0
 40
0.5
  1
1.687500
100
AcDbAttributeDefinition
  3

  2
S1
 70
     8
280
     0
  0
ATTDEF
  5
141
330
11B
100
AcDbEntity
  8
AM_6
100
AcDbText
 10
6.4515625
 20
-14.07775
 30
0.0
 40
0.5
  1
2.0600
100
AcDbAttributeDefinition
  3

  2
CC
 70
     8
280
     0
  0
ATTDEF
  5
142
330
11B
100
AcDbEntity
  8
AM_6
100
AcDbText
 10
6.4515625
 20
-14.57775
 30
0.0
 40
0.5
  1
baldor
100
AcDbAttributeDefinition
  3

  2
COMPANY
 70
     8
280
     0
  0
LINE
  5
143
330
11B
100
AcDbEntity
  8
AM_9
100
AcDbLine
 10
-1.615625
 20
1.03
 30
0.0
 11
-1.615625
 21
0.7499999999999999
 31
0.0
  0
LINE
  5
144
330
11B
100
AcDbEntity
  8
AM_9
100
AcDbLine
 10
-1.165625
 20
0.7499999999999999
 30
0.0
 11
-1.165625
 21
1.03
 31
0.0
  0
LINE
  5
145
330
11B
100
AcDbEntity
  8
AM_9
100
AcDbLine
 10
-1.6875
 20
-0.7499999999999999
 30
0.0
 11
1.15625
 21
-0.7499999999999999
 31
0.0
  0
LINE
  5
146
330
11B
100
AcDbEntity
  8
AM_9
100
AcDbLine
 10
1.15625
 20
0.7499999999999999
 30
0.0
 11
-1.165625
 21
0.7499999999999999
 31
0.0
  0
LINE
  5
147
330
11B
100
AcDbEntity
  8
AM_9
100
AcDbLine
 10
-1.615625
 20
0.7499999999999999
 30
0.0
 11
-1.6875
 21
0.7499999999999999
 31
0.0
  0
LWPOLYLINE
  5
148
330
11B
100
AcDbEntity
  8
AM_9
100
AcDbPolyline
 90
       21
 70
     0
 43
0.0
 10
-1.615624999995537
 20
0.749999999998661
 10
-1.615602975475239
 20
0.7499933929368559
 10
-1.611910260056638
 20
0.7488939619988493
 10
-1.602661553374604
 20
0.7462134412934287
 10
-1.587636342331261
 20
0.7420838692541196
 10
-1.567553907157651
 20
0.737006674452817
 10
-1.542171744197274
 20
0.7313285278702002
 10
-1.512357530940231
 20
0.7257367353862654
 10
-1.478028276487384
 20
0.7207734267720542
 10
-1.442253652567096
 20
0.7173147968401974
 10
-1.403722423779737
 20
0.7155742746281939
 10
-1.367495945687933
 20
0.7158281589553253
 10
-1.330881179521939
 20
0.7179445132357476
 10
-1.297359890315218
 20
0.7215077135308494
 10
-1.265486305198217
 20
0.7263158355265935
 10
-1.236726066414456
 20
0.7318195691280519
 10
-1.211463081536209
 20
0.7375459260463892
 10
-1.191195461103764
 20
0.7427295207438339
 10
-1.176170322816324
 20
0.7469041495171618
 10
-1.168350220117091
 20
0.7491869444751392
 10
-1.165625
 20
0.7499999999999999
  0
LWPOLYLINE
  5
149
330
11B
100
AcDbEntity
  8
AM_9
100
AcDbPolyline
 90
       11
 70
     0
 43
0.0
 10
-1.390625
 20
0.0984448432486091
 10
-1.354348661087292
 20
0.1015011091249388
 10
-1.318072322174584
 20
0.1108880368347585
 10
-1.284885607744421
 20
0.1256507127721433
 10
-1.253738403353076
 20
0.146009685067289
 10
-1.226314739665369
 20
0.1709257719879536
 10
-1.202753000506965
 20
0.2004042721504226
 10
-1.184654333652358
 20
0.2325695054607019
 10
-1.172070661885968
 20
0.2676972176959806
 10
-1.166261522707191
 20
0.301555237568702
 10
-1.165625000137021
 20
0.3169565796492648
  0
LINE
  5
14A
330
11B
100
AcDbEntity
  8
AM_9
100
AcDbLine
 10
-1.615625
 20
0.4352580987083777
 30
0.0
 11
-1.615625
 21
0.3168776624685223
 31
0.0
  0
LINE
  5
14B
330
11B
100
AcDbEntity
  8
AM_9
100
AcDbLine
 10
-1.165625
 20
0.316862251813319
 30
0.0
 11
-1.165625
 21
0.4352256652947703
 31
0.0
  0
LWPOLYLINE
  5
14C
330
11B
100
AcDbEntity
  8
AM_9
100
AcDbPolyline
 90
        4
 70
     0
 43
0.0
 10
-1.60615282404498
 20
0.3743305087624832
 10
-1.609597101038759
 20
0.3630940667697456
 10
-1.615233388554655
 20
0.3289400684491772
 10
-1.615624999511308
 20
0.3169771367541058
  0
LWPOLYLINE
  5
14D
330
11B
100
AcDbEntity
  8
AM_9
100
AcDbPolyline
 90
        6
 70
     0
 43
0.0
 10
-1.528893622253229
 20
0.4688298948178299
 10
-1.529491250468804
 20
0.4684545319755168
 10
-1.556813013850185
 20
0.4478819691237892
 10
-1.579782160725382
 20
0.4231763315318902
 10
-1.597932266610021
 20
0.3940641408484377
 10
-1.60615282404498
 20
0.3743305087624832
  0
LWPOLYLINE
  5
14E
330
11B
100
AcDbEntity
  8
AM_9
100
AcDbPolyline
 90
        8
 70
     0
 43
0.0
 10
-1.29445195768537
 20
0.4894359577100372
 10
-1.319307275806723
 20
0.4972670243224837
 10
-1.357370500020049
 20
0.5043702645656394
 10
-1.393918569229712
 20
0.5062647028102497
 10
-1.431476824347289
 20
0.5033865441084966
 10
-1.465893246125856
 20
0.4962035253888024
 10
-1.499169284874843
 20
0.4844452105314218
 10
-1.528893622253229
 20
0.4688298948178299
  0
LWPOLYLINE
  5
14F
330
11B
100
AcDbEntity
  8
AM_9
100
AcDbPolyline
 90
        7
 70
     0
 43
0.0
 10
-1.175516616474468
 20
0.3755331130325483
 10
-1.184995789905894
 20
0.397380069587539
 10
-1.202237478146069
 20
0.4241688434077713
 10
-1.224911880500462
 20
0.4483067137001883
 10
-1.252346170109349
 20
0.4688235065146352
 10
-1.284577235378586
 20
0.4855163054961301
 10
-1.29445195768537
 20
0.4894359577100372
  0
LWPOLYLINE
  5
150
330
11B
100
AcDbEntity
  8
AM_9
100
AcDbPolyline
 90
        4
 70
     0
 43
0.0
 10
-1.165625000137021
 20
0.3169565796492648
 10
-1.166634322878666
 20
0.33612941959863
 10
-1.172863862633929
 20
0.3673686326750509
 10
-1.175516616474468
 20
0.3755331130325483
  0
LWPOLYLINE
  5
151
330
11B
100
AcDbEntity
  8
AM_9
100
AcDbPolyline
 90
       11
 70
     0
 43
0.0
 10
-1.615624999511308
 20
0.3169771367541058
 10
-1.614444357172688
 20
0.2959516532612054
 10
-1.607560300917667
 20
0.2618514757722585
 10
-1.595351116476662
 20
0.2299053922727006
 10
-1.577491732533487
 20
0.1989262214181936
 10
-1.554626325832606
 20
0.1705978796731779
 10
-1.526612817009928
 20
0.1453173454202495
 10
-1.494689398957695
 20
0.1247479701815367
 10
-1.458609846463781
 20
0.1093382838846511
 10
-1.425494621401396
 20
0.1012674504351285
 10
-1.390625
 20
0.0984448432486091
  0
LWPOLYLINE
  5
152
330
11B
100
AcDbEntity
  8
AM_9
100
AcDbPolyline
 90
        8
 70
     0
 43
0.0
 10
-1.51350231548333
 20
0.5987707873136707
 10
-1.53559827058183
 20
0.5851046791855951
 10
-1.562096944425117
 20
0.562950966095691
 10
-1.584201488569394
 20
0.5364912836834347
 10
-1.600813802885779
 20
0.506735278515835
 10
-1.611301935472265
 20
0.4745671759364372
 10
-1.615545950390979
 20
0.4406944879079564
 10
-1.615624998731016
 20
0.4353184670603261
  0
LWPOLYLINE
  5
153
330
11B
100
AcDbEntity
  8
AM_9
100
AcDbPolyline
 90
        8
 70
     0
 43
0.0
 10
-1.294524666864941
 20
0.6111045171681825
 10
-1.324499993562775
 20
0.6205971070814242
 10
-1.361841390302574
 20
0.6272018179825156
 10
-1.399275909584491
 20
0.6285509839621665
 10
-1.436461622680616
 20
0.6248683531249759
 10
-1.471901844091208
 20
0.6163032150735791
 10
-1.505105009966628
 20
0.6030812356305871
 10
-1.51350231548333
 20
0.5987707873136707
  0
LWPOLYLINE
  5
154
330
11B
100
AcDbEntity
  8
AM_9
100
AcDbPolyline
 90
        9
 70
     0
 43
0.0
 10
-1.165625000518184
 20
0.4352829699274902
 10
-1.16685552304586
 20
0.4564811815065926
 10
-1.173770181374372
 20
0.4888535251337956
 10
-1.186503139198974
 20
0.5192399914851336
 10
-1.204907059586332
 20
0.5470603010858036
 10
-1.228323408779492
 20
0.5715167022259175
 10
-1.256812679875855
 20
0.5924464831147075
 10
-1.289112258092197
 20
0.6089303502337828
 10
-1.294524666864941
 20
0.6111045171681825
  0
LWPOLYLINE
  5
155
330
11B
100
AcDbEntity
  8
AM_9
100
AcDbPolyline
 90
       11
 70
     0
 43
0.0
 10
-1.615624998731016
 20
0.4353184670603261
 10
-1.613423391034188
 20
0.4067843314508385
 10
-1.605245822659875
 20
0.3731392808889736
 10
-1.59123850539044
 20
0.3408689718841354
 10
-1.57186926395846
 20
0.3108013240488668
 10
-1.547097431262501
 20
0.2833925816995552
 10
-1.517973674275005
 20
0.2600668887374528
 10
-1.484768004971979
 20
0.2414584814030858
 10
-1.448802189061549
 20
0.2285101366072205
 10
-1.419974141741625
 20
0.2227977071431654
 10
-1.390625
 20
0.220864662174304
  0
LWPOLYLINE
  5
156
330
11B
100
AcDbEntity
  8
AM_9
100
AcDbPolyline
 90
       20
 70
     0
 43
0.0
 10
-1.165625
 20
1.03
 10
-1.168645514393603
 20
1.029344399134751
 10
-1.177964312235849
 20
1.027375086382925
 10
-1.192763979334866
 20
1.024413970765066
 10
-1.213440396811764
 20
1.020622057182272
 10
-1.238691990251954
 20
1.016542492693296
 10
-1.268989308720803
 20
1.012457525722916
 10
-1.302229900178624
 20
1.009003812516301
 10
-1.33911576103806
 20
1.006443342517818
 10
-1.375873897577656
 20
1.005232607421126
 10
-1.414170680413782
 20
1.005400118891055
 10
-1.450046569682015
 20
1.006879299093727
 10
-1.485249755982704
 20
1.009568642760256
 10
-1.5171587743685
 20
1.013057646955956
 10
-1.546409801258225
 20
1.017125313962377
 10
-1.571149853348437
 20
1.021207237869217
 10
-1.591412771571312
 20
1.024983282406388
 10
-1.605507606552522
 20
1.027837309402031
 10
-1.613770146803223
 20
1.029596404685754
 10
-1.615624999997109
 20
1.029999999999369
  0
LWPOLYLINE
  5
157
330
11B
100
AcDbEntity
  8
AM_9
100
AcDbPolyline
 90
       11
 70
     0
 43
0.0
 10
-1.390625
 20
0.220864662174304
 10
-1.353362165738242
 20
0.2239976721039227
 10
-1.317162229010746
 20
0.2331731561449507
 10
-1.283092043701411
 20
0.2481087254564965
 10
-1.251998474729581
 20
0.2681871687639233
 10
-1.224358621255568
 20
0.2931948253770401
 10
-1.201352697332672
 20
0.3219888446884695
 10
-1.183526867222269
 20
0.3540500834995315
 10
-1.171607271816112
 20
0.3880416295396381
 10
-1.166099478220674
 20
0.4223574657234649
 10
-1.165625000518184
 20
0.4352829699274902
  0
LINE
  5
158
330
11B
100
AcDbEntity
  8
AM_9
100
AcDbLine
 10
-1.6875
 20
-1.03
 30
0.0
 11
-1.09375
 21
-1.03
 31
0.0
  0
LINE
  5
159
330
11B
100
AcDbEntity
  8
AM_9
100
AcDbLine
 10
-1.09375
 20
1.03
 30
0.0
 11
-1.165625
 21
1.03
 31
0.0
  0
LINE
  5
15A
330
11B
100
AcDbEntity
  8
AM_9
100
AcDbLine
 10
-1.615625
 20
1.03
 30
0.0
 11
-1.6875
 21
1.03
 31
0.0
  0
LINE
  5
15B
330
11B
100
AcDbEntity
  8
AM_9
100
AcDbLine
 10
1.15625
 20
1.328125
 30
0.0
 11
0.8281250000000002
 21
1.328125
 31
0.0
  0
LINE
  5
15C
330
11B
100
AcDbEntity
  8
AM_9
100
AcDbLine
 10
0.8281249999999999
 20
-1.328125
 30
0.0
 11
1.15625
 21
-1.328125
 31
0.0
  0
LINE
  5
15D
330
11B
100
AcDbEntity
  8
AM_9
100
AcDbLine
 10
-1.09375
 20
1.634615384615385
 30
0.0
 11
-1.15625
 21
1.645635820909664
 31
0.0
  0
LINE
  5
15E
330
11B
100
AcDbEntity
  8
AM_9
100
AcDbLine
 10
-1.15625
 20
-1.645635820909664
 30
0.0
 11
-1.09375
 21
-1.634615384615385
 31
0.0
  0
LINE
  5
15F
330
11B
100
AcDbEntity
  8
AM_9
100
AcDbLine
 10
-1.09375
 20
1.634615384615385
 30
0.0
 11
-1.09375
 21
-1.634615384615385
 31
0.0
  0
LINE
  5
160
330
11B
100
AcDbEntity
  8
AM_9
100
AcDbLine
 10
0.8281249999999998
 20
-1.634615384615385
 30
0.0
 11
0.8281250000000001
 21
1.634615384615385
 31
0.0
  0
LINE
  5
161
330
11B
100
AcDbEntity
  8
AM_9
100
AcDbLine
 10
0.8281249999999998
 20
-1.634615384615385
 30
0.0
 11
1.15625
 21
-1.692472675160349
 31
0.0
  0
LINE
  5
162
330
11B
100
AcDbEntity
  8
AM_9
100
AcDbLine
 10
1.15625
 20
1.692472675160349
 30
0.0
 11
0.8281250000000001
 21
1.634615384615385
 31
0.0
  0
LINE
  5
163
330
11B
100
AcDbEntity
  8
AM_7
100
AcDbLine
 10
-1.8296875
 20
0.0
 30
0.0
 11
1.4515625
 21
-0.0000000000000002
 31
0.0
  0
LINE
  5
164
330
11B
100
AcDbEntity
  8
AM_7
100
AcDbLine
 10
-1.390625
 20
-0.0796875
 30
0.0
 11
-1.390625
 21
1.6734375
 31
0.0
  0
LINE
  5
165
330
11B
100
AcDbEntity
  8
AM_7
100
AcDbLine
 10
0.0
 20
2.92225
 30
0.0
 11
0.0
 21
1.880625
 31
0.0
  0
LINE
  5
166
330
11B
100
AcDbEntity
  8
AM_4
100
AcDbLine
 10
0.305316369154144
 20
2.55
 30
0.0
 11
-0.3053163688971273
 21
2.55
 31
0.0
  0
ARC
  5
167
330
11B
100
AcDbEntity
  8
AM_4
100
AcDbCircle
 10
-0.3053163691541426
 20
2.504999999999999
 30
0.0
 40
0.0450000000000017
100
AcDbArc
 50
90.0
 51
170.9999999999983
  0
ARC
  5
168
330
11B
100
AcDbEntity
  8
AM_4
100
AcDbCircle
 10
0.3053163691541426
 20
2.504999999999999
 30
0.0
 40
0.0450000000000014
100
AcDbArc
 50
9.000000000001734
 51
90.0
  0
LINE
  5
169
330
11B
100
AcDbEntity
  8
AM_4
100
AcDbLine
 10
0.349762344480925
 20
2.512039550926811
 30
0.0
 11
-0.349762344480925
 21
2.512039550926811
 31
0.0
  0
LINE
  5
16A
330
11B
100
AcDbEntity
  8
AM_4
100
AcDbLine
 10
-0.349762344480925
 20
2.512039550926811
 30
0.0
 11
-0.4219008358387859
 21
2.056575041849745
 31
0.0
  0
LINE
  5
16B
330
11B
100
AcDbEntity
  8
AM_4
100
AcDbLine
 10
0.4406998778774547
 20
1.937882561703659
 30
0.0
 11
0.349762344480925
 21
2.512039550926811
 31
0.0
  0
LINE
  5
16C
330
11B
100
AcDbEntity
  8
AM_4
100
AcDbLine
 10
-1.15625
 20
1.827604166666666
 30
0.0
 11
-1.15625
 21
-1.827604166666666
 31
0.0
  0
ARC
  5
16D
330
11B
100
AcDbEntity
  8
AM_4
100
AcDbCircle
 10
-1.108854166666667
 20
-1.827604166666667
 30
0.0
 40
0.0473958333333333
100
AcDbArc
 50
180.0
 51
270.0
  0
ARC
  5
16E
330
11B
100
AcDbEntity
  8
AM_4
100
AcDbCircle
 10
-1.108854166666667
 20
1.827604166666667
 30
0.0
 40
0.0473958333333333
100
AcDbArc
 50
90.0
 51
180.0
  0
LINE
  5
16F
330
11B
100
AcDbEntity
  8
AM_4
100
AcDbLine
 10
-1.108854166666666
 20
-1.875
 30
0.0
 11
-0.5937499999999999
 21
-1.875
 31
0.0
  0
LINE
  5
170
330
11B
100
AcDbEntity
  8
AM_4
100
AcDbLine
 10
-0.5937499999999999
 20
1.875
 30
0.0
 11
-1.108854166666666
 21
1.875
 31
0.0
  0
LINE
  5
171
330
11B
100
AcDbEntity
  8
AM_4
100
AcDbLine
 10
-1.108854166666666
 20
1.875
 30
0.0
 11
-1.108854166666666
 21
-1.875
 31
0.0
  0
LINE
  5
172
330
11B
100
AcDbEntity
  8
AM_4
100
AcDbLine
 10
1.15625
 20
1.862604166666666
 30
0.0
 11
1.15625
 21
-1.862604166666666
 31
0.0
  0
ARC
  5
173
330
11B
100
AcDbEntity
  8
AM_4
100
AcDbCircle
 10
1.108854166666667
 20
-1.862604166666666
 30
0.0
 40
0.0473958333333331
100
AcDbArc
 50
270.0
 51
0.0
  0
ARC
  5
174
330
11B
100
AcDbEntity
  8
AM_4
100
AcDbCircle
 10
1.108854166666667
 20
1.862604166666666
 30
0.0
 40
0.0473958333333331
100
AcDbArc
 50
0.0
 51
90.0
  0
LINE
  5
175
330
11B
100
AcDbEntity
  8
AM_4
100
AcDbLine
 10
0.5937500000000001
 20
-1.909999999999999
 30
0.0
 11
1.108854166666667
 21
-1.909999999999999
 31
0.0
  0
LINE
  5
176
330
11B
100
AcDbEntity
  8
AM_4
100
AcDbLine
 10
1.108854166666667
 20
1.909999999999999
 30
0.0
 11
0.5937500000000001
 21
1.909999999999999
 31
0.0
  0
LINE
  5
177
330
11B
100
AcDbEntity
  8
AM_4
100
AcDbLine
 10
0.5937500000000001
 20
1.909999999999999
 30
0.0
 11
0.5937500000000001
 21
-1.909999999999999
 31
0.0
  0
LINE
  5
178
330
11B
100
AcDbEntity
  8
AM_4
100
AcDbLine
 10
1.108854166666667
 20
1.909999999999999
 30
0.0
 11
1.108854166666667
 21
-1.909999999999999
 31
0.0
  0
ARC
  5
179
330
11B
100
AcDbEntity
  8
AM_4
100
AcDbCircle
 10
-0.2656249999997864
 20
0.0000000000005269
 30
0.0
 40
2.062499999999432
100
AcDbArc
 50
65.37568164783522
 51
69.98227892267296
  0
ARC
  5
17A
330
11B
100
AcDbEntity
  8
AM_4
100
AcDbCircle
 10
-0.2656249999999978
 20
-0.0000000000000204
 30
0.0
 40
2.062500000000021
100
AcDbArc
 50
94.34093039665584
 51
99.15413328463869
  0
ARC
  5
17B
330
11B
100
AcDbEntity
  8
AM_4
100
AcDbCircle
 10
-0.2656250000000145
 20
0.0000000000001061
 30
0.0
 40
2.062500000000099
100
AcDbArc
 50
260.845866715362
 51
294.6243183521632
  0
LINE
  5
17C
330
11B
100
AcDbEntity
  8
AM_4
100
AcDbLine
 10
-0.5937499999999993
 20
2.036231871466263
 30
0.0
 11
-0.5937499999999993
 21
-2.036231871466259
 31
0.0
  0
LINE
  5
17D
330
11B
100
AcDbEntity
  8
AM_4
100
AcDbLine
 10
0.4407162460541054
 20
1.937779217072578
 30
0.0
 11
-0.4219014902091351
 21
2.056570910177709
 31
0.0
  0
ENDBLK
  5
11E
330
11B
100
AcDbEntity
  8
0
100
AcDbBlockEnd
  0
ENDSEC
  0
SECTION
  2
ENTITIES
  0
INSERT
  5
6F
330
1F
100
AcDbEntity
  8
0
100
AcDbBlockReference
  2
1_023275_2
 10
0.0
 20
0.0
 30
0.0
  0
POINT
  5
17F
330
1F
100
AcDbEntity
  8
ConnectionPoints
100
AcDbPoint
 10
0.0
 20
2.55
 30
0.0
  0
POINT
  5
180
330
1F
100
AcDbEntity
  8
ConnectionPoints
100
AcDbPoint
 10
0.0
 20
2.55
 30
0.0
  0
POINT
  5
181
330
1F
100
AcDbEntity
  8
ConnectionPoints
100
AcDbPoint
 10
0.0
 20
0.0
 30
0.0
  0
POINT
  5
182
330
1F
100
AcDbEntity
  8
ConnectionPoints
100
AcDbPoint
 10
-1.6875
 20
0.0
 30
0.0000000000000001
  0
POINT
  5
183
330
1F
100
AcDbEntity
  8
ConnectionPoints
100
AcDbPoint
 10
1.422875
 20
0.0
 30
-0.0000000000000001
  0
ENDSEC
  0
SECTION
  2
OBJECTS
  0
DICTIONARY
  5
C
330
0
100
AcDbDictionary
281
     1
  3
ACAD_DETAILVIEWSTYLE
350
18B
  3
ACAD_GROUP
350
D
  3
ACAD_LAYOUT
350
1A
  3
ACAD_MATERIAL
350
43
  3
ACAD_MLEADERSTYLE
350
6B
  3
ACAD_MLINESTYLE
350
17
  3
ACAD_PLOTSETTINGS
350
19
  3
ACAD_PLOTSTYLENAME
350
E
  3
ACAD_SCALELIST
350
47
  3
ACAD_SECTIONVIEWSTYLE
350
18C
  3
ACAD_TABLESTYLE
350
69
  3
ACAD_VISUALSTYLE
350
2A
  3
ACDB_RECOMPOSE_DATA
350
188
  3
AcDbVariableDictionary
350
184
  0
SUN
  5
6D
330
29
100
AcDbSun
 90
        1
290
     0
 63
     7
421
 16777215
 40
1.0
291
     1
 91
  2455826
 92
 54000000
292
     0
 70
     2
 71
   256
280
     1
  0
DICTIONARY
  5
18B
102
{ACAD_REACTORS
330
C
102
}
330
C
100
AcDbDictionary
281
     1
  0
DICTIONARY
  5
D
102
{ACAD_REACTORS
330
C
102
}
330
C
100
AcDbDictionary
281
     1
  0
DICTIONARY
  5
1A
102
{ACAD_REACTORS
330
C
102
}
330
C
100
AcDbDictionary
281
     1
  3
Layout1
350
1E
  3
Layout2
350
26
  3
Model
350
22
  0
DICTIONARY
  5
43
102
{ACAD_REACTORS
330
C
102
}
330
C
100
AcDbDictionary
281
     1
  3
ByBlock
350
45
  3
ByLayer
350
44
  3
Global
350
46
  0
DICTIONARY
  5
6B
102
{ACAD_REACTORS
330
C
102
}
330
C
100
AcDbDictionary
281
     1
  3
Standard
350
6C
  0
DICTIONARY
  5
17
102
{ACAD_REACTORS
330
C
102
}
330
C
100
AcDbDictionary
281
     1
  3
Standard
350
18
  0
DICTIONARY
  5
19
102
{ACAD_REACTORS
330
C
102
}
330
C
100
AcDbDictionary
281
     1
  0
ACDBDICTIONARYWDFLT
  5
E
102
{ACAD_REACTORS
330
C
102
}
330
C
100
AcDbDictionary
281
     1
  3
Normal
350
F
100
AcDbDictionaryWithDefault
340
F
  0
DICTIONARY
  5
47
102
{ACAD_REACTORS
330
C
102
}
330
C
100
AcDbDictionary
281
     1
  3
A0
350
48
  3
A1
350
49
  3
A2
350
4A
  3
A3
350
4B
  3
A4
350
4C
  3
A5
350
4D
  3
A6
350
4E
  3
A7
350
4F
  3
A8
350
50
  3
A9
350
51
  3
B0
350
52
  3
B1
350
53
  3
B2
350
54
  3
B3
350
55
  3
B4
350
56
  3
B5
350
57
  3
B6
350
58
  3
B7
350
59
  3
B8
350
5A
  3
B9
350
5B
  3
C0
350
5C
  3
C1
350
5D
  3
C2
350
5E
  3
C3
350
5F
  3
C4
350
60
  3
C5
350
61
  3
C6
350
62
  3
C7
350
63
  3
C8
350
64
  3
C9
350
65
  3
D0
350
66
  3
D1
350
67
  3
D2
350
68
  0
DICTIONARY
  5
18C
102
{ACAD_REACTORS
330
C
102
}
330
C
100
AcDbDictionary
281
     1
  0
DICTIONARY
  5
69
102
{ACAD_REACTORS
330
C
102
}
330
C
100
AcDbDictionary
281
     1
  3
Standard
350
6A
  0
DICTIONARY
  5
2A
102
{ACAD_REACTORS
330
C
102
}
330
C
100
AcDbDictionary
281
     1
  3
2dWireframe
350
2F
  3
Basic
350
32
  3
Brighten
350
36
  3
ColorChange
350
3A
  3
Conceptual
350
34
  3
Dim
350
35
  3
EdgeColorOff
350
3D
  3
Facepattern
350
39
  3
Flat
350
2B
  3
FlatWithEdges
350
2C
  3
Gouraud
350
2D
  3
GouraudWithEdges
350
2E
  3
Hidden
350
31
  3
JitterOff
350
3B
  3
Linepattern
350
38
  3
OverhangOff
350
3C
  3
Realistic
350
33
  3
Shaded
350
42
  3
Shaded with edges
350
41
  3
Shades of Gray
350
3E
  3
Sketchy
350
3F
  3
Thicken
350
37
  3
Wireframe
350
30
  3
X-Ray
350
40
  0
XRECORD
  5
188
102
{ACAD_REACTORS
330
C
102
}
330
C
100
AcDbXrecord
280
     1
 90
        1
330
6A
  0
DICTIONARY
  5
184
102
{ACAD_REACTORS
330
C
102
}
330
C
100
AcDbDictionary
281
     1
  3
CANNOSCALE
350
185
  3
CMLEADERSTYLE
350
18A
  3
CTABLESTYLE
350
189
  0
LAYOUT
  5
1E
102
{ACAD_REACTORS
330
1A
102
}
330
1A
100
AcDbPlotSettings
  1

  2
none_device
  4

  6

 40
0.0
 41
0.0
 42
0.0
 43
0.0
 44
0.0
 45
0.0
 46
0.0
 47
0.0
 48
0.0
 49
0.0
140
0.0
141
0.0
142
1.0
143
1.0
 70
   688
 72
     0
 73
     0
 74
     5
  7

 75
    16
 76
     0
 77
     2
 78
   300
147
1.0
148
0.0
149
0.0
100
AcDbLayout
  1
Layout1
 70
     1
 71
     1
 10
0.0
 20
0.0
 11
12.0
 21
9.0
 12
0.0
 22
0.0
 32
0.0
 14
1.000000000000000E+20
 24
1.000000000000000E+20
 34
1.000000000000000E+20
 15
-1.000000000000000E+20
 25
-1.000000000000000E+20
 35
-1.000000000000000E+20
146
0.0
 13
0.0
 23
0.0
 33
0.0
 16
1.0
 26
0.0
 36
0.0
 17
0.0
 27
1.0
 37
0.0
 76
     0
330
1B
  0
LAYOUT
  5
26
102
{ACAD_REACTORS
330
1A
102
}
330
1A
100
AcDbPlotSettings
  1

  2
none_device
  4

  6

 40
0.0
 41
0.0
 42
0.0
 43
0.0
 44
0.0
 45
0.0
 46
0.0
 47
0.0
 48
0.0
 49
0.0
140
0.0
141
0.0
142
1.0
143
1.0
 70
   688
 72
     0
 73
     0
 74
     5
  7

 75
    16
 76
     0
 77
     2
 78
   300
147
1.0
148
0.0
149
0.0
100
AcDbLayout
  1
Layout2
 70
     1
 71
     2
 10
0.0
 20
0.0
 11
0.0
 21
0.0
 12
0.0
 22
0.0
 32
0.0
 14
0.0
 24
0.0
 34
0.0
 15
0.0
 25
0.0
 35
0.0
146
0.0
 13
0.0
 23
0.0
 33
0.0
 16
1.0
 26
0.0
 36
0.0
 17
0.0
 27
1.0
 37
0.0
 76
     0
330
23
  0
LAYOUT
  5
22
102
{ACAD_REACTORS
330
1A
102
}
330
1A
100
AcDbPlotSettings
  1

  2
none_device
  4
Letter_(8.50_x_11.00_Inches)
  6

 40
6.35
 41
6.35
 42
6.35000508
 43
6.35000508
 44
215.9
 45
279.4
 46
0.0
 47
0.0
 48
0.0
 49
0.0
140
0.0
141
0.0
142
1.0
143
1.0
 70
  1712
 72
     0
 73
     0
 74
     0
  7

 75
     0
 76
     0
 77
     2
 78
   300
147
1.0
148
0.0
149
0.0
100
AcDbLayout
  1
Model
 70
     1
 71
     0
 10
0.0
 20
0.0
 11
12.0
 21
9.0
 12
0.0
 22
0.0
 32
0.0
 14
1.000000000000000E+20
 24
1.000000000000000E+20
 34
1.000000000000000E+20
 15
-1.000000000000000E+20
 25
-1.000000000000000E+20
 35
-1.000000000000000E+20
146
0.0
 13
0.0
 23
0.0
 33
0.0
 16
1.0
 26
0.0
 36
0.0
 17
0.0
 27
1.0
 37
0.0
 76
     0
330
1F
331
29
  0
MATERIAL
  5
45
102
{ACAD_REACTORS
330
43
102
}
330
43
100
AcDbMaterial
  1
ByBlock
 72
     1
 94
      127
  0
MATERIAL
  5
44
102
{ACAD_REACTORS
330
43
102
}
330
43
100
AcDbMaterial
  1
ByLayer
 72
     1
 94
      127
  0
MATERIAL
  5
46
102
{ACAD_REACTORS
330
43
102
}
330
43
100
AcDbMaterial
  1
Global
 72
     1
 94
      127
  0
MLEADERSTYLE
  5
6C
102
{ACAD_REACTORS
330
6B
102
}
330
6B
100
AcDbMLeaderStyle
179
     2
170
     2
171
     1
172
     0
 90
        2
 40
0.0
 41
0.0
173
     1
 91
-1056964608
340
14
 92
       -2
290
     1
 42
0.09
291
     1
 43
0.36
  3
Standard
341
0
 44
0.18
300

342
11
174
     1
178
     6
175
     1
176
     0
 93
-1056964608
 45
0.18
292
     0
297
     0
 46
0.18
343
0
 94
-1056964608
 47
1.0
 49
1.0
140
1.0
293
     1
141
0.0
294
     1
177
     0
142
1.0
295
     0
296
     0
143
0.125
271
     0
272
     9
273
     9
298
     0
  0
MLINESTYLE
  5
18
102
{ACAD_REACTORS
330
17
102
}
330
17
100
AcDbMlineStyle
  2
Standard
 70
     0
  3

 62
   256
 51
90.0
 52
90.0
 71
     2
 49
0.5
 62
   256
  6
BYLAYER
 49
-0.5
 62
   256
  6
BYLAYER
  0
ACDBPLACEHOLDER
  5
F
102
{ACAD_REACTORS
330
E
102
}
330
E
  0
SCALE
  5
48
102
{ACAD_REACTORS
330
47
102
}
330
47
100
AcDbScale
 70
     0
300
1:1
140
1.0
141
1.0
290
     1
  0
SCALE
  5
49
102
{ACAD_REACTORS
330
47
102
}
330
47
100
AcDbScale
 70
     0
300
1:2
140
1.0
141
2.0
290
     0
  0
SCALE
  5
4A
102
{ACAD_REACTORS
330
47
102
}
330
47
100
AcDbScale
 70
     0
300
1:4
140
1.0
141
4.0
290
     0
  0
SCALE
  5
4B
102
{ACAD_REACTORS
330
47
102
}
330
47
100
AcDbScale
 70
     0
300
1:5
140
1.0
141
5.0
290
     0
  0
SCALE
  5
4C
102
{ACAD_REACTORS
330
47
102
}
330
47
100
AcDbScale
 70
     0
300
1:8
140
1.0
141
8.0
290
     0
  0
SCALE
  5
4D
102
{ACAD_REACTORS
330
47
102
}
330
47
100
AcDbScale
 70
     0
300
1:10
140
1.0
141
10.0
290
     0
  0
SCALE
  5
4E
102
{ACAD_REACTORS
330
47
102
}
330
47
100
AcDbScale
 70
     0
300
1:16
140
1.0
141
16.0
290
     0
  0
SCALE
  5
4F
102
{ACAD_REACTORS
330
47
102
}
330
47
100
AcDbScale
 70
     0
300
1:20
140
1.0
141
20.0
290
     0
  0
SCALE
  5
50
102
{ACAD_REACTORS
330
47
102
}
330
47
100
AcDbScale
 70
     0
300
1:30
140
1.0
141
30.0
290
     0
  0
SCALE
  5
51
102
{ACAD_REACTORS
330
47
102
}
330
47
100
AcDbScale
 70
     0
300
1:40
140
1.0
141
40.0
290
     0
  0
SCALE
  5
52
102
{ACAD_REACTORS
330
47
102
}
330
47
100
AcDbScale
 70
     0
300
1:50
140
1.0
141
50.0
290
     0
  0
SCALE
  5
53
102
{ACAD_REACTORS
330
47
102
}
330
47
100
AcDbScale
 70
     0
300
1:100
140
1.0
141
100.0
290
     0
  0
SCALE
  5
54
102
{ACAD_REACTORS
330
47
102
}
330
47
100
AcDbScale
 70
     0
300
2:1
140
2.0
141
1.0
290
     0
  0
SCALE
  5
55
102
{ACAD_REACTORS
330
47
102
}
330
47
100
AcDbScale
 70
     0
300
4:1
140
4.0
141
1.0
290
     0
  0
SCALE
  5
56
102
{ACAD_REACTORS
330
47
102
}
330
47
100
AcDbScale
 70
     0
300
8:1
140
8.0
141
1.0
290
     0
  0
SCALE
  5
57
102
{ACAD_REACTORS
330
47
102
}
330
47
100
AcDbScale
 70
     0
300
10:1
140
10.0
141
1.0
290
     0
  0
SCALE
  5
58
102
{ACAD_REACTORS
330
47
102
}
330
47
100
AcDbScale
 70
     0
300
100:1
140
100.0
141
1.0
290
     0
  0
SCALE
  5
59
102
{ACAD_REACTORS
330
47
102
}
330
47
100
AcDbScale
 70
     0
300
1/128" = 1'-0"
140
0.0078125
141
12.0
290
     0
  0
SCALE
  5
5A
102
{ACAD_REACTORS
330
47
102
}
330
47
100
AcDbScale
 70
     0
300
1/64" = 1'-0"
140
0.015625
141
12.0
290
     0
  0
SCALE
  5
5B
102
{ACAD_REACTORS
330
47
102
}
330
47
100
AcDbScale
 70
     0
300
1/32" = 1'-0"
140
0.03125
141
12.0
290
     0
  0
SCALE
  5
5C
102
{ACAD_REACTORS
330
47
102
}
330
47
100
AcDbScale
 70
     0
300
1/16" = 1'-0"
140
0.0625
141
12.0
290
     0
  0
SCALE
  5
5D
102
{ACAD_REACTORS
330
47
102
}
330
47
100
AcDbScale
 70
     0
300
3/32" = 1'-0"
140
0.09375
141
12.0
290
     0
  0
SCALE
  5
5E
102
{ACAD_REACTORS
330
47
102
}
330
47
100
AcDbScale
 70
     0
300
1/8" = 1'-0"
140
0.125
141
12.0
290
     0
  0
SCALE
  5
5F
102
{ACAD_REACTORS
330
47
102
}
330
47
100
AcDbScale
 70
     0
300
3/16" = 1'-0"
140
0.1875
141
12.0
290
     0
  0
SCALE
  5
60
102
{ACAD_REACTORS
330
47
102
}
330
47
100
AcDbScale
 70
     0
300
1/4" = 1'-0"
140
0.25
141
12.0
290
     0
  0
SCALE
  5
61
102
{ACAD_REACTORS
330
47
102
}
330
47
100
AcDbScale
 70
     0
300
3/8" = 1'-0"
140
0.375
141
12.0
290
     0
  0
SCALE
  5
62
102
{ACAD_REACTORS
330
47
102
}
330
47
100
AcDbScale
 70
     0
300
1/2" = 1'-0"
140
0.5
141
12.0
290
     0
  0
SCALE
  5
63
102
{ACAD_REACTORS
330
47
102
}
330
47
100
AcDbScale
 70
     0
300
3/4" = 1'-0"
140
0.75
141
12.0
290
     0
  0
SCALE
  5
64
102
{ACAD_REACTORS
330
47
102
}
330
47
100
AcDbScale
 70
     0
300
1" = 1'-0"
140
1.0
141
12.0
290
     0
  0
SCALE
  5
65
102
{ACAD_REACTORS
330
47
102
}
330
47
100
AcDbScale
 70
     0
300
1-1/2" = 1'-0"
140
1.5
141
12.0
290
     0
  0
SCALE
  5
66
102
{ACAD_REACTORS
330
47
102
}
330
47
100
AcDbScale
 70
     0
300
3" = 1'-0"
140
3.0
141
12.0
290
     0
  0
SCALE
  5
67
102
{ACAD_REACTORS
330
47
102
}
330
47
100
AcDbScale
 70
     0
300
6" = 1'-0"
140
6.0
141
12.0
290
     0
  0
SCALE
  5
68
102
{ACAD_REACTORS
330
47
102
}
330
47
100
AcDbScale
 70
     0
300
1'-0" = 1'-0"
140
12.0
141
12.0
290
     0
  0
TABLESTYLE
  5
6A
102
{ACAD_REACTORS
330
69
102
}
102
{ACAD_XDICTIONARY
360
186
102
}
330
69
100
AcDbTableStyle
  3
Standard
 70
     0
 71
     0
 40
0.06
 41
0.06
280
     0
281
     0
  7
Standard
140
0.18
170
     2
 62
     0
 63
   257
283
     0
 90
        4
 91
        0
  1

274
    -2
284
     1
 64
     0
275
    -2
285
     1
 65
     0
276
    -2
286
     1
 66
     0
277
    -2
287
     1
 67
     0
278
    -2
288
     1
 68
     0
279
    -2
289
     1
 69
     0
  7
Standard
140
0.25
170
     5
 62
     0
 63
   257
283
     0
 90
        4
 91
        0
  1

274
    -2
284
     1
 64
     0
275
    -2
285
     1
 65
     0
276
    -2
286
     1
 66
     0
277
    -2
287
     1
 67
     0
278
    -2
288
     1
 68
     0
279
    -2
289
     1
 69
     0
  7
Standard
140
0.18
170
     5
 62
     0
 63
   257
283
     0
 90
        4
 91
        0
  1

274
    -2
284
     1
 64
     0
275
    -2
285
     1
 65
     0
276
    -2
286
     1
 66
     0
277
    -2
287
     1
 67
     0
278
    -2
288
     1
 68
     0
279
    -2
289
     1
 69
     0
  0
VISUALSTYLE
  5
2F
102
{ACAD_REACTORS
330
2A
102
}
330
2A
100
AcDbVisualStyle
  2
2dWireframe
 70
     4
177
     3
291
     0
 70
    58
 90
        0
176
     1
 90
        2
176
     1
 90
        0
176
     1
 90
        0
176
     1
 40
0.6
176
     1
 40
30.0
176
     1
 62
     7
420
 16777215
176
     1
 90
        1
176
     1
 90
        4
176
     1
 62
     7
176
     1
 62
   257
176
     1
 90
        1
176
     1
 90
        1
176
     1
 40
1.0
176
     1
 90
        0
176
     1
 62
   257
176
     1
 40
1.0
176
     1
 90
        1
176
     1
 90
        6
176
     1
 90
        2
176
     1
 62
     7
176
     1
 90
        5
176
     1
 90
        0
176
     1
 90
        0
176
     1
290
     0
176
     1
 90
        1
176
     1
 40
0.0
176
     1
 90
        0
176
     1
290
     1
176
     1
290
     1
176
     1
290
     0
176
     1
290
     0
176
     1
290
     0
176
     1
290
     0
176
     1
290
     0
176
     1
290
     0
176
     1
290
     0
176
     1
 90
       50
176
     1
 40
0.0
176
     1
 40
1.0
176
     1
 90
        0
176
     1
 62
    18
420
        0
176
     1
 90
       50
176
     1
 90
        3
176
     1
 62
     5
420
      255
176
     1
290
     0
176
     1
 90
       50
176
     1
 90
       50
176
     1
 90
       50
176
     1
290
     0
176
     1
 90
       50
176
     1
 62
   256
176
     0
 40
1.0
176
     0
 90
        2
176
     1
  1
strokes_ogs.tif
176
     1
290
     0
176
     1
 40
1.0
176
     1
 40
1.0
176
     1
  0
VISUALSTYLE
  5
32
102
{ACAD_REACTORS
330
2A
102
}
330
2A
100
AcDbVisualStyle
  2
Basic
 70
     7
177
     3
291
     1
 70
    58
 90
        1
176
     1
 90
        0
176
     1
 90
        1
176
     1
 90
        0
176
     1
 40
0.6
176
     1
 40
30.0
176
     1
 62
     7
420
 16777215
176
     1
 90
        0
176
     1
 90
        4
176
     1
 62
     7
176
     1
 62
   257
176
     1
 90
        1
176
     1
 90
        1
176
     1
 40
1.0
176
     1
 90
        8
176
     1
 62
     7
176
     1
 40
1.0
176
     1
 90
        1
176
     1
 90
        6
176
     1
 90
        2
176
     1
 62
     7
176
     1
 90
        5
176
     1
 90
        0
176
     1
 90
        0
176
     1
290
     0
176
     1
 90
        1
176
     1
 40
0.0
176
     1
 90
        0
176
     1
290
     0
176
     1
290
     1
176
     1
290
     1
176
     1
290
     0
176
     1
290
     0
176
     1
290
     0
176
     1
290
     0
176
     1
290
     0
176
     1
290
     0
176
     1
 90
       50
176
     1
 40
0.0
176
     1
 40
1.0
176
     1
 90
        0
176
     1
 62
    18
420
        0
176
     1
 90
       50
176
     1
 90
        3
176
     1
 62
     5
420
      255
176
     1
290
     0
176
     1
 90
       50
176
     1
 90
       50
176
     1
 90
       50
176
     1
290
     0
176
     1
 90
       50
176
     1
 62
   256
176
     0
 40
1.0
176
     0
 90
        2
176
     1
  1
strokes_ogs.tif
176
     1
290
     0
176
     1
 40
1.0
176
     1
 40
1.0
176
     1
  0
VISUALSTYLE
  5
36
102
{ACAD_REACTORS
330
2A
102
}
330
2A
100
AcDbVisualStyle
  2
Brighten
 70
    12
177
     3
291
     1
 70
    58
 90
        2
176
     1
 90
        2
176
     1
 90
        0
176
     1
 90
        0
176
     1
 40
0.6
176
     1
 40
30.0
176
     1
 62
     7
420
 16777215
176
     1
 90
        1
176
     1
 90
        4
176
     1
 62
     7
176
     1
 62
   257
176
     1
 90
        1
176
     1
 90
        1
176
     1
 40
1.0
176
     1
 90
        8
176
     1
 62
     7
176
     1
 40
1.0
176
     1
 90
        1
176
     1
 90
        6
176
     1
 90
        2
176
     1
 62
     7
176
     1
 90
        5
176
     1
 90
        0
176
     1
 90
        0
176
     1
290
     0
176
     1
 90
        1
176
     1
 40
50.0
176
     1
 90
        0
176
     1
290
     0
176
     1
290
     1
176
     1
290
     1
176
     1
290
     0
176
     1
290
     0
176
     1
290
     0
176
     1
290
     0
176
     1
290
     0
176
     1
290
     0
176
     1
 90
       50
176
     1
 40
0.0
176
     1
 40
1.0
176
     1
 90
        0
176
     1
 62
    18
420
        0
176
     1
 90
       50
176
     1
 90
        3
176
     1
 62
     5
420
      255
176
     1
290
     0
176
     1
 90
       50
176
     1
 90
       50
176
     1
 90
       50
176
     1
290
     0
176
     1
 90
       50
176
     1
 62
   256
176
     0
 40
1.0
176
     0
 90
        2
176
     1
  1
strokes_ogs.tif
176
     1
290
     0
176
     1
 40
1.0
176
     1
 40
1.0
176
     1
  0
VISUALSTYLE
  5
3A
102
{ACAD_REACTORS
330
2A
102
}
330
2A
100
AcDbVisualStyle
  2
ColorChange
 70
    16
177
     3
291
     1
 70
    58
 90
        2
176
     1
 90
        2
176
     1
 90
        3
176
     1
 90
        0
176
     1
 40
0.6
176
     1
 40
30.0
176
     1
 62
     8
420
  8421504
176
     1
 90
        1
176
     1
 90
        4
176
     1
 62
     7
176
     1
 62
   257
176
     1
 90
        1
176
     1
 90
        1
176
     1
 40
1.0
176
     1
 90
        8
176
     1
 62
     8
420
  8421504
176
     1
 40
1.0
176
     1
 90
        1
176
     1
 90
        6
176
     1
 90
        2
176
     1
 62
     7
176
     1
 90
        5
176
     1
 90
        0
176
     1
 90
        0
176
     1
290
     0
176
     1
 90
        1
176
     1
 40
0.0
176
     1
 90
        0
176
     1
290
     0
176
     1
290
     1
176
     1
290
     1
176
     1
290
     0
176
     1
290
     0
176
     1
290
     0
176
     1
290
     0
176
     1
290
     0
176
     1
290
     0
176
     1
 90
       50
176
     1
 40
0.0
176
     1
 40
1.0
176
     1
 90
        0
176
     1
 62
    18
420
        0
176
     1
 90
       50
176
     1
 90
        3
176
     1
 62
     5
420
      255
176
     1
290
     0
176
     1
 90
       50
176
     1
 90
       50
176
     1
 90
       50
176
     1
290
     0
176
     1
 90
       50
176
     1
 62
   256
176
     0
 40
1.0
176
     0
 90
        2
176
     1
  1
strokes_ogs.tif
176
     1
290
     0
176
     1
 40
1.0
176
     1
 40
1.0
176
     1
  0
VISUALSTYLE
  5
34
102
{ACAD_REACTORS
330
2A
102
}
330
2A
100
AcDbVisualStyle
  2
Conceptual
 70
     9
177
     3
291
     0
 70
    58
 90
        3
176
     1
 90
        2
176
     1
 90
        0
176
     1
 90
        0
176
     1
 40
0.6
176
     1
 40
30.0
176
     1
 62
     7
420
 16777215
176
     1
 90
        2
176
     1
 90
        2
176
     1
 62
     7
176
     1
 62
   257
176
     1
 90
        1
176
     1
 90
        1
176
     1
 40
179.0
176
     1
 90
        8
176
     1
 62
     7
176
     1
 40
1.0
176
     1
 90
        1
176
     1
 90
        6
176
     1
 90
        2
176
     1
 62
     7
176
     1
 90
        3
176
     1
 90
        0
176
     1
 90
        0
176
     1
290
     0
176
     1
 90
        1
176
     1
 40
0.0
176
     1
 90
        0
176
     1
290
     0
176
     1
290
     1
176
     1
290
     1
176
     1
290
     0
176
     1
290
     0
176
     1
290
     0
176
     1
290
     0
176
     1
290
     0
176
     1
290
     0
176
     1
 90
       50
176
     1
 40
0.0
176
     1
 40
1.0
176
     1
 90
        0
176
     1
 62
    18
420
        0
176
     1
 90
       50
176
     1
 90
        3
176
     1
 62
     5
420
      255
176
     1
290
     0
176
     1
 90
       50
176
     1
 90
       50
176
     1
 90
       50
176
     1
290
     0
176
     1
 90
       50
176
     1
 62
   256
176
     0
 40
1.0
176
     0
 90
        2
176
     1
  1
strokes_ogs.tif
176
     1
290
     0
176
     1
 40
1.0
176
     1
 40
1.0
176
     1
  0
VISUALSTYLE
  5
35
102
{ACAD_REACTORS
330
2A
102
}
330
2A
100
AcDbVisualStyle
  2
Dim
 70
    11
177
     3
291
     1
 70
    58
 90
        2
176
     1
 90
        2
176
     1
 90
        0
176
     1
 90
        0
176
     1
 40
0.6
176
     1
 40
30.0
176
     1
 62
     7
420
 16777215
176
     1
 90
        1
176
     1
 90
        4
176
     1
 62
     7
176
     1
 62
   257
176
     1
 90
        1
176
     1
 90
        1
176
     1
 40
1.0
176
     1
 90
        8
176
     1
 62
     7
176
     1
 40
1.0
176
     1
 90
        1
176
     1
 90
        6
176
     1
 90
        2
176
     1
 62
     7
176
     1
 90
        5
176
     1
 90
        0
176
     1
 90
        0
176
     1
290
     0
176
     1
 90
        1
176
     1
 40
-50.0
176
     1
 90
        0
176
     1
290
     0
176
     1
290
     1
176
     1
290
     1
176
     1
290
     0
176
     1
290
     0
176
     1
290
     0
176
     1
290
     0
176
     1
290
     0
176
     1
290
     0
176
     1
 90
       50
176
     1
 40
0.0
176
     1
 40
1.0
176
     1
 90
        0
176
     1
 62
    18
420
        0
176
     1
 90
       50
176
     1
 90
        3
176
     1
 62
     5
420
      255
176
     1
290
     0
176
     1
 90
       50
176
     1
 90
       50
176
     1
 90
       50
176
     1
290
     0
176
     1
 90
       50
176
     1
 62
   256
176
     0
 40
1.0
176
     0
 90
        2
176
     1
  1
strokes_ogs.tif
176
     1
290
     0
176
     1
 40
1.0
176
     1
 40
1.0
176
     1
  0
VISUALSTYLE
  5
3D
102
{ACAD_REACTORS
330
2A
102
}
330
2A
100
AcDbVisualStyle
  2
EdgeColorOff
 70
    22
177
     3
291
     1
 70
    58
 90
        2
176
     0
 90
        2
176
     0
 90
        0
176
     0
 90
        0
176
     0
 40
0.6
176
     0
 40
30.0
176
     0
 62
     7
420
 16777215
176
     0
 90
        1
176
     0
 90
        4
176
     0
 62
     7
176
     0
 62
   257
176
     0
 90
        1
176
     0
 90
        1
176
     0
 40
1.0
176
     0
 90
        8
176
     2
 62
     7
176
     0
 40
1.0
176
     0
 90
        1
176
     0
 90
        6
176
     0
 90
        2
176
     0
 62
     7
176
     0
 90
        5
176
     0
 90
        0
176
     0
 90
        0
176
     0
290
     0
176
     0
 90
        1
176
     0
 40
0.0
176
     0
 90
        0
176
     0
290
     0
176
     0
290
     1
176
     0
290
     1
176
     0
290
     0
176
     0
290
     0
176
     0
290
     0
176
     0
290
     0
176
     0
290
     0
176
     0
290
     0
176
     0
 90
       50
176
     0
 40
0.0
176
     0
 40
1.0
176
     0
 90
        0
176
     0
 62
    18
420
        0
176
     0
 90
       50
176
     0
 90
        3
176
     0
 62
     5
420
      255
176
     0
290
     0
176
     0
 90
       50
176
     0
 90
       50
176
     0
 90
       50
176
     0
290
     0
176
     0
 90
       50
176
     0
 62
   256
176
     0
 40
1.0
176
     0
 90
        2
176
     0
  1
strokes_ogs.tif
176
     0
290
     0
176
     0
 40
1.0
176
     0
 40
1.0
176
     0
  0
VISUALSTYLE
  5
39
102
{ACAD_REACTORS
330
2A
102
}
330
2A
100
AcDbVisualStyle
  2
Facepattern
 70
    15
177
     3
291
     1
 70
    58
 90
        2
176
     1
 90
        2
176
     1
 90
        0
176
     1
 90
        0
176
     1
 40
0.6
176
     1
 40
30.0
176
     1
 62
     7
420
 16777215
176
     1
 90
        1
176
     1
 90
        4
176
     1
 62
     7
176
     1
 62
   257
176
     1
 90
        1
176
     1
 90
        1
176
     1
 40
1.0
176
     1
 90
        8
176
     1
 62
     7
176
     1
 40
1.0
176
     1
 90
        1
176
     1
 90
        6
176
     1
 90
        2
176
     1
 62
     7
176
     1
 90
        5
176
     1
 90
        0
176
     1
 90
        0
176
     1
290
     0
176
     1
 90
        1
176
     1
 40
0.0
176
     1
 90
        0
176
     1
290
     0
176
     1
290
     1
176
     1
290
     1
176
     1
290
     0
176
     1
290
     0
176
     1
290
     0
176
     1
290
     0
176
     1
290
     0
176
     1
290
     0
176
     1
 90
       50
176
     1
 40
0.0
176
     1
 40
1.0
176
     1
 90
        0
176
     1
 62
    18
420
        0
176
     1
 90
       50
176
     1
 90
        3
176
     1
 62
     5
420
      255
176
     1
290
     0
176
     1
 90
       50
176
     1
 90
       50
176
     1
 90
       50
176
     1
290
     0
176
     1
 90
       50
176
     1
 62
   256
176
     0
 40
1.0
176
     0
 90
        2
176
     1
  1
strokes_ogs.tif
176
     1
290
     0
176
     1
 40
1.0
176
     1
 40
1.0
176
     1
  0
VISUALSTYLE
  5
2B
102
{ACAD_REACTORS
330
2A
102
}
330
2A
100
AcDbVisualStyle
  2
Flat
 70
     0
177
     3
291
     1
 70
    58
 90
        2
176
     1
 90
        1
176
     1
 90
        1
176
     1
 90
        2
176
     1
 40
0.6
176
     1
 40
30.0
176
     1
 62
     7
420
 16777215
176
     1
 90
        0
176
     1
 90
        0
176
     1
 62
     7
176
     1
 62
   257
176
     1
 90
        1
176
     1
 90
        1
176
     1
 40
1.0
176
     1
 90
        8
176
     1
 62
     7
176
     1
 40
1.0
176
     1
 90
        1
176
     1
 90
        6
176
     1
 90
        2
176
     1
 62
     7
176
     1
 90
        5
176
     1
 90
        0
176
     1
 90
        0
176
     1
290
     0
176
     1
 90
       13
176
     1
 40
0.0
176
     1
 90
        0
176
     1
290
     0
176
     1
290
     1
176
     1
290
     1
176
     1
290
     0
176
     1
290
     0
176
     1
290
     0
176
     1
290
     0
176
     1
290
     0
176
     1
290
     0
176
     1
 90
       50
176
     1
 40
0.0
176
     1
 40
1.0
176
     1
 90
        0
176
     1
 62
    18
420
        0
176
     1
 90
       50
176
     1
 90
        3
176
     1
 62
     5
420
      255
176
     1
290
     0
176
     1
 90
       50
176
     1
 90
       50
176
     1
 90
       50
176
     1
290
     0
176
     1
 90
       50
176
     1
 62
   256
176
     0
 40
1.0
176
     0
 90
        2
176
     1
  1
strokes_ogs.tif
176
     1
290
     0
176
     1
 40
1.0
176
     1
 40
1.0
176
     1
  0
VISUALSTYLE
  5
2C
102
{ACAD_REACTORS
330
2A
102
}
330
2A
100
AcDbVisualStyle
  2
FlatWithEdges
 70
     1
177
     3
291
     1
 70
    58
 90
        2
176
     1
 90
        1
176
     1
 90
        1
176
     1
 90
        2
176
     1
 40
0.6
176
     1
 40
30.0
176
     1
 62
     7
420
 16777215
176
     1
 90
        1
176
     1
 90
        0
176
     1
 62
     7
176
     1
 62
   257
176
     1
 90
        1
176
     1
 90
        1
176
     1
 40
1.0
176
     1
 90
        0
176
     1
 62
   257
176
     1
 40
1.0
176
     1
 90
        1
176
     1
 90
        6
176
     1
 90
        2
176
     1
 62
     7
176
     1
 90
        5
176
     1
 90
        0
176
     1
 90
        0
176
     1
290
     0
176
     1
 90
       13
176
     1
 40
0.0
176
     1
 90
        0
176
     1
290
     0
176
     1
290
     1
176
     1
290
     1
176
     1
290
     0
176
     1
290
     0
176
     1
290
     0
176
     1
290
     0
176
     1
290
     0
176
     1
290
     0
176
     1
 90
       50
176
     1
 40
0.0
176
     1
 40
1.0
176
     1
 90
        0
176
     1
 62
    18
420
        0
176
     1
 90
       50
176
     1
 90
        3
176
     1
 62
     5
420
      255
176
     1
290
     0
176
     1
 90
       50
176
     1
 90
       50
176
     1
 90
       50
176
     1
290
     0
176
     1
 90
       50
176
     1
 62
   256
176
     0
 40
1.0
176
     0
 90
        2
176
     1
  1
strokes_ogs.tif
176
     1
290
     0
176
     1
 40
1.0
176
     1
 40
1.0
176
     1
  0
VISUALSTYLE
  5
2D
102
{ACAD_REACTORS
330
2A
102
}
330
2A
100
AcDbVisualStyle
  2
Gouraud
 70
     2
177
     3
291
     1
 70
    58
 90
        2
176
     1
 90
        2
176
     1
 90
        1
176
     1
 90
        2
176
     1
 40
0.6
176
     1
 40
30.0
176
     1
 62
     7
420
 16777215
176
     1
 90
        0
176
     1
 90
        0
176
     1
 62
     7
176
     1
 62
   257
176
     1
 90
        1
176
     1
 90
        1
176
     1
 40
1.0
176
     1
 90
        0
176
     1
 62
     7
176
     1
 40
1.0
176
     1
 90
        1
176
     1
 90
        6
176
     1
 90
        2
176
     1
 62
     7
176
     1
 90
        5
176
     1
 90
        0
176
     1
 90
        0
176
     1
290
     0
176
     1
 90
       13
176
     1
 40
0.0
176
     1
 90
        0
176
     1
290
     0
176
     1
290
     1
176
     1
290
     1
176
     1
290
     0
176
     1
290
     0
176
     1
290
     0
176
     1
290
     0
176
     1
290
     0
176
     1
290
     0
176
     1
 90
       50
176
     1
 40
0.0
176
     1
 40
1.0
176
     1
 90
        0
176
     1
 62
    18
420
        0
176
     1
 90
       50
176
     1
 90
        3
176
     1
 62
     5
420
      255
176
     1
290
     0
176
     1
 90
       50
176
     1
 90
       50
176
     1
 90
       50
176
     1
290
     0
176
     1
 90
       50
176
     1
 62
   256
176
     0
 40
1.0
176
     0
 90
        2
176
     1
  1
strokes_ogs.tif
176
     1
290
     0
176
     1
 40
1.0
176
     1
 40
1.0
176
     1
  0
VISUALSTYLE
  5
2E
102
{ACAD_REACTORS
330
2A
102
}
330
2A
100
AcDbVisualStyle
  2
GouraudWithEdges
 70
     3
177
     3
291
     1
 70
    58
 90
        2
176
     1
 90
        2
176
     1
 90
        1
176
     1
 90
        2
176
     1
 40
0.6
176
     1
 40
30.0
176
     1
 62
     7
420
 16777215
176
     1
 90
        1
176
     1
 90
        0
176
     1
 62
     7
176
     1
 62
   257
176
     1
 90
        1
176
     1
 90
        1
176
     1
 40
1.0
176
     1
 90
        0
176
     1
 62
   257
176
     1
 40
1.0
176
     1
 90
        1
176
     1
 90
        6
176
     1
 90
        2
176
     1
 62
     7
176
     1
 90
        5
176
     1
 90
        0
176
     1
 90
        0
176
     1
290
     0
176
     1
 90
       13
176
     1
 40
0.0
176
     1
 90
        0
176
     1
290
     0
176
     1
290
     1
176
     1
290
     1
176
     1
290
     0
176
     1
290
     0
176
     1
290
     0
176
     1
290
     0
176
     1
290
     0
176
     1
290
     0
176
     1
 90
       50
176
     1
 40
0.0
176
     1
 40
1.0
176
     1
 90
        0
176
     1
 62
    18
420
        0
176
     1
 90
       50
176
     1
 90
        3
176
     1
 62
     5
420
      255
176
     1
290
     0
176
     1
 90
       50
176
     1
 90
       50
176
     1
 90
       50
176
     1
290
     0
176
     1
 90
       50
176
     1
 62
   256
176
     0
 40
1.0
176
     0
 90
        2
176
     1
  1
strokes_ogs.tif
176
     1
290
     0
176
     1
 40
1.0
176
     1
 40
1.0
176
     1
  0
VISUALSTYLE
  5
31
102
{ACAD_REACTORS
330
2A
102
}
330
2A
100
AcDbVisualStyle
  2
Hidden
 70
     6
177
     3
291
     0
 70
    58
 90
        1
176
     1
 90
        2
176
     1
 90
        2
176
     1
 90
        0
176
     1
 40
0.6
176
     1
 40
30.0
176
     1
 62
     7
420
 16777215
176
     1
 90
        2
176
     1
 90
        2
176
     1
 62
     7
176
     1
 62
   257
176
     1
 90
        2
176
     1
 90
        1
176
     1
 40
40.0
176
     1
 90
        0
176
     1
 62
   257
176
     1
 40
1.0
176
     1
 90
        1
176
     1
 90
        6
176
     1
 90
        2
176
     1
 62
     7
176
     1
 90
        3
176
     1
 90
        0
176
     1
 90
        0
176
     1
290
     0
176
     1
 90
        1
176
     1
 40
0.0
176
     1
 90
        0
176
     1
290
     0
176
     1
290
     1
176
     1
290
     1
176
     1
290
     0
176
     1
290
     0
176
     1
290
     0
176
     1
290
     0
176
     1
290
     0
176
     1
290
     0
176
     1
 90
       50
176
     1
 40
0.0
176
     1
 40
1.0
176
     1
 90
        0
176
     1
 62
    18
420
        0
176
     1
 90
       50
176
     1
 90
        3
176
     1
 62
     5
420
      255
176
     1
290
     0
176
     1
 90
       50
176
     1
 90
       50
176
     1
 90
       50
176
     1
290
     0
176
     1
 90
       50
176
     1
 62
   256
176
     0
 40
1.0
176
     0
 90
        2
176
     1
  1
strokes_ogs.tif
176
     1
290
     0
176
     1
 40
1.0
176
     1
 40
1.0
176
     1
  0
VISUALSTYLE
  5
3B
102
{ACAD_REACTORS
330
2A
102
}
330
2A
100
AcDbVisualStyle
  2
JitterOff
 70
    20
177
     3
291
     1
 70
    58
 90
        2
176
     0
 90
        2
176
     0
 90
        0
176
     0
 90
        0
176
     0
 40
0.6
176
     0
 40
30.0
176
     0
 62
     7
420
 16777215
176
     0
 90
        1
176
     0
 90
        4
176
     0
 62
     7
176
     0
 62
   257
176
     0
 90
        1
176
     0
 90
        1
176
     0
 40
1.0
176
     0
 90
       10
176
     2
 62
     7
176
     0
 40
1.0
176
     0
 90
        1
176
     0
 90
        6
176
     0
 90
        2
176
     0
 62
     7
176
     0
 90
        5
176
     0
 90
        0
176
     0
 90
        0
176
     0
290
     0
176
     0
 90
        1
176
     0
 40
0.0
176
     0
 90
        0
176
     0
290
     0
176
     0
290
     1
176
     0
290
     1
176
     0
290
     0
176
     0
290
     0
176
     0
290
     0
176
     0
290
     0
176
     0
290
     0
176
     0
290
     0
176
     0
 90
       50
176
     0
 40
0.0
176
     0
 40
1.0
176
     0
 90
        0
176
     0
 62
    18
420
        0
176
     0
 90
       50
176
     0
 90
        3
176
     0
 62
     5
420
      255
176
     0
290
     0
176
     0
 90
       50
176
     0
 90
       50
176
     0
 90
       50
176
     0
290
     0
176
     0
 90
       50
176
     0
 62
   256
176
     0
 40
1.0
176
     0
 90
        2
176
     0
  1
strokes_ogs.tif
176
     0
290
     0
176
     0
 40
1.0
176
     0
 40
1.0
176
     0
  0
VISUALSTYLE
  5
38
102
{ACAD_REACTORS
330
2A
102
}
330
2A
100
AcDbVisualStyle
  2
Linepattern
 70
    14
177
     3
291
     1
 70
    58
 90
        2
176
     1
 90
        2
176
     1
 90
        0
176
     1
 90
        0
176
     1
 40
0.6
176
     1
 40
30.0
176
     1
 62
     7
420
 16777215
176
     1
 90
        1
176
     1
 90
        4
176
     1
 62
     7
176
     1
 62
   257
176
     1
 90
        7
176
     1
 90
        7
176
     1
 40
1.0
176
     1
 90
        8
176
     1
 62
     7
176
     1
 40
1.0
176
     1
 90
        1
176
     1
 90
        6
176
     1
 90
        2
176
     1
 62
     7
176
     1
 90
        5
176
     1
 90
        0
176
     1
 90
        0
176
     1
290
     0
176
     1
 90
        1
176
     1
 40
0.0
176
     1
 90
        0
176
     1
290
     0
176
     1
290
     1
176
     1
290
     1
176
     1
290
     0
176
     1
290
     0
176
     1
290
     0
176
     1
290
     0
176
     1
290
     0
176
     1
290
     0
176
     1
 90
       50
176
     1
 40
0.0
176
     1
 40
1.0
176
     1
 90
        0
176
     1
 62
    18
420
        0
176
     1
 90
       50
176
     1
 90
        3
176
     1
 62
     5
420
      255
176
     1
290
     0
176
     1
 90
       50
176
     1
 90
       50
176
     1
 90
       50
176
     1
290
     0
176
     1
 90
       50
176
     1
 62
   256
176
     0
 40
1.0
176
     0
 90
        2
176
     1
  1
strokes_ogs.tif
176
     1
290
     0
176
     1
 40
1.0
176
     1
 40
1.0
176
     1
  0
VISUALSTYLE
  5
3C
102
{ACAD_REACTORS
330
2A
102
}
330
2A
100
AcDbVisualStyle
  2
OverhangOff
 70
    21
177
     3
291
     1
 70
    58
 90
        2
176
     0
 90
        2
176
     0
 90
        0
176
     0
 90
        0
176
     0
 40
0.6
176
     0
 40
30.0
176
     0
 62
     7
420
 16777215
176
     0
 90
        1
176
     0
 90
        4
176
     0
 62
     7
176
     0
 62
   257
176
     0
 90
        1
176
     0
 90
        1
176
     0
 40
1.0
176
     0
 90
        9
176
     2
 62
     7
176
     0
 40
1.0
176
     0
 90
        1
176
     0
 90
        6
176
     0
 90
        2
176
     0
 62
     7
176
     0
 90
        5
176
     0
 90
        0
176
     0
 90
        0
176
     0
290
     0
176
     0
 90
        1
176
     0
 40
0.0
176
     0
 90
        0
176
     0
290
     0
176
     0
290
     1
176
     0
290
     1
176
     0
290
     0
176
     0
290
     0
176
     0
290
     0
176
     0
290
     0
176
     0
290
     0
176
     0
290
     0
176
     0
 90
       50
176
     0
 40
0.0
176
     0
 40
1.0
176
     0
 90
        0
176
     0
 62
    18
420
        0
176
     0
 90
       50
176
     0
 90
        3
176
     0
 62
     5
420
      255
176
     0
290
     0
176
     0
 90
       50
176
     0
 90
       50
176
     0
 90
       50
176
     0
290
     0
176
     0
 90
       50
176
     0
 62
   256
176
     0
 40
1.0
176
     0
 90
        2
176
     0
  1
strokes_ogs.tif
176
     0
290
     0
176
     0
 40
1.0
176
     0
 40
1.0
176
     0
  0
VISUALSTYLE
  5
33
102
{ACAD_REACTORS
330
2A
102
}
330
2A
100
AcDbVisualStyle
  2
Realistic
 70
     8
177
     3
291
     0
 70
    58
 90
        2
176
     1
 90
        3
176
     1
 90
        0
176
     1
 90
        2
176
     1
 40
0.6
176
     1
 40
30.0
176
     1
 62
     7
420
 16777215
176
     1
 90
        0
176
     1
 90
        0
176
     1
 62
     7
176
     1
 62
   257
176
     1
 90
        1
176
     1
 90
        1
176
     1
 40
1.0
176
     1
 90
        8
176
     1
 62
   257
176
     1
 40
1.0
176
     1
 90
        1
176
     1
 90
        6
176
     1
 90
        2
176
     1
 62
     7
176
     1
 90
        3
176
     1
 90
        0
176
     1
 90
        0
176
     1
290
     0
176
     1
 90
       13
176
     1
 40
0.0
176
     1
 90
        0
176
     1
290
     0
176
     1
290
     1
176
     1
290
     1
176
     1
290
     0
176
     1
290
     0
176
     1
290
     0
176
     1
290
     0
176
     1
290
     0
176
     1
290
     0
176
     1
 90
       50
176
     1
 40
0.0
176
     1
 40
1.0
176
     1
 90
        0
176
     1
 62
    18
420
        0
176
     1
 90
       50
176
     1
 90
        3
176
     1
 62
     5
420
      255
176
     1
290
     0
176
     1
 90
       50
176
     1
 90
       50
176
     1
 90
       50
176
     1
290
     0
176
     1
 90
       50
176
     1
 62
   256
176
     0
 40
1.0
176
     0
 90
        2
176
     1
  1
strokes_ogs.tif
176
     1
290
     0
176
     1
 40
1.0
176
     1
 40
1.0
176
     1
  0
VISUALSTYLE
  5
42
102
{ACAD_REACTORS
330
2A
102
}
330
2A
100
AcDbVisualStyle
  2
Shaded
 70
    27
177
     3
291
     0
 70
    58
 90
        2
176
     1
 90
        2
176
     1
 90
        1
176
     1
 90
        2
176
     1
 40
0.6
176
     1
 40
30.0
176
     1
 62
     7
420
 16777215
176
     1
 90
        0
176
     1
 90
        4
176
     1
 62
     7
176
     1
 62
   257
176
     1
 90
        1
176
     1
 90
        1
176
     1
 40
1.0
176
     1
 90
        8
176
     1
 62
   257
176
     1
 40
1.0
176
     1
 90
        1
176
     1
 90
        6
176
     1
 90
        2
176
     1
 62
     8
420
  7895160
176
     1
 90
        3
176
     1
 90
        0
176
     1
 90
        0
176
     1
290
     0
176
     1
 90
        5
176
     1
 40
0.0
176
     1
 90
        0
176
     1
290
     0
176
     1
290
     1
176
     1
290
     1
176
     1
290
     0
176
     1
290
     0
176
     1
290
     0
176
     1
290
     0
176
     1
290
     0
176
     1
290
     0
176
     1
 90
       50
176
     1
 40
0.0
176
     1
 40
1.0
176
     1
 90
        0
176
     1
 62
    18
420
        0
176
     1
 90
       50
176
     1
 90
        3
176
     1
 62
     5
420
      255
176
     1
290
     0
176
     1
 90
       50
176
     1
 90
       50
176
     1
 90
       50
176
     1
290
     0
176
     1
 90
       50
176
     1
 62
   256
176
     0
 40
1.0
176
     0
 90
        2
176
     1
  1
strokes_ogs.tif
176
     1
290
     0
176
     1
 40
1.0
176
     1
 40
1.0
176
     1
  0
VISUALSTYLE
  5
41
102
{ACAD_REACTORS
330
2A
102
}
330
2A
100
AcDbVisualStyle
  2
Shaded with edges
 70
    26
177
     3
291
     0
 70
    58
 90
        2
176
     1
 90
        2
176
     1
 90
        1
176
     1
 90
        2
176
     1
 40
0.6
176
     1
 40
30.0
176
     1
 62
     7
420
 16777215
176
     1
 90
        1
176
     1
 90
       10
176
     1
 62
     7
176
     1
 62
   257
176
     1
 90
        2
176
     1
 90
        1
176
     1
 40
1.0
176
     1
 90
        8
176
     1
 62
   257
176
     1
 40
1.0
176
     1
 90
        1
176
     1
 90
        6
176
     1
 90
        2
176
     1
 62
     7
176
     1
 90
        3
176
     1
 90
        0
176
     1
 90
        0
176
     1
290
     0
176
     1
 90
        5
176
     1
 40
0.0
176
     1
 90
        0
176
     1
290
     0
176
     1
290
     1
176
     1
290
     1
176
     1
290
     0
176
     1
290
     0
176
     1
290
     0
176
     1
290
     0
176
     1
290
     0
176
     1
290
     0
176
     1
 90
       50
176
     1
 40
0.0
176
     1
 40
1.0
176
     1
 90
        0
176
     1
 62
    18
420
        0
176
     1
 90
       50
176
     1
 90
        3
176
     1
 62
     5
420
      255
176
     1
290
     0
176
     1
 90
       50
176
     1
 90
       50
176
     1
 90
       50
176
     1
290
     0
176
     1
 90
       50
176
     1
 62
   256
176
     0
 40
1.0
176
     0
 90
        2
176
     1
  1
strokes_ogs.tif
176
     1
290
     0
176
     1
 40
1.0
176
     1
 40
1.0
176
     1
  0
VISUALSTYLE
  5
3E
102
{ACAD_REACTORS
330
2A
102
}
330
2A
100
AcDbVisualStyle
  2
Shades of Gray
 70
    23
177
     3
291
     0
 70
    58
 90
        2
176
     1
 90
        2
176
     1
 90
        3
176
     1
 90
        0
176
     1
 40
0.6
176
     1
 40
30.0
176
     1
 62
     7
420
 16777215
176
     1
 90
        2
176
     1
 90
        2
176
     1
 62
     7
176
     1
 62
     7
176
     1
 90
        1
176
     1
 90
        1
176
     1
 40
40.0
176
     1
 90
        8
176
     1
 62
     7
176
     1
 40
1.0
176
     1
 90
        1
176
     1
 90
        6
176
     1
 90
        2
176
     1
 62
     7
176
     1
 90
        3
176
     1
 90
        0
176
     1
 90
        0
176
     1
290
     0
176
     1
 90
        1
176
     1
 40
0.0
176
     1
 90
        0
176
     1
290
     0
176
     1
290
     1
176
     1
290
     1
176
     1
290
     0
176
     1
290
     0
176
     1
290
     0
176
     1
290
     0
176
     1
290
     0
176
     1
290
     0
176
     1
 90
       50
176
     1
 40
0.0
176
     1
 40
1.0
176
     1
 90
        0
176
     1
 62
    18
420
        0
176
     1
 90
       50
176
     1
 90
        3
176
     1
 62
     5
420
      255
176
     1
290
     0
176
     1
 90
       50
176
     1
 90
       50
176
     1
 90
       50
176
     1
290
     0
176
     1
 90
       50
176
     1
 62
   256
176
     0
 40
1.0
176
     0
 90
        2
176
     1
  1
strokes_ogs.tif
176
     1
290
     0
176
     1
 40
1.0
176
     1
 40
1.0
176
     1
  0
VISUALSTYLE
  5
3F
102
{ACAD_REACTORS
330
2A
102
}
330
2A
100
AcDbVisualStyle
  2
Sketchy
 70
    24
177
     3
291
     0
 70
    58
 90
        1
176
     1
 90
        2
176
     1
 90
        2
176
     1
 90
        0
176
     1
 40
0.6
176
     1
 40
30.0
176
     1
 62
     7
420
 16777215
176
     1
 90
        2
176
     1
 90
        2
176
     1
 62
     7
176
     1
 62
     7
176
     1
 90
        1
176
     1
 90
        1
176
     1
 40
40.0
176
     1
 90
       11
176
     1
 62
     7
176
     1
 40
1.0
176
     1
 90
        1
176
     1
 90
        6
176
     1
 90
        2
176
     1
 62
     7
176
     1
 90
        6
176
     1
 90
        0
176
     1
 90
        0
176
     1
290
     0
176
     1
 90
        1
176
     1
 40
0.0
176
     1
 90
        0
176
     1
290
     0
176
     1
290
     1
176
     1
290
     1
176
     1
290
     0
176
     1
290
     0
176
     1
290
     0
176
     1
290
     0
176
     1
290
     0
176
     1
290
     0
176
     1
 90
       50
176
     1
 40
0.0
176
     1
 40
1.0
176
     1
 90
        0
176
     1
 62
    18
420
        0
176
     1
 90
       50
176
     1
 90
        3
176
     1
 62
     5
420
      255
176
     1
290
     0
176
     1
 90
       50
176
     1
 90
       50
176
     1
 90
       50
176
     1
290
     0
176
     1
 90
       50
176
     1
 62
   256
176
     0
 40
1.0
176
     0
 90
        2
176
     1
  1
strokes_ogs.tif
176
     1
290
     0
176
     1
 40
1.0
176
     1
 40
1.0
176
     1
  0
VISUALSTYLE
  5
37
102
{ACAD_REACTORS
330
2A
102
}
330
2A
100
AcDbVisualStyle
  2
Thicken
 70
    13
177
     3
291
     1
 70
    58
 90
        2
176
     1
 90
        2
176
     1
 90
        0
176
     1
 90
        0
176
     1
 40
0.6
176
     1
 40
30.0
176
     1
 62
     7
420
 16777215
176
     1
 90
        1
176
     1
 90
        4
176
     1
 62
     7
176
     1
 62
   257
176
     1
 90
        1
176
     1
 90
        1
176
     1
 40
1.0
176
     1
 90
       12
176
     1
 62
     7
176
     1
 40
1.0
176
     1
 90
        1
176
     1
 90
        6
176
     1
 90
        2
176
     1
 62
     7
176
     1
 90
        5
176
     1
 90
        0
176
     1
 90
        0
176
     1
290
     0
176
     1
 90
        1
176
     1
 40
0.0
176
     1
 90
        0
176
     1
290
     0
176
     1
290
     1
176
     1
290
     1
176
     1
290
     0
176
     1
290
     0
176
     1
290
     0
176
     1
290
     0
176
     1
290
     0
176
     1
290
     0
176
     1
 90
       50
176
     1
 40
0.0
176
     1
 40
1.0
176
     1
 90
        0
176
     1
 62
    18
420
        0
176
     1
 90
       50
176
     1
 90
        3
176
     1
 62
     5
420
      255
176
     1
290
     0
176
     1
 90
       50
176
     1
 90
       50
176
     1
 90
       50
176
     1
290
     0
176
     1
 90
       50
176
     1
 62
   256
176
     0
 40
1.0
176
     0
 90
        2
176
     1
  1
strokes_ogs.tif
176
     1
290
     0
176
     1
 40
1.0
176
     1
 40
1.0
176
     1
  0
VISUALSTYLE
  5
30
102
{ACAD_REACTORS
330
2A
102
}
330
2A
100
AcDbVisualStyle
  2
Wireframe
 70
     5
177
     3
291
     0
 70
    58
 90
        0
176
     1
 90
        2
176
     1
 90
        0
176
     1
 90
        0
176
     1
 40
0.6
176
     1
 40
30.0
176
     1
 62
     7
420
 16777215
176
     1
 90
        1
176
     1
 90
        4
176
     1
 62
     7
176
     1
 62
   257
176
     1
 90
        1
176
     1
 90
        1
176
     1
 40
1.0
176
     1
 90
        0
176
     1
 62
   257
176
     1
 40
1.0
176
     1
 90
        1
176
     1
 90
        6
176
     1
 90
        2
176
     1
 62
     7
176
     1
 90
        3
176
     1
 90
        0
176
     1
 90
        0
176
     1
290
     0
176
     1
 90
        1
176
     1
 40
0.0
176
     1
 90
        0
176
     1
290
     0
176
     1
290
     1
176
     1
290
     1
176
     1
290
     0
176
     1
290
     0
176
     1
290
     0
176
     1
290
     0
176
     1
290
     0
176
     1
290
     0
176
     1
 90
       50
176
     1
 40
0.0
176
     1
 40
1.0
176
     1
 90
        0
176
     1
 62
    18
420
        0
176
     1
 90
       50
176
     1
 90
        3
176
     1
 62
     5
420
      255
176
     1
290
     0
176
     1
 90
       50
176
     1
 90
       50
176
     1
 90
       50
176
     1
290
     0
176
     1
 90
       50
176
     1
 62
   256
176
     0
 40
1.0
176
     0
 90
        2
176
     1
  1
strokes_ogs.tif
176
     1
290
     0
176
     1
 40
1.0
176
     1
 40
1.0
176
     1
  0
VISUALSTYLE
  5
40
102
{ACAD_REACTORS
330
2A
102
}
330
2A
100
AcDbVisualStyle
  2
X-Ray
 70
    25
177
     3
291
     0
 70
    58
 90
        2
176
     1
 90
        2
176
     1
 90
        1
176
     1
 90
        1
176
     1
 40
0.5
176
     1
 40
30.0
176
     1
 62
     7
420
 16777215
176
     1
 90
        1
176
     1
 90
        0
176
     1
 62
     7
176
     1
 62
   257
176
     1
 90
        1
176
     1
 90
        1
176
     1
 40
1.0
176
     1
 90
        8
176
     1
 62
     7
176
     1
 40
1.0
176
     1
 90
        1
176
     1
 90
        6
176
     1
 90
        2
176
     1
 62
     7
176
     1
 90
        3
176
     1
 90
        0
176
     1
 90
        0
176
     1
290
     0
176
     1
 90
       13
176
     1
 40
0.0
176
     1
 90
        0
176
     1
290
     0
176
     1
290
     1
176
     1
290
     1
176
     1
290
     0
176
     1
290
     0
176
     1
290
     0
176
     1
290
     0
176
     1
290
     0
176
     1
290
     0
176
     1
 90
       50
176
     1
 40
0.0
176
     1
 40
1.0
176
     1
 90
        0
176
     1
 62
    18
420
        0
176
     1
 90
       50
176
     1
 90
        3
176
     1
 62
     5
420
      255
176
     1
290
     0
176
     1
 90
       50
176
     1
 90
       50
176
     1
 90
       50
176
     1
290
     0
176
     1
 90
       50
176
     1
 62
   256
176
     0
 40
1.0
176
     0
 90
        2
176
     1
  1
strokes_ogs.tif
176
     1
290
     0
176
     1
 40
1.0
176
     1
 40
1.0
176
     1
  0
DICTIONARYVAR
  5
185
102
{ACAD_REACTORS
330
184
102
}
330
184
100
DictionaryVariables
280
     0
  1
1:1
  0
DICTIONARYVAR
  5
18A
102
{ACAD_REACTORS
330
184
102
}
330
184
100
DictionaryVariables
280
     0
  1
Standard
  0
DICTIONARYVAR
  5
189
102
{ACAD_REACTORS
330
184
102
}
330
184
100
DictionaryVariables
280
     0
  1
Standard
  0
DICTIONARY
  5
186
330
6A
100
AcDbDictionary
280
     1
281
     1
  3
ACAD_ROUNDTRIP_2008_TABLESTYLE_CELLSTYLEMAP
360
187
  0
CELLSTYLEMAP
  5
187
102
{ACAD_REACTORS
330
186
102
}
330
186
100
AcDbCellStyleMap
 90
        3
300
CELLSTYLE
  1
TABLEFORMAT_BEGIN
 90
        5
170
     1
 91
        0
 92
    32768
 62
   257
 93
        1
300
CONTENTFORMAT
  1
CONTENTFORMAT_BEGIN
 90
        0
 91
        0
 92
        4
 93
        0
300

 40
0.0
140
1.0
 94
        5
 62
     0
340
11
144
0.25
309
CONTENTFORMAT_END
171
     1
301
MARGIN
  1
CELLMARGIN_BEGIN
 40
0.06
 40
0.06
 40
0.06
 40
0.06
 40
0.06
 40
0.06
309
CELLMARGIN_END
 94
        6
 95
        1
302
GRIDFORMAT
  1
GRIDFORMAT_BEGIN
 90
        0
 91
        1
 62
     0
 92
       -2
340
14
 93
        0
 40
0.045
309
GRIDFORMAT_END
 95
        2
302
GRIDFORMAT
  1
GRIDFORMAT_BEGIN
 90
        0
 91
        1
 62
     0
 92
       -2
340
14
 93
        0
 40
0.045
309
GRIDFORMAT_END
 95
        4
302
GRIDFORMAT
  1
GRIDFORMAT_BEGIN
 90
        0
 91
        1
 62
     0
 92
       -2
340
14
 93
        0
 40
0.045
309
GRIDFORMAT_END
 95
        8
302
GRIDFORMAT
  1
GRIDFORMAT_BEGIN
 90
        0
 91
        1
 62
     0
 92
       -2
340
14
 93
        0
 40
0.045
309
GRIDFORMAT_END
 95
       16
302
GRIDFORMAT
  1
GRIDFORMAT_BEGIN
 90
        0
 91
        1
 62
     0
 92
       -2
340
14
 93
        0
 40
0.045
309
GRIDFORMAT_END
 95
       32
302
GRIDFORMAT
  1
GRIDFORMAT_BEGIN
 90
        0
 91
        1
 62
     0
 92
       -2
340
14
 93
        0
 40
0.045
309
GRIDFORMAT_END
309
TABLEFORMAT_END
  1
CELLSTYLE_BEGIN
 90
        1
 91
        1
300
_TITLE
309
CELLSTYLE_END
300
CELLSTYLE
  1
TABLEFORMAT_BEGIN
 90
        5
170
     1
 91
        0
 92
        0
 62
   257
 93
        1
300
CONTENTFORMAT
  1
CONTENTFORMAT_BEGIN
 90
        0
 91
        0
 92
        4
 93
        0
300

 40
0.0
140
1.0
 94
        5
 62
     0
340
11
144
0.18
309
CONTENTFORMAT_END
171
     1
301
MARGIN
  1
CELLMARGIN_BEGIN
 40
0.06
 40
0.06
 40
0.06
 40
0.06
 40
0.06
 40
0.06
309
CELLMARGIN_END
 94
        6
 95
        1
302
GRIDFORMAT
  1
GRIDFORMAT_BEGIN
 90
        0
 91
        1
 62
     0
 92
       -2
340
14
 93
        0
 40
0.045
309
GRIDFORMAT_END
 95
        2
302
GRIDFORMAT
  1
GRIDFORMAT_BEGIN
 90
        0
 91
        1
 62
     0
 92
       -2
340
14
 93
        0
 40
0.045
309
GRIDFORMAT_END
 95
        4
302
GRIDFORMAT
  1
GRIDFORMAT_BEGIN
 90
        0
 91
        1
 62
     0
 92
       -2
340
14
 93
        0
 40
0.045
309
GRIDFORMAT_END
 95
        8
302
GRIDFORMAT
  1
GRIDFORMAT_BEGIN
 90
        0
 91
        1
 62
     0
 92
       -2
340
14
 93
        0
 40
0.045
309
GRIDFORMAT_END
 95
       16
302
GRIDFORMAT
  1
GRIDFORMAT_BEGIN
 90
        0
 91
        1
 62
     0
 92
       -2
340
14
 93
        0
 40
0.045
309
GRIDFORMAT_END
 95
       32
302
GRIDFORMAT
  1
GRIDFORMAT_BEGIN
 90
        0
 91
        1
 62
     0
 92
       -2
340
14
 93
        0
 40
0.045
309
GRIDFORMAT_END
309
TABLEFORMAT_END
  1
CELLSTYLE_BEGIN
 90
        2
 91
        1
300
_HEADER
309
CELLSTYLE_END
300
CELLSTYLE
  1
TABLEFORMAT_BEGIN
 90
        5
170
     1
 91
        0
 92
        0
 62
   257
 93
        1
300
CONTENTFORMAT
  1
CONTENTFORMAT_BEGIN
 90
        0
 91
        0
 92
        4
 93
        0
300

 40
0.0
140
1.0
 94
        2
 62
     0
340
11
144
0.18
309
CONTENTFORMAT_END
171
     1
301
MARGIN
  1
CELLMARGIN_BEGIN
 40
0.06
 40
0.06
 40
0.06
 40
0.06
 40
0.06
 40
0.06
309
CELLMARGIN_END
 94
        6
 95
        1
302
GRIDFORMAT
  1
GRIDFORMAT_BEGIN
 90
        0
 91
        1
 62
     0
 92
       -2
340
14
 93
        0
 40
0.045
309
GRIDFORMAT_END
 95
        2
302
GRIDFORMAT
  1
GRIDFORMAT_BEGIN
 90
        0
 91
        1
 62
     0
 92
       -2
340
14
 93
        0
 40
0.045
309
GRIDFORMAT_END
 95
        4
302
GRIDFORMAT
  1
GRIDFORMAT_BEGIN
 90
        0
 91
        1
 62
     0
 92
       -2
340
14
 93
        0
 40
0.045
309
GRIDFORMAT_END
 95
        8
302
GRIDFORMAT
  1
GRIDFORMAT_BEGIN
 90
        0
 91
        1
 62
     0
 92
       -2
340
14
 93
        0
 40
0.045
309
GRIDFORMAT_END
 95
       16
302
GRIDFORMAT
  1
GRIDFORMAT_BEGIN
 90
        0
 91
        1
 62
     0
 92
       -2
340
14
 93
        0
 40
0.045
309
GRIDFORMAT_END
 95
       32
302
GRIDFORMAT
  1
GRIDFORMAT_BEGIN
 90
        0
 91
        1
 62
     0
 92
       -2
340
14
 93
        0
 40
0.045
309
GRIDFORMAT_END
309
TABLEFORMAT_END
  1
CELLSTYLE_BEGIN
 90
        3
 91
        2
300
_DATA
309
CELLSTYLE_END
  0
ENDSEC
  0
EOF