0
SECTION
  2
HEADER
  9
$ACADVER
  1
AC1027
  9
$ACADMAINTVER
 70
     8
  9
$DWGCODEPAGE
  3
ANSI_1252
  9
$REQUIREDVERSIONS
160
                 0
  9
$COMMENTS
  1
File was created by Cadenas
  9
$CUSTOMPROPERTYTAG
  1
NN
  9
$CUSTOMPROPERTY
  1
Type K  S-1 Units Gray Iron Inch Bore
  9
$CUSTOMPROPERTYTAG
  1
NT
  9
$CUSTOMPROPERTY
  1
Type K
  9
$CUSTOMPROPERTYTAG
  1
NB
  9
$CUSTOMPROPERTY
  1
023273
  9
$CUSTOMPROPERTYTAG
  1
NBSYN
  9
$CUSTOMPROPERTY
  1
$PN.
  9
$CUSTOMPROPERTYTAG
  1
LINA
  9
$CUSTOMPROPERTY
  1
023273
  9
$CUSTOMPROPERTYTAG
  1
SS
  9
$CUSTOMPROPERTY
  1
1-3/8
  9
$CUSTOMPROPERTYTAG
  1
PN
  9
$CUSTOMPROPERTY
  1
023273
  9
$CUSTOMPROPERTYTAG
  1
PNA
  9
$CUSTOMPROPERTY
  1
S1U-K-106R
  9
$CUSTOMPROPERTYTAG
  1
WEIGHT
  9
$CUSTOMPROPERTY
  1
4
  9
$CUSTOMPROPERTYTAG
  1
A
  9
$CUSTOMPROPERTY
  1
2-17/32
  9
$CUSTOMPROPERTYTAG
  1
B
  9
$CUSTOMPROPERTY
  1
2-1/16
  9
$CUSTOMPROPERTYTAG
  1
C
  9
$CUSTOMPROPERTY
  1
1-5/32
  9
$CUSTOMPROPERTYTAG
  1
D
  9
$CUSTOMPROPERTY
  1
3-7/16
  9
$CUSTOMPROPERTYTAG
  1
E
  9
$CUSTOMPROPERTY
  1
0.450
  9
$CUSTOMPROPERTYTAG
  1
EC
  9
$CUSTOMPROPERTY
  1
3-5/16
  9
$CUSTOMPROPERTYTAG
  1
EM
  9
$CUSTOMPROPERTY
  1
3.250
  9
$CUSTOMPROPERTYTAG
  1
H
  9
$CUSTOMPROPERTY
  1
11/16
  9
$CUSTOMPROPERTYTAG
  1
J
  9
$CUSTOMPROPERTY
  1
2-5/8
  9
$CUSTOMPROPERTYTAG
  1
K
  9
$CUSTOMPROPERTY
  1
3.625
  9
$CUSTOMPROPERTYTAG
  1
L
  9
$CUSTOMPROPERTY
  1
2-3/4
  9
$CUSTOMPROPERTYTAG
  1
M
  9
$CUSTOMPROPERTY
  1
2-5/8
  9
$CUSTOMPROPERTYTAG
  1
R
  9
$CUSTOMPROPERTY
  1
1-1/32
  9
$CUSTOMPROPERTYTAG
  1
S
  9
$CUSTOMPROPERTY
  1
1-1/2
  9
$CUSTOMPROPERTYTAG
  1
CS
  9
$CUSTOMPROPERTY
  1
26000
  9
$CUSTOMPROPERTYTAG
  1
CD
  9
$CUSTOMPROPERTY
  1
4760
  9
$CUSTOMPROPERTYTAG
  1
RN
  9
$CUSTOMPROPERTY
  1
20
  9
$CUSTOMPROPERTYTAG
  1
RM
  9
$CUSTOMPROPERTY
  1
.29
  9
$CUSTOMPROPERTYTAG
  1
PDI
  9
$CUSTOMPROPERTY
  1
2.084
  9
$CUSTOMPROPERTYTAG
  1
EP
  9
$CUSTOMPROPERTY
  1
.004-.012
  9
$CUSTOMPROPERTYTAG
  1
SC
  9
$CUSTOMPROPERTY
  1
5/16-18*5/8
  9
$CUSTOMPROPERTYTAG
  1
TC
  9
$CUSTOMPROPERTY
  1
165
  9
$CUSTOMPROPERTYTAG
  1
MH
  9
$CUSTOMPROPERTY
  1
C.I. ASTM A48 CLASS 30
  9
$CUSTOMPROPERTYTAG
  1
MC
  9
$CUSTOMPROPERTY
  1
4118 CASE CARB.
  9
$CUSTOMPROPERTYTAG
  1
MCU
  9
$CUSTOMPROPERTY
  1
4118 CASE CARB.
  9
$CUSTOMPROPERTYTAG
  1
MR
  9
$CUSTOMPROPERTY
  1
STEEL
  9
$CUSTOMPROPERTYTAG
  1
MRO
  9
$CUSTOMPROPERTY
  1
4118 CASE CARB.
  9
$CUSTOMPROPERTYTAG
  1
SM
  9
$CUSTOMPROPERTY
  1
±.001 PER INCH
  9
$CUSTOMPROPERTYTAG
  1
COMPANY
  9
$CUSTOMPROPERTY
  1
baldor
  9
$INSBASE
 10
0.0
 20
0.0
 30
0.0
  9
$EXTMIN
 10
1.000000000000000E+20
 20
1.000000000000000E+20
 30
1.000000000000000E+20
  9
$EXTMAX
 10
-1.000000000000000E+20
 20
-1.000000000000000E+20
 30
-1.000000000000000E+20
  9
$LIMMIN
 10
0.0
 20
0.0
  9
$LIMMAX
 10
12.0
 20
9.0
  9
$ORTHOMODE
 70
     0
  9
$REGENMODE
 70
     1
  9
$FILLMODE
 70
     1
  9
$QTEXTMODE
 70
     0
  9
$MIRRTEXT
 70
     1
  9
$LTSCALE
 40
1.0
  9
$ATTMODE
 70
     1
  9
$TEXTSIZE
 40
0.2
  9
$TRACEWID
 40
0.05
  9
$TEXTSTYLE
  7
Standard
  9
$CLAYER
  8
0
  9
$CELTYPE
  6
ByLayer
  9
$CECOLOR
 62
   256
  9
$CELTSCALE
 40
1.0
  9
$DISPSILH
 70
     0
  9
$DIMSCALE
 40
1.0
  9
$DIMASZ
 40
0.18
  9
$DIMEXO
 40
0.0625
  9
$DIMDLI
 40
0.38
  9
$DIMRND
 40
0.0
  9
$DIMDLE
 40
0.0
  9
$DIMEXE
 40
0.18
  9
$DIMTP
 40
0.0
  9
$DIMTM
 40
0.0
  9
$DIMTXT
 40
0.18
  9
$DIMCEN
 40
0.09
  9
$DIMTSZ
 40
0.0
  9
$DIMTOL
 70
     0
  9
$DIMLIM
 70
     0
  9
$DIMTIH
 70
     1
  9
$DIMTOH
 70
     1
  9
$DIMSE1
 70
     0
  9
$DIMSE2
 70
     0
  9
$DIMTAD
 70
     0
  9
$DIMZIN
 70
     0
  9
$DIMBLK
  1

  9
$DIMASO
 70
     1
  9
$DIMSHO
 70
     1
  9
$DIMPOST
  1

  9
$DIMAPOST
  1

  9
$DIMALT
 70
     0
  9
$DIMALTD
 70
     2
  9
$DIMALTF
 40
25.4
  9
$DIMLFAC
 40
1.0
  9
$DIMTOFL
 70
     0
  9
$DIMTVP
 40
0.0
  9
$DIMTIX
 70
     0
  9
$DIMSOXD
 70
     0
  9
$DIMSAH
 70
     0
  9
$DIMBLK1
  1

  9
$DIMBLK2
  1

  9
$DIMSTYLE
  2
Standard
  9
$DIMCLRD
 70
     0
  9
$DIMCLRE
 70
     0
  9
$DIMCLRT
 70
     0
  9
$DIMTFAC
 40
1.0
  9
$DIMGAP
 40
0.09
  9
$DIMJUST
 70
     0
  9
$DIMSD1
 70
     0
  9
$DIMSD2
 70
     0
  9
$DIMTOLJ
 70
     1
  9
$DIMTZIN
 70
     0
  9
$DIMALTZ
 70
     0
  9
$DIMALTTZ
 70
     0
  9
$DIMUPT
 70
     0
  9
$DIMDEC
 70
     4
  9
$DIMTDEC
 70
     4
  9
$DIMALTU
 70
     2
  9
$DIMALTTD
 70
     2
  9
$DIMTXSTY
  7
Standard
  9
$DIMAUNIT
 70
     0
  9
$DIMADEC
 70
     0
  9
$DIMALTRND
 40
0.0
  9
$DIMAZIN
 70
     0
  9
$DIMDSEP
 70
    46
  9
$DIMATFIT
 70
     3
  9
$DIMFRAC
 70
     0
  9
$DIMLDRBLK
  1

  9
$DIMLUNIT
 70
     2
  9
$DIMLWD
 70
    -2
  9
$DIMLWE
 70
    -2
  9
$DIMTMOVE
 70
     0
  9
$DIMFXL
 40
1.0
  9
$DIMFXLON
 70
     0
  9
$DIMJOGANG
 40
0.7853981633974483
  9
$DIMTFILL
 70
     0
  9
$DIMTFILLCLR
 70
     0
  9
$DIMARCSYM
 70
     0
  9
$DIMLTYPE
  6

  9
$DIMLTEX1
  6

  9
$DIMLTEX2
  6

  9
$DIMTXTDIRECTION
 70
     0
  9
$LUNITS
 70
     2
  9
$LUPREC
 70
     4
  9
$SKETCHINC
 40
0.1
  9
$FILLETRAD
 40
0.5
  9
$AUNITS
 70
     0
  9
$AUPREC
 70
     0
  9
$MENU
  1
.
  9
$ELEVATION
 40
0.0
  9
$PELEVATION
 40
0.0
  9
$THICKNESS
 40
0.0
  9
$LIMCHECK
 70
     0
  9
$CHAMFERA
 40
0.0
  9
$CHAMFERB
 40
0.0
  9
$CHAMFERC
 40
0.0
  9
$CHAMFERD
 40
0.0
  9
$SKPOLY
 70
     0
  9
$TDCREATE
 40
2458169.00538794
  9
$TDUCREATE
 40
2458168.963721273
  9
$TDUPDATE
 40
2458169.005388125
  9
$TDUUPDATE
 40
2458168.963721458
  9
$TDINDWG
 40
0.0000000116
  9
$TDUSRTIMER
 40
0.0000000116
  9
$USRTIMER
 70
     1
  9
$ANGBASE
 50
0.0
  9
$ANGDIR
 70
     0
  9
$PDMODE
 70
     0
  9
$PDSIZE
 40
0.0
  9
$PLINEWID
 40
0.0
  9
$SPLFRAME
 70
     0
  9
$SPLINETYPE
 70
     6
  9
$SPLINESEGS
 70
     8
  9
$HANDSEED
  5
163
  9
$SURFTAB1
 70
     6
  9
$SURFTAB2
 70
     6
  9
$SURFTYPE
 70
     6
  9
$SURFU
 70
     6
  9
$SURFV
 70
     6
  9
$UCSBASE
  2

  9
$UCSNAME
  2

  9
$UCSORG
 10
0.0
 20
0.0
 30
0.0
  9
$UCSXDIR
 10
1.0
 20
0.0
 30
0.0
  9
$UCSYDIR
 10
0.0
 20
1.0
 30
0.0
  9
$UCSORTHOREF
  2

  9
$UCSORTHOVIEW
 70
     0
  9
$UCSORGTOP
 10
0.0
 20
0.0
 30
0.0
  9
$UCSORGBOTTOM
 10
0.0
 20
0.0
 30
0.0
  9
$UCSORGLEFT
 10
0.0
 20
0.0
 30
0.0
  9
$UCSORGRIGHT
 10
0.0
 20
0.0
 30
0.0
  9
$UCSORGFRONT
 10
0.0
 20
0.0
 30
0.0
  9
$UCSORGBACK
 10
0.0
 20
0.0
 30
0.0
  9
$PUCSBASE
  2

  9
$PUCSNAME
  2

  9
$PUCSORG
 10
0.0
 20
0.0
 30
0.0
  9
$PUCSXDIR
 10
1.0
 20
0.0
 30
0.0
  9
$PUCSYDIR
 10
0.0
 20
1.0
 30
0.0
  9
$PUCSORTHOREF
  2

  9
$PUCSORTHOVIEW
 70
     0
  9
$PUCSORGTOP
 10
0.0
 20
0.0
 30
0.0
  9
$PUCSORGBOTTOM
 10
0.0
 20
0.0
 30
0.0
  9
$PUCSORGLEFT
 10
0.0
 20
0.0
 30
0.0
  9
$PUCSORGRIGHT
 10
0.0
 20
0.0
 30
0.0
  9
$PUCSORGFRONT
 10
0.0
 20
0.0
 30
0.0
  9
$PUCSORGBACK
 10
0.0
 20
0.0
 30
0.0
  9
$USERI1
 70
     0
  9
$USERI2
 70
     0
  9
$USERI3
 70
     0
  9
$USERI4
 70
     0
  9
$USERI5
 70
     0
  9
$USERR1
 40
0.0
  9
$USERR2
 40
0.0
  9
$USERR3
 40
0.0
  9
$USERR4
 40
0.0
  9
$USERR5
 40
0.0
  9
$WORLDVIEW
 70
     1
  9
$SHADEDGE
 70
     3
  9
$SHADEDIF
 70
    70
  9
$TILEMODE
 70
     1
  9
$MAXACTVP
 70
    64
  9
$PINSBASE
 10
0.0
 20
0.0
 30
0.0
  9
$PLIMCHECK
 70
     0
  9
$PEXTMIN
 10
1.000000000000000E+20
 20
1.000000000000000E+20
 30
1.000000000000000E+20
  9
$PEXTMAX
 10
-1.000000000000000E+20
 20
-1.000000000000000E+20
 30
-1.000000000000000E+20
  9
$PLIMMIN
 10
0.0
 20
0.0
  9
$PLIMMAX
 10
12.0
 20
9.0
  9
$UNITMODE
 70
     0
  9
$VISRETAIN
 70
     1
  9
$PLINEGEN
 70
     0
  9
$PSLTSCALE
 70
     1
  9
$TREEDEPTH
 70
  3020
  9
$CMLSTYLE
  2
Standard
  9
$CMLJUST
 70
     0
  9
$CMLSCALE
 40
1.0
  9
$PROXYGRAPHICS
 70
     1
  9
$MEASUREMENT
 70
     0
  9
$CELWEIGHT
370
    -1
  9
$ENDCAPS
280
     0
  9
$JOINSTYLE
280
     0
  9
$LWDISPLAY
290
     0
  9
$INSUNITS
 70
     1
  9
$HYPERLINKBASE
  1

  9
$STYLESHEET
  1

  9
$XEDIT
290
     1
  9
$CEPSNTYPE
380
     0
  9
$PSTYLEMODE
290
     1
  9
$FINGERPRINTGUID
  2
{C44769AA-30A7-41C7-9FCC-CE3607732631}
  9
$VERSIONGUID
  2
{FAEB1C32-E019-11D5-929B-00C0DF256EC4}
  9
$EXTNAMES
290
     1
  9
$PSVPSCALE
 40
0.0
  9
$OLESTARTUP
290
     0
  9
$SORTENTS
280
   127
  9
$INDEXCTL
280
     0
  9
$HIDETEXT
280
     1
  9
$XCLIPFRAME
280
     2
  9
$HALOGAP
280
     0
  9
$OBSCOLOR
 70
   257
  9
$OBSLTYPE
280
     0
  9
$INTERSECTIONDISPLAY
280
     0
  9
$INTERSECTIONCOLOR
 70
   257
  9
$DIMASSOC
280
     2
  9
$PROJECTNAME
  1

  9
$CAMERADISPLAY
290
     0
  9
$LENSLENGTH
 40
50.0
  9
$CAMERAHEIGHT
 40
0.0
  9
$STEPSPERSEC
 40
2.0
  9
$STEPSIZE
 40
6.0
  9
$3DDWFPREC
 40
2.0
  9
$PSOLWIDTH
 40
0.25
  9
$PSOLHEIGHT
 40
4.0
  9
$LOFTANG1
 40
1.570796326794897
  9
$LOFTANG2
 40
1.570796326794897
  9
$LOFTMAG1
 40
0.0
  9
$LOFTMAG2
 40
0.0
  9
$LOFTPARAM
 70
     7
  9
$LOFTNORMALS
280
     1
  9
$LATITUDE
 40
37.795
  9
$LONGITUDE
 40
-122.394
  9
$NORTHDIRECTION
 40
0.0
  9
$TIMEZONE
 70
 -8000
  9
$LIGHTGLYPHDISPLAY
280
     1
  9
$TILEMODELIGHTSYNCH
280
     1
  9
$CMATERIAL
347
44
  9
$SOLIDHIST
280
     0
  9
$SHOWHIST
280
     1
  9
$DWFFRAME
280
     2
  9
$DGNFRAME
280
     2
  9
$REALWORLDSCALE
290
     1
  9
$INTERFERECOLOR
 62
   256
  9
$CSHADOW
280
     0
  9
$SHADOWPLANELOCATION
 40
0.0
  0
ENDSEC
  0
SECTION
  2
CLASSES
  0
CLASS
  1
ACDBDICTIONARYWDFLT
  2
AcDbDictionaryWithDefault
  3
ObjectDBX Classes
 90
        0
 91
        4
280
     0
281
     0
  0
CLASS
  1
VISUALSTYLE
  2
AcDbVisualStyle
  3
ObjectDBX Classes
 90
     4095
 91
        4
280
     0
281
     0
  0
CLASS
  1
MATERIAL
  2
AcDbMaterial
  3
ObjectDBX Classes
 90
     1153
 91
        4
280
     0
281
     0
  0
CLASS
  1
SCALE
  2
AcDbScale
  3
ObjectDBX Classes
 90
     1153
 91
        4
280
     0
281
     0
  0
CLASS
  1
TABLESTYLE
  2
AcDbTableStyle
  3
ObjectDBX Classes
 90
     4095
 91
        4
280
     0
281
     0
  0
CLASS
  1
MLEADERSTYLE
  2
AcDbMLeaderStyle
  3
ACDB_MLEADERSTYLE_CLASS
 90
     4095
 91
        4
280
     0
281
     0
  0
CLASS
  1
SUN
  2
AcDbSun
  3
SCENEOE
 90
     1153
 91
        4
280
     0
281
     0
  0
CLASS
  1
DICTIONARYVAR
  2
AcDbDictionaryVar
  3
ObjectDBX Classes
 90
        0
 91
        4
280
     0
281
     0
  0
CLASS
  1
CELLSTYLEMAP
  2
AcDbCellStyleMap
  3
ObjectDBX Classes
 90
     1152
 91
        4
280
     0
281
     0
  0
ENDSEC
  0
SECTION
  2
TABLES
  0
TABLE
  2
VPORT
  5
8
330
0
100
AcDbSymbolTable
 70
     1
  0
VPORT
  5
29
330
8
100
AcDbSymbolTableRecord
100
AcDbViewportTableRecord
  2
*Active
 70
     0
 10
0.0
 20
0.0
 11
1.0
 21
1.0
 12
0.0
 22
-0.166015625
 13
0.0
 23
0.0
 14
0.5
 24
0.5
 15
0.5
 25
0.5
 16
0.0
 26
0.0
 36
1.0
 17
0.0
 27
0.0
 37
0.0
 40
2.979515624999999
 41
1.240973522332175
 42
50.0
 43
0.0
 44
0.0
 50
0.0
 51
0.0
 71
     0
 72
   100
 73
     1
 74
     3
 75
     0
 76
     0
 77
     0
 78
     0
281
     0
 65
     1
110
0.0
120
0.0
130
0.0
111
1.0
121
0.0
131
0.0
112
0.0
122
1.0
132
0.0
 79
     0
146
0.0
348
2F
 60
     3
 61
     5
292
     1
282
     1
141
0.0
142
0.0
 63
   250
361
6D
  0
ENDTAB
  0
TABLE
  2
LTYPE
  5
5
330
0
100
AcDbSymbolTable
 70
     3
  0
LTYPE
  5
14
330
5
100
AcDbSymbolTableRecord
100
AcDbLinetypeTableRecord
  2
ByBlock
 70
     0
  3

 72
    65
 73
     0
 40
0.0
  0
LTYPE
  5
15
330
5
100
AcDbSymbolTableRecord
100
AcDbLinetypeTableRecord
  2
ByLayer
 70
     0
  3

 72
    65
 73
     0
 40
0.0
  0
LTYPE
  5
16
330
5
100
AcDbSymbolTableRecord
100
AcDbLinetypeTableRecord
  2
Continuous
 70
     0
  3
Solid line
 72
    65
 73
     0
 40
0.0
  0
LTYPE
  5
AE
330
5
100
AcDbSymbolTableRecord
100
AcDbLinetypeTableRecord
  2
Dashed
 70
     0
  3

 72
    65
 73
     2
 40
2.0
 49
1.0
 74
     0
 49
-1.0
 74
     0
  0
LTYPE
  5
C5
330
5
100
AcDbSymbolTableRecord
100
AcDbLinetypeTableRecord
  2
Center
 70
     0
  3

 72
    65
 73
     4
 40
1.5
 49
0.45
 74
     0
 49
-0.5
 74
     0
 49
0.05
 74
     0
 49
-0.5
 74
     0
  0
ENDTAB
  0
TABLE
  2
LAYER
  5
2
330
0
100
AcDbSymbolTable
 70
     7
  0
LAYER
  5
10
330
2
100
AcDbSymbolTableRecord
100
AcDbLayerTableRecord
  2
0
 70
     0
 62
     7
  6
Continuous
370
    -3
390
F
347
46
348
0
  0
LAYER
  5
72
330
2
100
AcDbSymbolTableRecord
100
AcDbLayerTableRecord
  2
AM_6
 70
     0
 62
    -2
  6
Continuous
370
    35
390
F
347
46
348
0
  0
LAYER
  5
AF
330
2
100
AcDbSymbolTableRecord
100
AcDbLayerTableRecord
  2
AM_9
 70
     0
 62
     6
  6
Dashed
370
    25
390
F
347
46
348
0
  0
LAYER
  5
C6
330
2
100
AcDbSymbolTableRecord
100
AcDbLayerTableRecord
  2
AM_7
 70
     0
 62
     7
  6
Center
370
    25
390
F
347
46
348
0
  0
LAYER
  5
C8
330
2
100
AcDbSymbolTableRecord
100
AcDbLayerTableRecord
  2
AM_4
 70
     0
 62
     7
  6
Continuous
370
    50
390
F
347
46
348
0
  0
LAYER
  5
D5
330
2
100
AcDbSymbolTableRecord
100
AcDbLayerTableRecord
  2
AM_5
 70
     0
 62
     3
  6
Continuous
370
    25
390
F
347
46
348
0
  0
LAYER
  5
154
330
2
100
AcDbSymbolTableRecord
100
AcDbLayerTableRecord
  2
ConnectionPoints
 70
     0
 62
     7
  6
Continuous
370
    50
390
F
347
46
348
0
  0
ENDTAB
  0
TABLE
  2
STYLE
  5
3
330
0
100
AcDbSymbolTable
 70
     1
  0
STYLE
  5
11
330
3
100
AcDbSymbolTableRecord
100
AcDbTextStyleTableRecord
  2
Standard
 70
     0
 40
0.0
 41
1.0
 50
0.0
 71
     0
 42
0.2
  3
txt
  4

  0
ENDTAB
  0
TABLE
  2
VIEW
  5
6
330
0
100
AcDbSymbolTable
 70
     0
  0
ENDTAB
  0
TABLE
  2
UCS
  5
7
330
0
100
AcDbSymbolTable
 70
     0
  0
ENDTAB
  0
TABLE
  2
APPID
  5
9
330
0
100
AcDbSymbolTable
 70
     1
  0
APPID
  5
12
330
9
100
AcDbSymbolTableRecord
100
AcDbRegAppTableRecord
  2
ACAD
 70
     0
  0
ENDTAB
  0
TABLE
  2
DIMSTYLE
  5
A
330
0
100
AcDbSymbolTable
 70
     1
100
AcDbDimStyleTable
  0
DIMSTYLE
105
27
330
A
100
AcDbSymbolTableRecord
100
AcDbDimStyleTableRecord
  2
Standard
 70
     0
178
     0
340
11
  0
ENDTAB
  0
TABLE
  2
BLOCK_RECORD
  5
1
330
0
100
AcDbSymbolTable
 70
     5
  0
BLOCK_RECORD
  5
1F
330
1
100
AcDbSymbolTableRecord
100
AcDbBlockTableRecord
  2
*Model_Space
340
22
 70
     0
280
     1
281
     0
  0
BLOCK_RECORD
  5
1B
330
1
100
AcDbSymbolTableRecord
100
AcDbBlockTableRecord
  2
*Paper_Space
340
1E
 70
     0
280
     1
281
     0
  0
BLOCK_RECORD
  5
23
330
1
100
AcDbSymbolTableRecord
100
AcDbBlockTableRecord
  2
*Paper_Space0
340
26
 70
     0
280
     1
281
     0
  0
BLOCK_RECORD
  5
6E
330
1
100
AcDbSymbolTableRecord
100
AcDbBlockTableRecord
  2
1_023273_4
340
0
102
{BLKREFS
331
6F
102
}
 70
     0
280
     1
281
     0
  0
BLOCK_RECORD
  5
99
330
1
100
AcDbSymbolTableRecord
100
AcDbBlockTableRecord
  2
2_1_3_8C_0_in_023273_4
340
0
102
{BLKREFS
331
9A
102
}
 70
     0
280
     1
281
     0
  0
BLOCK_RECORD
  5
D7
330
1
100
AcDbSymbolTableRecord
100
AcDbBlockTableRecord
  2
3_405020c_Inch_0_in_023273_4
340
0
102
{BLKREFS
331
D8
102
}
 70
     0
280
     1
281
     0
  0
BLOCK_RECORD
  5
F9
330
1
100
AcDbSymbolTableRecord
100
AcDbBlockTableRecord
  2
4_S1U_K_106R_0_in_023273_4
340
0
102
{BLKREFS
331
FA
102
}
 70
     0
280
     1
281
     0
  0
ENDTAB
  0
ENDSEC
  0
SECTION
  2
BLOCKS
  0
BLOCK
  5
20
330
1F
100
AcDbEntity
  8
0
100
AcDbBlockBegin
  2
*Model_Space
 70
     0
 10
0.0
 20
0.0
 30
0.0
  3
*Model_Space
  1

  0
ENDBLK
  5
21
330
1F
100
AcDbEntity
  8
0
100
AcDbBlockEnd
  0
BLOCK
  5
1C
330
1B
100
AcDbEntity
 67
     1
  8
0
100
AcDbBlockBegin
  2
*Paper_Space
 70
     0
 10
0.0
 20
0.0
 30
0.0
  3
*Paper_Space
  1

  0
ENDBLK
  5
1D
330
1B
100
AcDbEntity
 67
     1
  8
0
100
AcDbBlockEnd
  0
BLOCK
  5
24
330
23
100
AcDbEntity
  8
0
100
AcDbBlockBegin
  2
*Paper_Space0
 70
     0
 10
0.0
 20
0.0
 30
0.0
  3
*Paper_Space0
  1

  0
ENDBLK
  5
25
330
23
100
AcDbEntity
  8
0
100
AcDbBlockEnd
  0
BLOCK
  5
70
330
6E
100
AcDbEntity
  8
0
100
AcDbBlockBegin
  2
1_023273_4
 70
     2
 10
0.0
 20
0.0
 30
0.0
  3
1_023273_4
  1

  0
ATTDEF
  5
73
330
6E
100
AcDbEntity
  8
AM_6
100
AcDbText
 10
6.811844302267049
 20
1.29453125
 30
0.0
 40
0.5
  1
Type K  S-1 Units Gray Iron Inch Bore
100
AcDbAttributeDefinition
  3

  2
NN
 70
     8
280
     0
  0
ATTDEF
  5
74
330
6E
100
AcDbEntity
  8
AM_6
100
AcDbText
 10
6.811844302267049
 20
0.7945312499999999
 30
0.0
 40
0.5
  1
Type K
100
AcDbAttributeDefinition
  3

  2
NT
 70
     8
280
     0
  0
ATTDEF
  5
75
330
6E
100
AcDbEntity
  8
AM_6
100
AcDbText
 10
6.811844302267049
 20
0.2945312499999999
 30
0.0
 40
0.5
  1
023273
100
AcDbAttributeDefinition
  3

  2
NB
 70
     8
280
     0
  0
ATTDEF
  5
76
330
6E
100
AcDbEntity
  8
AM_6
100
AcDbText
 10
6.811844302267049
 20
-0.2054687500000001
 30
0.0
 40
0.5
  1
$PN.
100
AcDbAttributeDefinition
  3

  2
NBSYN
 70
     8
280
     0
  0
ATTDEF
  5
77
330
6E
100
AcDbEntity
  8
AM_6
100
AcDbText
 10
6.811844302267049
 20
-0.7054687500000001
 30
0.0
 40
0.5
  1
023273
100
AcDbAttributeDefinition
  3

  2
LINA
 70
     8
280
     0
  0
ATTDEF
  5
78
330
6E
100
AcDbEntity
  8
AM_6
100
AcDbText
 10
6.811844302267049
 20
-1.20546875
 30
0.0
 40
0.5
  1
1-3/8
100
AcDbAttributeDefinition
  3

  2
SS
 70
     8
280
     0
  0
ATTDEF
  5
79
330
6E
100
AcDbEntity
  8
AM_6
100
AcDbText
 10
6.811844302267049
 20
-1.70546875
 30
0.0
 40
0.5
  1
023273
100
AcDbAttributeDefinition
  3

  2
PN
 70
     8
280
     0
  0
ATTDEF
  5
7A
330
6E
100
AcDbEntity
  8
AM_6
100
AcDbText
 10
6.811844302267049
 20
-2.20546875
 30
0.0
 40
0.5
  1
S1U-K-106R
100
AcDbAttributeDefinition
  3

  2
PNA
 70
     8
280
     0
  0
ATTDEF
  5
7B
330
6E
100
AcDbEntity
  8
AM_6
100
AcDbText
 10
6.811844302267049
 20
-2.70546875
 30
0.0
 40
0.5
  1
4
100
AcDbAttributeDefinition
  3

  2
WEIGHT
 70
     8
280
     0
  0
ATTDEF
  5
7C
330
6E
100
AcDbEntity
  8
AM_6
100
AcDbText
 10
6.811844302267049
 20
-3.20546875
 30
0.0
 40
0.5
  1
2-17/32
100
AcDbAttributeDefinition
  3

  2
A
 70
     8
280
     0
  0
ATTDEF
  5
7D
330
6E
100
AcDbEntity
  8
AM_6
100
AcDbText
 10
6.811844302267049
 20
-3.70546875
 30
0.0
 40
0.5
  1
2-1/16
100
AcDbAttributeDefinition
  3

  2
B
 70
     8
280
     0
  0
ATTDEF
  5
7E
330
6E
100
AcDbEntity
  8
AM_6
100
AcDbText
 10
6.811844302267049
 20
-4.20546875
 30
0.0
 40
0.5
  1
1-5/32
100
AcDbAttributeDefinition
  3

  2
C
 70
     8
280
     0
  0
ATTDEF
  5
7F
330
6E
100
AcDbEntity
  8
AM_6
100
AcDbText
 10
6.811844302267049
 20
-4.70546875
 30
0.0
 40
0.5
  1
3-7/16
100
AcDbAttributeDefinition
  3

  2
D
 70
     8
280
     0
  0
ATTDEF
  5
80
330
6E
100
AcDbEntity
  8
AM_6
100
AcDbText
 10
6.811844302267049
 20
-5.20546875
 30
0.0
 40
0.5
  1
0.450
100
AcDbAttributeDefinition
  3

  2
E
 70
     8
280
     0
  0
ATTDEF
  5
81
330
6E
100
AcDbEntity
  8
AM_6
100
AcDbText
 10
6.811844302267049
 20
-5.70546875
 30
0.0
 40
0.5
  1
3-5/16
100
AcDbAttributeDefinition
  3

  2
EC
 70
     8
280
     0
  0
ATTDEF
  5
82
330
6E
100
AcDbEntity
  8
AM_6
100
AcDbText
 10
6.811844302267049
 20
-6.20546875
 30
0.0
 40
0.5
  1
3.250
100
AcDbAttributeDefinition
  3

  2
EM
 70
     8
280
     0
  0
ATTDEF
  5
83
330
6E
100
AcDbEntity
  8
AM_6
100
AcDbText
 10
6.811844302267049
 20
-6.70546875
 30
0.0
 40
0.5
  1
11/16
100
AcDbAttributeDefinition
  3

  2
H
 70
     8
280
     0
  0
ATTDEF
  5
84
330
6E
100
AcDbEntity
  8
AM_6
100
AcDbText
 10
6.811844302267049
 20
-7.20546875
 30
0.0
 40
0.5
  1
2-5/8
100
AcDbAttributeDefinition
  3

  2
J
 70
     8
280
     0
  0
ATTDEF
  5
85
330
6E
100
AcDbEntity
  8
AM_6
100
AcDbText
 10
6.811844302267049
 20
-7.70546875
 30
0.0
 40
0.5
  1
3.625
100
AcDbAttributeDefinition
  3

  2
K
 70
     8
280
     0
  0
ATTDEF
  5
86
330
6E
100
AcDbEntity
  8
AM_6
100
AcDbText
 10
6.811844302267049
 20
-8.20546875
 30
0.0
 40
0.5
  1
2-3/4
100
AcDbAttributeDefinition
  3

  2
L
 70
     8
280
     0
  0
ATTDEF
  5
87
330
6E
100
AcDbEntity
  8
AM_6
100
AcDbText
 10
6.811844302267049
 20
-8.70546875
 30
0.0
 40
0.5
  1
2-5/8
100
AcDbAttributeDefinition
  3

  2
M
 70
     8
280
     0
  0
ATTDEF
  5
88
330
6E
100
AcDbEntity
  8
AM_6
100
AcDbText
 10
6.811844302267049
 20
-9.20546875
 30
0.0
 40
0.5
  1
1-1/32
100
AcDbAttributeDefinition
  3

  2
R
 70
     8
280
     0
  0
ATTDEF
  5
89
330
6E
100
AcDbEntity
  8
AM_6
100
AcDbText
 10
6.811844302267049
 20
-9.70546875
 30
0.0
 40
0.5
  1
1-1/2
100
AcDbAttributeDefinition
  3

  2
S
 70
     8
280
     0
  0
ATTDEF
  5
8A
330
6E
100
AcDbEntity
  8
AM_6
100
AcDbText
 10
6.811844302267049
 20
-10.20546875
 30
0.0
 40
0.5
  1
26000
100
AcDbAttributeDefinition
  3

  2
CS
 70
     8
280
     0
  0
ATTDEF
  5
8B
330
6E
100
AcDbEntity
  8
AM_6
100
AcDbText
 10
6.811844302267049
 20
-10.70546875
 30
0.0
 40
0.5
  1
4760
100
AcDbAttributeDefinition
  3

  2
CD
 70
     8
280
     0
  0
ATTDEF
  5
8C
330
6E
100
AcDbEntity
  8
AM_6
100
AcDbText
 10
6.811844302267049
 20
-11.20546875
 30
0.0
 40
0.5
  1
20
100
AcDbAttributeDefinition
  3

  2
RN
 70
     8
280
     0
  0
ATTDEF
  5
8D
330
6E
100
AcDbEntity
  8
AM_6
100
AcDbText
 10
6.811844302267049
 20
-11.70546875
 30
0.0
 40
0.5
  1
.29
100
AcDbAttributeDefinition
  3

  2
RM
 70
     8
280
     0
  0
ATTDEF
  5
8E
330
6E
100
AcDbEntity
  8
AM_6
100
AcDbText
 10
6.811844302267049
 20
-12.20546875
 30
0.0
 40
0.5
  1
2.084
100
AcDbAttributeDefinition
  3

  2
PDI
 70
     8
280
     0
  0
ATTDEF
  5
8F
330
6E
100
AcDbEntity
  8
AM_6
100
AcDbText
 10
6.811844302267049
 20
-12.70546875
 30
0.0
 40
0.5
  1
.004-.012
100
AcDbAttributeDefinition
  3

  2
EP
 70
     8
280
     0
  0
ATTDEF
  5
90
330
6E
100
AcDbEntity
  8
AM_6
100
AcDbText
 10
6.811844302267049
 20
-13.20546875
 30
0.0
 40
0.5
  1
5/16-18*5/8
100
AcDbAttributeDefinition
  3

  2
SC
 70
     8
280
     0
  0
ATTDEF
  5
91
330
6E
100
AcDbEntity
  8
AM_6
100
AcDbText
 10
6.811844302267049
 20
-13.70546875
 30
0.0
 40
0.5
  1
165
100
AcDbAttributeDefinition
  3

  2
TC
 70
     8
280
     0
  0
ATTDEF
  5
92
330
6E
100
AcDbEntity
  8
AM_6
100
AcDbText
 10
6.811844302267049
 20
-14.20546875
 30
0.0
 40
0.5
  1
C.I. ASTM A48 CLASS 30
100
AcDbAttributeDefinition
  3

  2
MH
 70
     8
280
     0
  0
ATTDEF
  5
93
330
6E
100
AcDbEntity
  8
AM_6
100
AcDbText
 10
6.811844302267049
 20
-14.70546875
 30
0.0
 40
0.5
  1
4118 CASE CARB.
100
AcDbAttributeDefinition
  3

  2
MC
 70
     8
280
     0
  0
ATTDEF
  5
94
330
6E
100
AcDbEntity
  8
AM_6
100
AcDbText
 10
6.811844302267049
 20
-15.20546875
 30
0.0
 40
0.5
  1
4118 CASE CARB.
100
AcDbAttributeDefinition
  3

  2
MCU
 70
     8
280
     0
  0
ATTDEF
  5
95
330
6E
100
AcDbEntity
  8
AM_6
100
AcDbText
 10
6.811844302267049
 20
-15.70546875
 30
0.0
 40
0.5
  1
STEEL
100
AcDbAttributeDefinition
  3

  2
MR
 70
     8
280
     0
  0
ATTDEF
  5
96
330
6E
100
AcDbEntity
  8
AM_6
100
AcDbText
 10
6.811844302267049
 20
-16.20546875
 30
0.0
 40
0.5
  1
4118 CASE CARB.
100
AcDbAttributeDefinition
  3

  2
MRO
 70
     8
280
     0
  0
ATTDEF
  5
97
330
6E
100
AcDbEntity
  8
AM_6
100
AcDbText
 10
6.811844302267049
 20
-16.70546875
 30
0.0
 40
0.5
  1
±.001 PER INCH
100
AcDbAttributeDefinition
  3

  2
SM
 70
     8
280
     0
  0
ATTDEF
  5
98
330
6E
100
AcDbEntity
  8
AM_6
100
AcDbText
 10
6.811844302267049
 20
-17.20546875
 30
0.0
 40
0.5
  1
baldor
100
AcDbAttributeDefinition
  3

  2
COMPANY
 70
     8
280
     0
  0
INSERT
  5
9A
330
6E
100
AcDbEntity
  8
0
100
AcDbBlockReference
  2
2_1_3_8C_0_in_023273_4
 10
0.0
 20
0.0
 30
0.0
  0
INSERT
  5
D8
330
6E
100
AcDbEntity
  8
0
100
AcDbBlockReference
  2
3_405020c_Inch_0_in_023273_4
 10
0.0
 20
0.0
 30
0.0
  0
INSERT
  5
FA
330
6E
100
AcDbEntity
  8
0
100
AcDbBlockReference
  2
4_S1U_K_106R_0_in_023273_4
 10
0.0
 20
0.0
 30
0.0
  0
ENDBLK
  5
71
330
6E
100
AcDbEntity
  8
0
100
AcDbBlockEnd
  0
BLOCK
  5
9B
330
99
100
AcDbEntity
  8
0
100
AcDbBlockBegin
  2
2_1_3_8C_0_in_023273_4
 70
     2
 10
0.0
 20
0.0
 30
0.0
  3
2_1_3_8C_0_in_023273_4
  1

  0
ATTDEF
  5
9D
330
99
100
AcDbEntity
  8
AM_6
100
AcDbText
 10
6.375
 20
-0.94
 30
0.0
 40
0.5
  1
E-Type Collar -Inch
100
AcDbAttributeDefinition
  3

  2
NN
 70
     8
280
     0
  0
ATTDEF
  5
9E
330
99
100
AcDbEntity
  8
AM_6
100
AcDbText
 10
6.375
 20
-1.44
 30
0.0
 40
0.5
  1
E-Type Bearings
100
AcDbAttributeDefinition
  3

  2
NT
 70
     8
280
     0
  0
ATTDEF
  5
9F
330
99
100
AcDbEntity
  8
AM_6
100
AcDbText
 10
6.375
 20
-1.94
 30
0.0
 40
0.5
  1
1-3/8C
100
AcDbAttributeDefinition
  3

  2
NB
 70
     8
280
     0
  0
ATTDEF
  5
A0
330
99
100
AcDbEntity
  8
AM_6
100
AcDbText
 10
6.375
 20
-2.44
 30
0.0
 40
0.5
  1
$BORE.C
100
AcDbAttributeDefinition
  3

  2
NBSYN
 70
     8
280
     0
  0
ATTDEF
  5
A1
330
99
100
AcDbEntity
  8
AM_6
100
AcDbText
 10
6.375
 20
-2.94
 30
0.0
 40
0.5
  1
1-3/8C
100
AcDbAttributeDefinition
  3

  2
LINA
 70
     8
280
     0
  0
ATTDEF
  5
A2
330
99
100
AcDbEntity
  8
AM_6
100
AcDbText
 10
6.375
 20
-3.44
 30
0.0
 40
0.5
  1
1-3/8
100
AcDbAttributeDefinition
  3

  2
BORE
 70
     8
280
     0
  0
ATTDEF
  5
A3
330
99
100
AcDbEntity
  8
AM_6
100
AcDbText
 10
6.375
 20
-3.94
 30
0.0
 40
0.5
  1
2.75000
100
AcDbAttributeDefinition
  3

  2
L
 70
     8
280
     0
  0
ATTDEF
  5
A4
330
99
100
AcDbEntity
  8
AM_6
100
AcDbText
 10
6.375
 20
-4.44
 30
0.0
 40
0.5
  1
3.00
100
AcDbAttributeDefinition
  3

  2
A
 70
     8
280
     0
  0
ATTDEF
  5
A5
330
99
100
AcDbEntity
  8
AM_6
100
AcDbText
 10
6.375
 20
-4.94
 30
0.0
 40
0.5
  1
1.25
100
AcDbAttributeDefinition
  3

  2
B
 70
     8
280
     0
  0
ATTDEF
  5
A6
330
99
100
AcDbEntity
  8
AM_6
100
AcDbText
 10
6.375
 20
-5.44
 30
0.0
 40
0.5
  1
1.75
100
AcDbAttributeDefinition
  3

  2
C
 70
     8
280
     0
  0
ATTDEF
  5
A7
330
99
100
AcDbEntity
  8
AM_6
100
AcDbText
 10
6.375
 20
-5.94
 30
0.0
 40
0.5
  1
2.81
100
AcDbAttributeDefinition
  3

  2
D
 70
     8
280
     0
  0
ATTDEF
  5
A8
330
99
100
AcDbEntity
  8
AM_6
100
AcDbText
 10
6.375
 20
-6.44
 30
0.0
 40
0.5
  1
0.35
100
AcDbAttributeDefinition
  3

  2
E
 70
     8
280
     0
  0
ATTDEF
  5
A9
330
99
100
AcDbEntity
  8
AM_6
100
AcDbText
 10
6.375
 20
-6.94
 30
0.0
 40
0.5
  1
0.28
100
AcDbAttributeDefinition
  3

  2
F
 70
     8
280
     0
  0
ATTDEF
  5
AA
330
99
100
AcDbEntity
  8
AM_6
100
AcDbText
 10
6.375
 20
-7.44
 30
0.0
 40
0.5
  1
5/16-18
100
AcDbAttributeDefinition
  3

  2
CS
 70
     8
280
     0
  0
ATTDEF
  5
AB
330
99
100
AcDbEntity
  8
AM_6
100
AcDbText
 10
6.375
 20
-7.94
 30
0.0
 40
0.5
  1
0.3125
100
AcDbAttributeDefinition
  3

  2
NDM
 70
     8
280
     0
  0
ATTDEF
  5
AC
330
99
100
AcDbEntity
  8
AM_6
100
AcDbText
 10
6.375
 20
-8.44
 30
0.0
 40
0.5
  1
0.2520
100
AcDbAttributeDefinition
  3

  2
KDM
 70
     8
280
     0
  0
ATTDEF
  5
AD
330
99
100
AcDbEntity
  8
AM_6
100
AcDbText
 10
6.375
 20
-8.94
 30
0.0
 40
0.5
  1
baldor
100
AcDbAttributeDefinition
  3

  2
COMPANY
 70
     8
280
     0
  0
LINE
  5
B0
330
99
100
AcDbEntity
  8
AM_9
100
AcDbLine
 10
0.8262427010766311
 20
-1.108360626202662
 30
0.0
 11
0.8181105324609824
 21
-1.098217481375734
 31
0.0
  0
LINE
  5
B1
330
99
100
AcDbEntity
  8
AM_9
100
AcDbLine
 10
0.818078752806784
 20
-1.341822156960645
 30
0.0
 11
0.8262427010766311
 21
-1.331639373797339
 31
0.0
  0
LWPOLYLINE
  5
B2
330
99
100
AcDbEntity
  8
AM_9
100
AcDbPolyline
 90
       25
 70
     0
 43
0.0
 10
0.8180289347109185
 20
-1.098115705725798
 10
0.8106127711184886
 20
-1.090777076816615
 10
0.8009802385422515
 20
-1.08574986080613
 10
0.7900508587122972
 20
-1.084747776894818
 10
0.7785054408667726
 20
-1.08802554884785
 10
0.7665742484496759
 20
-1.095672747625656
 10
0.754840053625167
 20
-1.107474314973258
 10
0.7439928623530939
 20
-1.122967780635393
 10
0.734402562780997
 20
-1.141928028831849
 10
0.7270889393050316
 20
-1.1625560753687
 10
0.7219049582733035
 20
-1.185275560392111
 10
0.7194445733183036
 20
-1.206948264240496
 10
0.7192218497230486
 20
-1.229044684241965
 10
0.7210798249705334
 20
-1.249307696735587
 10
0.7247696089551134
 20
-1.268764666059565
 10
0.7301836578621275
 20
-1.28714812826148
 10
0.7369755089340667
 20
-1.303819681444548
 10
0.7455195014811118
 20
-1.319539183502123
 10
0.7549324315173985
 20
-1.332636951173203
 10
0.7657819460075673
 20
-1.343671908509527
 10
0.7768268245839023
 20
-1.351156367690985
 10
0.7883167592468164
 20
-1.35502773251204
 10
0.7992529482248455
 20
-1.354710188987229
 10
0.8095140530066159
 20
-1.350024083668005
 10
0.8180301715385783
 20
-1.341882751711271
  0
LWPOLYLINE
  5
B3
330
99
100
AcDbEntity
  8
AM_9
100
AcDbPolyline
 90
       13
 70
     0
 43
0.0
 10
0.8220692079412435
 20
-1.336167890246556
 10
0.8264717598668039
 20
-1.328085227015781
 10
0.8329245466100839
 20
-1.311318304145893
 10
0.8377581937130799
 20
-1.292014725291368
 10
0.8412604297264853
 20
-1.270072510545152
 10
0.8432543921419957
 20
-1.248338942753326
 10
0.8441137925784419
 20
-1.225634877090701
 10
0.8438922730464016
 20
-1.204782158177671
 10
0.842727012491183
 20
-1.18437027990892
 10
0.8406603117291519
 20
-1.165307411503916
 10
0.8376991176277447
 20
-1.147656115607665
 10
0.8345811754895273
 20
-1.134405829146558
 10
0.830869663410456
 20
-1.122512944615278
  0
LWPOLYLINE
  5
B4
330
99
100
AcDbEntity
  8
AM_9
100
AcDbPolyline
 90
        3
 70
     0
 43
0.0
 10
0.8180301715385783
 20
-1.341882751711271
 10
0.8186626320502934
 20
-1.341078315598573
 10
0.8220692079412435
 20
-1.336167890246556
  0
LINE
  5
B5
330
99
100
AcDbEntity
  8
AM_9
100
AcDbLine
 10
0.8013724504275898
 20
-1.3462
 30
0.0
 11
1.218938658174942
 21
-1.3462
 31
0.0
  0
LINE
  5
B6
330
99
100
AcDbEntity
  8
AM_9
100
AcDbLine
 10
1.218938658174942
 20
-1.0938
 30
0.0
 11
0.8013724504275898
 21
-1.0938
 31
0.0
  0
ELLIPSE
  5
B7
330
99
100
AcDbEntity
  8
AM_9
100
AcDbEllipse
 10
1.218938658174942
 20
-1.220000000000001
 30
0.0
 11
-2.318256390785917E-17
 21
-0.1261999999999988
 31
0.0
210
0.0
220
0.0
230
1.0
 40
0.4226182617407035
 41
3.445518374515482
 42
5.995922161742806
  0
LINE
  5
B8
330
99
100
AcDbEntity
  8
AM_9
100
AcDbLine
 10
1.194068407525901
 20
-1.331639373797338
 30
0.0
 11
1.213867168686386
 21
-1.356334103006237
 31
0.0
  0
LINE
  5
B9
330
99
100
AcDbEntity
  8
AM_9
100
AcDbLine
 10
1.214021029470074
 20
-1.083473988502205
 30
0.0
 11
1.194068407525901
 21
-1.108360626202662
 31
0.0
  0
LWPOLYLINE
  5
BA
330
99
100
AcDbEntity
  8
AM_9
100
AcDbPolyline
 90
       15
 70
     0
 43
0.0
 10
0.1476875462555016
 20
-1.21085353369515
 10
0.1451468626683588
 20
-1.193538202169756
 10
0.1389948446420002
 20
-1.173625633874727
 10
0.1299030339592268
 20
-1.155323700304483
 10
0.1177962090805792
 20
-1.138253679073796
 10
0.102443243825029
 20
-1.122485701466208
 10
0.0844140604184887
 20
-1.108941602637135
 10
0.0631716326958634
 20
-1.097645431565555
 10
0.0398021748052358
 20
-1.089617548557427
 10
0.0146088936870347
 20
-1.085250973049289
 10
-0.01168103899995
 20
-1.085009812554479
 10
-0.0374828494315297
 20
-1.089038595395006
 10
-0.0629471210470849
 20
-1.097548016760655
 10
-0.0832619691395553
 20
-1.108213516089834
 10
-0.1021170791697826
 20
-1.122199687246963
  0
LWPOLYLINE
  5
BB
330
99
100
AcDbEntity
  8
AM_9
100
AcDbPolyline
 90
       20
 70
     0
 43
0.0
 10
-0.1480156059975734
 20
-1.221815773875179
 10
-0.1462841676800035
 20
-1.240627562570657
 10
-0.1413143146044368
 20
-1.260135469779944
 10
-0.1330724390717891
 20
-1.279072789775271
 10
-0.1218376424144811
 20
-1.296645391169684
 10
-0.1077016759688964
 20
-1.312651656900549
 10
-0.0902224042927944
 20
-1.327156354930328
 10
-0.0702143725059277
 20
-1.339078944654755
 10
-0.0473020992282671
 20
-1.348251134502975
 10
-0.0225571532949725
 20
-1.353819628058776
 10
0.0032545490179432
 20
-1.355383606156809
 10
0.0297004292428732
 20
-1.352636230202916
 10
0.0548765686749809
 20
-1.34568101656021
 10
0.0791839922290704
 20
-1.334248970900008
 10
0.100157960058191
 20
-1.319482484702337
 10
0.1187266959649642
 20
-1.300615093504594
 10
0.132251283820791
 20
-1.280587174492273
 10
0.1421604408095473
 20
-1.257574299387511
 10
0.1469500429762845
 20
-1.236238564070079
 10
0.1480104388106335
 20
-1.217863624000856
  0
LWPOLYLINE
  5
BC
330
99
100
AcDbEntity
  8
AM_9
100
AcDbPolyline
 90
        6
 70
     0
 43
0.0
 10
-0.1021170791697826
 20
-1.122199687246963
 10
-0.1166589240593718
 20
-1.136903453457435
 10
-0.1291073007347236
 20
-1.154010762066324
 10
-0.1394369687108318
 20
-1.174741122769115
 10
-0.146010743660912
 20
-1.197824940871669
 10
-0.147880967797096
 20
-1.213975185009111
  0
LWPOLYLINE
  5
BD
330
99
100
AcDbEntity
  8
AM_9
100
AcDbPolyline
 90
        3
 70
     0
 43
0.0
 10
0.8215878563291587
 20
-1.103075141703009
 10
0.8192163339017754
 20
-1.099652100472578
 10
0.8180289347109185
 20
-1.098115705725798
  0
LWPOLYLINE
  5
BE
330
99
100
AcDbEntity
  8
AM_9
100
AcDbPolyline
 90
        3
 70
     0
 43
0.0
 10
0.830869663410456
 20
-1.122512944615278
 10
0.8254703295231708
 20
-1.10987067025447
 10
0.8215878563291587
 20
-1.103075141703009
  0
LINE
  5
BF
330
99
100
AcDbEntity
  8
AM_9
100
AcDbLine
 10
0.875
 20
-1.5
 30
0.0
 11
0.875
 21
-0.94
 31
0.0
  0
LINE
  5
C0
330
99
100
AcDbEntity
  8
AM_9
100
AcDbLine
 10
-0.875
 20
-0.94
 30
0.0
 11
-0.875
 21
-1.5
 31
0.0
  0
LINE
  5
C1
330
99
100
AcDbEntity
  8
AM_9
100
AcDbLine
 10
-1.375
 20
-0.94
 30
0.0
 11
1.375
 21
-0.94
 31
0.0
  0
LINE
  5
C2
330
99
100
AcDbEntity
  8
AM_9
100
AcDbLine
 10
1.375
 20
-1.03125
 30
0.0
 11
1.375
 21
-0.94
 31
0.0
  0
LINE
  5
C3
330
99
100
AcDbEntity
  8
AM_9
100
AcDbLine
 10
-1.375
 20
-0.94
 30
0.0
 11
-1.375
 21
-1.03125
 31
0.0
  0
ELLIPSE
  5
C4
330
99
100
AcDbEntity
  8
AM_9
100
AcDbEllipse
 10
0.8013724504275898
 20
-1.22
 30
0.0
 11
-2.318256390785945E-17
 21
-0.1262000000000003
 31
0.0
210
0.0
220
0.0
230
1.0
 40
0.4226182617406992
 41
0.0
 42
6.283185307179586
  0
LINE
  5
C7
330
99
100
AcDbEntity
  8
AM_7
100
AcDbLine
 10
-0.13251
 20
-1.22
 30
0.0
 11
0.13251
 21
-1.22
 31
0.0
  0
ELLIPSE
  5
C9
330
99
100
AcDbEntity
  8
AM_4
100
AcDbEllipse
 10
1.218938658174942
 20
-1.22
 30
0.0
 11
-2.318256390785941E-17
 21
-0.1262000000000001
 31
0.0
210
0.0
220
0.0
230
1.0
 40
0.4226182617406991
 41
5.995922161742806
 42
9.728703681695071
  0
LWPOLYLINE
  5
CA
330
99
100
AcDbEntity
  8
AM_4
100
AcDbPolyline
 90
       15
 70
     0
 43
0.0
 10
1.214033586775162
 20
-1.356541671740223
 10
1.210029764783888
 20
-1.351179009021861
 10
1.200938165167037
 20
-1.335905414122079
 10
1.192940943292898
 20
-1.317830469953243
 10
1.186010704177784
 20
-1.296332813732761
 10
1.180807791095463
 20
-1.272905290297762
 10
1.177432842411241
 20
-1.246986690689378
 10
1.176263061761035
 20
-1.22034413607417
 10
1.177432377460441
 20
-1.193028976858676
 10
1.180917853319551
 20
-1.166473971776393
 10
1.18662692888863
 20
-1.141438636526269
 10
1.194299700811372
 20
-1.118696022862792
 10
1.20341557316323
 20
-1.099469110817792
 10
1.213759147614512
 20
-1.083802433908226
 10
1.214041723646178
 20
-1.08344817702935
  0
LWPOLYLINE
  5
CB
330
99
100
AcDbEntity
  8
AM_4
100
AcDbPolyline
 90
        9
 70
     0
 43
0.0
 10
1.214041723646178
 20
-1.08344817702935
 10
1.22438170930951
 20
-1.072809153749846
 10
1.235355704242213
 20
-1.066012224683069
 10
1.245714992394341
 20
-1.063771399685511
 10
1.255712265551461
 20
-1.065643797398974
 10
1.264836227800091
 20
-1.071427047275454
 10
1.273146995137843
 20
-1.080850750539779
 10
1.278653159865594
 20
-1.089966934469609
 10
1.283597876779843
 20
-1.100737901089645
  0
LWPOLYLINE
  5
CC
330
99
100
AcDbEntity
  8
AM_4
100
AcDbPolyline
 90
       19
 70
     0
 43
0.0
 10
1.283597876779843
 20
-1.100737901089645
 10
1.289171715341495
 20
-1.117052505794309
 10
1.293718371530449
 20
-1.135491892973774
 10
1.297646739368466
 20
-1.158722070384837
 10
1.300221428796442
 20
-1.183537976368723
 10
1.301461309154678
 20
-1.210286872408725
 10
1.301260851273382
 20
-1.237300946102108
 10
1.299564987283623
 20
-1.264289218204959
 10
1.296367543638361
 20
-1.29001308628885
 10
1.291678565332717
 20
-1.313524275971437
 10
1.285498946171731
 20
-1.334285601758116
 10
1.278112708448687
 20
-1.351027611144431
 10
1.269445139737848
 20
-1.363919759244189
 10
1.260171221086139
 20
-1.372047697163316
 10
1.250093845196834
 20
-1.37593847519573
 10
1.239979946647014
 20
-1.375484183905685
 10
1.229682842680003
 20
-1.371045463425595
 10
1.219630607110772
 20
-1.36283964844079
 10
1.214033586775162
 20
-1.356541671740223
  0
LINE
  5
CD
330
99
100
AcDbEntity
  8
AM_4
100
AcDbLine
 10
1.375
 20
-1.406666666666667
 30
0.0
 11
1.375
 21
-1.03125
 31
0.0
  0
LINE
  5
CE
330
99
100
AcDbEntity
  8
AM_4
100
AcDbLine
 10
-1.375
 20
-1.03125
 30
0.0
 11
-1.375
 21
-1.406666666666667
 31
0.0
  0
LINE
  5
CF
330
99
100
AcDbEntity
  8
AM_4
100
AcDbLine
 10
-1.281666666666667
 20
-1.5
 30
0.0
 11
1.2816666666666
 21
-1.5
 31
0.0
  0
LINE
  5
D0
330
99
100
AcDbEntity
  8
AM_4
100
AcDbLine
 10
-1.375
 20
-1.406666666666667
 30
0.0
 11
1.375
 21
-1.406666666666667
 31
0.0
  0
ARC
  5
D1
330
99
100
AcDbEntity
  8
AM_4
100
AcDbCircle
 10
1.281666666666667
 20
-1.406666666666667
 30
0.0
 40
0.0933333333333326
100
AcDbArc
 50
270.0
 51
0.0
  0
ARC
  5
D2
330
99
100
AcDbEntity
  8
AM_4
100
AcDbCircle
 10
-1.281666666666667
 20
-1.406666666666667
 30
0.0
 40
0.0933333333333326
100
AcDbArc
 50
180.0
 51
270.0
  0
LWPOLYLINE
  5
D3
330
99
100
AcDbEntity
  8
AM_4
100
AcDbPolyline
 90
       39
 70
     0
 43
0.0
 10
-0.1073994224033065
 20
-1.112369548543375
 10
-0.0912926319097329
 20
-1.096952072533292
 10
-0.072635553001224
 20
-1.083831467733721
 10
-0.0501823476550533
 20
-1.072995335326383
 10
-0.0253944148446705
 20
-1.066065099648466
 10
-0.0017317177343172
 20
-1.06376068715988
 10
0.02269934545335
 20
-1.065597017410984
 10
0.0452270132439541
 20
-1.071216166181803
 10
0.0671139810328559
 20
-1.080715018465871
 10
0.0869813747861767
 20
-1.093527552812433
 10
0.1050016153056419
 20
-1.109772359402606
 10
0.1205080614412635
 20
-1.129080069890754
 10
0.1330575000173211
 20
-1.151189956010213
 10
0.1421079587128021
 20
-1.175586064860428
 10
0.147228172828691
 20
-1.20183085489531
 10
0.1480059415468433
 20
-1.228693878067912
 10
0.1442230993248671
 20
-1.256070477788024
 10
0.1360827220725501
 20
-1.281899686892216
 10
0.1232955618169688
 20
-1.306671708626957
 10
0.1071940644521443
 20
-1.327857641863691
 10
0.0870075676248348
 20
-1.346452413466206
 10
0.065494465416388
 20
-1.36014011026082
 10
0.0411177520790354
 20
-1.370105318328365
 10
0.0175089823979518
 20
-1.37515370501682
 10
-0.0073764441950649
 20
-1.376055976317155
 10
-0.0304543861042733
 20
-1.372909448482093
 10
-0.0533201125220491
 20
-1.365770038325582
 10
-0.07421220660321
 20
-1.355219541386919
 10
-0.093633441848531
 20
-1.341076817463883
 10
-0.1107683331472002
 20
-1.323768325770394
 10
-0.1252966175759521
 20
-1.303425553454251
 10
-0.1366691316001859
 20
-1.28044959848318
 10
-0.1444007968321896
 20
-1.255273445151328
 10
-0.1479974196204975
 20
-1.228853226457305
 10
-0.1471854011625897
 20
-1.201450691527511
 10
-0.1419076640333955
 20
-1.174881513992516
 10
-0.1319438461497906
 20
-1.148850473075974
 10
-0.1210773313891726
 20
-1.129923635702543
 10
-0.1073994225086102
 20
-1.112369548476993
  0
CIRCLE
  5
D4
330
99
100
AcDbEntity
  8
AM_4
100
AcDbCircle
 10
0.0
 20
-1.22
 30
0.0
 40
0.1262
  0
CIRCLE
  5
D6
330
99
100
AcDbEntity
  8
AM_5
100
AcDbCircle
 10
0.0
 20
-1.22
 30
0.0
 40
0.15625
  0
ENDBLK
  5
9C
330
99
100
AcDbEntity
  8
0
100
AcDbBlockEnd
  0
BLOCK
  5
D9
330
D7
100
AcDbEntity
  8
0
100
AcDbBlockBegin
  2
3_405020c_Inch_0_in_023273_4
 70
     2
 10
0.0
 20
0.0
 30
0.0
  3
3_405020c_Inch_0_in_023273_4
  1

  0
ATTDEF
  5
DB
330
D7
100
AcDbEntity
  8
AM_6
100
AcDbText
 10
5.14065
 20
0.1624086307230418
 30
0.0
 40
0.5
  1
405020C -Inch
100
AcDbAttributeDefinition
  3

  2
NN
 70
     8
280
     0
  0
ATTDEF
  5
DC
330
D7
100
AcDbEntity
  8
AM_6
100
AcDbText
 10
5.14065
 20
-0.3375913692769582
 30
0.0
 40
0.5
  1
Grease fitting
100
AcDbAttributeDefinition
  3

  2
NT
 70
     8
280
     0
  0
ATTDEF
  5
DD
330
D7
100
AcDbEntity
  8
AM_6
100
AcDbText
 10
5.14065
 20
-0.8375913692769581
 30
0.0
 40
0.5
  1
405020c-Inch
100
AcDbAttributeDefinition
  3

  2
NB
 70
     8
280
     0
  0
ATTDEF
  5
DE
330
D7
100
AcDbEntity
  8
AM_6
100
AcDbText
 10
5.14065
 20
-1.337591369276958
 30
0.0
 40
0.5
  1
$MN.-Inch
100
AcDbAttributeDefinition
  3

  2
NBSYN
 70
     8
280
     0
  0
ATTDEF
  5
DF
330
D7
100
AcDbEntity
  8
AM_6
100
AcDbText
 10
5.14065
 20
-1.837591369276958
 30
0.0
 40
0.5
  1
405020c
100
AcDbAttributeDefinition
  3

  2
LINA
 70
     8
280
     0
  0
ATTDEF
  5
E0
330
D7
100
AcDbEntity
  8
AM_6
100
AcDbText
 10
5.14065
 20
-2.337591369276958
 30
0.0
 40
0.5
  1
405020c
100
AcDbAttributeDefinition
  3

  2
MN
 70
     8
280
     0
  0
ATTDEF
  5
E1
330
D7
100
AcDbEntity
  8
AM_6
100
AcDbText
 10
5.14065
 20
-2.837591369276958
 30
0.0
 40
0.5
  1
0.230
100
AcDbAttributeDefinition
  3

  2
NDR
 70
     8
280
     0
  0
ATTDEF
  5
E2
330
D7
100
AcDbEntity
  8
AM_6
100
AcDbText
 10
5.14065
 20
-3.337591369276958
 30
0.0
 40
0.5
  1
0.210
100
AcDbAttributeDefinition
  3

  2
KDR
 70
     8
280
     0
  0
ATTDEF
  5
E3
330
D7
100
AcDbEntity
  8
AM_6
100
AcDbText
 10
5.14065
 20
-3.837591369276958
 30
0.0
 40
0.5
  1
0.157
100
AcDbAttributeDefinition
  3

  2
BZE
 70
     8
280
     0
  0
ATTDEF
  5
E4
330
D7
100
AcDbEntity
  8
AM_6
100
AcDbText
 10
5.14065
 20
-4.337591369276958
 30
0.0
 40
0.5
  1
9/32
100
AcDbAttributeDefinition
  3

  2
WAF
 70
     8
280
     0
  0
ATTDEF
  5
E5
330
D7
100
AcDbEntity
  8
AM_6
100
AcDbText
 10
5.14065
 20
-4.837591369276958
 30
0.0
 40
0.5
  1
0.2813
100
AcDbAttributeDefinition
  3

  2
WAF1
 70
     8
280
     0
  0
ATTDEF
  5
E6
330
D7
100
AcDbEntity
  8
AM_6
100
AcDbText
 10
5.14065
 20
-5.337591369276958
 30
0.0
 40
0.5
  1
0.545
100
AcDbAttributeDefinition
  3

  2
BL
 70
     8
280
     0
  0
ATTDEF
  5
E7
330
D7
100
AcDbEntity
  8
AM_6
100
AcDbText
 10
5.14065
 20
-5.837591369276958
 30
0.0
 40
0.5
  1
0.200
100
AcDbAttributeDefinition
  3

  2
TL
 70
     8
280
     0
  0
ATTDEF
  5
E8
330
D7
100
AcDbEntity
  8
AM_6
100
AcDbText
 10
5.14065
 20
-6.337591369276958
 30
0.0
 40
0.5
  1
baldor
100
AcDbAttributeDefinition
  3

  2
COMPANY
 70
     8
280
     0
  0
CIRCLE
  5
E9
330
D7
100
AcDbEntity
  8
AM_9
100
AcDbCircle
 10
0.0
 20
0.0000000000000001
 30
0.0
 40
0.1000886227036577
  0
CIRCLE
  5
EA
330
D7
100
AcDbEntity
  8
AM_9
100
AcDbCircle
 10
0.0
 20
0.0000000000000001
 30
0.0
 40
0.1104162595939891
  0
CIRCLE
  5
EB
330
D7
100
AcDbEntity
  8
AM_9
100
AcDbCircle
 10
0.0
 20
0.0000000000000001
 30
0.0
 40
0.1163438171532771
  0
CIRCLE
  5
EC
330
D7
100
AcDbEntity
  8
AM_9
100
AcDbCircle
 10
0.0
 20
0.0000000000000001
 30
0.0
 40
0.1093294505797714
  0
CIRCLE
  5
ED
330
D7
100
AcDbEntity
  8
AM_9
100
AcDbCircle
 10
0.0
 20
0.0000000000000001
 30
0.0
 40
0.0946847896390988
  0
LINE
  5
EE
330
D7
100
AcDbEntity
  8
AM_4
100
AcDbLine
 10
-0.14065
 20
0.081204315361521
 30
0.0
 11
-0.14065
 21
-0.0812043153615207
 31
0.0
  0
LINE
  5
EF
330
D7
100
AcDbEntity
  8
AM_4
100
AcDbLine
 10
0.0
 20
0.1624086307230418
 30
0.0
 11
-0.14065
 21
0.081204315361521
 31
0.0
  0
LINE
  5
F0
330
D7
100
AcDbEntity
  8
AM_4
100
AcDbLine
 10
0.14065
 20
0.081204315361521
 30
0.0
 11
0.0
 21
0.1624086307230418
 31
0.0
  0
LINE
  5
F1
330
D7
100
AcDbEntity
  8
AM_4
100
AcDbLine
 10
0.14065
 20
-0.0812043153615207
 30
0.0
 11
0.14065
 21
0.081204315361521
 31
0.0
  0
LINE
  5
F2
330
D7
100
AcDbEntity
  8
AM_4
100
AcDbLine
 10
-0.14065
 20
-0.0812043153615207
 30
0.0
 11
0.0
 21
-0.1624086307230416
 31
0.0
  0
LINE
  5
F3
330
D7
100
AcDbEntity
  8
AM_4
100
AcDbLine
 10
0.0
 20
-0.1624086307230416
 30
0.0
 11
0.14065
 21
-0.0812043153615207
 31
0.0
  0
CIRCLE
  5
F4
330
D7
100
AcDbEntity
  8
AM_4
100
AcDbCircle
 10
0.0
 20
0.0000000000000002
 30
0.0
 40
0.135926521995058
  0
CIRCLE
  5
F5
330
D7
100
AcDbEntity
  8
AM_4
100
AcDbCircle
 10
0.0
 20
0.0000000000000002
 30
0.0
 40
0.13195176466768
  0
CIRCLE
  5
F6
330
D7
100
AcDbEntity
  8
AM_4
100
AcDbCircle
 10
0.0
 20
0.0000000000000002
 30
0.0
 40
0.080806429716728
  0
CIRCLE
  5
F7
330
D7
100
AcDbEntity
  8
AM_4
100
AcDbCircle
 10
0.0
 20
0.0000000000000002
 30
0.0
 40
0.1038190510530391
  0
CIRCLE
  5
F8
330
D7
100
AcDbEntity
  8
AM_4
100
AcDbCircle
 10
0.0
 20
0.0000000000000001
 30
0.0
 40
0.14065
  0
ENDBLK
  5
DA
330
D7
100
AcDbEntity
  8
0
100
AcDbBlockEnd
  0
BLOCK
  5
FB
330
F9
100
AcDbEntity
  8
0
100
AcDbBlockBegin
  2
4_S1U_K_106R_0_in_023273_4
 70
     2
 10
0.0
 20
0.0
 30
0.0
  3
4_S1U_K_106R_0_in_023273_4
  1

  0
ATTDEF
  5
FD
330
F9
100
AcDbEntity
  8
AM_6
100
AcDbText
 10
6.811844302267049
 20
1.29453125
 30
0.0
 40
0.5
  1
Type K Units - Inch
100
AcDbAttributeDefinition
  3

  2
NN
 70
     8
280
     0
  0
ATTDEF
  5
FE
330
F9
100
AcDbEntity
  8
AM_6
100
AcDbText
 10
6.811844302267049
 20
0.7945312499999999
 30
0.0
 40
0.5
  1
Type K
100
AcDbAttributeDefinition
  3

  2
NT
 70
     8
280
     0
  0
ATTDEF
  5
FF
330
F9
100
AcDbEntity
  8
AM_6
100
AcDbText
 10
6.811844302267049
 20
0.2945312499999999
 30
0.0
 40
0.5
  1
S1U-K-106R
100
AcDbAttributeDefinition
  3

  2
NB
 70
     8
280
     0
  0
ATTDEF
  5
100
330
F9
100
AcDbEntity
  8
AM_6
100
AcDbText
 10
6.811844302267049
 20
-0.2054687500000001
 30
0.0
 40
0.5
  1
$PN.
100
AcDbAttributeDefinition
  3

  2
NBSYN
 70
     8
280
     0
  0
ATTDEF
  5
101
330
F9
100
AcDbEntity
  8
AM_6
100
AcDbText
 10
6.811844302267049
 20
-0.7054687500000001
 30
0.0
 40
0.5
  1
S1U-K-106R
100
AcDbAttributeDefinition
  3

  2
LINA
 70
     8
280
     0
  0
ATTDEF
  5
102
330
F9
100
AcDbEntity
  8
AM_6
100
AcDbText
 10
6.811844302267049
 20
-1.20546875
 30
0.0
 40
0.5
  1
1-3/8
100
AcDbAttributeDefinition
  3

  2
SS
 70
     8
280
     0
  0
ATTDEF
  5
103
330
F9
100
AcDbEntity
  8
AM_6
100
AcDbText
 10
6.811844302267049
 20
-1.70546875
 30
0.0
 40
0.5
  1
1.375000
100
AcDbAttributeDefinition
  3

  2
SS1
 70
     8
280
     0
  0
ATTDEF
  5
104
330
F9
100
AcDbEntity
  8
AM_6
100
AcDbText
 10
6.811844302267049
 20
-2.20546875
 30
0.0
 40
0.5
  1
S1U-K-106R
100
AcDbAttributeDefinition
  3

  2
PN
 70
     8
280
     0
  0
ATTDEF
  5
105
330
F9
100
AcDbEntity
  8
AM_6
100
AcDbText
 10
6.811844302267049
 20
-2.70546875
 30
0.0
 40
0.5
  1
S1U-K-106R
100
AcDbAttributeDefinition
  3

  2
PNA
 70
     8
280
     0
  0
ATTDEF
  5
106
330
F9
100
AcDbEntity
  8
AM_6
100
AcDbText
 10
6.811844302267049
 20
-3.20546875
 30
0.0
 40
0.5
  1
4
100
AcDbAttributeDefinition
  3

  2
WEIGHT
 70
     8
280
     0
  0
ATTDEF
  5
107
330
F9
100
AcDbEntity
  8
AM_6
100
AcDbText
 10
6.811844302267049
 20
-3.70546875
 30
0.0
 40
0.5
  1
2-17/32
100
AcDbAttributeDefinition
  3

  2
A
 70
     8
280
     0
  0
ATTDEF
  5
108
330
F9
100
AcDbEntity
  8
AM_6
100
AcDbText
 10
6.811844302267049
 20
-4.20546875
 30
0.0
 40
0.5
  1
2.531250
100
AcDbAttributeDefinition
  3

  2
A1
 70
     8
280
     0
  0
ATTDEF
  5
109
330
F9
100
AcDbEntity
  8
AM_6
100
AcDbText
 10
6.811844302267049
 20
-4.70546875
 30
0.0
 40
0.5
  1
2-1/16
100
AcDbAttributeDefinition
  3

  2
B
 70
     8
280
     0
  0
ATTDEF
  5
10A
330
F9
100
AcDbEntity
  8
AM_6
100
AcDbText
 10
6.811844302267049
 20
-5.20546875
 30
0.0
 40
0.5
  1
2.062500
100
AcDbAttributeDefinition
  3

  2
B1
 70
     8
280
     0
  0
ATTDEF
  5
10B
330
F9
100
AcDbEntity
  8
AM_6
100
AcDbText
 10
6.811844302267049
 20
-5.70546875
 30
0.0
 40
0.5
  1
1-5/32
100
AcDbAttributeDefinition
  3

  2
C
 70
     8
280
     0
  0
ATTDEF
  5
10C
330
F9
100
AcDbEntity
  8
AM_6
100
AcDbText
 10
6.811844302267049
 20
-6.20546875
 30
0.0
 40
0.5
  1
1.156250
100
AcDbAttributeDefinition
  3

  2
C1
 70
     8
280
     0
  0
ATTDEF
  5
10D
330
F9
100
AcDbEntity
  8
AM_6
100
AcDbText
 10
6.811844302267049
 20
-6.70546875
 30
0.0
 40
0.5
  1
3-7/16
100
AcDbAttributeDefinition
  3

  2
D
 70
     8
280
     0
  0
ATTDEF
  5
10E
330
F9
100
AcDbEntity
  8
AM_6
100
AcDbText
 10
6.811844302267049
 20
-7.20546875
 30
0.0
 40
0.5
  1
3.437500
100
AcDbAttributeDefinition
  3

  2
D1
 70
     8
280
     0
  0
ATTDEF
  5
10F
330
F9
100
AcDbEntity
  8
AM_6
100
AcDbText
 10
6.811844302267049
 20
-7.70546875
 30
0.0
 40
0.5
  1
0.450
100
AcDbAttributeDefinition
  3

  2
E
 70
     8
280
     0
  0
ATTDEF
  5
110
330
F9
100
AcDbEntity
  8
AM_6
100
AcDbText
 10
6.811844302267049
 20
-8.20546875
 30
0.0
 40
0.5
  1
3.250
100
AcDbAttributeDefinition
  3

  2
EM
 70
     8
280
     0
  0
ATTDEF
  5
111
330
F9
100
AcDbEntity
  8
AM_6
100
AcDbText
 10
6.811844302267049
 20
-8.70546875
 30
0.0
 40
0.5
  1
3.310
100
AcDbAttributeDefinition
  3

  2
EC
 70
     8
280
     0
  0
ATTDEF
  5
112
330
F9
100
AcDbEntity
  8
AM_6
100
AcDbText
 10
6.811844302267049
 20
-9.20546875
 30
0.0
 40
0.5
  1
11/16
100
AcDbAttributeDefinition
  3

  2
H
 70
     8
280
     0
  0
ATTDEF
  5
113
330
F9
100
AcDbEntity
  8
AM_6
100
AcDbText
 10
6.811844302267049
 20
-9.70546875
 30
0.0
 40
0.5
  1
0.687500
100
AcDbAttributeDefinition
  3

  2
H1
 70
     8
280
     0
  0
ATTDEF
  5
114
330
F9
100
AcDbEntity
  8
AM_6
100
AcDbText
 10
6.811844302267049
 20
-10.20546875
 30
0.0
 40
0.5
  1
2-5/8
100
AcDbAttributeDefinition
  3

  2
J
 70
     8
280
     0
  0
ATTDEF
  5
115
330
F9
100
AcDbEntity
  8
AM_6
100
AcDbText
 10
6.811844302267049
 20
-10.70546875
 30
0.0
 40
0.5
  1
2.625000
100
AcDbAttributeDefinition
  3

  2
J1
 70
     8
280
     0
  0
ATTDEF
  5
116
330
F9
100
AcDbEntity
  8
AM_6
100
AcDbText
 10
6.811844302267049
 20
-11.20546875
 30
0.0
 40
0.5
  1
3.625
100
AcDbAttributeDefinition
  3

  2
K
 70
     8
280
     0
  0
ATTDEF
  5
117
330
F9
100
AcDbEntity
  8
AM_6
100
AcDbText
 10
6.811844302267049
 20
-11.70546875
 30
0.0
 40
0.5
  1
2-3/4
100
AcDbAttributeDefinition
  3

  2
L
 70
     8
280
     0
  0
ATTDEF
  5
118
330
F9
100
AcDbEntity
  8
AM_6
100
AcDbText
 10
6.811844302267049
 20
-12.20546875
 30
0.0
 40
0.5
  1
2.750000
100
AcDbAttributeDefinition
  3

  2
L1
 70
     8
280
     0
  0
ATTDEF
  5
119
330
F9
100
AcDbEntity
  8
AM_6
100
AcDbText
 10
6.811844302267049
 20
-12.70546875
 30
0.0
 40
0.5
  1
2-5/8
100
AcDbAttributeDefinition
  3

  2
M
 70
     8
280
     0
  0
ATTDEF
  5
11A
330
F9
100
AcDbEntity
  8
AM_6
100
AcDbText
 10
6.811844302267049
 20
-13.20546875
 30
0.0
 40
0.5
  1
2.625000
100
AcDbAttributeDefinition
  3

  2
M1
 70
     8
280
     0
  0
ATTDEF
  5
11B
330
F9
100
AcDbEntity
  8
AM_6
100
AcDbText
 10
6.811844302267049
 20
-13.70546875
 30
0.0
 40
0.5
  1
1-1/32
100
AcDbAttributeDefinition
  3

  2
R
 70
     8
280
     0
  0
ATTDEF
  5
11C
330
F9
100
AcDbEntity
  8
AM_6
100
AcDbText
 10
6.811844302267049
 20
-14.20546875
 30
0.0
 40
0.5
  1
1.031250
100
AcDbAttributeDefinition
  3

  2
R1
 70
     8
280
     0
  0
ATTDEF
  5
11D
330
F9
100
AcDbEntity
  8
AM_6
100
AcDbText
 10
6.811844302267049
 20
-14.70546875
 30
0.0
 40
0.5
  1
1-1/2
100
AcDbAttributeDefinition
  3

  2
S
 70
     8
280
     0
  0
ATTDEF
  5
11E
330
F9
100
AcDbEntity
  8
AM_6
100
AcDbText
 10
6.811844302267049
 20
-15.20546875
 30
0.0
 40
0.5
  1
1.500000
100
AcDbAttributeDefinition
  3

  2
S1
 70
     8
280
     0
  0
ATTDEF
  5
11F
330
F9
100
AcDbEntity
  8
AM_6
100
AcDbText
 10
6.811844302267049
 20
-15.70546875
 30
0.0
 40
0.5
  1
1.7500
100
AcDbAttributeDefinition
  3

  2
CC
 70
     8
280
     0
  0
ATTDEF
  5
120
330
F9
100
AcDbEntity
  8
AM_6
100
AcDbText
 10
6.811844302267049
 20
-16.20546875
 30
0.0
 40
0.5
  1
baldor
100
AcDbAttributeDefinition
  3

  2
COMPANY
 70
     8
280
     0
  0
LINE
  5
121
330
F9
100
AcDbEntity
  8
AM_9
100
AcDbLine
 10
0.7928363511264045
 20
-0.9859375
 30
0.0
 11
0.6228475467855518
 21
-0.9859375
 31
0.0
  0
LINE
  5
122
330
F9
100
AcDbEntity
  8
AM_9
100
AcDbLine
 10
0.6228734522343504
 20
-1.4359375
 30
0.0
 11
0.7928850212752162
 21
-1.4359375
 31
0.0
  0
LWPOLYLINE
  5
123
330
F9
100
AcDbEntity
  8
AM_9
100
AcDbPolyline
 90
       21
 70
     0
 43
0.0
 10
0.6230886164600606
 20
-0.9859375000504116
 10
0.6141882817303572
 20
-0.9868647237520828
 10
0.5975950101989778
 20
-0.992891282078014
 10
0.5796758319866147
 20
-1.004732121350932
 10
0.5618647901890531
 20
-1.021635495588173
 10
0.5442215464165376
 20
-1.043894253935682
 10
0.5277823176799712
 20
-1.071066658160629
 10
0.5133884069305978
 20
-1.103060851120176
 10
0.5025793733906035
 20
-1.137751413202261
 10
0.4957010488104584
 20
-1.175888978866913
 10
0.4936872167446734
 20
-1.21232445201251
 10
0.4961708288756635
 20
-1.24983948658084
 10
0.5025536906457684
 20
-1.284019457817568
 10
0.5127508864387106
 20
-1.31711805906059
 10
0.5260608800690831
 20
-1.347482472846183
 10
0.5421439848928362
 20
-1.374938073097981
 10
0.5601610218305543
 20
-1.398344782239701
 10
0.5794952046540743
 20
-1.416997212585665
 10
0.5979857582701669
 20
-1.429182941991455
 10
0.616066655582197
 20
-1.435353456795243
 10
0.6230840467961559
 20
-1.435937499918666
  0
LWPOLYLINE
  5
124
330
F9
100
AcDbEntity
  8
AM_9
100
AcDbPolyline
 90
        4
 70
     0
 43
0.0
 10
0.6819389737229796
 20
-1.293993443136308
 10
0.6824697681511724
 20
-1.282880258110516
 10
0.6835213494895993
 20
-1.24796892952748
 10
0.6838622861002163
 20
-1.2109375
  0
LWPOLYLINE
  5
125
330
F9
100
AcDbEntity
  8
AM_9
100
AcDbPolyline
 90
        9
 70
     0
 43
0.0
 10
0.6230840467961559
 20
-1.435937499918666
 10
0.6312586933322429
 20
-1.43505057525373
 10
0.6448915882698685
 20
-1.428702178651982
 10
0.655802851575745
 20
-1.417091881646427
 10
0.6647879093450068
 20
-1.39991342619163
 10
0.6717030713130858
 20
-1.377677472461846
 10
0.6768200211051818
 20
-1.350310018834036
 10
0.680289146044679
 20
-1.318736730010238
 10
0.6819389737229796
 20
-1.293993443136308
  0
LWPOLYLINE
  5
126
330
F9
100
AcDbEntity
  8
AM_9
100
AcDbPolyline
 90
       17
 70
     0
 43
0.0
 10
0.72662956753821
 20
-1.030726252727743
 10
0.7154132922631143
 20
-1.047129244434582
 10
0.7002703399735916
 20
-1.0753558259521
 10
0.6876372130277485
 20
-1.107448471944927
 10
0.6782339062021694
 20
-1.142798927014524
 10
0.672661292690688
 20
-1.180200131851852
 10
0.6713483066227843
 20
-1.217482681788866
 10
0.674088993843161
 20
-1.254575061421304
 10
0.680631662105051
 20
-1.289772712051501
 10
0.6905317398427512
 20
-1.32281836059131
 10
0.7035756861571592
 20
-1.353418768744712
 10
0.7188617337806598
 20
-1.380131997349892
 10
0.7361288361256406
 20
-1.402744358353581
 10
0.754158851128133
 20
-1.419906971414405
 10
0.772008411559282
 20
-1.430951349647267
 10
0.7891066307133638
 20
-1.435751150126878
 10
0.7930090138527118
 20
-1.435937498680157
  0
LWPOLYLINE
  5
127
330
F9
100
AcDbEntity
  8
AM_9
100
AcDbPolyline
 90
        6
 70
     0
 43
0.0
 10
0.7930245084873174
 20
-0.9859375003357737
 10
0.7832342383446274
 20
-0.987068470347082
 10
0.7664285791281307
 20
-0.9937450139612842
 10
0.7491239185479033
 20
-1.006144466751893
 10
0.7318195014807853
 20
-1.024160326308991
 10
0.72662956753821
 20
-1.030726252727743
  0
LWPOLYLINE
  5
128
330
F9
100
AcDbEntity
  8
AM_9
100
AcDbPolyline
 90
       11
 70
     0
 43
0.0
 10
0.7930090138527118
 20
-1.435937498680157
 10
0.8043848711084399
 20
-1.434181841371806
 10
0.8179778716547497
 20
-1.426614038360207
 10
0.8295358354041473
 20
-1.413306769785742
 10
0.8391095492866621
 20
-1.394701998166837
 10
0.8468851262442433
 20
-1.370595036343415
 10
0.8527800015041085
 20
-1.342091553590428
 10
0.8570484446807353
 20
-1.309198883350575
 10
0.8597929059541207
 20
-1.273389240025017
 10
0.8610358422011446
 20
-1.242492277029374
 10
0.8614418804420301
 20
-1.2109375
  0
LWPOLYLINE
  5
129
330
F9
100
AcDbEntity
  8
AM_9
100
AcDbPolyline
 90
        6
 70
     0
 43
0.0
 10
0.6679310739760533
 20
-1.030694908422422
 10
0.6654492052109454
 20
-1.023647750655952
 10
0.6561932748354403
 20
-1.005353463501333
 10
0.6440738457538353
 20
-0.9925777537172991
 10
0.6303886870028218
 20
-0.9866403803189532
 10
0.6230886164600606
 20
-0.9859375000504116
  0
LWPOLYLINE
  5
12A
330
F9
100
AcDbEntity
  8
AM_9
100
AcDbPolyline
 90
        5
 70
     0
 43
0.0
 10
0.6819893699418159
 20
-1.128842284902086
 10
0.6804992768577989
 20
-1.105749672718257
 10
0.6772656033704718
 20
-1.074763343841603
 10
0.6724263899786459
 20
-1.047292528176014
 10
0.6679310739760533
 20
-1.030694908422422
  0
LWPOLYLINE
  5
12B
330
F9
100
AcDbEntity
  8
AM_9
100
AcDbPolyline
 90
        4
 70
     0
 43
0.0
 10
0.6838622861002163
 20
-1.2109375
 10
0.6835389179133222
 20
-1.174846949249707
 10
0.6824595288721382
 20
-1.138756398499414
 10
0.6819893699418159
 20
-1.128842284902086
  0
LINE
  5
12C
330
F9
100
AcDbEntity
  8
AM_9
100
AcDbLine
 10
0.6875
 20
-1.5
 30
0.0
 11
0.6875
 21
1.03125
 31
0.0
  0
LINE
  5
12D
330
F9
100
AcDbEntity
  8
AM_9
100
AcDbLine
 10
-0.6875
 20
1.03125
 30
0.0
 11
-0.6875
 21
-1.5
 31
0.0
  0
LWPOLYLINE
  5
12E
330
F9
100
AcDbEntity
  8
AM_9
100
AcDbPolyline
 90
        3
 70
     0
 43
0.0
 10
-0.0359070803005204
 20
-0.9888211305350458
 10
-0.0319142996586323
 20
-0.9882123835957224
 10
0.0
 20
-0.9859374999999999
  0
LWPOLYLINE
  5
12F
330
F9
100
AcDbEntity
  8
AM_9
100
AcDbPolyline
 90
        5
 70
     0
 43
0.0
 10
-0.1350437894535847
 20
-1.03097035041426
 10
-0.1312162985979038
 20
-1.028160906908144
 10
-0.0988451721523455
 20
-1.008812212264464
 10
-0.062506389607157
 20
-0.994794141882573
 10
-0.0359070803005204
 20
-0.9888211305350458
  0
LWPOLYLINE
  5
130
330
F9
100
AcDbEntity
  8
AM_9
100
AcDbPolyline
 90
       32
 70
     0
 43
0.0
 10
0.1351319516902356
 20
-1.031036539378918
 10
0.1379647490701646
 20
-1.03319969306516
 10
0.1652879626454674
 20
-1.058278109838403
 10
0.1886989881855287
 20
-1.088390807438521
 10
0.2065207397557342
 20
-1.121639213058176
 10
0.2188321241282595
 20
-1.158616362306769
 10
0.2244554729523898
 20
-1.19529331060844
 10
0.2238600497366395
 20
-1.233557803532651
 10
0.2173419165604627
 20
-1.269139658944706
 10
0.2048171990866295
 20
-1.304076723522144
 10
0.1871207251905822
 20
-1.335880823967912
 10
0.1638925908307386
 20
-1.365093974631421
 10
0.1360954273698957
 20
-1.39011069735107
 10
0.1035308272677395
 20
-1.410703282368396
 10
0.0687641424395178
 20
-1.42517216739666
 10
0.0308262595745413
 20
-1.433815811463101
 10
-0.0059125817337593
 20
-1.435859800755709
 10
-0.0435683773094598
 20
-1.431678969820739
 10
-0.0783771415153241
 20
-1.421845118847416
 10
-0.1119582086746627
 20
-1.406105016534798
 10
-0.1421745221050683
 20
-1.385326161512712
 10
-0.1692555405650801
 20
-1.359185811923011
 10
-0.1915686297692819
 20
-1.328947923642659
 10
-0.2089819282967006
 20
-1.294313477627808
 10
-0.2199291269340904
 20
-1.258436753952128
 10
-0.2248175271653481
 20
-1.219997272583127
 10
-0.2233261141596083
 20
-1.183543217122552
 10
-0.2156720505348724
 20
-1.146823799295054
 10
-0.2026261667550472
 20
-1.113123203774163
 10
-0.1838357138085187
 20
-1.081209205751936
 10
-0.1601079366642373
 20
-1.052853824001747
 10
-0.1350437894535847
 20
-1.03097035041426
  0
LWPOLYLINE
  5
131
330
F9
100
AcDbEntity
  8
AM_9
100
AcDbPolyline
 90
        4
 70
     0
 43
0.0
 10
0.0371017516282577
 20
-0.989017559422063
 10
0.0731155863224023
 20
-0.9981486115759769
 10
0.1065757207994025
 20
-1.012779442540588
 10
0.1351319516902356
 20
-1.031036539378918
  0
LWPOLYLINE
  5
132
330
F9
100
AcDbEntity
  8
AM_9
100
AcDbPolyline
 90
        3
 70
     0
 43
0.0
 10
0.0
 20
-0.9859374999999999
 10
0.0365577931612011
 20
-0.9889273025783887
 10
0.0371017516282577
 20
-0.989017559422063
  0
LWPOLYLINE
  5
133
330
F9
100
AcDbEntity
  8
AM_9
100
AcDbPolyline
 90
        6
 70
     0
 43
0.0
 10
0.8404681421549935
 20
-1.030646897942082
 10
0.8370071250661975
 20
-1.022268021280658
 10
0.8264481589452458
 20
-1.004232254363311
 10
0.8137323111773866
 20
-0.9921184470972427
 10
0.7992907456940594
 20
-0.9864726863482227
 10
0.7930245084873174
 20
-0.9859375003357737
  0
LWPOLYLINE
  5
134
330
F9
100
AcDbEntity
  8
AM_9
100
AcDbPolyline
 90
        7
 70
     0
 43
0.0
 10
0.8614418804420301
 20
-1.2109375
 10
0.8608790554300306
 20
-1.173872223910214
 10
0.8591440166370287
 20
-1.137869435579627
 10
0.8561157873991719
 20
-1.103997107683178
 10
0.8516184250594391
 20
-1.073064709789544
 10
0.845282552301388
 20
-1.045369741585185
 10
0.8404681421549935
 20
-1.030646897942082
  0
LINE
  5
135
330
F9
100
AcDbEntity
  8
AM_9
100
AcDbLine
 10
0.875
 20
-1.5
 30
0.0
 11
0.875
 21
-0.921875
 31
0.0
  0
LINE
  5
136
330
F9
100
AcDbEntity
  8
AM_9
100
AcDbLine
 10
-0.875
 20
-0.921875
 30
0.0
 11
-0.875
 21
-1.5
 31
0.0
  0
LINE
  5
137
330
F9
100
AcDbEntity
  8
AM_9
100
AcDbLine
 10
-1.145833333333333
 20
1.03125
 30
0.0
 11
-1.145833333333333
 21
0.6875
 31
0.0
  0
LINE
  5
138
330
F9
100
AcDbEntity
  8
AM_9
100
AcDbLine
 10
1.145833333333333
 20
0.6875
 30
0.0
 11
1.145833333333333
 21
1.03125
 31
0.0
  0
LINE
  5
139
330
F9
100
AcDbEntity
  8
AM_9
100
AcDbLine
 10
-1.41025641025641
 20
-0.921875
 30
0.0
 11
1.41025641025641
 21
-0.921875
 31
0.0
  0
LINE
  5
13A
330
F9
100
AcDbEntity
  8
AM_9
100
AcDbLine
 10
-1.41025641025641
 20
-0.921875
 30
0.0
 11
-1.429542173771399
 21
-1.03125
 31
0.0
  0
LINE
  5
13B
330
F9
100
AcDbEntity
  8
AM_9
100
AcDbLine
 10
1.429542173771399
 20
-1.03125
 30
0.0
 11
1.41025641025641
 21
-0.921875
 31
0.0
  0
LINE
  5
13C
330
F9
100
AcDbEntity
  8
AM_9
100
AcDbLine
 10
1.41025641025641
 20
0.6874999999999999
 30
0.0
 11
1.470868809874945
 21
1.03125
 31
0.0
  0
LINE
  5
13D
330
F9
100
AcDbEntity
  8
AM_9
100
AcDbLine
 10
-1.470868809874945
 20
1.03125
 30
0.0
 11
-1.41025641025641
 21
0.6874999999999999
 31
0.0
  0
LINE
  5
13E
330
F9
100
AcDbEntity
  8
AM_9
100
AcDbLine
 10
1.41025641025641
 20
0.6874999999999999
 30
0.0
 11
-1.41025641025641
 21
0.6874999999999999
 31
0.0
  0
LINE
  5
13F
330
F9
100
AcDbEntity
  8
AM_7
100
AcDbLine
 10
-0.3672504617049713
 20
0.0000000000000001
 30
0.0
 11
0.3672504617049713
 21
0.0000000000000001
 31
0.0
  0
LINE
  5
140
330
F9
100
AcDbEntity
  8
AM_7
100
AcDbLine
 10
0.0
 20
-1.6265625
 30
0.0
 11
0.0
 21
1.29453125
 31
0.0
  0
LINE
  5
141
330
F9
100
AcDbEntity
  8
AM_4
100
AcDbLine
 10
1.625
 20
-0.9890624999999997
 30
0.0
 11
1.625
 21
-0.5781250000000001
 31
0.0
  0
LINE
  5
142
330
F9
100
AcDbEntity
  8
AM_4
100
AcDbLine
 10
-1.625
 20
-0.5781250000000001
 30
0.0
 11
-1.625
 21
-0.9890624999999997
 31
0.0
  0
LINE
  5
143
330
F9
100
AcDbEntity
  8
AM_4
100
AcDbLine
 10
-1.5828125
 20
-1.03125
 30
0.0
 11
1.582812499996857
 21
-1.03125
 31
0.0
  0
LINE
  5
144
330
F9
100
AcDbEntity
  8
AM_4
100
AcDbLine
 10
-1.625
 20
-0.9890624999999997
 30
0.0
 11
1.625
 21
-0.9890624999999997
 31
0.0
  0
ARC
  5
145
330
F9
100
AcDbEntity
  8
AM_4
100
AcDbCircle
 10
1.5828125
 20
-0.9890625000000001
 30
0.0
 40
0.0421875000000002
100
AcDbArc
 50
270.0
 51
0.0
  0
ARC
  5
146
330
F9
100
AcDbEntity
  8
AM_4
100
AcDbCircle
 10
-1.5828125
 20
-0.9890625000000001
 30
0.0
 40
0.0421875
100
AcDbArc
 50
180.0
 51
270.0
  0
LINE
  5
147
330
F9
100
AcDbEntity
  8
AM_4
100
AcDbLine
 10
-1.6128125
 20
1.03125
 30
0.0
 11
1.612812499995914
 21
1.03125
 31
0.0
  0
ARC
  5
148
330
F9
100
AcDbEntity
  8
AM_4
100
AcDbCircle
 10
1.6128125
 20
0.9890624999999998
 30
0.0
 40
0.0421875000000003
100
AcDbArc
 50
0.0
 51
90.0
  0
ARC
  5
149
330
F9
100
AcDbEntity
  8
AM_4
100
AcDbCircle
 10
-1.6128125
 20
0.9890624999999998
 30
0.0
 40
0.0421875000000002
100
AcDbArc
 50
90.0
 51
180.0
  0
LINE
  5
14A
330
F9
100
AcDbEntity
  8
AM_4
100
AcDbLine
 10
-1.655
 20
0.578125
 30
0.0
 11
1.655
 21
0.578125
 31
0.0
  0
LINE
  5
14B
330
F9
100
AcDbEntity
  8
AM_4
100
AcDbLine
 10
-1.655
 20
0.9890625
 30
0.0
 11
1.655
 21
0.9890625
 31
0.0
  0
LINE
  5
14C
330
F9
100
AcDbEntity
  8
AM_4
100
AcDbLine
 10
1.655
 20
0.578125
 30
0.0
 11
1.655
 21
0.9890625
 31
0.0
  0
LINE
  5
14D
330
F9
100
AcDbEntity
  8
AM_4
100
AcDbLine
 10
-1.655
 20
0.9890625
 30
0.0
 11
-1.655
 21
0.578125
 31
0.0
  0
LINE
  5
14E
330
F9
100
AcDbEntity
  8
AM_4
100
AcDbLine
 10
-1.779604503112981
 20
-0.5781249999999996
 30
0.0
 11
1.779604503112981
 21
-0.5781249999999996
 31
0.0
  0
ARC
  5
14F
330
F9
100
AcDbEntity
  8
AM_4
100
AcDbCircle
 10
0.0000000000000022
 20
-0.2343749999999996
 30
0.0
 40
1.812499999999998
100
AcDbArc
 50
349.0673388551886
 51
26.63311874915595
  0
ARC
  5
150
330
F9
100
AcDbEntity
  8
AM_4
100
AcDbCircle
 10
-0.0000000000000044
 20
-0.2343749999999993
 30
0.0
 40
1.812499999999996
100
AcDbArc
 50
153.366881250844
 51
190.9326611448114
  0
LWPOLYLINE
  5
151
330
F9
100
AcDbEntity
  8
AM_4
100
AcDbPolyline
 90
       75
 70
     0
 43
0.0
 10
-0.3016448205114828
 20
0.2979030998886683
 10
-0.2768842115641761
 20
0.3217606870817437
 10
-0.2500323053947037
 20
0.3436586831222603
 10
-0.2207962377917894
 20
0.3636671546624612
 10
-0.1897114836915721
 20
0.3812554752871273
 10
-0.1583707707004539
 20
0.3956577976839022
 10
-0.1253297580873537
 20
0.4076145878215842
 10
-0.091384176859573
 20
0.4167575991292642
 10
-0.0561308178728376
 20
0.4230971522170696
 10
-0.0219792103084052
 20
0.4263116863876556
 10
0.0129422119163043
 20
0.4266876668056923
 10
0.0477712046882145
 20
0.4241465575148501
 10
0.0828855791968221
 20
0.4185730715268871
 10
0.1160792154414283
 20
0.4104140733162772
 10
0.1490457794856718
 20
0.3993514045283117
 10
0.1809608587045795
 20
0.385595287112175
 10
0.2121387204583174
 20
0.3689225709486207
 10
0.2408853225193189
 20
0.350314763539029
 10
0.2684493507555691
 20
0.3290410382610288
 10
0.2941280790265249
 20
0.3055680087324623
 10
0.3181444422378912
 20
0.2795866089188651
 10
0.3393368026545673
 20
0.2524197654382181
 10
0.3585125863146318
 20
0.2230998728473609
 10
0.3751580367392098
 20
0.1923003547449734
 10
0.3893810365133344
 20
0.1596532683889732
 10
0.400521726653943
 20
0.1267727328102394
 10
0.409012204410272
 20
0.0924921147882763
 10
0.4145819312876449
 20
0.0576270153749289
 10
0.4172057456830288
 20
0.0217869811454325
 10
0.4167970686624614
 20
-0.0131214237186912
 10
0.4134424668812859
 20
-0.0481187297733548
 10
0.4069869488858152
 20
-0.0834657386842547
 10
0.3974334717740176
 20
-0.1183936711530987
 10
0.3853759410609103
 20
-0.1512036415575166
 10
0.3703144404919679
 20
-0.1834700012404775
 10
0.3525514683722054
 20
-0.2143595626823042
 10
0.3318029488606256
 20
-0.2441663876990798
 10
0.3095382574629951
 20
-0.2709611343519641
 10
0.284631491825398
 20
-0.2962569226920283
 10
0.2576473533554102
 20
-0.3193667370761527
 10
0.2282179250015967
 20
-0.340473298479995
 10
0.1984789937481059
 20
-0.358190315408539
 10
0.1667749457338712
 20
-0.3736404642835688
 10
0.1338626084491893
 20
-0.3863695473043099
 10
0.099339022188701
 20
-0.3964298323629329
 10
0.0656302694235335
 20
-0.4032353509300078
 10
0.0308477134930657
 20
-0.4072856750644928
 10
-0.0041557244891671
 20
-0.4084098123048359
 10
-0.0397702749536664
 20
-0.4065303653941575
 10
-0.0736995797213238
 20
-0.4018685091078963
 10
-0.1077140597720762
 20
-0.3942814542875526
 10
-0.140965856206522
 20
-0.3838913733041501
 10
-0.1737928665327756
 20
-0.3705054839537675
 10
-0.2043152178177041
 20
-0.3549732002721535
 10
-0.2339431407807991
 20
-0.3366615816634643
 10
-0.2619249331389491
 20
-0.3159630562396543
 10
-0.2885150290033845
 20
-0.2925910054142681
 10
-0.3123554353741168
 20
-0.2678130906747267
 10
-0.334420534915467
 20
-0.2406929818669087
 10
-0.3541300094599567
 20
-0.2118476769454582
 10
-0.3716297904639741
 20
-0.1809235544240745
 10
-0.3860880413273259
 20
-0.1494800387691323
 10
-0.3980694946113278
 20
-0.1163846610142648
 10
-0.4072241519132523
 20
-0.0824166275423151
 10
-0.4135701786037377
 20
-0.0471890309942959
 10
-0.4168292511673437
 20
-0.0125119582568264
 10
-0.4171671929168633
 20
0.0229301905256602
 10
-0.4145060046547515
 20
0.0582737540508033
 10
-0.4087267151479153
 20
0.0938967119375303
 10
-0.4002194033820369
 20
0.1277992667106066
 10
-0.3888150125285499
 20
0.1611121342895269
 10
-0.3742977814595902
 20
0.1940550172349212
 10
-0.3568478989173274
 20
0.2258743885102332
 10
-0.3313856599177553
 20
0.2631612734199024
 10
-0.3016448205114828
 20
0.2979030998886683
  0
CIRCLE
  5
152
330
F9
100
AcDbEntity
  8
AM_4
100
AcDbCircle
 10
0.0
 20
0.0000000000000001
 30
0.0
 40
0.349762344480925
  0
CIRCLE
  5
153
330
F9
100
AcDbEntity
  8
AM_4
100
AcDbCircle
 10
0.0
 20
0.0000000000000001
 30
0.0
 40
0.305316369154144
  0
ENDBLK
  5
FC
330
F9
100
AcDbEntity
  8
0
100
AcDbBlockEnd
  0
ENDSEC
  0
SECTION
  2
ENTITIES
  0
INSERT
  5
6F
330
1F
100
AcDbEntity
  8
0
100
AcDbBlockReference
  2
1_023273_4
 10
0.0
 20
0.0
 30
0.0
  0
POINT
  5
155
330
1F
100
AcDbEntity
  8
ConnectionPoints
100
AcDbPoint
 10
0.0
 20
0.0000000000000001
 30
2.2125
  0
POINT
  5
156
330
1F
100
AcDbEntity
  8
ConnectionPoints
100
AcDbPoint
 10
0.0
 20
0.0000000000000001
 30
2.2125
  0
POINT
  5
157
330
1F
100
AcDbEntity
  8
ConnectionPoints
100
AcDbPoint
 10
0.0
 20
0.0
 30
0.0
  0
POINT
  5
158
330
1F
100
AcDbEntity
  8
ConnectionPoints
100
AcDbPoint
 10
0.0
 20
-1.5
 30
0.0000000000000001
  0
POINT
  5
159
330
1F
100
AcDbEntity
  8
ConnectionPoints
100
AcDbPoint
 10
0.0
 20
1.266625
 30
-0.0000000000000001
  0
ENDSEC
  0
SECTION
  2
OBJECTS
  0
DICTIONARY
  5
C
330
0
100
AcDbDictionary
281
     1
  3
ACAD_DETAILVIEWSTYLE
350
161
  3
ACAD_GROUP
350
D
  3
ACAD_LAYOUT
350
1A
  3
ACAD_MATERIAL
350
43
  3
ACAD_MLEADERSTYLE
350
6B
  3
ACAD_MLINESTYLE
350
17
  3
ACAD_PLOTSETTINGS
350
19
  3
ACAD_PLOTSTYLENAME
350
E
  3
ACAD_SCALELIST
350
47
  3
ACAD_SECTIONVIEWSTYLE
350
162
  3
ACAD_TABLESTYLE
350
69
  3
ACAD_VISUALSTYLE
350
2A
  3
ACDB_RECOMPOSE_DATA
350
15E
  3
AcDbVariableDictionary
350
15A
  0
SUN
  5
6D
330
29
100
AcDbSun
 90
        1
290
     0
 63
     7
421
 16777215
 40
1.0
291
     1
 91
  2455826
 92
 54000000
292
     0
 70
     2
 71
   256
280
     1
  0
DICTIONARY
  5
161
102
{ACAD_REACTORS
330
C
102
}
330
C
100
AcDbDictionary
281
     1
  0
DICTIONARY
  5
D
102
{ACAD_REACTORS
330
C
102
}
330
C
100
AcDbDictionary
281
     1
  0
DICTIONARY
  5
1A
102
{ACAD_REACTORS
330
C
102
}
330
C
100
AcDbDictionary
281
     1
  3
Layout1
350
1E
  3
Layout2
350
26
  3
Model
350
22
  0
DICTIONARY
  5
43
102
{ACAD_REACTORS
330
C
102
}
330
C
100
AcDbDictionary
281
     1
  3
ByBlock
350
45
  3
ByLayer
350
44
  3
Global
350
46
  0
DICTIONARY
  5
6B
102
{ACAD_REACTORS
330
C
102
}
330
C
100
AcDbDictionary
281
     1
  3
Standard
350
6C
  0
DICTIONARY
  5
17
102
{ACAD_REACTORS
330
C
102
}
330
C
100
AcDbDictionary
281
     1
  3
Standard
350
18
  0
DICTIONARY
  5
19
102
{ACAD_REACTORS
330
C
102
}
330
C
100
AcDbDictionary
281
     1
  0
ACDBDICTIONARYWDFLT
  5
E
102
{ACAD_REACTORS
330
C
102
}
330
C
100
AcDbDictionary
281
     1
  3
Normal
350
F
100
AcDbDictionaryWithDefault
340
F
  0
DICTIONARY
  5
47
102
{ACAD_REACTORS
330
C
102
}
330
C
100
AcDbDictionary
281
     1
  3
A0
350
48
  3
A1
350
49
  3
A2
350
4A
  3
A3
350
4B
  3
A4
350
4C
  3
A5
350
4D
  3
A6
350
4E
  3
A7
350
4F
  3
A8
350
50
  3
A9
350
51
  3
B0
350
52
  3
B1
350
53
  3
B2
350
54
  3
B3
350
55
  3
B4
350
56
  3
B5
350
57
  3
B6
350
58
  3
B7
350
59
  3
B8
350
5A
  3
B9
350
5B
  3
C0
350
5C
  3
C1
350
5D
  3
C2
350
5E
  3
C3
350
5F
  3
C4
350
60
  3
C5
350
61
  3
C6
350
62
  3
C7
350
63
  3
C8
350
64
  3
C9
350
65
  3
D0
350
66
  3
D1
350
67
  3
D2
350
68
  0
DICTIONARY
  5
162
102
{ACAD_REACTORS
330
C
102
}
330
C
100
AcDbDictionary
281
     1
  0
DICTIONARY
  5
69
102
{ACAD_REACTORS
330
C
102
}
330
C
100
AcDbDictionary
281
     1
  3
Standard
350
6A
  0
DICTIONARY
  5
2A
102
{ACAD_REACTORS
330
C
102
}
330
C
100
AcDbDictionary
281
     1
  3
2dWireframe
350
2F
  3
Basic
350
32
  3
Brighten
350
36
  3
ColorChange
350
3A
  3
Conceptual
350
34
  3
Dim
350
35
  3
EdgeColorOff
350
3D
  3
Facepattern
350
39
  3
Flat
350
2B
  3
FlatWithEdges
350
2C
  3
Gouraud
350
2D
  3
GouraudWithEdges
350
2E
  3
Hidden
350
31
  3
JitterOff
350
3B
  3
Linepattern
350
38
  3
OverhangOff
350
3C
  3
Realistic
350
33
  3
Shaded
350
42
  3
Shaded with edges
350
41
  3
Shades of Gray
350
3E
  3
Sketchy
350
3F
  3
Thicken
350
37
  3
Wireframe
350
30
  3
X-Ray
350
40
  0
XRECORD
  5
15E
102
{ACAD_REACTORS
330
C
102
}
330
C
100
AcDbXrecord
280
     1
 90
        1
330
6A
  0
DICTIONARY
  5
15A
102
{ACAD_REACTORS
330
C
102
}
330
C
100
AcDbDictionary
281
     1
  3
CANNOSCALE
350
15B
  3
CMLEADERSTYLE
350
160
  3
CTABLESTYLE
350
15F
  0
LAYOUT
  5
1E
102
{ACAD_REACTORS
330
1A
102
}
330
1A
100
AcDbPlotSettings
  1

  2
none_device
  4

  6

 40
0.0
 41
0.0
 42
0.0
 43
0.0
 44
0.0
 45
0.0
 46
0.0
 47
0.0
 48
0.0
 49
0.0
140
0.0
141
0.0
142
1.0
143
1.0
 70
   688
 72
     0
 73
     0
 74
     5
  7

 75
    16
 76
     0
 77
     2
 78
   300
147
1.0
148
0.0
149
0.0
100
AcDbLayout
  1
Layout1
 70
     1
 71
     1
 10
0.0
 20
0.0
 11
12.0
 21
9.0
 12
0.0
 22
0.0
 32
0.0
 14
1.000000000000000E+20
 24
1.000000000000000E+20
 34
1.000000000000000E+20
 15
-1.000000000000000E+20
 25
-1.000000000000000E+20
 35
-1.000000000000000E+20
146
0.0
 13
0.0
 23
0.0
 33
0.0
 16
1.0
 26
0.0
 36
0.0
 17
0.0
 27
1.0
 37
0.0
 76
     0
330
1B
  0
LAYOUT
  5
26
102
{ACAD_REACTORS
330
1A
102
}
330
1A
100
AcDbPlotSettings
  1

  2
none_device
  4

  6

 40
0.0
 41
0.0
 42
0.0
 43
0.0
 44
0.0
 45
0.0
 46
0.0
 47
0.0
 48
0.0
 49
0.0
140
0.0
141
0.0
142
1.0
143
1.0
 70
   688
 72
     0
 73
     0
 74
     5
  7

 75
    16
 76
     0
 77
     2
 78
   300
147
1.0
148
0.0
149
0.0
100
AcDbLayout
  1
Layout2
 70
     1
 71
     2
 10
0.0
 20
0.0
 11
0.0
 21
0.0
 12
0.0
 22
0.0
 32
0.0
 14
0.0
 24
0.0
 34
0.0
 15
0.0
 25
0.0
 35
0.0
146
0.0
 13
0.0
 23
0.0
 33
0.0
 16
1.0
 26
0.0
 36
0.0
 17
0.0
 27
1.0
 37
0.0
 76
     0
330
23
  0
LAYOUT
  5
22
102
{ACAD_REACTORS
330
1A
102
}
330
1A
100
AcDbPlotSettings
  1

  2
none_device
  4
Letter_(8.50_x_11.00_Inches)
  6

 40
6.35
 41
6.35
 42
6.35000508
 43
6.35000508
 44
215.9
 45
279.4
 46
0.0
 47
0.0
 48
0.0
 49
0.0
140
0.0
141
0.0
142
1.0
143
1.0
 70
  1712
 72
     0
 73
     0
 74
     0
  7

 75
     0
 76
     0
 77
     2
 78
   300
147
1.0
148
0.0
149
0.0
100
AcDbLayout
  1
Model
 70
     1
 71
     0
 10
0.0
 20
0.0
 11
12.0
 21
9.0
 12
0.0
 22
0.0
 32
0.0
 14
1.000000000000000E+20
 24
1.000000000000000E+20
 34
1.000000000000000E+20
 15
-1.000000000000000E+20
 25
-1.000000000000000E+20
 35
-1.000000000000000E+20
146
0.0
 13
0.0
 23
0.0
 33
0.0
 16
1.0
 26
0.0
 36
0.0
 17
0.0
 27
1.0
 37
0.0
 76
     0
330
1F
331
29
  0
MATERIAL
  5
45
102
{ACAD_REACTORS
330
43
102
}
330
43
100
AcDbMaterial
  1
ByBlock
 72
     1
 94
      127
  0
MATERIAL
  5
44
102
{ACAD_REACTORS
330
43
102
}
330
43
100
AcDbMaterial
  1
ByLayer
 72
     1
 94
      127
  0
MATERIAL
  5
46
102
{ACAD_REACTORS
330
43
102
}
330
43
100
AcDbMaterial
  1
Global
 72
     1
 94
      127
  0
MLEADERSTYLE
  5
6C
102
{ACAD_REACTORS
330
6B
102
}
330
6B
100
AcDbMLeaderStyle
179
     2
170
     2
171
     1
172
     0
 90
        2
 40
0.0
 41
0.0
173
     1
 91
-1056964608
340
14
 92
       -2
290
     1
 42
0.09
291
     1
 43
0.36
  3
Standard
341
0
 44
0.18
300

342
11
174
     1
178
     6
175
     1
176
     0
 93
-1056964608
 45
0.18
292
     0
297
     0
 46
0.18
343
0
 94
-1056964608
 47
1.0
 49
1.0
140
1.0
293
     1
141
0.0
294
     1
177
     0
142
1.0
295
     0
296
     0
143
0.125
271
     0
272
     9
273
     9
298
     0
  0
MLINESTYLE
  5
18
102
{ACAD_REACTORS
330
17
102
}
330
17
100
AcDbMlineStyle
  2
Standard
 70
     0
  3

 62
   256
 51
90.0
 52
90.0
 71
     2
 49
0.5
 62
   256
  6
BYLAYER
 49
-0.5
 62
   256
  6
BYLAYER
  0
ACDBPLACEHOLDER
  5
F
102
{ACAD_REACTORS
330
E
102
}
330
E
  0
SCALE
  5
48
102
{ACAD_REACTORS
330
47
102
}
330
47
100
AcDbScale
 70
     0
300
1:1
140
1.0
141
1.0
290
     1
  0
SCALE
  5
49
102
{ACAD_REACTORS
330
47
102
}
330
47
100
AcDbScale
 70
     0
300
1:2
140
1.0
141
2.0
290
     0
  0
SCALE
  5
4A
102
{ACAD_REACTORS
330
47
102
}
330
47
100
AcDbScale
 70
     0
300
1:4
140
1.0
141
4.0
290
     0
  0
SCALE
  5
4B
102
{ACAD_REACTORS
330
47
102
}
330
47
100
AcDbScale
 70
     0
300
1:5
140
1.0
141
5.0
290
     0
  0
SCALE
  5
4C
102
{ACAD_REACTORS
330
47
102
}
330
47
100
AcDbScale
 70
     0
300
1:8
140
1.0
141
8.0
290
     0
  0
SCALE
  5
4D
102
{ACAD_REACTORS
330
47
102
}
330
47
100
AcDbScale
 70
     0
300
1:10
140
1.0
141
10.0
290
     0
  0
SCALE
  5
4E
102
{ACAD_REACTORS
330
47
102
}
330
47
100
AcDbScale
 70
     0
300
1:16
140
1.0
141
16.0
290
     0
  0
SCALE
  5
4F
102
{ACAD_REACTORS
330
47
102
}
330
47
100
AcDbScale
 70
     0
300
1:20
140
1.0
141
20.0
290
     0
  0
SCALE
  5
50
102
{ACAD_REACTORS
330
47
102
}
330
47
100
AcDbScale
 70
     0
300
1:30
140
1.0
141
30.0
290
     0
  0
SCALE
  5
51
102
{ACAD_REACTORS
330
47
102
}
330
47
100
AcDbScale
 70
     0
300
1:40
140
1.0
141
40.0
290
     0
  0
SCALE
  5
52
102
{ACAD_REACTORS
330
47
102
}
330
47
100
AcDbScale
 70
     0
300
1:50
140
1.0
141
50.0
290
     0
  0
SCALE
  5
53
102
{ACAD_REACTORS
330
47
102
}
330
47
100
AcDbScale
 70
     0
300
1:100
140
1.0
141
100.0
290
     0
  0
SCALE
  5
54
102
{ACAD_REACTORS
330
47
102
}
330
47
100
AcDbScale
 70
     0
300
2:1
140
2.0
141
1.0
290
     0
  0
SCALE
  5
55
102
{ACAD_REACTORS
330
47
102
}
330
47
100
AcDbScale
 70
     0
300
4:1
140
4.0
141
1.0
290
     0
  0
SCALE
  5
56
102
{ACAD_REACTORS
330
47
102
}
330
47
100
AcDbScale
 70
     0
300
8:1
140
8.0
141
1.0
290
     0
  0
SCALE
  5
57
102
{ACAD_REACTORS
330
47
102
}
330
47
100
AcDbScale
 70
     0
300
10:1
140
10.0
141
1.0
290
     0
  0
SCALE
  5
58
102
{ACAD_REACTORS
330
47
102
}
330
47
100
AcDbScale
 70
     0
300
100:1
140
100.0
141
1.0
290
     0
  0
SCALE
  5
59
102
{ACAD_REACTORS
330
47
102
}
330
47
100
AcDbScale
 70
     0
300
1/128" = 1'-0"
140
0.0078125
141
12.0
290
     0
  0
SCALE
  5
5A
102
{ACAD_REACTORS
330
47
102
}
330
47
100
AcDbScale
 70
     0
300
1/64" = 1'-0"
140
0.015625
141
12.0
290
     0
  0
SCALE
  5
5B
102
{ACAD_REACTORS
330
47
102
}
330
47
100
AcDbScale
 70
     0
300
1/32" = 1'-0"
140
0.03125
141
12.0
290
     0
  0
SCALE
  5
5C
102
{ACAD_REACTORS
330
47
102
}
330
47
100
AcDbScale
 70
     0
300
1/16" = 1'-0"
140
0.0625
141
12.0
290
     0
  0
SCALE
  5
5D
102
{ACAD_REACTORS
330
47
102
}
330
47
100
AcDbScale
 70
     0
300
3/32" = 1'-0"
140
0.09375
141
12.0
290
     0
  0
SCALE
  5
5E
102
{ACAD_REACTORS
330
47
102
}
330
47
100
AcDbScale
 70
     0
300
1/8" = 1'-0"
140
0.125
141
12.0
290
     0
  0
SCALE
  5
5F
102
{ACAD_REACTORS
330
47
102
}
330
47
100
AcDbScale
 70
     0
300
3/16" = 1'-0"
140
0.1875
141
12.0
290
     0
  0
SCALE
  5
60
102
{ACAD_REACTORS
330
47
102
}
330
47
100
AcDbScale
 70
     0
300
1/4" = 1'-0"
140
0.25
141
12.0
290
     0
  0
SCALE
  5
61
102
{ACAD_REACTORS
330
47
102
}
330
47
100
AcDbScale
 70
     0
300
3/8" = 1'-0"
140
0.375
141
12.0
290
     0
  0
SCALE
  5
62
102
{ACAD_REACTORS
330
47
102
}
330
47
100
AcDbScale
 70
     0
300
1/2" = 1'-0"
140
0.5
141
12.0
290
     0
  0
SCALE
  5
63
102
{ACAD_REACTORS
330
47
102
}
330
47
100
AcDbScale
 70
     0
300
3/4" = 1'-0"
140
0.75
141
12.0
290
     0
  0
SCALE
  5
64
102
{ACAD_REACTORS
330
47
102
}
330
47
100
AcDbScale
 70
     0
300
1" = 1'-0"
140
1.0
141
12.0
290
     0
  0
SCALE
  5
65
102
{ACAD_REACTORS
330
47
102
}
330
47
100
AcDbScale
 70
     0
300
1-1/2" = 1'-0"
140
1.5
141
12.0
290
     0
  0
SCALE
  5
66
102
{ACAD_REACTORS
330
47
102
}
330
47
100
AcDbScale
 70
     0
300
3" = 1'-0"
140
3.0
141
12.0
290
     0
  0
SCALE
  5
67
102
{ACAD_REACTORS
330
47
102
}
330
47
100
AcDbScale
 70
     0
300
6" = 1'-0"
140
6.0
141
12.0
290
     0
  0
SCALE
  5
68
102
{ACAD_REACTORS
330
47
102
}
330
47
100
AcDbScale
 70
     0
300
1'-0" = 1'-0"
140
12.0
141
12.0
290
     0
  0
TABLESTYLE
  5
6A
102
{ACAD_REACTORS
330
69
102
}
102
{ACAD_XDICTIONARY
360
15C
102
}
330
69
100
AcDbTableStyle
  3
Standard
 70
     0
 71
     0
 40
0.06
 41
0.06
280
     0
281
     0
  7
Standard
140
0.18
170
     2
 62
     0
 63
   257
283
     0
 90
        4
 91
        0
  1

274
    -2
284
     1
 64
     0
275
    -2
285
     1
 65
     0
276
    -2
286
     1
 66
     0
277
    -2
287
     1
 67
     0
278
    -2
288
     1
 68
     0
279
    -2
289
     1
 69
     0
  7
Standard
140
0.25
170
     5
 62
     0
 63
   257
283
     0
 90
        4
 91
        0
  1

274
    -2
284
     1
 64
     0
275
    -2
285
     1
 65
     0
276
    -2
286
     1
 66
     0
277
    -2
287
     1
 67
     0
278
    -2
288
     1
 68
     0
279
    -2
289
     1
 69
     0
  7
Standard
140
0.18
170
     5
 62
     0
 63
   257
283
     0
 90
        4
 91
        0
  1

274
    -2
284
     1
 64
     0
275
    -2
285
     1
 65
     0
276
    -2
286
     1
 66
     0
277
    -2
287
     1
 67
     0
278
    -2
288
     1
 68
     0
279
    -2
289
     1
 69
     0
  0
VISUALSTYLE
  5
2F
102
{ACAD_REACTORS
330
2A
102
}
330
2A
100
AcDbVisualStyle
  2
2dWireframe
 70
     4
177
     3
291
     0
 70
    58
 90
        0
176
     1
 90
        2
176
     1
 90
        0
176
     1
 90
        0
176
     1
 40
0.6
176
     1
 40
30.0
176
     1
 62
     7
420
 16777215
176
     1
 90
        1
176
     1
 90
        4
176
     1
 62
     7
176
     1
 62
   257
176
     1
 90
        1
176
     1
 90
        1
176
     1
 40
1.0
176
     1
 90
        0
176
     1
 62
   257
176
     1
 40
1.0
176
     1
 90
        1
176
     1
 90
        6
176
     1
 90
        2
176
     1
 62
     7
176
     1
 90
        5
176
     1
 90
        0
176
     1
 90
        0
176
     1
290
     0
176
     1
 90
        1
176
     1
 40
0.0
176
     1
 90
        0
176
     1
290
     1
176
     1
290
     1
176
     1
290
     0
176
     1
290
     0
176
     1
290
     0
176
     1
290
     0
176
     1
290
     0
176
     1
290
     0
176
     1
290
     0
176
     1
 90
       50
176
     1
 40
0.0
176
     1
 40
1.0
176
     1
 90
        0
176
     1
 62
    18
420
        0
176
     1
 90
       50
176
     1
 90
        3
176
     1
 62
     5
420
      255
176
     1
290
     0
176
     1
 90
       50
176
     1
 90
       50
176
     1
 90
       50
176
     1
290
     0
176
     1
 90
       50
176
     1
 62
   256
176
     0
 40
1.0
176
     0
 90
        2
176
     1
  1
strokes_ogs.tif
176
     1
290
     0
176
     1
 40
1.0
176
     1
 40
1.0
176
     1
  0
VISUALSTYLE
  5
32
102
{ACAD_REACTORS
330
2A
102
}
330
2A
100
AcDbVisualStyle
  2
Basic
 70
     7
177
     3
291
     1
 70
    58
 90
        1
176
     1
 90
        0
176
     1
 90
        1
176
     1
 90
        0
176
     1
 40
0.6
176
     1
 40
30.0
176
     1
 62
     7
420
 16777215
176
     1
 90
        0
176
     1
 90
        4
176
     1
 62
     7
176
     1
 62
   257
176
     1
 90
        1
176
     1
 90
        1
176
     1
 40
1.0
176
     1
 90
        8
176
     1
 62
     7
176
     1
 40
1.0
176
     1
 90
        1
176
     1
 90
        6
176
     1
 90
        2
176
     1
 62
     7
176
     1
 90
        5
176
     1
 90
        0
176
     1
 90
        0
176
     1
290
     0
176
     1
 90
        1
176
     1
 40
0.0
176
     1
 90
        0
176
     1
290
     0
176
     1
290
     1
176
     1
290
     1
176
     1
290
     0
176
     1
290
     0
176
     1
290
     0
176
     1
290
     0
176
     1
290
     0
176
     1
290
     0
176
     1
 90
       50
176
     1
 40
0.0
176
     1
 40
1.0
176
     1
 90
        0
176
     1
 62
    18
420
        0
176
     1
 90
       50
176
     1
 90
        3
176
     1
 62
     5
420
      255
176
     1
290
     0
176
     1
 90
       50
176
     1
 90
       50
176
     1
 90
       50
176
     1
290
     0
176
     1
 90
       50
176
     1
 62
   256
176
     0
 40
1.0
176
     0
 90
        2
176
     1
  1
strokes_ogs.tif
176
     1
290
     0
176
     1
 40
1.0
176
     1
 40
1.0
176
     1
  0
VISUALSTYLE
  5
36
102
{ACAD_REACTORS
330
2A
102
}
330
2A
100
AcDbVisualStyle
  2
Brighten
 70
    12
177
     3
291
     1
 70
    58
 90
        2
176
     1
 90
        2
176
     1
 90
        0
176
     1
 90
        0
176
     1
 40
0.6
176
     1
 40
30.0
176
     1
 62
     7
420
 16777215
176
     1
 90
        1
176
     1
 90
        4
176
     1
 62
     7
176
     1
 62
   257
176
     1
 90
        1
176
     1
 90
        1
176
     1
 40
1.0
176
     1
 90
        8
176
     1
 62
     7
176
     1
 40
1.0
176
     1
 90
        1
176
     1
 90
        6
176
     1
 90
        2
176
     1
 62
     7
176
     1
 90
        5
176
     1
 90
        0
176
     1
 90
        0
176
     1
290
     0
176
     1
 90
        1
176
     1
 40
50.0
176
     1
 90
        0
176
     1
290
     0
176
     1
290
     1
176
     1
290
     1
176
     1
290
     0
176
     1
290
     0
176
     1
290
     0
176
     1
290
     0
176
     1
290
     0
176
     1
290
     0
176
     1
 90
       50
176
     1
 40
0.0
176
     1
 40
1.0
176
     1
 90
        0
176
     1
 62
    18
420
        0
176
     1
 90
       50
176
     1
 90
        3
176
     1
 62
     5
420
      255
176
     1
290
     0
176
     1
 90
       50
176
     1
 90
       50
176
     1
 90
       50
176
     1
290
     0
176
     1
 90
       50
176
     1
 62
   256
176
     0
 40
1.0
176
     0
 90
        2
176
     1
  1
strokes_ogs.tif
176
     1
290
     0
176
     1
 40
1.0
176
     1
 40
1.0
176
     1
  0
VISUALSTYLE
  5
3A
102
{ACAD_REACTORS
330
2A
102
}
330
2A
100
AcDbVisualStyle
  2
ColorChange
 70
    16
177
     3
291
     1
 70
    58
 90
        2
176
     1
 90
        2
176
     1
 90
        3
176
     1
 90
        0
176
     1
 40
0.6
176
     1
 40
30.0
176
     1
 62
     8
420
  8421504
176
     1
 90
        1
176
     1
 90
        4
176
     1
 62
     7
176
     1
 62
   257
176
     1
 90
        1
176
     1
 90
        1
176
     1
 40
1.0
176
     1
 90
        8
176
     1
 62
     8
420
  8421504
176
     1
 40
1.0
176
     1
 90
        1
176
     1
 90
        6
176
     1
 90
        2
176
     1
 62
     7
176
     1
 90
        5
176
     1
 90
        0
176
     1
 90
        0
176
     1
290
     0
176
     1
 90
        1
176
     1
 40
0.0
176
     1
 90
        0
176
     1
290
     0
176
     1
290
     1
176
     1
290
     1
176
     1
290
     0
176
     1
290
     0
176
     1
290
     0
176
     1
290
     0
176
     1
290
     0
176
     1
290
     0
176
     1
 90
       50
176
     1
 40
0.0
176
     1
 40
1.0
176
     1
 90
        0
176
     1
 62
    18
420
        0
176
     1
 90
       50
176
     1
 90
        3
176
     1
 62
     5
420
      255
176
     1
290
     0
176
     1
 90
       50
176
     1
 90
       50
176
     1
 90
       50
176
     1
290
     0
176
     1
 90
       50
176
     1
 62
   256
176
     0
 40
1.0
176
     0
 90
        2
176
     1
  1
strokes_ogs.tif
176
     1
290
     0
176
     1
 40
1.0
176
     1
 40
1.0
176
     1
  0
VISUALSTYLE
  5
34
102
{ACAD_REACTORS
330
2A
102
}
330
2A
100
AcDbVisualStyle
  2
Conceptual
 70
     9
177
     3
291
     0
 70
    58
 90
        3
176
     1
 90
        2
176
     1
 90
        0
176
     1
 90
        0
176
     1
 40
0.6
176
     1
 40
30.0
176
     1
 62
     7
420
 16777215
176
     1
 90
        2
176
     1
 90
        2
176
     1
 62
     7
176
     1
 62
   257
176
     1
 90
        1
176
     1
 90
        1
176
     1
 40
179.0
176
     1
 90
        8
176
     1
 62
     7
176
     1
 40
1.0
176
     1
 90
        1
176
     1
 90
        6
176
     1
 90
        2
176
     1
 62
     7
176
     1
 90
        3
176
     1
 90
        0
176
     1
 90
        0
176
     1
290
     0
176
     1
 90
        1
176
     1
 40
0.0
176
     1
 90
        0
176
     1
290
     0
176
     1
290
     1
176
     1
290
     1
176
     1
290
     0
176
     1
290
     0
176
     1
290
     0
176
     1
290
     0
176
     1
290
     0
176
     1
290
     0
176
     1
 90
       50
176
     1
 40
0.0
176
     1
 40
1.0
176
     1
 90
        0
176
     1
 62
    18
420
        0
176
     1
 90
       50
176
     1
 90
        3
176
     1
 62
     5
420
      255
176
     1
290
     0
176
     1
 90
       50
176
     1
 90
       50
176
     1
 90
       50
176
     1
290
     0
176
     1
 90
       50
176
     1
 62
   256
176
     0
 40
1.0
176
     0
 90
        2
176
     1
  1
strokes_ogs.tif
176
     1
290
     0
176
     1
 40
1.0
176
     1
 40
1.0
176
     1
  0
VISUALSTYLE
  5
35
102
{ACAD_REACTORS
330
2A
102
}
330
2A
100
AcDbVisualStyle
  2
Dim
 70
    11
177
     3
291
     1
 70
    58
 90
        2
176
     1
 90
        2
176
     1
 90
        0
176
     1
 90
        0
176
     1
 40
0.6
176
     1
 40
30.0
176
     1
 62
     7
420
 16777215
176
     1
 90
        1
176
     1
 90
        4
176
     1
 62
     7
176
     1
 62
   257
176
     1
 90
        1
176
     1
 90
        1
176
     1
 40
1.0
176
     1
 90
        8
176
     1
 62
     7
176
     1
 40
1.0
176
     1
 90
        1
176
     1
 90
        6
176
     1
 90
        2
176
     1
 62
     7
176
     1
 90
        5
176
     1
 90
        0
176
     1
 90
        0
176
     1
290
     0
176
     1
 90
        1
176
     1
 40
-50.0
176
     1
 90
        0
176
     1
290
     0
176
     1
290
     1
176
     1
290
     1
176
     1
290
     0
176
     1
290
     0
176
     1
290
     0
176
     1
290
     0
176
     1
290
     0
176
     1
290
     0
176
     1
 90
       50
176
     1
 40
0.0
176
     1
 40
1.0
176
     1
 90
        0
176
     1
 62
    18
420
        0
176
     1
 90
       50
176
     1
 90
        3
176
     1
 62
     5
420
      255
176
     1
290
     0
176
     1
 90
       50
176
     1
 90
       50
176
     1
 90
       50
176
     1
290
     0
176
     1
 90
       50
176
     1
 62
   256
176
     0
 40
1.0
176
     0
 90
        2
176
     1
  1
strokes_ogs.tif
176
     1
290
     0
176
     1
 40
1.0
176
     1
 40
1.0
176
     1
  0
VISUALSTYLE
  5
3D
102
{ACAD_REACTORS
330
2A
102
}
330
2A
100
AcDbVisualStyle
  2
EdgeColorOff
 70
    22
177
     3
291
     1
 70
    58
 90
        2
176
     0
 90
        2
176
     0
 90
        0
176
     0
 90
        0
176
     0
 40
0.6
176
     0
 40
30.0
176
     0
 62
     7
420
 16777215
176
     0
 90
        1
176
     0
 90
        4
176
     0
 62
     7
176
     0
 62
   257
176
     0
 90
        1
176
     0
 90
        1
176
     0
 40
1.0
176
     0
 90
        8
176
     2
 62
     7
176
     0
 40
1.0
176
     0
 90
        1
176
     0
 90
        6
176
     0
 90
        2
176
     0
 62
     7
176
     0
 90
        5
176
     0
 90
        0
176
     0
 90
        0
176
     0
290
     0
176
     0
 90
        1
176
     0
 40
0.0
176
     0
 90
        0
176
     0
290
     0
176
     0
290
     1
176
     0
290
     1
176
     0
290
     0
176
     0
290
     0
176
     0
290
     0
176
     0
290
     0
176
     0
290
     0
176
     0
290
     0
176
     0
 90
       50
176
     0
 40
0.0
176
     0
 40
1.0
176
     0
 90
        0
176
     0
 62
    18
420
        0
176
     0
 90
       50
176
     0
 90
        3
176
     0
 62
     5
420
      255
176
     0
290
     0
176
     0
 90
       50
176
     0
 90
       50
176
     0
 90
       50
176
     0
290
     0
176
     0
 90
       50
176
     0
 62
   256
176
     0
 40
1.0
176
     0
 90
        2
176
     0
  1
strokes_ogs.tif
176
     0
290
     0
176
     0
 40
1.0
176
     0
 40
1.0
176
     0
  0
VISUALSTYLE
  5
39
102
{ACAD_REACTORS
330
2A
102
}
330
2A
100
AcDbVisualStyle
  2
Facepattern
 70
    15
177
     3
291
     1
 70
    58
 90
        2
176
     1
 90
        2
176
     1
 90
        0
176
     1
 90
        0
176
     1
 40
0.6
176
     1
 40
30.0
176
     1
 62
     7
420
 16777215
176
     1
 90
        1
176
     1
 90
        4
176
     1
 62
     7
176
     1
 62
   257
176
     1
 90
        1
176
     1
 90
        1
176
     1
 40
1.0
176
     1
 90
        8
176
     1
 62
     7
176
     1
 40
1.0
176
     1
 90
        1
176
     1
 90
        6
176
     1
 90
        2
176
     1
 62
     7
176
     1
 90
        5
176
     1
 90
        0
176
     1
 90
        0
176
     1
290
     0
176
     1
 90
        1
176
     1
 40
0.0
176
     1
 90
        0
176
     1
290
     0
176
     1
290
     1
176
     1
290
     1
176
     1
290
     0
176
     1
290
     0
176
     1
290
     0
176
     1
290
     0
176
     1
290
     0
176
     1
290
     0
176
     1
 90
       50
176
     1
 40
0.0
176
     1
 40
1.0
176
     1
 90
        0
176
     1
 62
    18
420
        0
176
     1
 90
       50
176
     1
 90
        3
176
     1
 62
     5
420
      255
176
     1
290
     0
176
     1
 90
       50
176
     1
 90
       50
176
     1
 90
       50
176
     1
290
     0
176
     1
 90
       50
176
     1
 62
   256
176
     0
 40
1.0
176
     0
 90
        2
176
     1
  1
strokes_ogs.tif
176
     1
290
     0
176
     1
 40
1.0
176
     1
 40
1.0
176
     1
  0
VISUALSTYLE
  5
2B
102
{ACAD_REACTORS
330
2A
102
}
330
2A
100
AcDbVisualStyle
  2
Flat
 70
     0
177
     3
291
     1
 70
    58
 90
        2
176
     1
 90
        1
176
     1
 90
        1
176
     1
 90
        2
176
     1
 40
0.6
176
     1
 40
30.0
176
     1
 62
     7
420
 16777215
176
     1
 90
        0
176
     1
 90
        0
176
     1
 62
     7
176
     1
 62
   257
176
     1
 90
        1
176
     1
 90
        1
176
     1
 40
1.0
176
     1
 90
        8
176
     1
 62
     7
176
     1
 40
1.0
176
     1
 90
        1
176
     1
 90
        6
176
     1
 90
        2
176
     1
 62
     7
176
     1
 90
        5
176
     1
 90
        0
176
     1
 90
        0
176
     1
290
     0
176
     1
 90
       13
176
     1
 40
0.0
176
     1
 90
        0
176
     1
290
     0
176
     1
290
     1
176
     1
290
     1
176
     1
290
     0
176
     1
290
     0
176
     1
290
     0
176
     1
290
     0
176
     1
290
     0
176
     1
290
     0
176
     1
 90
       50
176
     1
 40
0.0
176
     1
 40
1.0
176
     1
 90
        0
176
     1
 62
    18
420
        0
176
     1
 90
       50
176
     1
 90
        3
176
     1
 62
     5
420
      255
176
     1
290
     0
176
     1
 90
       50
176
     1
 90
       50
176
     1
 90
       50
176
     1
290
     0
176
     1
 90
       50
176
     1
 62
   256
176
     0
 40
1.0
176
     0
 90
        2
176
     1
  1
strokes_ogs.tif
176
     1
290
     0
176
     1
 40
1.0
176
     1
 40
1.0
176
     1
  0
VISUALSTYLE
  5
2C
102
{ACAD_REACTORS
330
2A
102
}
330
2A
100
AcDbVisualStyle
  2
FlatWithEdges
 70
     1
177
     3
291
     1
 70
    58
 90
        2
176
     1
 90
        1
176
     1
 90
        1
176
     1
 90
        2
176
     1
 40
0.6
176
     1
 40
30.0
176
     1
 62
     7
420
 16777215
176
     1
 90
        1
176
     1
 90
        0
176
     1
 62
     7
176
     1
 62
   257
176
     1
 90
        1
176
     1
 90
        1
176
     1
 40
1.0
176
     1
 90
        0
176
     1
 62
   257
176
     1
 40
1.0
176
     1
 90
        1
176
     1
 90
        6
176
     1
 90
        2
176
     1
 62
     7
176
     1
 90
        5
176
     1
 90
        0
176
     1
 90
        0
176
     1
290
     0
176
     1
 90
       13
176
     1
 40
0.0
176
     1
 90
        0
176
     1
290
     0
176
     1
290
     1
176
     1
290
     1
176
     1
290
     0
176
     1
290
     0
176
     1
290
     0
176
     1
290
     0
176
     1
290
     0
176
     1
290
     0
176
     1
 90
       50
176
     1
 40
0.0
176
     1
 40
1.0
176
     1
 90
        0
176
     1
 62
    18
420
        0
176
     1
 90
       50
176
     1
 90
        3
176
     1
 62
     5
420
      255
176
     1
290
     0
176
     1
 90
       50
176
     1
 90
       50
176
     1
 90
       50
176
     1
290
     0
176
     1
 90
       50
176
     1
 62
   256
176
     0
 40
1.0
176
     0
 90
        2
176
     1
  1
strokes_ogs.tif
176
     1
290
     0
176
     1
 40
1.0
176
     1
 40
1.0
176
     1
  0
VISUALSTYLE
  5
2D
102
{ACAD_REACTORS
330
2A
102
}
330
2A
100
AcDbVisualStyle
  2
Gouraud
 70
     2
177
     3
291
     1
 70
    58
 90
        2
176
     1
 90
        2
176
     1
 90
        1
176
     1
 90
        2
176
     1
 40
0.6
176
     1
 40
30.0
176
     1
 62
     7
420
 16777215
176
     1
 90
        0
176
     1
 90
        0
176
     1
 62
     7
176
     1
 62
   257
176
     1
 90
        1
176
     1
 90
        1
176
     1
 40
1.0
176
     1
 90
        0
176
     1
 62
     7
176
     1
 40
1.0
176
     1
 90
        1
176
     1
 90
        6
176
     1
 90
        2
176
     1
 62
     7
176
     1
 90
        5
176
     1
 90
        0
176
     1
 90
        0
176
     1
290
     0
176
     1
 90
       13
176
     1
 40
0.0
176
     1
 90
        0
176
     1
290
     0
176
     1
290
     1
176
     1
290
     1
176
     1
290
     0
176
     1
290
     0
176
     1
290
     0
176
     1
290
     0
176
     1
290
     0
176
     1
290
     0
176
     1
 90
       50
176
     1
 40
0.0
176
     1
 40
1.0
176
     1
 90
        0
176
     1
 62
    18
420
        0
176
     1
 90
       50
176
     1
 90
        3
176
     1
 62
     5
420
      255
176
     1
290
     0
176
     1
 90
       50
176
     1
 90
       50
176
     1
 90
       50
176
     1
290
     0
176
     1
 90
       50
176
     1
 62
   256
176
     0
 40
1.0
176
     0
 90
        2
176
     1
  1
strokes_ogs.tif
176
     1
290
     0
176
     1
 40
1.0
176
     1
 40
1.0
176
     1
  0
VISUALSTYLE
  5
2E
102
{ACAD_REACTORS
330
2A
102
}
330
2A
100
AcDbVisualStyle
  2
GouraudWithEdges
 70
     3
177
     3
291
     1
 70
    58
 90
        2
176
     1
 90
        2
176
     1
 90
        1
176
     1
 90
        2
176
     1
 40
0.6
176
     1
 40
30.0
176
     1
 62
     7
420
 16777215
176
     1
 90
        1
176
     1
 90
        0
176
     1
 62
     7
176
     1
 62
   257
176
     1
 90
        1
176
     1
 90
        1
176
     1
 40
1.0
176
     1
 90
        0
176
     1
 62
   257
176
     1
 40
1.0
176
     1
 90
        1
176
     1
 90
        6
176
     1
 90
        2
176
     1
 62
     7
176
     1
 90
        5
176
     1
 90
        0
176
     1
 90
        0
176
     1
290
     0
176
     1
 90
       13
176
     1
 40
0.0
176
     1
 90
        0
176
     1
290
     0
176
     1
290
     1
176
     1
290
     1
176
     1
290
     0
176
     1
290
     0
176
     1
290
     0
176
     1
290
     0
176
     1
290
     0
176
     1
290
     0
176
     1
 90
       50
176
     1
 40
0.0
176
     1
 40
1.0
176
     1
 90
        0
176
     1
 62
    18
420
        0
176
     1
 90
       50
176
     1
 90
        3
176
     1
 62
     5
420
      255
176
     1
290
     0
176
     1
 90
       50
176
     1
 90
       50
176
     1
 90
       50
176
     1
290
     0
176
     1
 90
       50
176
     1
 62
   256
176
     0
 40
1.0
176
     0
 90
        2
176
     1
  1
strokes_ogs.tif
176
     1
290
     0
176
     1
 40
1.0
176
     1
 40
1.0
176
     1
  0
VISUALSTYLE
  5
31
102
{ACAD_REACTORS
330
2A
102
}
330
2A
100
AcDbVisualStyle
  2
Hidden
 70
     6
177
     3
291
     0
 70
    58
 90
        1
176
     1
 90
        2
176
     1
 90
        2
176
     1
 90
        0
176
     1
 40
0.6
176
     1
 40
30.0
176
     1
 62
     7
420
 16777215
176
     1
 90
        2
176
     1
 90
        2
176
     1
 62
     7
176
     1
 62
   257
176
     1
 90
        2
176
     1
 90
        1
176
     1
 40
40.0
176
     1
 90
        0
176
     1
 62
   257
176
     1
 40
1.0
176
     1
 90
        1
176
     1
 90
        6
176
     1
 90
        2
176
     1
 62
     7
176
     1
 90
        3
176
     1
 90
        0
176
     1
 90
        0
176
     1
290
     0
176
     1
 90
        1
176
     1
 40
0.0
176
     1
 90
        0
176
     1
290
     0
176
     1
290
     1
176
     1
290
     1
176
     1
290
     0
176
     1
290
     0
176
     1
290
     0
176
     1
290
     0
176
     1
290
     0
176
     1
290
     0
176
     1
 90
       50
176
     1
 40
0.0
176
     1
 40
1.0
176
     1
 90
        0
176
     1
 62
    18
420
        0
176
     1
 90
       50
176
     1
 90
        3
176
     1
 62
     5
420
      255
176
     1
290
     0
176
     1
 90
       50
176
     1
 90
       50
176
     1
 90
       50
176
     1
290
     0
176
     1
 90
       50
176
     1
 62
   256
176
     0
 40
1.0
176
     0
 90
        2
176
     1
  1
strokes_ogs.tif
176
     1
290
     0
176
     1
 40
1.0
176
     1
 40
1.0
176
     1
  0
VISUALSTYLE
  5
3B
102
{ACAD_REACTORS
330
2A
102
}
330
2A
100
AcDbVisualStyle
  2
JitterOff
 70
    20
177
     3
291
     1
 70
    58
 90
        2
176
     0
 90
        2
176
     0
 90
        0
176
     0
 90
        0
176
     0
 40
0.6
176
     0
 40
30.0
176
     0
 62
     7
420
 16777215
176
     0
 90
        1
176
     0
 90
        4
176
     0
 62
     7
176
     0
 62
   257
176
     0
 90
        1
176
     0
 90
        1
176
     0
 40
1.0
176
     0
 90
       10
176
     2
 62
     7
176
     0
 40
1.0
176
     0
 90
        1
176
     0
 90
        6
176
     0
 90
        2
176
     0
 62
     7
176
     0
 90
        5
176
     0
 90
        0
176
     0
 90
        0
176
     0
290
     0
176
     0
 90
        1
176
     0
 40
0.0
176
     0
 90
        0
176
     0
290
     0
176
     0
290
     1
176
     0
290
     1
176
     0
290
     0
176
     0
290
     0
176
     0
290
     0
176
     0
290
     0
176
     0
290
     0
176
     0
290
     0
176
     0
 90
       50
176
     0
 40
0.0
176
     0
 40
1.0
176
     0
 90
        0
176
     0
 62
    18
420
        0
176
     0
 90
       50
176
     0
 90
        3
176
     0
 62
     5
420
      255
176
     0
290
     0
176
     0
 90
       50
176
     0
 90
       50
176
     0
 90
       50
176
     0
290
     0
176
     0
 90
       50
176
     0
 62
   256
176
     0
 40
1.0
176
     0
 90
        2
176
     0
  1
strokes_ogs.tif
176
     0
290
     0
176
     0
 40
1.0
176
     0
 40
1.0
176
     0
  0
VISUALSTYLE
  5
38
102
{ACAD_REACTORS
330
2A
102
}
330
2A
100
AcDbVisualStyle
  2
Linepattern
 70
    14
177
     3
291
     1
 70
    58
 90
        2
176
     1
 90
        2
176
     1
 90
        0
176
     1
 90
        0
176
     1
 40
0.6
176
     1
 40
30.0
176
     1
 62
     7
420
 16777215
176
     1
 90
        1
176
     1
 90
        4
176
     1
 62
     7
176
     1
 62
   257
176
     1
 90
        7
176
     1
 90
        7
176
     1
 40
1.0
176
     1
 90
        8
176
     1
 62
     7
176
     1
 40
1.0
176
     1
 90
        1
176
     1
 90
        6
176
     1
 90
        2
176
     1
 62
     7
176
     1
 90
        5
176
     1
 90
        0
176
     1
 90
        0
176
     1
290
     0
176
     1
 90
        1
176
     1
 40
0.0
176
     1
 90
        0
176
     1
290
     0
176
     1
290
     1
176
     1
290
     1
176
     1
290
     0
176
     1
290
     0
176
     1
290
     0
176
     1
290
     0
176
     1
290
     0
176
     1
290
     0
176
     1
 90
       50
176
     1
 40
0.0
176
     1
 40
1.0
176
     1
 90
        0
176
     1
 62
    18
420
        0
176
     1
 90
       50
176
     1
 90
        3
176
     1
 62
     5
420
      255
176
     1
290
     0
176
     1
 90
       50
176
     1
 90
       50
176
     1
 90
       50
176
     1
290
     0
176
     1
 90
       50
176
     1
 62
   256
176
     0
 40
1.0
176
     0
 90
        2
176
     1
  1
strokes_ogs.tif
176
     1
290
     0
176
     1
 40
1.0
176
     1
 40
1.0
176
     1
  0
VISUALSTYLE
  5
3C
102
{ACAD_REACTORS
330
2A
102
}
330
2A
100
AcDbVisualStyle
  2
OverhangOff
 70
    21
177
     3
291
     1
 70
    58
 90
        2
176
     0
 90
        2
176
     0
 90
        0
176
     0
 90
        0
176
     0
 40
0.6
176
     0
 40
30.0
176
     0
 62
     7
420
 16777215
176
     0
 90
        1
176
     0
 90
        4
176
     0
 62
     7
176
     0
 62
   257
176
     0
 90
        1
176
     0
 90
        1
176
     0
 40
1.0
176
     0
 90
        9
176
     2
 62
     7
176
     0
 40
1.0
176
     0
 90
        1
176
     0
 90
        6
176
     0
 90
        2
176
     0
 62
     7
176
     0
 90
        5
176
     0
 90
        0
176
     0
 90
        0
176
     0
290
     0
176
     0
 90
        1
176
     0
 40
0.0
176
     0
 90
        0
176
     0
290
     0
176
     0
290
     1
176
     0
290
     1
176
     0
290
     0
176
     0
290
     0
176
     0
290
     0
176
     0
290
     0
176
     0
290
     0
176
     0
290
     0
176
     0
 90
       50
176
     0
 40
0.0
176
     0
 40
1.0
176
     0
 90
        0
176
     0
 62
    18
420
        0
176
     0
 90
       50
176
     0
 90
        3
176
     0
 62
     5
420
      255
176
     0
290
     0
176
     0
 90
       50
176
     0
 90
       50
176
     0
 90
       50
176
     0
290
     0
176
     0
 90
       50
176
     0
 62
   256
176
     0
 40
1.0
176
     0
 90
        2
176
     0
  1
strokes_ogs.tif
176
     0
290
     0
176
     0
 40
1.0
176
     0
 40
1.0
176
     0
  0
VISUALSTYLE
  5
33
102
{ACAD_REACTORS
330
2A
102
}
330
2A
100
AcDbVisualStyle
  2
Realistic
 70
     8
177
     3
291
     0
 70
    58
 90
        2
176
     1
 90
        3
176
     1
 90
        0
176
     1
 90
        2
176
     1
 40
0.6
176
     1
 40
30.0
176
     1
 62
     7
420
 16777215
176
     1
 90
        0
176
     1
 90
        0
176
     1
 62
     7
176
     1
 62
   257
176
     1
 90
        1
176
     1
 90
        1
176
     1
 40
1.0
176
     1
 90
        8
176
     1
 62
   257
176
     1
 40
1.0
176
     1
 90
        1
176
     1
 90
        6
176
     1
 90
        2
176
     1
 62
     7
176
     1
 90
        3
176
     1
 90
        0
176
     1
 90
        0
176
     1
290
     0
176
     1
 90
       13
176
     1
 40
0.0
176
     1
 90
        0
176
     1
290
     0
176
     1
290
     1
176
     1
290
     1
176
     1
290
     0
176
     1
290
     0
176
     1
290
     0
176
     1
290
     0
176
     1
290
     0
176
     1
290
     0
176
     1
 90
       50
176
     1
 40
0.0
176
     1
 40
1.0
176
     1
 90
        0
176
     1
 62
    18
420
        0
176
     1
 90
       50
176
     1
 90
        3
176
     1
 62
     5
420
      255
176
     1
290
     0
176
     1
 90
       50
176
     1
 90
       50
176
     1
 90
       50
176
     1
290
     0
176
     1
 90
       50
176
     1
 62
   256
176
     0
 40
1.0
176
     0
 90
        2
176
     1
  1
strokes_ogs.tif
176
     1
290
     0
176
     1
 40
1.0
176
     1
 40
1.0
176
     1
  0
VISUALSTYLE
  5
42
102
{ACAD_REACTORS
330
2A
102
}
330
2A
100
AcDbVisualStyle
  2
Shaded
 70
    27
177
     3
291
     0
 70
    58
 90
        2
176
     1
 90
        2
176
     1
 90
        1
176
     1
 90
        2
176
     1
 40
0.6
176
     1
 40
30.0
176
     1
 62
     7
420
 16777215
176
     1
 90
        0
176
     1
 90
        4
176
     1
 62
     7
176
     1
 62
   257
176
     1
 90
        1
176
     1
 90
        1
176
     1
 40
1.0
176
     1
 90
        8
176
     1
 62
   257
176
     1
 40
1.0
176
     1
 90
        1
176
     1
 90
        6
176
     1
 90
        2
176
     1
 62
     8
420
  7895160
176
     1
 90
        3
176
     1
 90
        0
176
     1
 90
        0
176
     1
290
     0
176
     1
 90
        5
176
     1
 40
0.0
176
     1
 90
        0
176
     1
290
     0
176
     1
290
     1
176
     1
290
     1
176
     1
290
     0
176
     1
290
     0
176
     1
290
     0
176
     1
290
     0
176
     1
290
     0
176
     1
290
     0
176
     1
 90
       50
176
     1
 40
0.0
176
     1
 40
1.0
176
     1
 90
        0
176
     1
 62
    18
420
        0
176
     1
 90
       50
176
     1
 90
        3
176
     1
 62
     5
420
      255
176
     1
290
     0
176
     1
 90
       50
176
     1
 90
       50
176
     1
 90
       50
176
     1
290
     0
176
     1
 90
       50
176
     1
 62
   256
176
     0
 40
1.0
176
     0
 90
        2
176
     1
  1
strokes_ogs.tif
176
     1
290
     0
176
     1
 40
1.0
176
     1
 40
1.0
176
     1
  0
VISUALSTYLE
  5
41
102
{ACAD_REACTORS
330
2A
102
}
330
2A
100
AcDbVisualStyle
  2
Shaded with edges
 70
    26
177
     3
291
     0
 70
    58
 90
        2
176
     1
 90
        2
176
     1
 90
        1
176
     1
 90
        2
176
     1
 40
0.6
176
     1
 40
30.0
176
     1
 62
     7
420
 16777215
176
     1
 90
        1
176
     1
 90
       10
176
     1
 62
     7
176
     1
 62
   257
176
     1
 90
        2
176
     1
 90
        1
176
     1
 40
1.0
176
     1
 90
        8
176
     1
 62
   257
176
     1
 40
1.0
176
     1
 90
        1
176
     1
 90
        6
176
     1
 90
        2
176
     1
 62
     7
176
     1
 90
        3
176
     1
 90
        0
176
     1
 90
        0
176
     1
290
     0
176
     1
 90
        5
176
     1
 40
0.0
176
     1
 90
        0
176
     1
290
     0
176
     1
290
     1
176
     1
290
     1
176
     1
290
     0
176
     1
290
     0
176
     1
290
     0
176
     1
290
     0
176
     1
290
     0
176
     1
290
     0
176
     1
 90
       50
176
     1
 40
0.0
176
     1
 40
1.0
176
     1
 90
        0
176
     1
 62
    18
420
        0
176
     1
 90
       50
176
     1
 90
        3
176
     1
 62
     5
420
      255
176
     1
290
     0
176
     1
 90
       50
176
     1
 90
       50
176
     1
 90
       50
176
     1
290
     0
176
     1
 90
       50
176
     1
 62
   256
176
     0
 40
1.0
176
     0
 90
        2
176
     1
  1
strokes_ogs.tif
176
     1
290
     0
176
     1
 40
1.0
176
     1
 40
1.0
176
     1
  0
VISUALSTYLE
  5
3E
102
{ACAD_REACTORS
330
2A
102
}
330
2A
100
AcDbVisualStyle
  2
Shades of Gray
 70
    23
177
     3
291
     0
 70
    58
 90
        2
176
     1
 90
        2
176
     1
 90
        3
176
     1
 90
        0
176
     1
 40
0.6
176
     1
 40
30.0
176
     1
 62
     7
420
 16777215
176
     1
 90
        2
176
     1
 90
        2
176
     1
 62
     7
176
     1
 62
     7
176
     1
 90
        1
176
     1
 90
        1
176
     1
 40
40.0
176
     1
 90
        8
176
     1
 62
     7
176
     1
 40
1.0
176
     1
 90
        1
176
     1
 90
        6
176
     1
 90
        2
176
     1
 62
     7
176
     1
 90
        3
176
     1
 90
        0
176
     1
 90
        0
176
     1
290
     0
176
     1
 90
        1
176
     1
 40
0.0
176
     1
 90
        0
176
     1
290
     0
176
     1
290
     1
176
     1
290
     1
176
     1
290
     0
176
     1
290
     0
176
     1
290
     0
176
     1
290
     0
176
     1
290
     0
176
     1
290
     0
176
     1
 90
       50
176
     1
 40
0.0
176
     1
 40
1.0
176
     1
 90
        0
176
     1
 62
    18
420
        0
176
     1
 90
       50
176
     1
 90
        3
176
     1
 62
     5
420
      255
176
     1
290
     0
176
     1
 90
       50
176
     1
 90
       50
176
     1
 90
       50
176
     1
290
     0
176
     1
 90
       50
176
     1
 62
   256
176
     0
 40
1.0
176
     0
 90
        2
176
     1
  1
strokes_ogs.tif
176
     1
290
     0
176
     1
 40
1.0
176
     1
 40
1.0
176
     1
  0
VISUALSTYLE
  5
3F
102
{ACAD_REACTORS
330
2A
102
}
330
2A
100
AcDbVisualStyle
  2
Sketchy
 70
    24
177
     3
291
     0
 70
    58
 90
        1
176
     1
 90
        2
176
     1
 90
        2
176
     1
 90
        0
176
     1
 40
0.6
176
     1
 40
30.0
176
     1
 62
     7
420
 16777215
176
     1
 90
        2
176
     1
 90
        2
176
     1
 62
     7
176
     1
 62
     7
176
     1
 90
        1
176
     1
 90
        1
176
     1
 40
40.0
176
     1
 90
       11
176
     1
 62
     7
176
     1
 40
1.0
176
     1
 90
        1
176
     1
 90
        6
176
     1
 90
        2
176
     1
 62
     7
176
     1
 90
        6
176
     1
 90
        0
176
     1
 90
        0
176
     1
290
     0
176
     1
 90
        1
176
     1
 40
0.0
176
     1
 90
        0
176
     1
290
     0
176
     1
290
     1
176
     1
290
     1
176
     1
290
     0
176
     1
290
     0
176
     1
290
     0
176
     1
290
     0
176
     1
290
     0
176
     1
290
     0
176
     1
 90
       50
176
     1
 40
0.0
176
     1
 40
1.0
176
     1
 90
        0
176
     1
 62
    18
420
        0
176
     1
 90
       50
176
     1
 90
        3
176
     1
 62
     5
420
      255
176
     1
290
     0
176
     1
 90
       50
176
     1
 90
       50
176
     1
 90
       50
176
     1
290
     0
176
     1
 90
       50
176
     1
 62
   256
176
     0
 40
1.0
176
     0
 90
        2
176
     1
  1
strokes_ogs.tif
176
     1
290
     0
176
     1
 40
1.0
176
     1
 40
1.0
176
     1
  0
VISUALSTYLE
  5
37
102
{ACAD_REACTORS
330
2A
102
}
330
2A
100
AcDbVisualStyle
  2
Thicken
 70
    13
177
     3
291
     1
 70
    58
 90
        2
176
     1
 90
        2
176
     1
 90
        0
176
     1
 90
        0
176
     1
 40
0.6
176
     1
 40
30.0
176
     1
 62
     7
420
 16777215
176
     1
 90
        1
176
     1
 90
        4
176
     1
 62
     7
176
     1
 62
   257
176
     1
 90
        1
176
     1
 90
        1
176
     1
 40
1.0
176
     1
 90
       12
176
     1
 62
     7
176
     1
 40
1.0
176
     1
 90
        1
176
     1
 90
        6
176
     1
 90
        2
176
     1
 62
     7
176
     1
 90
        5
176
     1
 90
        0
176
     1
 90
        0
176
     1
290
     0
176
     1
 90
        1
176
     1
 40
0.0
176
     1
 90
        0
176
     1
290
     0
176
     1
290
     1
176
     1
290
     1
176
     1
290
     0
176
     1
290
     0
176
     1
290
     0
176
     1
290
     0
176
     1
290
     0
176
     1
290
     0
176
     1
 90
       50
176
     1
 40
0.0
176
     1
 40
1.0
176
     1
 90
        0
176
     1
 62
    18
420
        0
176
     1
 90
       50
176
     1
 90
        3
176
     1
 62
     5
420
      255
176
     1
290
     0
176
     1
 90
       50
176
     1
 90
       50
176
     1
 90
       50
176
     1
290
     0
176
     1
 90
       50
176
     1
 62
   256
176
     0
 40
1.0
176
     0
 90
        2
176
     1
  1
strokes_ogs.tif
176
     1
290
     0
176
     1
 40
1.0
176
     1
 40
1.0
176
     1
  0
VISUALSTYLE
  5
30
102
{ACAD_REACTORS
330
2A
102
}
330
2A
100
AcDbVisualStyle
  2
Wireframe
 70
     5
177
     3
291
     0
 70
    58
 90
        0
176
     1
 90
        2
176
     1
 90
        0
176
     1
 90
        0
176
     1
 40
0.6
176
     1
 40
30.0
176
     1
 62
     7
420
 16777215
176
     1
 90
        1
176
     1
 90
        4
176
     1
 62
     7
176
     1
 62
   257
176
     1
 90
        1
176
     1
 90
        1
176
     1
 40
1.0
176
     1
 90
        0
176
     1
 62
   257
176
     1
 40
1.0
176
     1
 90
        1
176
     1
 90
        6
176
     1
 90
        2
176
     1
 62
     7
176
     1
 90
        3
176
     1
 90
        0
176
     1
 90
        0
176
     1
290
     0
176
     1
 90
        1
176
     1
 40
0.0
176
     1
 90
        0
176
     1
290
     0
176
     1
290
     1
176
     1
290
     1
176
     1
290
     0
176
     1
290
     0
176
     1
290
     0
176
     1
290
     0
176
     1
290
     0
176
     1
290
     0
176
     1
 90
       50
176
     1
 40
0.0
176
     1
 40
1.0
176
     1
 90
        0
176
     1
 62
    18
420
        0
176
     1
 90
       50
176
     1
 90
        3
176
     1
 62
     5
420
      255
176
     1
290
     0
176
     1
 90
       50
176
     1
 90
       50
176
     1
 90
       50
176
     1
290
     0
176
     1
 90
       50
176
     1
 62
   256
176
     0
 40
1.0
176
     0
 90
        2
176
     1
  1
strokes_ogs.tif
176
     1
290
     0
176
     1
 40
1.0
176
     1
 40
1.0
176
     1
  0
VISUALSTYLE
  5
40
102
{ACAD_REACTORS
330
2A
102
}
330
2A
100
AcDbVisualStyle
  2
X-Ray
 70
    25
177
     3
291
     0
 70
    58
 90
        2
176
     1
 90
        2
176
     1
 90
        1
176
     1
 90
        1
176
     1
 40
0.5
176
     1
 40
30.0
176
     1
 62
     7
420
 16777215
176
     1
 90
        1
176
     1
 90
        0
176
     1
 62
     7
176
     1
 62
   257
176
     1
 90
        1
176
     1
 90
        1
176
     1
 40
1.0
176
     1
 90
        8
176
     1
 62
     7
176
     1
 40
1.0
176
     1
 90
        1
176
     1
 90
        6
176
     1
 90
        2
176
     1
 62
     7
176
     1
 90
        3
176
     1
 90
        0
176
     1
 90
        0
176
     1
290
     0
176
     1
 90
       13
176
     1
 40
0.0
176
     1
 90
        0
176
     1
290
     0
176
     1
290
     1
176
     1
290
     1
176
     1
290
     0
176
     1
290
     0
176
     1
290
     0
176
     1
290
     0
176
     1
290
     0
176
     1
290
     0
176
     1
 90
       50
176
     1
 40
0.0
176
     1
 40
1.0
176
     1
 90
        0
176
     1
 62
    18
420
        0
176
     1
 90
       50
176
     1
 90
        3
176
     1
 62
     5
420
      255
176
     1
290
     0
176
     1
 90
       50
176
     1
 90
       50
176
     1
 90
       50
176
     1
290
     0
176
     1
 90
       50
176
     1
 62
   256
176
     0
 40
1.0
176
     0
 90
        2
176
     1
  1
strokes_ogs.tif
176
     1
290
     0
176
     1
 40
1.0
176
     1
 40
1.0
176
     1
  0
DICTIONARYVAR
  5
15B
102
{ACAD_REACTORS
330
15A
102
}
330
15A
100
DictionaryVariables
280
     0
  1
1:1
  0
DICTIONARYVAR
  5
160
102
{ACAD_REACTORS
330
15A
102
}
330
15A
100
DictionaryVariables
280
     0
  1
Standard
  0
DICTIONARYVAR
  5
15F
102
{ACAD_REACTORS
330
15A
102
}
330
15A
100
DictionaryVariables
280
     0
  1
Standard
  0
DICTIONARY
  5
15C
330
6A
100
AcDbDictionary
280
     1
281
     1
  3
ACAD_ROUNDTRIP_2008_TABLESTYLE_CELLSTYLEMAP
360
15D
  0
CELLSTYLEMAP
  5
15D
102
{ACAD_REACTORS
330
15C
102
}
330
15C
100
AcDbCellStyleMap
 90
        3
300
CELLSTYLE
  1
TABLEFORMAT_BEGIN
 90
        5
170
     1
 91
        0
 92
    32768
 62
   257
 93
        1
300
CONTENTFORMAT
  1
CONTENTFORMAT_BEGIN
 90
        0
 91
        0
 92
        4
 93
        0
300

 40
0.0
140
1.0
 94
        5
 62
     0
340
11
144
0.25
309
CONTENTFORMAT_END
171
     1
301
MARGIN
  1
CELLMARGIN_BEGIN
 40
0.06
 40
0.06
 40
0.06
 40
0.06
 40
0.06
 40
0.06
309
CELLMARGIN_END
 94
        6
 95
        1
302
GRIDFORMAT
  1
GRIDFORMAT_BEGIN
 90
        0
 91
        1
 62
     0
 92
       -2
340
14
 93
        0
 40
0.045
309
GRIDFORMAT_END
 95
        2
302
GRIDFORMAT
  1
GRIDFORMAT_BEGIN
 90
        0
 91
        1
 62
     0
 92
       -2
340
14
 93
        0
 40
0.045
309
GRIDFORMAT_END
 95
        4
302
GRIDFORMAT
  1
GRIDFORMAT_BEGIN
 90
        0
 91
        1
 62
     0
 92
       -2
340
14
 93
        0
 40
0.045
309
GRIDFORMAT_END
 95
        8
302
GRIDFORMAT
  1
GRIDFORMAT_BEGIN
 90
        0
 91
        1
 62
     0
 92
       -2
340
14
 93
        0
 40
0.045
309
GRIDFORMAT_END
 95
       16
302
GRIDFORMAT
  1
GRIDFORMAT_BEGIN
 90
        0
 91
        1
 62
     0
 92
       -2
340
14
 93
        0
 40
0.045
309
GRIDFORMAT_END
 95
       32
302
GRIDFORMAT
  1
GRIDFORMAT_BEGIN
 90
        0
 91
        1
 62
     0
 92
       -2
340
14
 93
        0
 40
0.045
309
GRIDFORMAT_END
309
TABLEFORMAT_END
  1
CELLSTYLE_BEGIN
 90
        1
 91
        1
300
_TITLE
309
CELLSTYLE_END
300
CELLSTYLE
  1
TABLEFORMAT_BEGIN
 90
        5
170
     1
 91
        0
 92
        0
 62
   257
 93
        1
300
CONTENTFORMAT
  1
CONTENTFORMAT_BEGIN
 90
        0
 91
        0
 92
        4
 93
        0
300

 40
0.0
140
1.0
 94
        5
 62
     0
340
11
144
0.18
309
CONTENTFORMAT_END
171
     1
301
MARGIN
  1
CELLMARGIN_BEGIN
 40
0.06
 40
0.06
 40
0.06
 40
0.06
 40
0.06
 40
0.06
309
CELLMARGIN_END
 94
        6
 95
        1
302
GRIDFORMAT
  1
GRIDFORMAT_BEGIN
 90
        0
 91
        1
 62
     0
 92
       -2
340
14
 93
        0
 40
0.045
309
GRIDFORMAT_END
 95
        2
302
GRIDFORMAT
  1
GRIDFORMAT_BEGIN
 90
        0
 91
        1
 62
     0
 92
       -2
340
14
 93
        0
 40
0.045
309
GRIDFORMAT_END
 95
        4
302
GRIDFORMAT
  1
GRIDFORMAT_BEGIN
 90
        0
 91
        1
 62
     0
 92
       -2
340
14
 93
        0
 40
0.045
309
GRIDFORMAT_END
 95
        8
302
GRIDFORMAT
  1
GRIDFORMAT_BEGIN
 90
        0
 91
        1
 62
     0
 92
       -2
340
14
 93
        0
 40
0.045
309
GRIDFORMAT_END
 95
       16
302
GRIDFORMAT
  1
GRIDFORMAT_BEGIN
 90
        0
 91
        1
 62
     0
 92
       -2
340
14
 93
        0
 40
0.045
309
GRIDFORMAT_END
 95
       32
302
GRIDFORMAT
  1
GRIDFORMAT_BEGIN
 90
        0
 91
        1
 62
     0
 92
       -2
340
14
 93
        0
 40
0.045
309
GRIDFORMAT_END
309
TABLEFORMAT_END
  1
CELLSTYLE_BEGIN
 90
        2
 91
        1
300
_HEADER
309
CELLSTYLE_END
300
CELLSTYLE
  1
TABLEFORMAT_BEGIN
 90
        5
170
     1
 91
        0
 92
        0
 62
   257
 93
        1
300
CONTENTFORMAT
  1
CONTENTFORMAT_BEGIN
 90
        0
 91
        0
 92
        4
 93
        0
300

 40
0.0
140
1.0
 94
        2
 62
     0
340
11
144
0.18
309
CONTENTFORMAT_END
171
     1
301
MARGIN
  1
CELLMARGIN_BEGIN
 40
0.06
 40
0.06
 40
0.06
 40
0.06
 40
0.06
 40
0.06
309
CELLMARGIN_END
 94
        6
 95
        1
302
GRIDFORMAT
  1
GRIDFORMAT_BEGIN
 90
        0
 91
        1
 62
     0
 92
       -2
340
14
 93
        0
 40
0.045
309
GRIDFORMAT_END
 95
        2
302
GRIDFORMAT
  1
GRIDFORMAT_BEGIN
 90
        0
 91
        1
 62
     0
 92
       -2
340
14
 93
        0
 40
0.045
309
GRIDFORMAT_END
 95
        4
302
GRIDFORMAT
  1
GRIDFORMAT_BEGIN
 90
        0
 91
        1
 62
     0
 92
       -2
340
14
 93
        0
 40
0.045
309
GRIDFORMAT_END
 95
        8
302
GRIDFORMAT
  1
GRIDFORMAT_BEGIN
 90
        0
 91
        1
 62
     0
 92
       -2
340
14
 93
        0
 40
0.045
309
GRIDFORMAT_END
 95
       16
302
GRIDFORMAT
  1
GRIDFORMAT_BEGIN
 90
        0
 91
        1
 62
     0
 92
       -2
340
14
 93
        0
 40
0.045
309
GRIDFORMAT_END
 95
       32
302
GRIDFORMAT
  1
GRIDFORMAT_BEGIN
 90
        0
 91
        1
 62
     0
 92
       -2
340
14
 93
        0
 40
0.045
309
GRIDFORMAT_END
309
TABLEFORMAT_END
  1
CELLSTYLE_BEGIN
 90
        3
 91
        2
300
_DATA
309
CELLSTYLE_END
  0
ENDSEC
  0
EOF