0
SECTION
  2
HEADER
  9
$ACADVER
  1
AC1027
  9
$ACADMAINTVER
 70
   105
  9
$DWGCODEPAGE
  3
ANSI_1252
  9
$REQUIREDVERSIONS
160
                 0
  9
$COMMENTS
  1
File was created by Cadenas
  9
$CUSTOMPROPERTYTAG
  1
NN
  9
$CUSTOMPROPERTY
  1
Wide Slot Take Up Ball Bearing Inch Bore
  9
$CUSTOMPROPERTYTAG
  1
NT
  9
$CUSTOMPROPERTY
  1
Type K
  9
$CUSTOMPROPERTYTAG
  1
NB
  9
$CUSTOMPROPERTY
  1
023255
  9
$CUSTOMPROPERTYTAG
  1
NBSYN
  9
$CUSTOMPROPERTY
  1
$PN.
  9
$CUSTOMPROPERTYTAG
  1
LINA
  9
$CUSTOMPROPERTY
  1
023255
  9
$CUSTOMPROPERTYTAG
  1
SS
  9
$CUSTOMPROPERTY
  1
1-3/8
  9
$CUSTOMPROPERTYTAG
  1
PN
  9
$CUSTOMPROPERTY
  1
023255
  9
$CUSTOMPROPERTYTAG
  1
PNA
  9
$CUSTOMPROPERTY
  1
WSTU-K-106R
  9
$CUSTOMPROPERTYTAG
  1
WEIGHT
  9
$CUSTOMPROPERTY
  1
8
  9
$CUSTOMPROPERTYTAG
  1
A
  9
$CUSTOMPROPERTY
  1
2-17/32
  9
$CUSTOMPROPERTYTAG
  1
B
  9
$CUSTOMPROPERTY
  1
5-3/32
  9
$CUSTOMPROPERTYTAG
  1
C
  9
$CUSTOMPROPERTY
  1
17/32
  9
$CUSTOMPROPERTYTAG
  1
D
  9
$CUSTOMPROPERTY
  1
2-3/4
  9
$CUSTOMPROPERTYTAG
  1
E
  9
$CUSTOMPROPERTY
  1
3-7/32
  9
$CUSTOMPROPERTYTAG
  1
F
  9
$CUSTOMPROPERTY
  1
3/4
  9
$CUSTOMPROPERTYTAG
  1
G
  9
$CUSTOMPROPERTY
  1
11/16
  9
$CUSTOMPROPERTYTAG
  1
H
  9
$CUSTOMPROPERTY
  1
5/8
  9
$CUSTOMPROPERTYTAG
  1
J
  9
$CUSTOMPROPERTY
  1
2-7/16
  9
$CUSTOMPROPERTYTAG
  1
K
  9
$CUSTOMPROPERTY
  1
1-7/16
  9
$CUSTOMPROPERTYTAG
  1
L
  9
$CUSTOMPROPERTY
  1
2-3/4
  9
$CUSTOMPROPERTYTAG
  1
M
  9
$CUSTOMPROPERTY
  1
3-1/2
  9
$CUSTOMPROPERTYTAG
  1
N
  9
$CUSTOMPROPERTY
  1
4-1/8
  9
$CUSTOMPROPERTYTAG
  1
R
  9
$CUSTOMPROPERTY
  1
1-1/32
  9
$CUSTOMPROPERTYTAG
  1
S
  9
$CUSTOMPROPERTY
  1
1-1/2
  9
$CUSTOMPROPERTYTAG
  1
T
  9
$CUSTOMPROPERTY
  1
2-1/16
  9
$CUSTOMPROPERTYTAG
  1
CS
  9
$CUSTOMPROPERTY
  1
26000
  9
$CUSTOMPROPERTYTAG
  1
CD
  9
$CUSTOMPROPERTY
  1
4760
  9
$CUSTOMPROPERTYTAG
  1
RN
  9
$CUSTOMPROPERTY
  1
20
  9
$CUSTOMPROPERTYTAG
  1
RM
  9
$CUSTOMPROPERTY
  1
.29
  9
$CUSTOMPROPERTYTAG
  1
PDI
  9
$CUSTOMPROPERTY
  1
2.084
  9
$CUSTOMPROPERTYTAG
  1
EP
  9
$CUSTOMPROPERTY
  1
.004-.012
  9
$CUSTOMPROPERTYTAG
  1
SC
  9
$CUSTOMPROPERTY
  1
5/16-18*5/8
  9
$CUSTOMPROPERTYTAG
  1
TC
  9
$CUSTOMPROPERTY
  1
165
  9
$CUSTOMPROPERTYTAG
  1
MH
  9
$CUSTOMPROPERTY
  1
C.I. ASTM A48 CLASS 30
  9
$CUSTOMPROPERTYTAG
  1
MC
  9
$CUSTOMPROPERTY
  1
4118 CASE CARB.
  9
$CUSTOMPROPERTYTAG
  1
MCU
  9
$CUSTOMPROPERTY
  1
4118 CASE CARB.
  9
$CUSTOMPROPERTYTAG
  1
MR
  9
$CUSTOMPROPERTY
  1
STEEL
  9
$CUSTOMPROPERTYTAG
  1
MRO
  9
$CUSTOMPROPERTY
  1
4118 CASE CARB.
  9
$CUSTOMPROPERTYTAG
  1
SM
  9
$CUSTOMPROPERTY
  1
±.001" PER INCH
  9
$CUSTOMPROPERTYTAG
  1
COMPANY
  9
$CUSTOMPROPERTY
  1
baldor
  9
$INSBASE
 10
0.0
 20
0.0
 30
0.0
  9
$EXTMIN
 10
1.000000000000000E+20
 20
1.000000000000000E+20
 30
1.000000000000000E+20
  9
$EXTMAX
 10
-1.000000000000000E+20
 20
-1.000000000000000E+20
 30
-1.000000000000000E+20
  9
$LIMMIN
 10
0.0
 20
0.0
  9
$LIMMAX
 10
12.0
 20
9.0
  9
$ORTHOMODE
 70
     0
  9
$REGENMODE
 70
     1
  9
$FILLMODE
 70
     1
  9
$QTEXTMODE
 70
     0
  9
$MIRRTEXT
 70
     1
  9
$LTSCALE
 40
1.0
  9
$ATTMODE
 70
     1
  9
$TEXTSIZE
 40
0.2
  9
$TRACEWID
 40
0.05
  9
$TEXTSTYLE
  7
Standard
  9
$CLAYER
  8
0
  9
$CELTYPE
  6
ByLayer
  9
$CECOLOR
 62
   256
  9
$CELTSCALE
 40
1.0
  9
$DISPSILH
 70
     0
  9
$DIMSCALE
 40
1.0
  9
$DIMASZ
 40
0.18
  9
$DIMEXO
 40
0.0625
  9
$DIMDLI
 40
0.38
  9
$DIMRND
 40
0.0
  9
$DIMDLE
 40
0.0
  9
$DIMEXE
 40
0.18
  9
$DIMTP
 40
0.0
  9
$DIMTM
 40
0.0
  9
$DIMTXT
 40
0.18
  9
$DIMCEN
 40
0.09
  9
$DIMTSZ
 40
0.0
  9
$DIMTOL
 70
     0
  9
$DIMLIM
 70
     0
  9
$DIMTIH
 70
     1
  9
$DIMTOH
 70
     1
  9
$DIMSE1
 70
     0
  9
$DIMSE2
 70
     0
  9
$DIMTAD
 70
     0
  9
$DIMZIN
 70
     0
  9
$DIMBLK
  1

  9
$DIMASO
 70
     1
  9
$DIMSHO
 70
     1
  9
$DIMPOST
  1

  9
$DIMAPOST
  1

  9
$DIMALT
 70
     0
  9
$DIMALTD
 70
     2
  9
$DIMALTF
 40
25.4
  9
$DIMLFAC
 40
1.0
  9
$DIMTOFL
 70
     0
  9
$DIMTVP
 40
0.0
  9
$DIMTIX
 70
     0
  9
$DIMSOXD
 70
     0
  9
$DIMSAH
 70
     0
  9
$DIMBLK1
  1

  9
$DIMBLK2
  1

  9
$DIMSTYLE
  2
Standard
  9
$DIMCLRD
 70
     0
  9
$DIMCLRE
 70
     0
  9
$DIMCLRT
 70
     0
  9
$DIMTFAC
 40
1.0
  9
$DIMGAP
 40
0.09
  9
$DIMJUST
 70
     0
  9
$DIMSD1
 70
     0
  9
$DIMSD2
 70
     0
  9
$DIMTOLJ
 70
     1
  9
$DIMTZIN
 70
     0
  9
$DIMALTZ
 70
     0
  9
$DIMALTTZ
 70
     0
  9
$DIMUPT
 70
     0
  9
$DIMDEC
 70
     4
  9
$DIMTDEC
 70
     4
  9
$DIMALTU
 70
     2
  9
$DIMALTTD
 70
     2
  9
$DIMTXSTY
  7
Standard
  9
$DIMAUNIT
 70
     0
  9
$DIMADEC
 70
     0
  9
$DIMALTRND
 40
0.0
  9
$DIMAZIN
 70
     0
  9
$DIMDSEP
 70
    46
  9
$DIMATFIT
 70
     3
  9
$DIMFRAC
 70
     0
  9
$DIMLDRBLK
  1

  9
$DIMLUNIT
 70
     2
  9
$DIMLWD
 70
    -2
  9
$DIMLWE
 70
    -2
  9
$DIMTMOVE
 70
     0
  9
$DIMFXL
 40
1.0
  9
$DIMFXLON
 70
     0
  9
$DIMJOGANG
 40
0.7853981633974483
  9
$DIMTFILL
 70
     0
  9
$DIMTFILLCLR
 70
     0
  9
$DIMARCSYM
 70
     0
  9
$DIMLTYPE
  6

  9
$DIMLTEX1
  6

  9
$DIMLTEX2
  6

  9
$DIMTXTDIRECTION
 70
     0
  9
$LUNITS
 70
     2
  9
$LUPREC
 70
     4
  9
$SKETCHINC
 40
0.1
  9
$FILLETRAD
 40
0.5
  9
$AUNITS
 70
     0
  9
$AUPREC
 70
     0
  9
$MENU
  1
.
  9
$ELEVATION
 40
0.0
  9
$PELEVATION
 40
0.0
  9
$THICKNESS
 40
0.0
  9
$LIMCHECK
 70
     0
  9
$CHAMFERA
 40
0.0
  9
$CHAMFERB
 40
0.0
  9
$CHAMFERC
 40
0.0
  9
$CHAMFERD
 40
0.0
  9
$SKPOLY
 70
     0
  9
$TDCREATE
 40
2458169.004890915
  9
$TDUCREATE
 40
2458168.963224248
  9
$TDUPDATE
 40
2458169.004891088
  9
$TDUUPDATE
 40
2458168.963224421
  9
$TDINDWG
 40
0.0000000116
  9
$TDUSRTIMER
 40
0.0000000116
  9
$USRTIMER
 70
     1
  9
$ANGBASE
 50
0.0
  9
$ANGDIR
 70
     0
  9
$PDMODE
 70
     0
  9
$PDSIZE
 40
0.0
  9
$PLINEWID
 40
0.0
  9
$SPLFRAME
 70
     0
  9
$SPLINETYPE
 70
     6
  9
$SPLINESEGS
 70
     8
  9
$HANDSEED
  5
210
  9
$SURFTAB1
 70
     6
  9
$SURFTAB2
 70
     6
  9
$SURFTYPE
 70
     6
  9
$SURFU
 70
     6
  9
$SURFV
 70
     6
  9
$UCSBASE
  2

  9
$UCSNAME
  2

  9
$UCSORG
 10
0.0
 20
0.0
 30
0.0
  9
$UCSXDIR
 10
1.0
 20
0.0
 30
0.0
  9
$UCSYDIR
 10
0.0
 20
1.0
 30
0.0
  9
$UCSORTHOREF
  2

  9
$UCSORTHOVIEW
 70
     0
  9
$UCSORGTOP
 10
0.0
 20
0.0
 30
0.0
  9
$UCSORGBOTTOM
 10
0.0
 20
0.0
 30
0.0
  9
$UCSORGLEFT
 10
0.0
 20
0.0
 30
0.0
  9
$UCSORGRIGHT
 10
0.0
 20
0.0
 30
0.0
  9
$UCSORGFRONT
 10
0.0
 20
0.0
 30
0.0
  9
$UCSORGBACK
 10
0.0
 20
0.0
 30
0.0
  9
$PUCSBASE
  2

  9
$PUCSNAME
  2

  9
$PUCSORG
 10
0.0
 20
0.0
 30
0.0
  9
$PUCSXDIR
 10
1.0
 20
0.0
 30
0.0
  9
$PUCSYDIR
 10
0.0
 20
1.0
 30
0.0
  9
$PUCSORTHOREF
  2

  9
$PUCSORTHOVIEW
 70
     0
  9
$PUCSORGTOP
 10
0.0
 20
0.0
 30
0.0
  9
$PUCSORGBOTTOM
 10
0.0
 20
0.0
 30
0.0
  9
$PUCSORGLEFT
 10
0.0
 20
0.0
 30
0.0
  9
$PUCSORGRIGHT
 10
0.0
 20
0.0
 30
0.0
  9
$PUCSORGFRONT
 10
0.0
 20
0.0
 30
0.0
  9
$PUCSORGBACK
 10
0.0
 20
0.0
 30
0.0
  9
$USERI1
 70
     0
  9
$USERI2
 70
     0
  9
$USERI3
 70
     0
  9
$USERI4
 70
     0
  9
$USERI5
 70
     0
  9
$USERR1
 40
0.0
  9
$USERR2
 40
0.0
  9
$USERR3
 40
0.0
  9
$USERR4
 40
0.0
  9
$USERR5
 40
0.0
  9
$WORLDVIEW
 70
     1
  9
$SHADEDGE
 70
     3
  9
$SHADEDIF
 70
    70
  9
$TILEMODE
 70
     1
  9
$MAXACTVP
 70
    64
  9
$PINSBASE
 10
0.0
 20
0.0
 30
0.0
  9
$PLIMCHECK
 70
     0
  9
$PEXTMIN
 10
1.000000000000000E+20
 20
1.000000000000000E+20
 30
1.000000000000000E+20
  9
$PEXTMAX
 10
-1.000000000000000E+20
 20
-1.000000000000000E+20
 30
-1.000000000000000E+20
  9
$PLIMMIN
 10
0.0
 20
0.0
  9
$PLIMMAX
 10
12.0
 20
9.0
  9
$UNITMODE
 70
     0
  9
$VISRETAIN
 70
     1
  9
$PLINEGEN
 70
     0
  9
$PSLTSCALE
 70
     1
  9
$TREEDEPTH
 70
  3020
  9
$CMLSTYLE
  2
Standard
  9
$CMLJUST
 70
     0
  9
$CMLSCALE
 40
1.0
  9
$PROXYGRAPHICS
 70
     1
  9
$MEASUREMENT
 70
     0
  9
$CELWEIGHT
370
    -1
  9
$ENDCAPS
280
     0
  9
$JOINSTYLE
280
     0
  9
$LWDISPLAY
290
     0
  9
$INSUNITS
 70
     1
  9
$HYPERLINKBASE
  1

  9
$STYLESHEET
  1

  9
$XEDIT
290
     1
  9
$CEPSNTYPE
380
     0
  9
$PSTYLEMODE
290
     1
  9
$FINGERPRINTGUID
  2
{C39743E3-744F-4B41-9F22-59C407A7BEA8}
  9
$VERSIONGUID
  2
{FAEB1C32-E019-11D5-929B-00C0DF256EC4}
  9
$EXTNAMES
290
     1
  9
$PSVPSCALE
 40
0.0
  9
$OLESTARTUP
290
     0
  9
$SORTENTS
280
   127
  9
$INDEXCTL
280
     0
  9
$HIDETEXT
280
     1
  9
$XCLIPFRAME
280
     2
  9
$HALOGAP
280
     0
  9
$OBSCOLOR
 70
   257
  9
$OBSLTYPE
280
     0
  9
$INTERSECTIONDISPLAY
280
     0
  9
$INTERSECTIONCOLOR
 70
   257
  9
$DIMASSOC
280
     2
  9
$PROJECTNAME
  1

  9
$CAMERADISPLAY
290
     0
  9
$LENSLENGTH
 40
50.0
  9
$CAMERAHEIGHT
 40
0.0
  9
$STEPSPERSEC
 40
2.0
  9
$STEPSIZE
 40
6.0
  9
$3DDWFPREC
 40
2.0
  9
$PSOLWIDTH
 40
0.25
  9
$PSOLHEIGHT
 40
4.0
  9
$LOFTANG1
 40
1.570796326794897
  9
$LOFTANG2
 40
1.570796326794897
  9
$LOFTMAG1
 40
0.0
  9
$LOFTMAG2
 40
0.0
  9
$LOFTPARAM
 70
     7
  9
$LOFTNORMALS
280
     1
  9
$LATITUDE
 40
37.795
  9
$LONGITUDE
 40
-122.394
  9
$NORTHDIRECTION
 40
0.0
  9
$TIMEZONE
 70
 -8000
  9
$LIGHTGLYPHDISPLAY
280
     1
  9
$TILEMODELIGHTSYNCH
280
     1
  9
$CMATERIAL
347
44
  9
$SOLIDHIST
280
     0
  9
$SHOWHIST
280
     1
  9
$DWFFRAME
280
     2
  9
$DGNFRAME
280
     2
  9
$REALWORLDSCALE
290
     1
  9
$INTERFERECOLOR
 62
   256
  9
$CSHADOW
280
     0
  9
$SHADOWPLANELOCATION
 40
0.0
  0
ENDSEC
  0
SECTION
  2
CLASSES
  0
CLASS
  1
ACDBDICTIONARYWDFLT
  2
AcDbDictionaryWithDefault
  3
ObjectDBX Classes
 90
        0
 91
        4
280
     0
281
     0
  0
CLASS
  1
VISUALSTYLE
  2
AcDbVisualStyle
  3
ObjectDBX Classes
 90
     4095
 91
        4
280
     0
281
     0
  0
CLASS
  1
MATERIAL
  2
AcDbMaterial
  3
ObjectDBX Classes
 90
     1153
 91
        4
280
     0
281
     0
  0
CLASS
  1
SCALE
  2
AcDbScale
  3
ObjectDBX Classes
 90
     1153
 91
        4
280
     0
281
     0
  0
CLASS
  1
TABLESTYLE
  2
AcDbTableStyle
  3
ObjectDBX Classes
 90
     4095
 91
        4
280
     0
281
     0
  0
CLASS
  1
MLEADERSTYLE
  2
AcDbMLeaderStyle
  3
ACDB_MLEADERSTYLE_CLASS
 90
     4095
 91
        4
280
     0
281
     0
  0
CLASS
  1
SUN
  2
AcDbSun
  3
SCENEOE
 90
     1153
 91
        4
280
     0
281
     0
  0
CLASS
  1
DICTIONARYVAR
  2
AcDbDictionaryVar
  3
ObjectDBX Classes
 90
        0
 91
        4
280
     0
281
     0
  0
CLASS
  1
CELLSTYLEMAP
  2
AcDbCellStyleMap
  3
ObjectDBX Classes
 90
     1152
 91
        4
280
     0
281
     0
  0
ENDSEC
  0
SECTION
  2
TABLES
  0
TABLE
  2
VPORT
  5
8
330
0
100
AcDbSymbolTable
 70
     1
  0
VPORT
  5
29
330
8
100
AcDbSymbolTableRecord
100
AcDbViewportTableRecord
  2
*Active
 70
     0
 10
0.0
 20
0.0
 11
1.0
 21
1.0
 12
4.175068601190479
 22
-7.4375
 13
0.0
 23
0.0
 14
0.5
 24
0.5
 15
0.5
 25
0.5
 16
0.0
 26
0.0
 36
1.0
 17
0.0
 27
0.0
 37
0.0
 40
20.4
 41
0.5789812351190473
 42
50.0
 43
0.0
 44
0.0
 50
0.0
 51
0.0
 71
     0
 72
   100
 73
     1
 74
     3
 75
     0
 76
     0
 77
     0
 78
     0
281
     0
 65
     1
110
0.0
120
0.0
130
0.0
111
1.0
121
0.0
131
0.0
112
0.0
122
1.0
132
0.0
 79
     0
146
0.0
348
2F
 60
     3
 61
     5
292
     1
282
     1
141
0.0
142
0.0
 63
   250
361
6D
  0
ENDTAB
  0
TABLE
  2
LTYPE
  5
5
330
0
100
AcDbSymbolTable
 70
     3
  0
LTYPE
  5
14
330
5
100
AcDbSymbolTableRecord
100
AcDbLinetypeTableRecord
  2
ByBlock
 70
     0
  3

 72
    65
 73
     0
 40
0.0
  0
LTYPE
  5
15
330
5
100
AcDbSymbolTableRecord
100
AcDbLinetypeTableRecord
  2
ByLayer
 70
     0
  3

 72
    65
 73
     0
 40
0.0
  0
LTYPE
  5
16
330
5
100
AcDbSymbolTableRecord
100
AcDbLinetypeTableRecord
  2
Continuous
 70
     0
  3
Solid line
 72
    65
 73
     0
 40
0.0
  0
LTYPE
  5
A9
330
5
100
AcDbSymbolTableRecord
100
AcDbLinetypeTableRecord
  2
Dashed
 70
     0
  3

 72
    65
 73
     2
 40
2.0
 49
1.0
 74
     0
 49
-1.0
 74
     0
  0
LTYPE
  5
120
330
5
100
AcDbSymbolTableRecord
100
AcDbLinetypeTableRecord
  2
Center
 70
     0
  3

 72
    65
 73
     4
 40
1.5
 49
0.45
 74
     0
 49
-0.5
 74
     0
 49
0.05
 74
     0
 49
-0.5
 74
     0
  0
ENDTAB
  0
TABLE
  2
LAYER
  5
2
330
0
100
AcDbSymbolTable
 70
     8
  0
LAYER
  5
10
330
2
100
AcDbSymbolTableRecord
100
AcDbLayerTableRecord
  2
0
 70
     0
 62
     7
  6
Continuous
370
    -3
390
F
347
46
348
0
  0
LAYER
  5
6E
330
2
100
AcDbSymbolTableRecord
100
AcDbLayerTableRecord
  2
AM_6
 70
     0
 62
    -2
  6
Continuous
370
    35
390
F
347
46
348
0
  0
LAYER
  5
AA
330
2
100
AcDbSymbolTableRecord
100
AcDbLayerTableRecord
  2
AM_9
 70
     0
 62
     6
  6
Dashed
370
    25
390
F
347
46
348
0
  0
LAYER
  5
11D
330
2
100
AcDbSymbolTableRecord
100
AcDbLayerTableRecord
  2
AM_5
 70
     0
 62
     3
  6
Continuous
370
    25
390
F
347
46
348
0
  0
LAYER
  5
121
330
2
100
AcDbSymbolTableRecord
100
AcDbLayerTableRecord
  2
AM_7
 70
     0
 62
     7
  6
Center
370
    25
390
F
347
46
348
0
  0
LAYER
  5
123
330
2
100
AcDbSymbolTableRecord
100
AcDbLayerTableRecord
  2
AM_0
 70
     0
 62
     7
  6
Continuous
370
    50
390
F
347
46
348
0
  0
LAYER
  5
12D
330
2
100
AcDbSymbolTableRecord
100
AcDbLayerTableRecord
  2
AM_4
 70
     0
 62
     3
  6
Continuous
370
    25
390
F
347
46
348
0
  0
LAYER
  5
200
330
2
100
AcDbSymbolTableRecord
100
AcDbLayerTableRecord
  2
ConnectionPoints
 70
     0
 62
     7
  6
Continuous
370
    50
390
F
347
46
348
0
  0
ENDTAB
  0
TABLE
  2
STYLE
  5
3
330
0
100
AcDbSymbolTable
 70
     1
  0
STYLE
  5
11
330
3
100
AcDbSymbolTableRecord
100
AcDbTextStyleTableRecord
  2
Standard
 70
     0
 40
0.0
 41
1.0
 50
0.0
 71
     0
 42
0.2
  3
txt
  4

  0
ENDTAB
  0
TABLE
  2
VIEW
  5
6
330
0
100
AcDbSymbolTable
 70
     0
  0
ENDTAB
  0
TABLE
  2
UCS
  5
7
330
0
100
AcDbSymbolTable
 70
     0
  0
ENDTAB
  0
TABLE
  2
APPID
  5
9
330
0
100
AcDbSymbolTable
 70
     1
  0
APPID
  5
12
330
9
100
AcDbSymbolTableRecord
100
AcDbRegAppTableRecord
  2
ACAD
 70
     0
  0
ENDTAB
  0
TABLE
  2
DIMSTYLE
  5
A
330
0
100
AcDbSymbolTable
 70
     1
100
AcDbDimStyleTable
  0
DIMSTYLE
105
27
330
A
100
AcDbSymbolTableRecord
100
AcDbDimStyleTableRecord
  2
Standard
 70
     0
178
     0
340
11
  0
ENDTAB
  0
TABLE
  2
BLOCK_RECORD
  5
1
330
0
100
AcDbSymbolTable
 70
     5
  0
BLOCK_RECORD
  5
1F
330
1
100
AcDbSymbolTableRecord
100
AcDbBlockTableRecord
  2
*Model_Space
340
22
 70
     0
280
     1
281
     0
  0
BLOCK_RECORD
  5
1B
330
1
100
AcDbSymbolTableRecord
100
AcDbBlockTableRecord
  2
*Paper_Space
340
1E
 70
     0
280
     1
281
     0
  0
BLOCK_RECORD
  5
23
330
1
100
AcDbSymbolTableRecord
100
AcDbBlockTableRecord
  2
*Paper_Space0
340
26
 70
     0
280
     1
281
     0
  0
BLOCK_RECORD
  5
97
330
1
100
AcDbSymbolTableRecord
100
AcDbBlockTableRecord
  2
1_405020c_Inch_0_in_023255_2
340
0
102
{BLKREFS
331
98
102
}
 70
     0
280
     1
281
     0
  0
BLOCK_RECORD
  5
EC
330
1
100
AcDbSymbolTableRecord
100
AcDbBlockTableRecord
  2
2_1_3_8C_0_in_023255_2
340
0
102
{BLKREFS
331
ED
102
}
 70
     0
280
     1
281
     0
  0
BLOCK_RECORD
  5
130
330
1
100
AcDbSymbolTableRecord
100
AcDbBlockTableRecord
  2
3_B1U_K_106R_0_in_023255_2
340
0
102
{BLKREFS
331
131
102
}
 70
     0
280
     1
281
     0
  0
BLOCK_RECORD
  5
198
330
1
100
AcDbSymbolTableRecord
100
AcDbBlockTableRecord
  2
4_WSTU_K_107R_0_in_023255_2
340
0
102
{BLKREFS
331
199
102
}
 70
     0
280
     1
281
     0
  0
ENDTAB
  0
ENDSEC
  0
SECTION
  2
BLOCKS
  0
BLOCK
  5
20
330
1F
100
AcDbEntity
  8
0
100
AcDbBlockBegin
  2
*Model_Space
 70
     0
 10
0.0
 20
0.0
 30
0.0
  3
*Model_Space
  1

  0
ENDBLK
  5
21
330
1F
100
AcDbEntity
  8
0
100
AcDbBlockEnd
  0
BLOCK
  5
1C
330
1B
100
AcDbEntity
 67
     1
  8
0
100
AcDbBlockBegin
  2
*Paper_Space
 70
     0
 10
0.0
 20
0.0
 30
0.0
  3
*Paper_Space
  1

  0
ENDBLK
  5
1D
330
1B
100
AcDbEntity
 67
     1
  8
0
100
AcDbBlockEnd
  0
BLOCK
  5
24
330
23
100
AcDbEntity
  8
0
100
AcDbBlockBegin
  2
*Paper_Space0
 70
     0
 10
0.0
 20
0.0
 30
0.0
  3
*Paper_Space0
  1

  0
ENDBLK
  5
25
330
23
100
AcDbEntity
  8
0
100
AcDbBlockEnd
  0
BLOCK
  5
99
330
97
100
AcDbEntity
  8
0
100
AcDbBlockBegin
  2
1_405020c_Inch_0_in_023255_2
 70
     2
 10
0.0
 20
0.0
 30
0.0
  3
1_405020c_Inch_0_in_023255_2
  1

  0
ATTDEF
  5
9B
330
97
100
AcDbEntity
  8
AM_6
100
AcDbText
 10
5.162408630723042
 20
-0.5593518377630718
 30
0.0
 40
0.5
  1
405020C -Inch
100
AcDbAttributeDefinition
  3

  2
NN
 70
     8
280
     0
  0
ATTDEF
  5
9C
330
97
100
AcDbEntity
  8
AM_6
100
AcDbText
 10
5.162408630723042
 20
-1.059351837763072
 30
0.0
 40
0.5
  1
Grease fitting
100
AcDbAttributeDefinition
  3

  2
NT
 70
     8
280
     0
  0
ATTDEF
  5
9D
330
97
100
AcDbEntity
  8
AM_6
100
AcDbText
 10
5.162408630723042
 20
-1.559351837763072
 30
0.0
 40
0.5
  1
405020c-Inch
100
AcDbAttributeDefinition
  3

  2
NB
 70
     8
280
     0
  0
ATTDEF
  5
9E
330
97
100
AcDbEntity
  8
AM_6
100
AcDbText
 10
5.162408630723042
 20
-2.059351837763072
 30
0.0
 40
0.5
  1
$MN.-Inch
100
AcDbAttributeDefinition
  3

  2
NBSYN
 70
     8
280
     0
  0
ATTDEF
  5
9F
330
97
100
AcDbEntity
  8
AM_6
100
AcDbText
 10
5.162408630723042
 20
-2.559351837763072
 30
0.0
 40
0.5
  1
405020c
100
AcDbAttributeDefinition
  3

  2
LINA
 70
     8
280
     0
  0
ATTDEF
  5
A0
330
97
100
AcDbEntity
  8
AM_6
100
AcDbText
 10
5.162408630723042
 20
-3.059351837763072
 30
0.0
 40
0.5
  1
405020c
100
AcDbAttributeDefinition
  3

  2
MN
 70
     8
280
     0
  0
ATTDEF
  5
A1
330
97
100
AcDbEntity
  8
AM_6
100
AcDbText
 10
5.162408630723042
 20
-3.559351837763072
 30
0.0
 40
0.5
  1
0.230
100
AcDbAttributeDefinition
  3

  2
NDR
 70
     8
280
     0
  0
ATTDEF
  5
A2
330
97
100
AcDbEntity
  8
AM_6
100
AcDbText
 10
5.162408630723042
 20
-4.059351837763072
 30
0.0
 40
0.5
  1
0.210
100
AcDbAttributeDefinition
  3

  2
KDR
 70
     8
280
     0
  0
ATTDEF
  5
A3
330
97
100
AcDbEntity
  8
AM_6
100
AcDbText
 10
5.162408630723042
 20
-4.559351837763072
 30
0.0
 40
0.5
  1
0.157
100
AcDbAttributeDefinition
  3

  2
BZE
 70
     8
280
     0
  0
ATTDEF
  5
A4
330
97
100
AcDbEntity
  8
AM_6
100
AcDbText
 10
5.162408630723042
 20
-5.059351837763072
 30
0.0
 40
0.5
  1
9/32
100
AcDbAttributeDefinition
  3

  2
WAF
 70
     8
280
     0
  0
ATTDEF
  5
A5
330
97
100
AcDbEntity
  8
AM_6
100
AcDbText
 10
5.162408630723042
 20
-5.559351837763072
 30
0.0
 40
0.5
  1
0.2813
100
AcDbAttributeDefinition
  3

  2
WAF1
 70
     8
280
     0
  0
ATTDEF
  5
A6
330
97
100
AcDbEntity
  8
AM_6
100
AcDbText
 10
5.162408630723042
 20
-6.059351837763072
 30
0.0
 40
0.5
  1
0.545
100
AcDbAttributeDefinition
  3

  2
BL
 70
     8
280
     0
  0
ATTDEF
  5
A7
330
97
100
AcDbEntity
  8
AM_6
100
AcDbText
 10
5.162408630723042
 20
-6.559351837763072
 30
0.0
 40
0.5
  1
0.200
100
AcDbAttributeDefinition
  3

  2
TL
 70
     8
280
     0
  0
ATTDEF
  5
A8
330
97
100
AcDbEntity
  8
AM_6
100
AcDbText
 10
5.162408630723042
 20
-7.059351837763072
 30
0.0
 40
0.5
  1
baldor
100
AcDbAttributeDefinition
  3

  2
COMPANY
 70
     8
280
     0
  0
ELLIPSE
  5
AB
330
97
100
AcDbEntity
  8
AM_9
 48
0.0010740641033524
100
AcDbEllipse
 10
-0.0000000000000001
 20
-0.8853852583467651
 30
0.0
 11
-0.08080642971672804
 21
9.895933550311655E-18
 31
0.0
210
0.0
220
0.0
230
1.0
 40
0.9063077870366497
 41
0.0
 42
6.283185307179586
  0
ELLIPSE
  5
AC
330
97
100
AcDbEntity
  8
AM_9
 48
0.0010740641033524
100
AcDbEllipse
 10
0.0000000000000015
 20
-0.8789480545614969
 30
0.0
 11
0.103819051053042
 21
3.774758283725532E-15
 31
0.0
210
0.0
220
0.0
230
1.0
 40
0.9063077870366611
 41
3.947648580197548
 42
4.285574730143994
  0
ELLIPSE
  5
AD
330
97
100
AcDbEntity
  8
AM_9
 48
0.0010740641033524
100
AcDbEllipse
 10
-0.0000000000000001
 20
-0.8789480545615005
 30
0.0
 11
0.1038190510530391
 21
1.110223024625156E-16
 31
0.0
210
0.0
220
0.0
230
1.0
 40
0.9063077870366485
 41
5.447796629652852
 42
9.424777960769376
  0
ELLIPSE
  5
AE
330
97
100
AcDbEntity
  8
AM_9
 48
0.0010740641033524
100
AcDbEllipse
 10
0.0000000000000005
 20
-0.8789480545615009
 30
0.0
 11
0.1038190510530397
 21
-3.713821961674741E-15
 31
0.0
210
0.0
220
0.0
230
1.0
 40
0.9063077870366462
 41
3.141592653589828
 42
3.947648580197605
  0
LINE
  5
AF
330
97
100
AcDbEntity
  8
AM_9
 48
0.0010740641033524
100
AcDbLine
 10
0.0429782792977771
 20
-0.9645989972940395
 30
0.0
 11
0.0546244618709227
 21
-0.9597988795171767
 31
0.0
  0
LINE
  5
B0
330
97
100
AcDbEntity
  8
AM_9
 48
0.0010740641033524
100
AcDbLine
 10
-0.054624461870923
 20
-0.9597988795171767
 30
0.0
 11
-0.0429782792977773
 21
-0.9645989972940395
 31
0.0
  0
ELLIPSE
  5
B1
330
97
100
AcDbEntity
  8
AM_9
 48
0.0010740641033524
100
AcDbEllipse
 10
-0.0000000000000001
 20
-0.8509383869161101
 30
0.0
 11
0.1319517646676815
 21
0.0
 31
0.0
210
0.0
220
0.0
230
1.0
 40
0.9063077870366522
 41
4.285574730144036
 42
5.139203230625343
  0
ELLIPSE
  5
B2
330
97
100
AcDbEntity
  8
AM_9
 48
0.0010740641033524
100
AcDbEllipse
 10
-0.0000000000000156
 20
-0.8509383869160781
 30
0.0
 11
0.1319517646677117
 21
-2.183090688762168E-14
 31
0.0
210
0.0
220
0.0
230
1.0
 40
0.9063077870367071
 41
5.139203230625518
 42
5.312209269491819
  0
ELLIPSE
  5
B3
330
97
100
AcDbEntity
  8
AM_9
 48
0.0010740641033524
100
AcDbEllipse
 10
-0.0000000000000001
 20
-0.8789480545615002
 30
0.0
 11
0.1038190510530395
 21
0.0
 31
0.0
210
0.0
220
0.0
230
1.0
 40
0.9063077870366493
 41
4.285574730144033
 42
5.447796629652851
  0
ELLIPSE
  5
B4
330
97
100
AcDbEntity
  8
AM_9
 48
0.0010740641033524
100
AcDbEllipse
 10
0.0000000000000008
 20
-0.8509383869161117
 30
0.0
 11
0.1319517646676809
 21
1.110223024625157E-16
 31
0.0
210
0.0
220
0.0
230
1.0
 40
0.9063077870366487
 41
3.141592653589793
 42
4.285574730144025
  0
ELLIPSE
  5
B5
330
97
100
AcDbEntity
  8
AM_9
 48
0.0010740641033524
100
AcDbEllipse
 10
-0.0000000000000001
 20
-0.8509383869161119
 30
0.0
 11
0.13195176466768
 21
1.110223024625156E-16
 31
0.0
210
0.0
220
0.0
230
1.0
 40
0.9063077870366507
 41
5.383127648186647
 42
9.424777960769376
  0
ELLIPSE
  5
B6
330
97
100
AcDbEntity
  8
AM_9
 48
0.0010740641033524
100
AcDbEllipse
 10
-0.0000000000001039
 20
-0.8509383869159409
 30
0.0
 11
0.1319517646678562
 21
-1.366836825105981E-13
 31
0.0
210
0.0
220
0.0
230
1.0
 40
0.9063077870369072
 41
5.312209269492669
 42
5.365361593922056
  0
LWPOLYLINE
  5
B7
330
97
100
AcDbEntity
  8
AM_9
 48
0.0010740641033524
100
AcDbPolyline
 90
       10
 70
     0
 43
0.0
 10
-0.1359265219950581
 20
-0.8426818813996059
 10
-0.1354970051836139
 20
-0.85285127976097
 10
-0.1333417266762725
 20
-0.8675287149302059
 10
-0.1294085493948179
 20
-0.8818461885503118
 10
-0.1237564474809497
 20
-0.8956196701247862
 10
-0.1164613102740853
 20
-0.9086772003456158
 10
-0.1076159599201355
 20
-0.9208548907355527
 10
-0.0973304488728858
 20
-0.9319973769948869
 10
-0.0857325572310728
 20
-0.9419589775763677
 10
-0.0764262876979794
 20
-0.948467907679644
  0
LWPOLYLINE
  5
B8
330
97
100
AcDbEntity
  8
AM_9
 48
0.0010740641033524
100
AcDbPolyline
 90
        3
 70
     0
 43
0.0
 10
0.0607574686125161
 20
-0.7282659574317761
 10
0.0582954444583736
 20
-0.72713942739309
 10
0.0536352029382578
 20
-0.7251615398343121
  0
LWPOLYLINE
  5
B9
330
97
100
AcDbEntity
  8
AM_9
 48
0.0010740641033524
100
AcDbPolyline
 90
       20
 70
     0
 43
0.0
 10
0.0747956928464332
 20
-0.9494935371106147
 10
0.0771013755851191
 20
-0.9480338103149318
 10
0.0897272933596317
 20
-0.9387851511963341
 10
0.1011077990218577
 20
-0.9282023963253455
 10
0.1110792237376168
 20
-0.916439857655443
 10
0.1195016742317291
 20
-0.9036712467978727
 10
0.1262621618526755
 20
-0.89008514099093
 10
0.1312762163106965
 20
-0.8758798489645742
 10
0.1344878936547453
 20
-0.86125834820209
 10
0.1358684457498512
 20
-0.846423884938439
 10
0.135414153367566
 20
-0.8315766010686091
 10
0.1331442185560092
 20
-0.8169127709997326
 10
0.1290999176604271
 20
-0.8026245862762116
 10
0.1233410069644979
 20
-0.7888915547380075
 10
0.1159444530989534
 20
-0.7758851273581456
 10
0.1070041593442706
 20
-0.7637686710501367
 10
0.0966312900929172
 20
-0.7526969777011491
 10
0.0849547640959094
 20
-0.7428150566059115
 10
0.0721214198949566
 20
-0.7342561839818034
 10
0.0623370481083105
 20
-0.729019454068805
  0
LWPOLYLINE
  5
BA
330
97
100
AcDbEntity
  8
AM_9
 48
0.0010740641033524
100
AcDbPolyline
 90
       13
 70
     0
 43
0.0
 10
-0.0493286494746589
 20
-0.7235061875826073
 10
-0.0498073816852573
 20
-0.7236822528028488
 10
-0.0643106942154326
 20
-0.7299955603398214
 10
-0.0779370673221457
 20
-0.7378751539955188
 10
-0.0904891362414453
 20
-0.7472127290172411
 10
-0.1017847655970472
 20
-0.7578752460425195
 10
-0.1116616801746902
 20
-0.7697070457767934
 10
-0.1199816171386231
 20
-0.7825333278020877
 10
-0.126633368795651
 20
-0.7961647412411095
 10
-0.1315342929346479
 20
-0.8104025345265757
 10
-0.1346302245302045
 20
-0.8250435917605531
 10
-0.1358721200212811
 20
-0.8390601584899756
 10
-0.1359265219950581
 20
-0.8426818813996059
  0
LWPOLYLINE
  5
BB
330
97
100
AcDbEntity
  8
AM_9
 48
0.0010740641033524
100
AcDbPolyline
 90
        3
 70
     0
 43
0.0
 10
0.0812043153615208
 20
-0.6378203664100431
 10
0.1014141150849085
 20
-0.6713529764130203
 10
0.1218064730422812
 20
-0.7040204137055847
  0
LWPOLYLINE
  5
BC
330
97
100
AcDbEntity
  8
AM_9
 48
0.0010740641033524
100
AcDbPolyline
 90
        3
 70
     0
 43
0.0
 10
-0.0000000000000001
 20
-0.6402843185822322
 10
0.0406021576807603
 20
-0.6396339617092481
 10
0.0812043153615208
 20
-0.6378203664100431
  0
LWPOLYLINE
  5
BD
330
97
100
AcDbEntity
  8
AM_9
 48
0.0010740641033524
100
AcDbPolyline
 90
        3
 70
     0
 43
0.0
 10
-0.1218064730422814
 20
-0.7040204137055847
 10
-0.1015053942019012
 20
-0.6715020092709243
 10
-0.081204315361521
 20
-0.6378203664100431
  0
ELLIPSE
  5
BE
330
97
100
AcDbEntity
  8
AM_9
 48
0.0010740641033524
100
AcDbEllipse
 10
-0.0000000000000005
 20
-0.767756508828936
 30
0.0
 11
0.1406499999999993
 21
1.665334536937735E-15
 31
0.0
210
0.0
220
0.0
230
1.0
 40
0.9063077870366467
 41
1.570796326794883
 42
2.617993877991486
  0
LWPOLYLINE
  5
BF
330
97
100
AcDbEntity
  8
AM_9
 48
0.0010740641033524
100
AcDbPolyline
 90
        4
 70
     0
 43
0.0
 10
-0.081204315361521
 20
-0.6378203664100431
 10
-0.0623017518439032
 20
-0.6387917160662849
 10
-0.0312428256208205
 20
-0.6398961049410897
 10
-0.0000000000000001
 20
-0.6402843185822322
  0
LINE
  5
C0
330
97
100
AcDbEntity
  8
AM_9
 48
0.0010740641033524
100
AcDbLine
 10
0.0812043153615208
 20
-0.6378203664100431
 30
0.0
 11
0.0812043153615208
 21
-0.6145737199717081
 31
0.0
  0
LINE
  5
C1
330
97
100
AcDbEntity
  8
AM_9
 48
0.0010740641033524
100
AcDbLine
 10
-0.081204315361521
 20
-0.6378203664100431
 30
0.0
 11
-0.081204315361521
 21
-0.6145737199717081
 31
0.0
  0
ELLIPSE
  5
C2
330
97
100
AcDbEntity
  8
AM_9
 48
0.0010740641033524
100
AcDbEllipse
 10
-0.0000000000000001
 20
-0.7809931449816778
 30
0.0
 11
-0.1093294505797714
 21
1.338899617050557E-17
 31
0.0
210
0.0
220
0.0
230
1.0
 40
0.9063077870366496
 41
0.0
 42
6.283185307179586
  0
ELLIPSE
  5
C3
330
97
100
AcDbEntity
  8
AM_9
 48
0.0010740641033524
100
AcDbEllipse
 10
0.0000000000000041
 20
-0.8048652666760061
 30
0.0
 11
0.09936940028725834
 21
-2.358915957955323E-14
 31
0.0
210
0.0
220
0.0
230
1.0
 40
0.9063077870365819
 41
0.8904094122764032
 42
2.034673631356932
  0
ELLIPSE
  5
C4
330
97
100
AcDbEntity
  8
AM_9
 48
0.0010740641033524
100
AcDbEllipse
 10
-0.0000000000000001
 20
-0.8048652666760202
 30
0.0
 11
0.09936940028726625
 21
2.220446049250313E-16
 31
0.0
210
0.0
220
0.0
230
1.0
 40
0.9063077870366494
 41
2.491398261265266
 42
6.939791824425326
  0
ELLIPSE
  5
C5
330
97
100
AcDbEntity
  8
AM_9
 48
0.0010740641033524
100
AcDbEllipse
 10
0.0000000000000015
 20
-0.8048652666760128
 30
0.0
 11
0.09936940028726982
 21
3.097522238704187E-14
 31
0.0
210
0.0
220
0.0
230
1.0
 40
0.906307787036561
 41
2.034673631356347
 42
2.25558031020677
  0
LWPOLYLINE
  5
C6
330
97
100
AcDbEntity
  8
AM_9
 48
0.0010740641033524
100
AcDbPolyline
 90
       10
 70
     0
 43
0.0
 10
-0.0946847896390989
 20
-0.7959349569181837
 10
-0.0945386552381463
 20
-0.7914509917169682
 10
-0.0928925980914816
 20
-0.780297327314322
 10
-0.0894338367199385
 20
-0.7694050919569012
 10
-0.0842501064414009
 20
-0.7590458477380544
 10
-0.0774755329351414
 20
-0.7494363959871878
 10
-0.0692638362366251
 20
-0.7407484558525043
 10
-0.0597790745173452
 20
-0.7331257043353876
 10
-0.0491979445323198
 20
-0.7266947953531606
 10
-0.0440100534212415
 20
-0.724165861959176
  0
LWPOLYLINE
  5
C7
330
97
100
AcDbEntity
  8
AM_9
 48
0.0010740641033524
100
AcDbPolyline
 90
       33
 70
     0
 43
0.0
 10
0.0443378600045565
 20
-0.7243148665421049
 10
0.0488096240705504
 20
-0.7264924889524476
 10
0.0592311752584232
 20
-0.7327449476537758
 10
0.0685530016867309
 20
-0.7401006811710631
 10
0.0766287386376715
 20
-0.7484198701090748
 10
0.0833379766237183
 20
-0.75756194143538
 10
0.0885798993171804
 20
-0.7673927523972228
 10
0.0922629137626565
 20
-0.7777857346618321
 10
0.0942944739851659
 20
-0.7886113143190232
 10
0.0945811293481808
 20
-0.7997118838670214
 10
0.0930505304544115
 20
-0.810873678809032
 10
0.0897041571703225
 20
-0.8217910750425913
 10
0.0846255708307677
 20
-0.8321908875368602
 10
0.077946906075566
 20
-0.8418530857097773
 10
0.0698211050234123
 20
-0.8506036031779971
 10
0.0604115668042368
 20
-0.8582974278647749
 10
0.0498940573294087
 20
-0.864806964581891
 10
0.0384607857525343
 20
-0.8700197892489511
 10
0.0263219743689138
 20
-0.8738419514362675
 10
0.0137042142379137
 20
-0.8762030090304253
 10
0.0008462659822364
 20
-0.8770606424402483
 10
-0.0120068355212323
 20
-0.8764038613116331
 10
-0.0246087276277462
 20
-0.8742548342534366
 10
-0.0367202710845695
 20
-0.8706690238539938
 10
-0.0481193811571936
 20
-0.8657316781088613
 10
-0.0586047378935576
 20
-0.8595533090908614
 10
-0.0680005340665321
 20
-0.8522630797015376
 10
-0.0761586637455416
 20
-0.8440004631586603
 10
-0.0829572187365294
 20
-0.8349062332624734
 10
-0.0882944222793646
 20
-0.8251150628642269
 10
-0.0920784401196222
 20
-0.8147538365972767
 10
-0.0942169598466669
 20
-0.8039513369098594
 10
-0.0946847896390989
 20
-0.7959349569181837
  0
LWPOLYLINE
  5
C8
330
97
100
AcDbEntity
  8
AM_9
 48
0.0010740641033524
100
AcDbPolyline
 90
        3
 70
     0
 43
0.0
 10
0.1218064730422811
 20
-0.6758458629228713
 10
0.1015053942019009
 20
-0.6446281722341792
 10
0.0812043153615208
 20
-0.6145737199717081
  0
LWPOLYLINE
  5
C9
330
97
100
AcDbEntity
  8
AM_9
 48
0.0010740641033524
100
AcDbPolyline
 90
        3
 70
     0
 43
0.0
 10
0.0812043153615208
 20
-0.6145737199717081
 10
0.0407847159147454
 20
-0.6127658702073747
 10
-0.0000000000000001
 20
-0.612109767799519
  0
LWPOLYLINE
  5
CA
330
97
100
AcDbEntity
  8
AM_9
 48
0.0010740641033524
100
AcDbPolyline
 90
        3
 70
     0
 43
0.0
 10
-0.081204315361521
 20
-0.6145737199717081
 10
-0.1014141150849086
 20
-0.6444906304460187
 10
-0.1218064730422814
 20
-0.6758458629228713
  0
LWPOLYLINE
  5
CB
330
97
100
AcDbEntity
  8
AM_9
 48
0.0010740641033524
100
AcDbPolyline
 90
        4
 70
     0
 43
0.0
 10
-0.0000000000000001
 20
-0.612109767799519
 10
-0.0311508759219517
 20
-0.6124957267164887
 10
-0.0623017518439032
 20
-0.6136023703154663
 10
-0.081204315361521
 20
-0.6145737199717081
  0
LWPOLYLINE
  5
CC
330
97
100
AcDbEntity
  8
AM_9
 48
0.0010740641033524
100
AcDbPolyline
 90
        3
 70
     0
 43
0.0
 10
0.1218064730422812
 20
-0.7040204137055847
 10
0.1421075518826614
 20
-0.7352381043942767
 10
0.1624086307230416
 20
-0.7652925566567479
  0
LWPOLYLINE
  5
CD
330
97
100
AcDbEntity
  8
AM_9
 48
0.0010740641033524
100
AcDbPolyline
 90
        3
 70
     0
 43
0.0
 10
-0.1624086307230418
 20
-0.7652925566567479
 10
-0.1421988309996541
 20
-0.7353756461824373
 10
-0.1218064730422814
 20
-0.7040204137055847
  0
ELLIPSE
  5
CE
330
97
100
AcDbEntity
  8
AM_9
 48
0.0010740641033524
100
AcDbEllipse
 10
0.0
 20
-0.7677565088289373
 30
0.0
 11
0.1406499999999997
 21
-1.033827672306594E-15
 31
0.0
210
0.0
220
0.0
230
1.0
 40
0.9063077870366505
 41
2.617993877991501
 42
7.85398163397449
  0
LWPOLYLINE
  5
CF
330
97
100
AcDbEntity
  8
AM_9
 48
0.0010740641033524
100
AcDbPolyline
 90
        3
 70
     0
 43
0.0
 10
0.1624086307230416
 20
-0.7420459102184129
 10
0.1421988309996539
 20
-0.7085133002154356
 10
0.1218064730422811
 20
-0.6758458629228713
  0
LWPOLYLINE
  5
D0
330
97
100
AcDbEntity
  8
AM_9
 48
0.0010740641033524
100
AcDbPolyline
 90
        3
 70
     0
 43
0.0
 10
-0.1218064730422814
 20
-0.6758458629228713
 10
-0.1421075518826616
 20
-0.7083642673575318
 10
-0.1624086307230418
 20
-0.7420459102184129
  0
LINE
  5
D1
330
97
100
AcDbEntity
  8
AM_9
 48
0.0010740641033524
100
AcDbLine
 10
0.1624086307230416
 20
-0.7652925566567479
 30
0.0
 11
0.1624086307230416
 21
-0.7420459102184129
 31
0.0
  0
LWPOLYLINE
  5
D2
330
97
100
AcDbEntity
  8
AM_9
 48
0.0010740641033524
100
AcDbPolyline
 90
        3
 70
     0
 43
0.0
 10
0.1218064730422812
 20
-0.803318053169576
 10
0.1421075518826614
 20
-0.7721003624808841
 10
0.1624086307230416
 20
-0.7420459102184129
  0
LWPOLYLINE
  5
D3
330
97
100
AcDbEntity
  8
AM_9
 48
0.0010740641033524
100
AcDbPolyline
 90
        3
 70
     0
 43
0.0
 10
0.1218064730422812
 20
-0.8314926039522894
 10
0.101505394201901
 20
-0.8627102946409816
 10
0.0812043153615208
 20
-0.8927647469034526
  0
LWPOLYLINE
  5
D4
330
97
100
AcDbEntity
  8
AM_9
 48
0.0010740641033524
100
AcDbPolyline
 90
        3
 70
     0
 43
0.0
 10
0.1624086307230416
 20
-0.7652925566567479
 10
0.1421988309996539
 20
-0.7988251666597252
 10
0.1218064730422812
 20
-0.8314926039522894
  0
ELLIPSE
  5
D5
330
97
100
AcDbEntity
  8
AM_9
 48
0.0010740641033524
100
AcDbEllipse
 10
0.0000000000000004
 20
-0.7395819580462231
 30
0.0
 11
0.1406500000000007
 21
5.551115123125783E-16
 31
0.0
210
0.0
220
0.0
230
1.0
 40
0.9063077870366496
 41
3.665191429188091
 42
4.712388980384682
  0
ELLIPSE
  5
D6
330
97
100
AcDbEntity
  8
AM_9
 48
0.0010740641033524
100
AcDbEllipse
 10
-0.0000000000000011
 20
-0.7395819580462238
 30
0.0
 11
0.1406500000000008
 21
4.440892098500626E-16
 31
0.0
210
0.0
220
0.0
230
1.0
 40
0.9063077870366507
 41
4.712388980384694
 42
6.806784082777879
  0
ELLIPSE
  5
D7
330
97
100
AcDbEntity
  8
AM_9
 48
0.0010740641033524
100
AcDbEllipse
 10
-0.000000000000001
 20
-0.7395819580462248
 30
0.0
 11
0.1406500000000015
 21
0.0
 31
0.0
210
0.0
220
0.0
230
1.0
 40
0.9063077870366477
 41
0.5235987755983045
 42
2.617993877991482
  0
ELLIPSE
  5
D8
330
97
100
AcDbEntity
  8
AM_9
 48
0.0010740641033524
100
AcDbEllipse
 10
0.0000000000000008
 20
-0.7395819580462236
 30
0.0
 11
0.1406500000000007
 21
4.440892098500626E-16
 31
0.0
210
0.0
220
0.0
230
1.0
 40
0.906307787036651
 41
2.617993877991495
 42
3.665191429188085
  0
LWPOLYLINE
  5
D9
330
97
100
AcDbEntity
  8
AM_9
 48
0.0010740641033524
100
AcDbPolyline
 90
        3
 70
     0
 43
0.0
 10
-0.1218064730422814
 20
-0.803318053169576
 10
-0.1015053942019012
 20
-0.8358364576042365
 10
-0.081204315361521
 20
-0.8695181004651177
  0
LWPOLYLINE
  5
DA
330
97
100
AcDbEntity
  8
AM_9
 48
0.0010740641033524
100
AcDbPolyline
 90
        3
 70
     0
 43
0.0
 10
-0.1624086307230418
 20
-0.7420459102184129
 10
-0.1421988309996541
 20
-0.7719628206927235
 10
-0.1218064730422814
 20
-0.803318053169576
  0
LINE
  5
DB
330
97
100
AcDbEntity
  8
AM_9
 48
0.0010740641033524
100
AcDbLine
 10
-0.1624086307230418
 20
-0.7652925566567479
 30
0.0
 11
-0.1624086307230418
 21
-0.7420459102184129
 31
0.0
  0
LWPOLYLINE
  5
DC
330
97
100
AcDbEntity
  8
AM_9
 48
0.0010740641033524
100
AcDbPolyline
 90
        3
 70
     0
 43
0.0
 10
-0.1218064730422814
 20
-0.8314926039522894
 10
-0.1421075518826616
 20
-0.798974199517629
 10
-0.1624086307230418
 20
-0.7652925566567479
  0
LWPOLYLINE
  5
DD
330
97
100
AcDbEntity
  8
AM_9
 48
0.0010740641033524
100
AcDbPolyline
 90
        3
 70
     0
 43
0.0
 10
-0.081204315361521
 20
-0.8927647469034526
 10
-0.1014141150849087
 20
-0.8628478364291422
 10
-0.1218064730422814
 20
-0.8314926039522894
  0
LWPOLYLINE
  5
DE
330
97
100
AcDbEntity
  8
AM_9
 48
0.0010740641033524
100
AcDbPolyline
 90
        3
 70
     0
 43
0.0
 10
0.0812043153615208
 20
-0.8695181004651177
 10
0.1014141150849085
 20
-0.8359854904621405
 10
0.1218064730422812
 20
-0.803318053169576
  0
LINE
  5
DF
330
97
100
AcDbEntity
  8
AM_9
 48
0.0010740641033524
100
AcDbLine
 10
0.0812043153615208
 20
-0.8927647469034526
 30
0.0
 11
0.0812043153615208
 21
-0.8695181004651177
 31
0.0
  0
LWPOLYLINE
  5
E0
330
97
100
AcDbEntity
  8
AM_9
 48
0.0010740641033524
100
AcDbPolyline
 90
        3
 70
     0
 43
0.0
 10
-0.0000000000000001
 20
-0.8670541482929285
 10
0.0406021576807603
 20
-0.8677045051659127
 10
0.0812043153615208
 20
-0.8695181004651177
  0
LWPOLYLINE
  5
E1
330
97
100
AcDbEntity
  8
AM_9
 48
0.0010740641033524
100
AcDbPolyline
 90
        4
 70
     0
 43
0.0
 10
-0.081204315361521
 20
-0.8695181004651177
 10
-0.0623017518439032
 20
-0.8685467508088759
 10
-0.0312428256208205
 20
-0.8674423619340709
 10
-0.0000000000000001
 20
-0.8670541482929285
  0
LINE
  5
E2
330
97
100
AcDbEntity
  8
AM_9
 48
0.0010740641033524
100
AcDbLine
 10
-0.081204315361521
 20
-0.8927647469034526
 30
0.0
 11
-0.081204315361521
 21
-0.8695181004651177
 31
0.0
  0
LWPOLYLINE
  5
E3
330
97
100
AcDbEntity
  8
AM_9
 48
0.0010740641033524
100
AcDbPolyline
 90
        4
 70
     0
 43
0.0
 10
-0.0000000000000001
 20
-0.8952286990756418
 10
-0.0311508759219517
 20
-0.8948427401586722
 10
-0.0623017518439032
 20
-0.8937360965596945
 10
-0.081204315361521
 20
-0.8927647469034526
  0
LWPOLYLINE
  5
E4
330
97
100
AcDbEntity
  8
AM_9
 48
0.0010740641033524
100
AcDbPolyline
 90
        3
 70
     0
 43
0.0
 10
0.0812043153615208
 20
-0.8927647469034526
 10
0.0407847159147454
 20
-0.8945725966677861
 10
-0.0000000000000001
 20
-0.8952286990756418
  0
LINE
  5
E5
330
97
100
AcDbEntity
  8
AM_9
 48
0.0010740641033524
100
AcDbLine
 10
-0.1101680092386037
 20
-0.6527162684843764
 30
0.0
 11
-0.1160822397908362
 21
-0.7325152329523281
 31
0.0
  0
LINE
  5
E6
330
97
100
AcDbEntity
  8
AM_9
 48
0.0010740641033524
100
AcDbLine
 10
0.116082239790836
 20
-0.7325152329523281
 30
0.0
 11
0.1101680092386036
 21
-0.6527162684843764
 31
0.0
  0
ELLIPSE
  5
E7
330
97
100
AcDbEntity
  8
AM_9
 48
0.0010740641033524
100
AcDbEllipse
 10
-0.0000000000000001
 20
-0.6594229536485648
 30
0.0
 11
0.1104162595939891
 21
0.0
 31
0.0
210
0.0
220
0.0
230
1.0
 40
0.9063077870366542
 41
3.141592653589793
 42
9.357708498489991
  0
ELLIPSE
  5
E8
330
97
100
AcDbEntity
  8
AM_9
 48
0.0010740641033524
100
AcDbEllipse
 10
0.0000000000000084
 20
-0.6594229536485107
 30
0.0
 11
0.1104162595939975
 21
3.036459972349803E-13
 31
0.0
210
0.0
220
0.0
230
1.0
 40
0.9063077870366342
 41
3.074523191307916
 42
3.141592653587299
  0
ELLIPSE
  5
E9
330
97
100
AcDbEntity
  8
AM_9
 48
0.0010740641033524
100
AcDbEllipse
 10
-0.0000000000000001
 20
-0.6550583056980839
 30
0.0
 11
-0.1000886227036577
 21
1.225732114251015E-17
 31
0.0
210
0.0
220
0.0
230
1.0
 40
0.9063077870366502
 41
0.0
 42
6.283185307179586
  0
ELLIPSE
  5
EA
330
97
100
AcDbEntity
  8
AM_9
 48
0.0010740641033524
100
AcDbEllipse
 10
-0.0000000000000002
 20
-0.8337515716417703
 30
0.0
 11
0.1312419113468917
 21
3.330669073875470E-16
 31
0.0
210
0.0
220
0.0
230
1.0
 40
0.906307787036648
 41
0.0
 42
6.283185307179586
  0
ELLIPSE
  5
EB
330
97
100
AcDbEntity
  8
AM_9
 48
0.0010740641033524
100
AcDbEllipse
 10
-0.0000000000000001
 20
-0.7395819580462238
 30
0.0
 11
0.1163438171532771
 21
-1.318300843165471E-16
 31
0.0
210
0.0
220
0.0
230
1.0
 40
0.906307787036645
 41
0.0
 42
6.283185307179586
  0
ENDBLK
  5
9A
330
97
100
AcDbEntity
  8
0
100
AcDbBlockEnd
  0
BLOCK
  5
EE
330
EC
100
AcDbEntity
  8
0
100
AcDbBlockBegin
  2
2_1_3_8C_0_in_023255_2
 70
     2
 10
0.0
 20
0.0
 30
0.0
  3
2_1_3_8C_0_in_023255_2
  1

  0
ATTDEF
  5
F0
330
EC
100
AcDbEntity
  8
AM_6
100
AcDbText
 10
4.06
 20
1.401041666666667
 30
0.0
 40
0.5
  1
E-Type Collar -Inch
100
AcDbAttributeDefinition
  3

  2
NN
 70
     8
280
     0
  0
ATTDEF
  5
F1
330
EC
100
AcDbEntity
  8
AM_6
100
AcDbText
 10
4.06
 20
0.9010416666666667
 30
0.0
 40
0.5
  1
E-Type Bearings
100
AcDbAttributeDefinition
  3

  2
NT
 70
     8
280
     0
  0
ATTDEF
  5
F2
330
EC
100
AcDbEntity
  8
AM_6
100
AcDbText
 10
4.06
 20
0.4010416666666667
 30
0.0
 40
0.5
  1
1-3/8C
100
AcDbAttributeDefinition
  3

  2
NB
 70
     8
280
     0
  0
ATTDEF
  5
F3
330
EC
100
AcDbEntity
  8
AM_6
100
AcDbText
 10
4.06
 20
-0.0989583333333333
 30
0.0
 40
0.5
  1
$BORE.C
100
AcDbAttributeDefinition
  3

  2
NBSYN
 70
     8
280
     0
  0
ATTDEF
  5
F4
330
EC
100
AcDbEntity
  8
AM_6
100
AcDbText
 10
4.06
 20
-0.5989583333333333
 30
0.0
 40
0.5
  1
1-3/8C
100
AcDbAttributeDefinition
  3

  2
LINA
 70
     8
280
     0
  0
ATTDEF
  5
F5
330
EC
100
AcDbEntity
  8
AM_6
100
AcDbText
 10
4.06
 20
-1.098958333333333
 30
0.0
 40
0.5
  1
1-3/8
100
AcDbAttributeDefinition
  3

  2
BORE
 70
     8
280
     0
  0
ATTDEF
  5
F6
330
EC
100
AcDbEntity
  8
AM_6
100
AcDbText
 10
4.06
 20
-1.598958333333333
 30
0.0
 40
0.5
  1
2.75000
100
AcDbAttributeDefinition
  3

  2
L
 70
     8
280
     0
  0
ATTDEF
  5
F7
330
EC
100
AcDbEntity
  8
AM_6
100
AcDbText
 10
4.06
 20
-2.098958333333333
 30
0.0
 40
0.5
  1
3.00
100
AcDbAttributeDefinition
  3

  2
A
 70
     8
280
     0
  0
ATTDEF
  5
F8
330
EC
100
AcDbEntity
  8
AM_6
100
AcDbText
 10
4.06
 20
-2.598958333333333
 30
0.0
 40
0.5
  1
1.25
100
AcDbAttributeDefinition
  3

  2
B
 70
     8
280
     0
  0
ATTDEF
  5
F9
330
EC
100
AcDbEntity
  8
AM_6
100
AcDbText
 10
4.06
 20
-3.098958333333333
 30
0.0
 40
0.5
  1
1.75
100
AcDbAttributeDefinition
  3

  2
C
 70
     8
280
     0
  0
ATTDEF
  5
FA
330
EC
100
AcDbEntity
  8
AM_6
100
AcDbText
 10
4.06
 20
-3.598958333333333
 30
0.0
 40
0.5
  1
2.81
100
AcDbAttributeDefinition
  3

  2
D
 70
     8
280
     0
  0
ATTDEF
  5
FB
330
EC
100
AcDbEntity
  8
AM_6
100
AcDbText
 10
4.06
 20
-4.098958333333333
 30
0.0
 40
0.5
  1
0.35
100
AcDbAttributeDefinition
  3

  2
E
 70
     8
280
     0
  0
ATTDEF
  5
FC
330
EC
100
AcDbEntity
  8
AM_6
100
AcDbText
 10
4.06
 20
-4.598958333333333
 30
0.0
 40
0.5
  1
0.28
100
AcDbAttributeDefinition
  3

  2
F
 70
     8
280
     0
  0
ATTDEF
  5
FD
330
EC
100
AcDbEntity
  8
AM_6
100
AcDbText
 10
4.06
 20
-5.098958333333333
 30
0.0
 40
0.5
  1
5/16-18
100
AcDbAttributeDefinition
  3

  2
CS
 70
     8
280
     0
  0
ATTDEF
  5
FE
330
EC
100
AcDbEntity
  8
AM_6
100
AcDbText
 10
4.06
 20
-5.598958333333333
 30
0.0
 40
0.5
  1
0.3125
100
AcDbAttributeDefinition
  3

  2
NDM
 70
     8
280
     0
  0
ATTDEF
  5
FF
330
EC
100
AcDbEntity
  8
AM_6
100
AcDbText
 10
4.06
 20
-6.098958333333333
 30
0.0
 40
0.5
  1
0.2520
100
AcDbAttributeDefinition
  3

  2
KDM
 70
     8
280
     0
  0
ATTDEF
  5
100
330
EC
100
AcDbEntity
  8
AM_6
100
AcDbText
 10
4.06
 20
-6.598958333333333
 30
0.0
 40
0.5
  1
baldor
100
AcDbAttributeDefinition
  3

  2
COMPANY
 70
     8
280
     0
  0
LINE
  5
101
330
EC
100
AcDbEntity
  8
AM_9
 48
0.0063055240803105
100
AcDbLine
 10
-1.0938
 20
0.8842166666666665
 30
0.0
 11
-1.0938
 21
1.34495
 31
0.0
  0
LINE
  5
102
330
EC
100
AcDbEntity
  8
AM_9
 48
0.0063055240803105
100
AcDbLine
 10
-1.3462
 20
1.34495
 30
0.0
 11
-1.3462
 21
0.8842166666666665
 31
0.0
  0
LINE
  5
103
330
EC
100
AcDbEntity
  8
AM_9
 48
0.0063055240803105
100
AcDbLine
 10
-1.3462
 20
1.34495
 30
0.0
 11
-1.0938
 21
1.34495
 31
0.0
  0
LINE
  5
104
330
EC
100
AcDbEntity
  8
AM_9
 48
0.0063055240803105
100
AcDbLine
 10
-1.0938
 20
1.34495
 30
0.0
 11
-1.06375
 21
1.375
 31
0.0
  0
LINE
  5
105
330
EC
100
AcDbEntity
  8
AM_9
 48
0.0063055240803105
100
AcDbLine
 10
-1.37625
 20
1.375
 30
0.0
 11
-1.3462
 21
1.34495
 31
0.0
  0
LINE
  5
106
330
EC
100
AcDbEntity
  8
AM_9
 48
0.0063055240803105
100
AcDbLine
 10
-1.3462
 20
0.8842166666666665
 30
0.0
 11
-1.0938
 21
0.8842166666666665
 31
0.0
  0
LINE
  5
107
330
EC
100
AcDbEntity
  8
AM_9
 48
0.0063055240803105
100
AcDbLine
 10
-1.3462
 20
0.8842166666666665
 30
0.0
 11
-1.355322756135511
 21
0.8750939105311549
 31
0.0
  0
LINE
  5
108
330
EC
100
AcDbEntity
  8
AM_9
 48
0.0063055240803105
100
AcDbLine
 10
-1.084801376692717
 20
0.8752180433593841
 30
0.0
 11
-1.0938
 21
0.8842166666666665
 31
0.0
  0
LWPOLYLINE
  5
109
330
EC
100
AcDbEntity
  8
AM_9
 48
0.0063055240803105
100
AcDbPolyline
 90
       34
 70
     0
 43
0.0
 10
-1.087068837870213
 20
0.3950638516951264
 10
-1.08802554884785
 20
0.3994424596119345
 10
-1.095672747625656
 20
0.4218773501572947
 10
-1.107474314973258
 20
0.4425398213078174
 10
-1.122967780635393
 20
0.4605376263200328
 10
-1.141928028831849
 20
0.4756867412286193
 10
-1.1625560753687
 20
0.4867933339497444
 10
-1.185275560392111
 20
0.4944473998520165
 10
-1.206948264240496
 20
0.4980243739354936
 10
-1.229044684241965
 20
0.4983421825221666
 10
-1.249307696735587
 20
0.4956521935770825
 10
-1.268764666059565
 20
0.4902387315737626
 10
-1.28714812826148
 20
0.4821376512726612
 10
-1.303819681444548
 20
0.4716906817304888
 10
-1.319539183502123
 20
0.4580642858508739
 10
-1.332636951173203
 20
0.4423822146551874
 10
-1.343671908509527
 20
0.4233165305818403
 10
-1.351156367690985
 20
0.4026972617325465
 10
-1.35502773251204
 20
0.3797008329426652
 10
-1.354710188987229
 20
0.3561175715320604
 10
-1.350024083668005
 20
0.3321188293758287
 10
-1.341078315598573
 20
0.3088956051556672
 10
-1.328085227015781
 20
0.2873380055979072
 10
-1.311318304145893
 20
0.2680703259489686
 10
-1.292014725291367
 20
0.2525574880576902
 10
-1.270072510545152
 20
0.2406364257056886
 10
-1.248338942753326
 20
0.2335605630787611
 10
-1.225634877090701
 20
0.2304276571482665
 10
-1.204782158177671
 20
0.2312439789963953
 10
-1.18437027990892
 20
0.2354488955541852
 10
-1.165307411503916
 20
0.2427260654064994
 10
-1.147656115607665
 20
0.2527551944583884
 10
-1.134405829146558
 20
0.2628663043121702
 10
-1.122512944615278
 20
0.2743731080557923
  0
LWPOLYLINE
  5
10A
330
EC
100
AcDbEntity
  8
AM_9
 48
0.0063055240803105
100
AcDbPolyline
 90
        5
 70
     0
 43
0.0
 10
-1.122512944615278
 20
0.2743731080557923
 10
-1.10987067025447
 20
0.2902087235174336
 10
-1.099652100472578
 20
0.3074241341673336
 10
-1.090777076816615
 20
0.3294306542079486
 10
-1.08696129993886
 20
0.34469706754121
  0
LINE
  5
10B
330
EC
100
AcDbEntity
  8
AM_9
 48
0.0063055240803105
100
AcDbLine
 10
-1.5
 20
-0.875
 30
0.0
 11
-0.94
 21
-0.875
 31
0.0
  0
LINE
  5
10C
330
EC
100
AcDbEntity
  8
AM_9
 48
0.0063055240803105
100
AcDbLine
 10
-0.94
 20
0.875
 30
0.0
 11
-1.085116962535728
 21
0.875
 31
0.0
  0
LINE
  5
10D
330
EC
100
AcDbEntity
  8
AM_9
 48
0.0063055240803105
100
AcDbLine
 10
-1.35518643514101
 20
0.875
 30
0.0
 11
-1.5
 21
0.875
 31
0.0
  0
LWPOLYLINE
  5
10E
330
EC
100
AcDbEntity
  8
AM_9
 48
0.0063055240803105
100
AcDbPolyline
 90
       21
 70
     0
 43
0.0
 10
-1.355416666665996
 20
0.8749999999998772
 10
-1.355383606156809
 20
0.874993947356603
 10
-1.352636230202916
 20
0.8744957887278755
 10
-1.34568101656021
 20
0.8732774829402508
 10
-1.334248970900008
 20
0.871409717282672
 10
-1.319482484702337
 20
0.8692487463534139
 10
-1.300615093504594
 20
0.866907706543922
 10
-1.280587174492273
 20
0.8649477428884087
 10
-1.257574299387511
 20
0.8633744315584261
 10
-1.23623856407008
 20
0.8625721331397554
 10
-1.213634206282981
 20
0.8624159782618529
 10
-1.193538202169756
 20
0.8628773888899468
 10
-1.173625633874727
 20
0.8638897112264655
 10
-1.155323700304483
 20
0.865303531581946
 10
-1.138253679073796
 20
0.8670346320224149
 10
-1.122485701466208
 20
0.8689823829023265
 10
-1.108941602637135
 20
0.8709186336298379
 10
-1.097645431565555
 20
0.8727166463535222
 10
-1.089617548557427
 20
0.8740942665872906
 10
-1.085250973049289
 20
0.8748780373430578
 10
-1.084583333333417
 20
0.8749999999999847
  0
ELLIPSE
  5
10F
330
EC
100
AcDbEntity
  8
AM_9
 48
0.0063055240803105
100
AcDbEllipse
 10
-1.219999999999994
 20
0.3736861106688208
 30
0.0
 11
0.1262000000000059
 21
-3.671744349089637E-16
 31
0.0
210
0.0
220
0.0
230
1.0
 40
0.9063077870366498
 41
2.775074799910233
 42
3.141592653589786
  0
ELLIPSE
  5
110
330
EC
100
AcDbEntity
  8
AM_9
 48
0.0063055240803105
100
AcDbEllipse
 10
-1.219999999999999
 20
0.3736861106688218
 30
0.0
 11
0.1262000000000008
 21
1.110223024625156E-15
 31
0.0
210
0.0
220
0.0
230
1.0
 40
0.906307787036649
 41
2.123320634400388
 42
2.775074799910214
  0
LINE
  5
111
330
EC
100
AcDbEntity
  8
AM_9
 48
0.0063055240803105
100
AcDbLine
 10
-1.0938
 20
0.3736861106688221
 30
0.0
 11
-1.0938
 21
0.5684004311281539
 31
0.0
  0
LINE
  5
112
330
EC
100
AcDbEntity
  8
AM_9
 48
0.0063055240803105
100
AcDbLine
 10
-1.3462
 20
0.5684004311281539
 30
0.0
 11
-1.3462
 21
0.3736861106688221
 31
0.0
  0
ELLIPSE
  5
113
330
EC
100
AcDbEntity
  8
AM_9
 48
0.0063055240803105
100
AcDbEllipse
 10
-1.22
 20
0.5684004311281537
 30
0.0
 11
0.1261999999999999
 21
1.110223024625157E-16
 31
0.0
210
0.0
220
0.0
230
1.0
 40
0.906307787036651
 41
4.34333108093282
 42
7.853981633974482
  0
ELLIPSE
  5
114
330
EC
100
AcDbEntity
  8
AM_9
 48
0.0063055240803105
100
AcDbEllipse
 10
-1.22
 20
0.3736861106688222
 30
0.0
 11
0.1262000000000001
 21
-3.091008521047922E-17
 31
0.0
210
0.0
220
0.0
230
1.0
 40
0.9063077870366504
 41
3.141592653589794
 42
6.283185307179585
  0
ELLIPSE
  5
115
330
EC
100
AcDbEntity
  8
AM_9
 48
0.0063055240803105
100
AcDbEllipse
 10
-1.219999999999999
 20
0.3736861106688223
 30
0.0
 11
0.1261999999999992
 21
-3.091008521047900E-17
 31
0.0
210
0.0
220
0.0
230
1.0
 40
0.9063077870366496
 41
6.283185307179584
 42
8.223039533426352
  0
ELLIPSE
  5
116
330
EC
100
AcDbEntity
  8
AM_9
 48
0.0063055240803105
100
AcDbEllipse
 10
-1.22
 20
0.5684004311281559
 30
0.0
 11
0.1261999999999992
 21
2.220446049250313E-16
 31
0.0
210
0.0
220
0.0
230
1.0
 40
0.9063077870366391
 41
1.570796326794893
 42
1.93985422624676
  0
LWPOLYLINE
  5
117
330
EC
100
AcDbEntity
  8
AM_9
 48
0.0063055240803105
100
AcDbPolyline
 90
       17
 70
     0
 43
0.0
 10
-1.265652123721393
 20
0.7064762661396903
 10
-1.246986690689378
 20
0.7101276702619833
 10
-1.22034413607417
 20
0.7120605378312687
 10
-1.193028976858676
 20
0.7101287623116718
 10
-1.166473971776393
 20
0.7043138673284388
 10
-1.141438636526269
 20
0.6946534904720006
 10
-1.118696022862792
 20
0.6813759789146264
 10
-1.099469110817792
 20
0.6651409607601427
 10
-1.083802433908226
 20
0.6460756392111471
 10
-1.072809153749846
 20
0.6257047151284929
 10
-1.066012224683069
 20
0.6037559805055568
 10
-1.063771399685511
 20
0.5820743868195628
 10
-1.065643797398974
 20
0.5601889914516516
 10
-1.071427047275454
 20
0.539266325583897
 10
-1.080850750539779
 20
0.5193474066282417
 10
-1.089966934469609
 20
0.5056383631672724
 10
-1.100737901136074
 20
0.4929518138866407
  0
LWPOLYLINE
  5
118
330
EC
100
AcDbEntity
  8
AM_9
 48
0.0063055240803105
100
AcDbPolyline
 90
        9
 70
     0
 43
0.0
 10
-1.100737901136074
 20
0.4929518138866407
 10
-1.117052505794309
 20
0.478184995251073
 10
-1.135491892973774
 20
0.4657443238136156
 10
-1.158722070384836
 20
0.4546873869228014
 10
-1.183537976368723
 20
0.447268639744102
 10
-1.210286872408725
 20
0.443653416105651
 10
-1.237300946102108
 20
0.444235519677651
 10
-1.264289218204959
 20
0.4491771691350587
 10
-1.265559109242995
 20
0.4495057196387341
  0
LINE
  5
119
330
EC
100
AcDbEntity
  8
AM_9
 48
0.0063055240803105
100
AcDbLine
 10
-1.265525
 20
-1.375
 30
0.0
 11
-0.94
 21
-1.375
 31
0.0
  0
LINE
  5
11A
330
EC
100
AcDbEntity
  8
AM_9
 48
0.0063055240803105
100
AcDbLine
 10
-0.94
 20
1.375
 30
0.0
 11
-1.06375
 21
1.375
 31
0.0
  0
LWPOLYLINE
  5
11B
330
EC
100
AcDbEntity
  8
AM_9
 48
0.0063055240803105
100
AcDbPolyline
 90
       13
 70
     0
 43
0.0
 10
-1.063750000000042
 20
1.374999999999996
 10
-1.065597017410984
 20
1.374812619856244
 10
-1.071216166181804
 20
1.374255986806327
 10
-1.080715018465871
 20
1.373361100930823
 10
-1.093527552812433
 20
1.372246056813539
 10
-1.109772359402606
 20
1.370984923616305
 10
-1.129080069890754
 20
1.369709022795597
 10
-1.151189956010213
 20
1.36854693075873
 10
-1.175586064860428
 20
1.367636767592361
 10
-1.20183085489531
 20
1.367095046119883
 10
-1.228693878067912
 20
1.36701106113551
 10
-1.256070477788024
 20
1.367415334717704
 10
-1.265672916302875
 20
1.367674160633057
  0
LINE
  5
11C
330
EC
100
AcDbEntity
  8
AM_9
 48
0.0063055240803105
100
AcDbLine
 10
-0.94
 20
1.375
 30
0.0
 11
-0.94
 21
-1.375
 31
0.0
  0
LINE
  5
11E
330
EC
100
AcDbEntity
  8
AM_5
 48
0.0063055240803105
100
AcDbLine
 10
-1.37625
 20
1.375
 30
0.0
 11
-1.37625
 21
0.875
 31
0.0
  0
LINE
  5
11F
330
EC
100
AcDbEntity
  8
AM_5
 48
0.0063055240803105
100
AcDbLine
 10
-1.06375
 20
1.375
 30
0.0
 11
-1.06375
 21
0.875
 31
0.0
  0
LINE
  5
122
330
EC
100
AcDbEntity
  8
AM_7
 48
0.0063055240803105
100
AcDbLine
 10
-1.22
 20
1.401041666666667
 30
0.0
 11
-1.22
 21
0.828125
 31
0.0
  0
ELLIPSE
  5
124
330
EC
100
AcDbEntity
  8
AM_0
 48
0.0063055240803105
100
AcDbEllipse
 10
-1.220000000000006
 20
0.3736861106688324
 30
0.0
 11
0.1261999999999863
 21
-2.048496183401062E-15
 31
0.0
210
0.0
220
0.0
230
1.0
 40
0.9063077870366555
 41
1.939854226246763
 42
2.123320634400418
  0
ELLIPSE
  5
125
330
EC
100
AcDbEntity
  8
AM_0
 48
0.0063055240803105
100
AcDbEllipse
 10
-1.22
 20
0.568400431128154
 30
0.0
 11
0.1262000000000003
 21
-8.155269011735718E-16
 31
0.0
210
0.0
220
0.0
230
1.0
 40
0.9063077870366496
 41
3.1415926535898
 42
4.343331080932832
  0
ELLIPSE
  5
126
330
EC
100
AcDbEntity
  8
AM_0
 48
0.0063055240803105
100
AcDbEllipse
 10
-1.22
 20
0.5684004311281539
 30
0.0
 11
0.1262000000000003
 21
2.109423746787797E-15
 31
0.0
210
0.0
220
0.0
230
1.0
 40
0.9063077870366478
 41
1.939854226246745
 42
3.141592653589775
  0
LINE
  5
127
330
EC
100
AcDbEntity
  8
AM_0
 48
0.0063055240803105
100
AcDbLine
 10
-1.5
 20
1.281666666666667
 30
0.0
 11
-1.5
 21
-1.281666666666667
 31
0.0
  0
ARC
  5
128
330
EC
100
AcDbEntity
  8
AM_0
 48
0.0063055240803105
100
AcDbCircle
 10
-1.406666666666667
 20
-1.281666666666667
 30
0.0
 40
0.0933333333333326
100
AcDbArc
 50
179.9999999999995
 51
270.0000000000002
  0
ARC
  5
129
330
EC
100
AcDbEntity
  8
AM_0
 48
0.0063055240803105
100
AcDbCircle
 10
-1.406666666666667
 20
1.281666666666667
 30
0.0
 40
0.0933333333333326
100
AcDbArc
 50
89.99999999999973
 51
180.0000000000006
  0
LWPOLYLINE
  5
12A
330
EC
100
AcDbEntity
  8
AM_0
 48
0.0063055240803105
100
AcDbPolyline
 90
       17
 70
     0
 43
0.0
 10
-1.265559109242995
 20
0.4495057196387341
 10
-1.29001308628885
 20
0.4583188756761399
 10
-1.313524275971437
 20
0.4713722948970543
 10
-1.334285601758116
 20
0.487972805995754
 10
-1.351027611144431
 20
0.5069986731919219
 10
-1.363919759244189
 20
0.5283313706339569
 10
-1.372047697163316
 20
0.5500770922468966
 10
-1.37593847519573
 20
0.5726171305514657
 10
-1.375484183905685
 20
0.5941942099697561
 10
-1.371045463425595
 20
0.6152276866481442
 10
-1.36283964844079
 20
0.6349181422963716
 10
-1.351179009021861
 20
0.6530336655464631
 10
-1.335905414122079
 20
0.6696048932712816
 10
-1.317830469953243
 20
0.6837520792037503
 10
-1.296332813732761
 20
0.6957048429348078
 10
-1.272905290297762
 20
0.7044983750785049
 10
-1.265652123721393
 20
0.7064762661396903
  0
LINE
  5
12B
330
EC
100
AcDbEntity
  8
AM_0
 48
0.0063055240803105
100
AcDbLine
 10
-1.406666666666667
 20
-1.375
 30
0.0
 11
-1.265525
 21
-1.375
 31
0.0
  0
LINE
  5
12C
330
EC
100
AcDbEntity
  8
AM_0
 48
0.0063055240803105
100
AcDbLine
 10
-1.37625
 20
1.375
 30
0.0
 11
-1.406666666666667
 21
1.375
 31
0.0
  0
LINE
  5
12E
330
EC
100
AcDbEntity
  8
AM_4
 48
0.0063055240803105
100
AcDbLine
 10
-1.406666666666667
 20
1.375
 30
0.0
 11
-1.406666666666667
 21
-1.375
 31
0.0
  0
LWPOLYLINE
  5
12F
330
EC
100
AcDbEntity
  8
AM_0
 48
0.0063055240803105
100
AcDbPolyline
 90
        9
 70
     0
 43
0.0
 10
-1.265672916302875
 20
1.367674160633057
 10
-1.281899686892216
 20
1.368249426366891
 10
-1.306671708626957
 20
1.369460917454835
 10
-1.327857641863691
 20
1.370815243767821
 10
-1.346452413466206
 20
1.37224439629973
 10
-1.360140110260821
 20
1.373439286972606
 10
-1.370105318328365
 20
1.374385073574348
 10
-1.37515370501682
 20
1.374888517493469
 10
-1.376249999999893
 20
1.374999999999989
  0
ENDBLK
  5
EF
330
EC
100
AcDbEntity
  8
0
100
AcDbBlockEnd
  0
BLOCK
  5
132
330
130
100
AcDbEntity
  8
0
100
AcDbBlockBegin
  2
3_B1U_K_106R_0_in_023255_2
 70
     2
 10
0.0
 20
0.0
 30
0.0
  3
3_B1U_K_106R_0_in_023255_2
  1

  0
ATTDEF
  5
134
330
130
100
AcDbEntity
  8
AM_6
100
AcDbText
 10
5.796975
 20
1.71875
 30
0.0
 40
0.5
  1
Type K Units- Body - Inch
100
AcDbAttributeDefinition
  3

  2
NN
 70
     8
280
     0
  0
ATTDEF
  5
135
330
130
100
AcDbEntity
  8
AM_6
100
AcDbText
 10
5.796975
 20
1.21875
 30
0.0
 40
0.5
  1
Type K
100
AcDbAttributeDefinition
  3

  2
NT
 70
     8
280
     0
  0
ATTDEF
  5
136
330
130
100
AcDbEntity
  8
AM_6
100
AcDbText
 10
5.796975
 20
0.71875
 30
0.0
 40
0.5
  1
B1U-K-106R
100
AcDbAttributeDefinition
  3

  2
NB
 70
     8
280
     0
  0
ATTDEF
  5
137
330
130
100
AcDbEntity
  8
AM_6
100
AcDbText
 10
5.796975
 20
0.21875
 30
0.0
 40
0.5
  1
$PN.
100
AcDbAttributeDefinition
  3

  2
NBSYN
 70
     8
280
     0
  0
ATTDEF
  5
138
330
130
100
AcDbEntity
  8
AM_6
100
AcDbText
 10
5.796975
 20
-0.28125
 30
0.0
 40
0.5
  1
B1U-K-106R
100
AcDbAttributeDefinition
  3

  2
LINA
 70
     8
280
     0
  0
ATTDEF
  5
139
330
130
100
AcDbEntity
  8
AM_6
100
AcDbText
 10
5.796975
 20
-0.78125
 30
0.0
 40
0.5
  1
1-3/8
100
AcDbAttributeDefinition
  3

  2
SS
 70
     8
280
     0
  0
ATTDEF
  5
13A
330
130
100
AcDbEntity
  8
AM_6
100
AcDbText
 10
5.796975
 20
-1.28125
 30
0.0
 40
0.5
  1
1.375000
100
AcDbAttributeDefinition
  3

  2
SS1
 70
     8
280
     0
  0
ATTDEF
  5
13B
330
130
100
AcDbEntity
  8
AM_6
100
AcDbText
 10
5.796975
 20
-1.78125
 30
0.0
 40
0.5
  1
B1U-K-106R
100
AcDbAttributeDefinition
  3

  2
PN
 70
     8
280
     0
  0
ATTDEF
  5
13C
330
130
100
AcDbEntity
  8
AM_6
100
AcDbText
 10
5.796975
 20
-2.28125
 30
0.0
 40
0.5
  1
B1U-K-106R
100
AcDbAttributeDefinition
  3

  2
PNA
 70
     8
280
     0
  0
ATTDEF
  5
13D
330
130
100
AcDbEntity
  8
AM_6
100
AcDbText
 10
5.796975
 20
-2.78125
 30
0.0
 40
0.5
  1
4
100
AcDbAttributeDefinition
  3

  2
WEIGHT
 70
     8
280
     0
  0
ATTDEF
  5
13E
330
130
100
AcDbEntity
  8
AM_6
100
AcDbText
 10
5.796975
 20
-3.28125
 30
0.0
 40
0.5
  1
2-17/32
100
AcDbAttributeDefinition
  3

  2
A
 70
     8
280
     0
  0
ATTDEF
  5
13F
330
130
100
AcDbEntity
  8
AM_6
100
AcDbText
 10
5.796975
 20
-3.78125
 30
0.0
 40
0.5
  1
2.531250
100
AcDbAttributeDefinition
  3

  2
A1
 70
     8
280
     0
  0
ATTDEF
  5
140
330
130
100
AcDbEntity
  8
AM_6
100
AcDbText
 10
5.796975
 20
-4.28125
 30
0.0
 40
0.5
  1
2-1/16
100
AcDbAttributeDefinition
  3

  2
B
 70
     8
280
     0
  0
ATTDEF
  5
141
330
130
100
AcDbEntity
  8
AM_6
100
AcDbText
 10
5.796975
 20
-4.78125
 30
0.0
 40
0.5
  1
2.062500
100
AcDbAttributeDefinition
  3

  2
B1
 70
     8
280
     0
  0
ATTDEF
  5
142
330
130
100
AcDbEntity
  8
AM_6
100
AcDbText
 10
5.796975
 20
-5.28125
 30
0.0
 40
0.5
  1
1-5/32
100
AcDbAttributeDefinition
  3

  2
C
 70
     8
280
     0
  0
ATTDEF
  5
143
330
130
100
AcDbEntity
  8
AM_6
100
AcDbText
 10
5.796975
 20
-5.78125
 30
0.0
 40
0.5
  1
1.156250
100
AcDbAttributeDefinition
  3

  2
C1
 70
     8
280
     0
  0
ATTDEF
  5
144
330
130
100
AcDbEntity
  8
AM_6
100
AcDbText
 10
5.796975
 20
-6.28125
 30
0.0
 40
0.5
  1
3-7/16
100
AcDbAttributeDefinition
  3

  2
D
 70
     8
280
     0
  0
ATTDEF
  5
145
330
130
100
AcDbEntity
  8
AM_6
100
AcDbText
 10
5.796975
 20
-6.78125
 30
0.0
 40
0.5
  1
3.437500
100
AcDbAttributeDefinition
  3

  2
D1
 70
     8
280
     0
  0
ATTDEF
  5
146
330
130
100
AcDbEntity
  8
AM_6
100
AcDbText
 10
5.796975
 20
-7.28125
 30
0.0
 40
0.5
  1
0.450
100
AcDbAttributeDefinition
  3

  2
E
 70
     8
280
     0
  0
ATTDEF
  5
147
330
130
100
AcDbEntity
  8
AM_6
100
AcDbText
 10
5.796975
 20
-7.78125
 30
0.0
 40
0.5
  1
3.250
100
AcDbAttributeDefinition
  3

  2
EM
 70
     8
280
     0
  0
ATTDEF
  5
148
330
130
100
AcDbEntity
  8
AM_6
100
AcDbText
 10
5.796975
 20
-8.28125
 30
0.0
 40
0.5
  1
3.310
100
AcDbAttributeDefinition
  3

  2
EC
 70
     8
280
     0
  0
ATTDEF
  5
149
330
130
100
AcDbEntity
  8
AM_6
100
AcDbText
 10
5.796975
 20
-8.78125
 30
0.0
 40
0.5
  1
11/16
100
AcDbAttributeDefinition
  3

  2
H
 70
     8
280
     0
  0
ATTDEF
  5
14A
330
130
100
AcDbEntity
  8
AM_6
100
AcDbText
 10
5.796975
 20
-9.28125
 30
0.0
 40
0.5
  1
0.687500
100
AcDbAttributeDefinition
  3

  2
H1
 70
     8
280
     0
  0
ATTDEF
  5
14B
330
130
100
AcDbEntity
  8
AM_6
100
AcDbText
 10
5.796975
 20
-9.78125
 30
0.0
 40
0.5
  1
2-5/8
100
AcDbAttributeDefinition
  3

  2
J
 70
     8
280
     0
  0
ATTDEF
  5
14C
330
130
100
AcDbEntity
  8
AM_6
100
AcDbText
 10
5.796975
 20
-10.28125
 30
0.0
 40
0.5
  1
2.625000
100
AcDbAttributeDefinition
  3

  2
J1
 70
     8
280
     0
  0
ATTDEF
  5
14D
330
130
100
AcDbEntity
  8
AM_6
100
AcDbText
 10
5.796975
 20
-10.78125
 30
0.0
 40
0.5
  1
3.625
100
AcDbAttributeDefinition
  3

  2
K
 70
     8
280
     0
  0
ATTDEF
  5
14E
330
130
100
AcDbEntity
  8
AM_6
100
AcDbText
 10
5.796975
 20
-11.28125
 30
0.0
 40
0.5
  1
2-3/4
100
AcDbAttributeDefinition
  3

  2
L
 70
     8
280
     0
  0
ATTDEF
  5
14F
330
130
100
AcDbEntity
  8
AM_6
100
AcDbText
 10
5.796975
 20
-11.78125
 30
0.0
 40
0.5
  1
2.750000
100
AcDbAttributeDefinition
  3

  2
L1
 70
     8
280
     0
  0
ATTDEF
  5
150
330
130
100
AcDbEntity
  8
AM_6
100
AcDbText
 10
5.796975
 20
-12.28125
 30
0.0
 40
0.5
  1
2-5/8
100
AcDbAttributeDefinition
  3

  2
M
 70
     8
280
     0
  0
ATTDEF
  5
151
330
130
100
AcDbEntity
  8
AM_6
100
AcDbText
 10
5.796975
 20
-12.78125
 30
0.0
 40
0.5
  1
2.625000
100
AcDbAttributeDefinition
  3

  2
M1
 70
     8
280
     0
  0
ATTDEF
  5
152
330
130
100
AcDbEntity
  8
AM_6
100
AcDbText
 10
5.796975
 20
-13.28125
 30
0.0
 40
0.5
  1
1-1/32
100
AcDbAttributeDefinition
  3

  2
R
 70
     8
280
     0
  0
ATTDEF
  5
153
330
130
100
AcDbEntity
  8
AM_6
100
AcDbText
 10
5.796975
 20
-13.78125
 30
0.0
 40
0.5
  1
1.031250
100
AcDbAttributeDefinition
  3

  2
R1
 70
     8
280
     0
  0
ATTDEF
  5
154
330
130
100
AcDbEntity
  8
AM_6
100
AcDbText
 10
5.796975
 20
-14.28125
 30
0.0
 40
0.5
  1
1-1/2
100
AcDbAttributeDefinition
  3

  2
S
 70
     8
280
     0
  0
ATTDEF
  5
155
330
130
100
AcDbEntity
  8
AM_6
100
AcDbText
 10
5.796975
 20
-14.78125
 30
0.0
 40
0.5
  1
1.500000
100
AcDbAttributeDefinition
  3

  2
S1
 70
     8
280
     0
  0
ATTDEF
  5
156
330
130
100
AcDbEntity
  8
AM_6
100
AcDbText
 10
5.796975
 20
-15.28125
 30
0.0
 40
0.5
  1
26000
100
AcDbAttributeDefinition
  3

  2
CS
 70
     8
280
     0
  0
ATTDEF
  5
157
330
130
100
AcDbEntity
  8
AM_6
100
AcDbText
 10
5.796975
 20
-15.78125
 30
0.0
 40
0.5
  1
4760
100
AcDbAttributeDefinition
  3

  2
CD
 70
     8
280
     0
  0
ATTDEF
  5
158
330
130
100
AcDbEntity
  8
AM_6
100
AcDbText
 10
5.796975
 20
-16.28125
 30
0.0
 40
0.5
  1
20
100
AcDbAttributeDefinition
  3

  2
RN
 70
     8
280
     0
  0
ATTDEF
  5
159
330
130
100
AcDbEntity
  8
AM_6
100
AcDbText
 10
5.796975
 20
-16.78125
 30
0.0
 40
0.5
  1
.29
100
AcDbAttributeDefinition
  3

  2
RM
 70
     8
280
     0
  0
ATTDEF
  5
15A
330
130
100
AcDbEntity
  8
AM_6
100
AcDbText
 10
5.796975
 20
-17.28125
 30
0.0
 40
0.5
  1
2.084
100
AcDbAttributeDefinition
  3

  2
PDI
 70
     8
280
     0
  0
ATTDEF
  5
15B
330
130
100
AcDbEntity
  8
AM_6
100
AcDbText
 10
5.796975
 20
-17.78125
 30
0.0
 40
0.5
  1
.004-.012
100
AcDbAttributeDefinition
  3

  2
EP
 70
     8
280
     0
  0
ATTDEF
  5
15C
330
130
100
AcDbEntity
  8
AM_6
100
AcDbText
 10
5.796975
 20
-18.28125
 30
0.0
 40
0.5
  1
5/16-18*5/8
100
AcDbAttributeDefinition
  3

  2
SC
 70
     8
280
     0
  0
ATTDEF
  5
15D
330
130
100
AcDbEntity
  8
AM_6
100
AcDbText
 10
5.796975
 20
-18.78125
 30
0.0
 40
0.5
  1
165
100
AcDbAttributeDefinition
  3

  2
TC
 70
     8
280
     0
  0
ATTDEF
  5
15E
330
130
100
AcDbEntity
  8
AM_6
100
AcDbText
 10
5.796975
 20
-19.28125
 30
0.0
 40
0.5
  1
C.I. ASTM A48 CLASS 30
100
AcDbAttributeDefinition
  3

  2
MH
 70
     8
280
     0
  0
ATTDEF
  5
15F
330
130
100
AcDbEntity
  8
AM_6
100
AcDbText
 10
5.796975
 20
-19.78125
 30
0.0
 40
0.5
  1
4118 CASE CARB.
100
AcDbAttributeDefinition
  3

  2
MC
 70
     8
280
     0
  0
ATTDEF
  5
160
330
130
100
AcDbEntity
  8
AM_6
100
AcDbText
 10
5.796975
 20
-20.28125
 30
0.0
 40
0.5
  1
4118 CASE CARB.
100
AcDbAttributeDefinition
  3

  2
MCU
 70
     8
280
     0
  0
ATTDEF
  5
161
330
130
100
AcDbEntity
  8
AM_6
100
AcDbText
 10
5.796975
 20
-20.78125
 30
0.0
 40
0.5
  1
STEEL
100
AcDbAttributeDefinition
  3

  2
MR
 70
     8
280
     0
  0
ATTDEF
  5
162
330
130
100
AcDbEntity
  8
AM_6
100
AcDbText
 10
5.796975
 20
-21.28125
 30
0.0
 40
0.5
  1
4118 CASE CARB.
100
AcDbAttributeDefinition
  3

  2
MROL
 70
     8
280
     0
  0
ATTDEF
  5
163
330
130
100
AcDbEntity
  8
AM_6
100
AcDbText
 10
5.796975
 20
-21.78125
 30
0.0
 40
0.5
  1
±.001" PER INCH
100
AcDbAttributeDefinition
  3

  2
SM
 70
     8
280
     0
  0
ATTDEF
  5
164
330
130
100
AcDbEntity
  8
AM_6
100
AcDbText
 10
5.796975
 20
-22.28125
 30
0.0
 40
0.5
  1
1.75000
100
AcDbAttributeDefinition
  3

  2
CC
 70
     8
280
     0
  0
ATTDEF
  5
165
330
130
100
AcDbEntity
  8
AM_6
100
AcDbText
 10
5.796975
 20
-22.78125
 30
0.0
 40
0.5
  1
baldor
100
AcDbAttributeDefinition
  3

  2
COMPANY
 70
     8
280
     0
  0
LINE
  5
166
330
130
100
AcDbEntity
  8
AM_9
 48
0.0096358676237838
100
AcDbLine
 10
-1.403025
 20
1.2375
 30
0.0
 11
-1.403025
 21
0.6875
 31
0.0
  0
LINE
  5
167
330
130
100
AcDbEntity
  8
AM_9
 48
0.0096358676237838
100
AcDbLine
 10
-1.128025
 20
0.6875
 30
0.0
 11
-1.128025
 21
1.2375
 31
0.0
  0
LINE
  5
168
330
130
100
AcDbEntity
  8
AM_9
 48
0.0096358676237838
100
AcDbLine
 10
-1.4999
 20
-0.6875
 30
0.0
 11
0.7969749999999998
 21
-0.6875
 31
0.0
  0
LINE
  5
169
330
130
100
AcDbEntity
  8
AM_9
 48
0.0096358676237838
100
AcDbLine
 10
0.7969749999999998
 20
0.6875
 30
0.0
 11
-1.128025
 21
0.6875
 31
0.0
  0
LINE
  5
16A
330
130
100
AcDbEntity
  8
AM_9
 48
0.0096358676237838
100
AcDbLine
 10
-1.403025
 20
0.6875
 30
0.0
 11
-1.4999
 21
0.6875
 31
0.0
  0
LWPOLYLINE
  5
16B
330
130
100
AcDbEntity
  8
AM_9
 48
0.0096358676237838
100
AcDbPolyline
 90
       21
 70
     0
 43
0.0
 10
-1.403024999998784
 20
0.6874999999997569
 10
-1.402915762026559
 20
0.6874781607369347
 10
-1.400024344960978
 20
0.686906160836349
 10
-1.393606433436007
 20
0.6856783893276951
 10
-1.38348710500511
 20
0.6838604084294079
 10
-1.370323844920965
 20
0.6817131346077824
 10
-1.353852205307279
 20
0.6793759601261986
 10
-1.335114160519863
 20
0.6771946922871289
 10
-1.313779848378896
 20
0.6753358648791504
 10
-1.291774444014063
 20
0.6741209337433807
 10
-1.268325516227606
 20
0.6736155007800377
 10
-1.245878020495829
 20
0.6738961372523493
 10
-1.223349276879501
 20
0.6749287307714326
 10
-1.202666001143617
 20
0.6765362176093951
 10
-1.183172577596047
 20
0.6786250227303728
 10
-1.166166004988928
 20
0.6808980906784878
 10
-1.151506137228316
 20
0.6831912624351603
 10
-1.140305838678907
 20
0.6851495007383118
 10
-1.132415450305694
 20
0.6866353852080601
 10
-1.129146139091377
 20
0.687276650049115
 10
-1.128025
 20
0.6875
  0
LWPOLYLINE
  5
16C
330
130
100
AcDbEntity
  8
AM_9
 48
0.0096358676237838
100
AcDbPolyline
 90
       11
 70
     0
 43
0.0
 10
-1.265525
 20
0.1600624310253031
 10
-1.24302765425838
 20
0.1619005104257014
 10
-1.22053030851676
 20
0.1675578292093808
 10
-1.199932761509704
 20
0.1765019551913887
 10
-1.18061658656781
 20
0.1889135998286458
 10
-1.163949602862699
 20
0.2039059083031714
 10
-1.149705920238061
 20
0.2216911991944801
 10
-1.13898677125601
 20
0.2409006879758903
 10
-1.131630740653482
 20
0.2618978048628195
 10
-1.128306846953214
 20
0.2825513406566954
 10
-1.128025000361419
 20
0.2905410195130871
  0
LINE
  5
16D
330
130
100
AcDbEntity
  8
AM_9
 48
0.0096358676237838
100
AcDbLine
 10
-1.403025
 20
0.5229895283248134
 30
0.0
 11
-1.403025
 21
0.2905330821496871
 31
0.0
  0
LINE
  5
16E
330
130
100
AcDbEntity
  8
AM_9
 48
0.0096358676237838
100
AcDbLine
 10
-1.128025
 20
0.2905105543849055
 30
0.0
 11
-1.128025
 21
0.5229690875343035
 31
0.0
  0
LWPOLYLINE
  5
16F
330
130
100
AcDbEntity
  8
AM_9
 48
0.0096358676237838
100
AcDbPolyline
 90
        8
 70
     0
 43
0.0
 10
-1.344556550781393
 20
0.3886081934247751
 10
-1.354522786948146
 20
0.3821459850266408
 10
-1.370890510577154
 20
0.3682066326732196
 10
-1.384107666741884
 20
0.3521378430640865
 10
-1.394276607963854
 20
0.3335739704032402
 10
-1.400493484237636
 20
0.3141405616501166
 10
-1.402996027932962
 20
0.2931056557321809
 10
-1.403024999439651
 20
0.2905613053891255
  0
LWPOLYLINE
  5
170
330
130
100
AcDbEntity
  8
AM_9
 48
0.0096358676237838
100
AcDbPolyline
 90
        4
 70
     0
 43
0.0
 10
-1.310603832269513
 20
0.4030463690499488
 10
-1.315536939898493
 20
0.4015452059464321
 10
-1.336155251186021
 20
0.3931601973352163
 10
-1.344556550781393
 20
0.3886081934247751
  0
LWPOLYLINE
  5
171
330
130
100
AcDbEntity
  8
AM_9
 48
0.0096358676237838
100
AcDbPolyline
 90
        4
 70
     0
 43
0.0
 10
-1.265525
 20
0.4092970724603818
 10
-1.271022407971684
 20
0.409206912939513
 10
-1.294108264299722
 20
0.4068309456558447
 10
-1.310603832269513
 20
0.4030463690499488
  0
LWPOLYLINE
  5
172
330
130
100
AcDbEntity
  8
AM_9
 48
0.0096358676237838
100
AcDbPolyline
 90
        4
 70
     0
 43
0.0
 10
-1.219789300090827
 20
0.4028567573815124
 10
-1.225296725553785
 20
0.404351566317187
 10
-1.248438394101736
 20
0.4084227224511149
 10
-1.265525
 20
0.4092970724603818
  0
LWPOLYLINE
  5
173
330
130
100
AcDbEntity
  8
AM_9
 48
0.0096358676237838
100
AcDbPolyline
 90
        9
 70
     0
 43
0.0
 10
-1.128025000361419
 20
0.2905410195130871
 10
-1.128803446342011
 20
0.3037260482932507
 10
-1.132992693238819
 20
0.3233315641151873
 10
-1.140960298419226
 20
0.3422739737558025
 10
-1.15211882589367
 20
0.3591527573327176
 10
-1.166732968039566
 20
0.3744014151169006
 10
-1.183933292027935
 20
0.3870664642668317
 10
-1.203996584400696
 20
0.3973094138594165
 10
-1.219789300090827
 20
0.4028567573815124
  0
LWPOLYLINE
  5
174
330
130
100
AcDbEntity
  8
AM_9
 48
0.0096358676237838
100
AcDbPolyline
 90
       11
 70
     0
 43
0.0
 10
-1.403024999439651
 20
0.2905613053891255
 10
-1.401615825932552
 20
0.2726360898183411
 10
-1.396397298469717
 20
0.2517797328178122
 10
-1.387809759888896
 20
0.2323526760116931
 10
-1.375618576465794
 20
0.2137997051633876
 10
-1.360555961291132
 20
0.1974345268615182
 10
-1.342362179574463
 20
0.1831816976376549
 10
-1.322312882852472
 20
0.1721968868381531
 10
-1.299979953075366
 20
0.1644104424651231
 10
-1.28304111868181
 20
0.1611739547997436
 10
-1.265525
 20
0.1600624310253031
  0
LWPOLYLINE
  5
175
330
130
100
AcDbEntity
  8
AM_9
 48
0.0096358676237838
100
AcDbPolyline
 90
       11
 70
     0
 43
0.0
 10
-1.265525
 20
0.6443690596992909
 10
-1.273338221120848
 20
0.6441667989051757
 10
-1.296198559473848
 20
0.6413903418790069
 10
-1.31812303171695
 20
0.6353538345345654
 10
-1.338574427626909
 20
0.6262440202066341
 10
-1.357031995942809
 20
0.6141860703150687
 10
-1.372924148823737
 20
0.599544010164248
 10
-1.385818895201927
 20
0.5825665749005554
 10
-1.395315827924556
 20
0.5637788181631248
 10
-1.401081585952406
 20
0.5437000781974607
 10
-1.403024999996195
 20
0.5229891716518339
  0
LWPOLYLINE
  5
176
330
130
100
AcDbEntity
  8
AM_9
 48
0.0096358676237838
100
AcDbPolyline
 90
        4
 70
     0
 43
0.0
 10
-1.210020363350349
 20
0.6342937652573921
 10
-1.227494016115633
 20
0.6397438374451418
 10
-1.250256680644803
 20
0.6436384392246868
 10
-1.265525
 20
0.6443690596992909
  0
LWPOLYLINE
  5
177
330
130
100
AcDbEntity
  8
AM_9
 48
0.0096358676237838
100
AcDbPolyline
 90
        9
 70
     0
 43
0.0
 10
-1.128025000563835
 20
0.5229788134471064
 10
-1.128902963084545
 20
0.537009017869624
 10
-1.133421231242569
 20
0.5572652168650298
 10
-1.141614752841814
 20
0.5764016740598714
 10
-1.153327087656855
 20
0.5939271030192579
 10
-1.168167811147847
 20
0.6093775351390104
 10
-1.185865370448921
 20
0.6223998898573708
 10
-1.205816287631495
 20
0.6326185589010455
 10
-1.210020363350349
 20
0.6342937652573921
  0
LWPOLYLINE
  5
178
330
130
100
AcDbEntity
  8
AM_9
 48
0.0096358676237838
100
AcDbPolyline
 90
       11
 70
     0
 43
0.0
 10
-1.403024999996195
 20
0.5229891716518339
 10
-1.403024923946844
 20
0.5228590261418493
 10
-1.401054490550519
 20
0.5019503153655869
 10
-1.395303317874032
 20
0.4814644726615502
 10
-1.385888875856586
 20
0.4620141611871387
 10
-1.373127140526553
 20
0.4441538118681254
 10
-1.357241465647119
 20
0.428368069998365
 10
-1.338774760809018
 20
0.4152106685934365
 10
-1.31815362204044
 20
0.4051144109161909
 10
-1.296032684981359
 20
0.3984003544289082
 10
-1.265525
 20
0.3951344182642123
  0
LINE
  5
179
330
130
100
AcDbEntity
  8
AM_9
 48
0.0096358676237838
100
AcDbLine
 10
0.7969749999999999
 20
1.2375
 30
0.0
 11
0.6188500000000002
 21
1.2375
 31
0.0
  0
LINE
  5
17A
330
130
100
AcDbEntity
  8
AM_9
 48
0.0096358676237838
100
AcDbLine
 10
0.61885
 20
-1.2375
 30
0.0
 11
0.7969749999999997
 21
-1.2375
 31
0.0
  0
LWPOLYLINE
  5
17B
330
130
100
AcDbEntity
  8
AM_9
 48
0.0096358676237838
100
AcDbPolyline
 90
        4
 70
     0
 43
0.0
 10
-1.134516108738471
 20
0.4848555942184609
 10
-1.131455227810833
 20
0.4951693697971273
 10
-1.128249977788552
 20
0.5160800825496059
 10
-1.128025000563835
 20
0.5229788134471064
  0
LWPOLYLINE
  5
17C
330
130
100
AcDbEntity
  8
AM_9
 48
0.0096358676237838
100
AcDbPolyline
 90
        7
 70
     0
 43
0.0
 10
-1.210037694677473
 20
0.4062605811923958
 10
-1.19912043144216
 20
0.4114022050874862
 10
-1.179932701623358
 20
0.4234799408254184
 10
-1.163110867300912
 20
0.4384179460979366
 10
-1.149167707943595
 20
0.4556754497653781
 10
-1.138516008992767
 20
0.4748064040647433
 10
-1.134516108738471
 20
0.4848555942184609
  0
LWPOLYLINE
  5
17D
330
130
100
AcDbEntity
  8
AM_9
 48
0.0096358676237838
100
AcDbPolyline
 90
        4
 70
     0
 43
0.0
 10
-1.265525
 20
0.3951344182642123
 10
-1.242522919046674
 20
0.3969954483586133
 10
-1.220171140055238
 20
0.4024619747661512
 10
-1.210037694677473
 20
0.4062605811923958
  0
LINE
  5
17E
330
130
100
AcDbEntity
  8
AM_9
 48
0.0096358676237838
100
AcDbLine
 10
-1.4999
 20
-1.2375
 30
0.0
 11
-1.0874
 21
-1.2375
 31
0.0
  0
LINE
  5
17F
330
130
100
AcDbEntity
  8
AM_9
 48
0.0096358676237838
100
AcDbLine
 10
-1.0874
 20
1.2375
 30
0.0
 11
-1.128025
 21
1.2375
 31
0.0
  0
LINE
  5
180
330
130
100
AcDbEntity
  8
AM_9
 48
0.0096358676237838
100
AcDbLine
 10
-1.403025
 20
1.2375
 30
0.0
 11
-1.4999
 21
1.2375
 31
0.0
  0
LWPOLYLINE
  5
181
330
130
100
AcDbEntity
  8
AM_9
 48
0.0096358676237838
100
AcDbPolyline
 90
        8
 70
     0
 43
0.0
 10
-1.210037025331113
 20
1.231088508326211
 10
-1.199359642629343
 20
1.231615952525781
 10
-1.179923231738838
 20
1.232812906620237
 10
-1.163313175850484
 20
1.234077492297778
 10
-1.149161114844301
 20
1.23533013958558
 10
-1.138627333432491
 20
1.23636686213287
 10
-1.131452481752061
 20
1.237123858047101
 10
-1.128025
 20
1.2375
  0
LWPOLYLINE
  5
182
330
130
100
AcDbEntity
  8
AM_9
 48
0.0096358676237838
100
AcDbPolyline
 90
        5
 70
     0
 43
0.0
 10
-1.26552499999999
 20
1.229837387624886
 10
-1.265378246555234
 20
1.229837396380747
 10
-1.24273482202745
 20
1.230048532462041
 10
-1.220095628892101
 20
1.23067616689333
 10
-1.210037025331113
 20
1.231088508326211
  0
LWPOLYLINE
  5
183
330
130
100
AcDbEntity
  8
AM_9
 48
0.0096358676237838
100
AcDbPolyline
 90
       11
 70
     0
 43
0.0
 10
-1.403024999999923
 20
1.237499999999992
 10
-1.40282139601011
 20
1.237477393877304
 10
-1.399560296285438
 20
1.237119824693762
 10
-1.392689625715235
 20
1.23639429068291
 10
-1.382014348001483
 20
1.23534196407222
 10
-1.368362886574672
 20
1.234129503299854
 10
-1.351382066208033
 20
1.232830659830396
 10
-1.332394895585299
 20
1.231654002930851
 10
-1.310917912078441
 20
1.230674821578374
 10
-1.288808955591983
 20
1.230057780182707
 10
-1.26552499999999
 20
1.229837387624886
  0
LINE
  5
184
330
130
100
AcDbEntity
  8
AM_9
 48
0.0096358676237838
100
AcDbLine
 10
-1.4999
 20
1.2375
 30
0.0
 11
-1.4999
 21
-1.2375
 31
0.0
  0
LINE
  5
185
330
130
100
AcDbEntity
  8
AM_9
 48
0.0096358676237838
100
AcDbLine
 10
-1.0874
 20
1.41025641025641
 30
0.0
 11
-1.265525
 21
1.441664653695106
 31
0.0
  0
LINE
  5
186
330
130
100
AcDbEntity
  8
AM_9
 48
0.0096358676237838
100
AcDbLine
 10
-1.265525
 20
-1.441664653695106
 30
0.0
 11
-1.0874
 21
-1.41025641025641
 31
0.0
  0
LINE
  5
187
330
130
100
AcDbEntity
  8
AM_9
 48
0.0096358676237838
100
AcDbLine
 10
-1.0874
 20
1.41025641025641
 30
0.0
 11
-1.0874
 21
-1.41025641025641
 31
0.0
  0
LINE
  5
188
330
130
100
AcDbEntity
  8
AM_9
 48
0.0096358676237838
100
AcDbLine
 10
0.6188499999999998
 20
-1.41025641025641
 30
0.0
 11
0.61885
 21
1.41025641025641
 31
0.0
  0
LINE
  5
189
330
130
100
AcDbEntity
  8
AM_9
 48
0.0096358676237838
100
AcDbLine
 10
0.6188499999999998
 20
-1.41025641025641
 30
0.0
 11
0.7969749999999998
 21
-1.441664653695106
 31
0.0
  0
LINE
  5
18A
330
130
100
AcDbEntity
  8
AM_9
 48
0.0096358676237838
100
AcDbLine
 10
0.7969749999999998
 20
1.441664653695106
 30
0.0
 11
0.61885
 21
1.41025641025641
 31
0.0
  0
LINE
  5
18B
330
130
100
AcDbEntity
  8
AM_9
 48
0.0096358676237838
100
AcDbLine
 10
0.7969749999999999
 20
1.70075
 30
0.0
 11
0.7789749999999999
 21
1.71875
 31
0.0
  0
LINE
  5
18C
330
130
100
AcDbEntity
  8
AM_9
 48
0.0096358676237838
100
AcDbLine
 10
0.7789749999999999
 20
-1.71875
 30
0.0
 11
0.7969749999999999
 21
-1.70075
 31
0.0
  0
LINE
  5
18D
330
130
100
AcDbEntity
  8
AM_9
 48
0.0096358676237838
100
AcDbLine
 10
0.7969749999999999
 20
1.70075
 30
0.0
 11
0.7969749999999999
 21
-1.70075
 31
0.0
  0
LINE
  5
18E
330
130
100
AcDbEntity
  8
AM_9
 48
0.0096358676237838
100
AcDbLine
 10
-1.03125
 20
-1.71875
 30
0.0
 11
0.7789749999999999
 21
-1.71875
 31
0.0
  0
LINE
  5
18F
330
130
100
AcDbEntity
  8
AM_9
 48
0.0096358676237838
100
AcDbLine
 10
0.7789749999999999
 20
1.71875
 30
0.0
 11
-1.03125
 21
1.71875
 31
0.0
  0
LINE
  5
190
330
130
100
AcDbEntity
  8
AM_9
 48
0.0096358676237838
100
AcDbLine
 10
0.7789749999999999
 20
1.71875
 30
0.0
 11
0.7789749999999999
 21
-1.71875
 31
0.0
  0
LINE
  5
191
330
130
100
AcDbEntity
  8
AM_7
 48
0.0096358676237838
100
AcDbLine
 10
-1.265525
 20
-0.06875
 30
0.0
 11
-1.265525
 21
1.44375
 31
0.0
  0
LINE
  5
192
330
130
100
AcDbEntity
  8
AM_0
 48
0.0096358676237838
100
AcDbLine
 10
-1.247525
 20
-1.71875
 30
0.0
 11
-1.03125
 21
-1.71875
 31
0.0
  0
LINE
  5
193
330
130
100
AcDbEntity
  8
AM_0
 48
0.0096358676237838
100
AcDbLine
 10
-1.03125
 20
1.71875
 30
0.0
 11
-1.247525
 21
1.71875
 31
0.0
  0
LINE
  5
194
330
130
100
AcDbEntity
  8
AM_0
 48
0.0096358676237838
100
AcDbLine
 10
-1.265525
 20
-1.70075
 30
0.0
 11
-1.247525
 21
-1.71875
 31
0.0
  0
LINE
  5
195
330
130
100
AcDbEntity
  8
AM_0
 48
0.0096358676237838
100
AcDbLine
 10
-1.247525
 20
1.71875
 30
0.0
 11
-1.265525
 21
1.70075
 31
0.0
  0
LINE
  5
196
330
130
100
AcDbEntity
  8
AM_0
 48
0.0096358676237838
100
AcDbLine
 10
-1.265525
 20
1.70075
 30
0.0
 11
-1.265525
 21
-1.70075
 31
0.0
  0
LINE
  5
197
330
130
100
AcDbEntity
  8
AM_0
 48
0.0096358676237838
100
AcDbLine
 10
-1.247525
 20
1.71875
 30
0.0
 11
-1.247525
 21
-1.71875
 31
0.0
  0
ENDBLK
  5
133
330
130
100
AcDbEntity
  8
0
100
AcDbBlockEnd
  0
BLOCK
  5
19A
330
198
100
AcDbEntity
  8
0
100
AcDbBlockBegin
  2
4_WSTU_K_107R_0_in_023255_2
 70
     2
 10
0.0
 20
0.0
 30
0.0
  3
4_WSTU_K_107R_0_in_023255_2
  1

  0
ATTDEF
  5
19C
330
198
100
AcDbEntity
  8
AM_6
100
AcDbText
 10
6.5125
 20
2.0625
 30
0.0
 40
0.5
  1
Wide Slot Take-Up Unit - Inch
100
AcDbAttributeDefinition
  3

  2
NN
 70
     8
280
     0
  0
ATTDEF
  5
19D
330
198
100
AcDbEntity
  8
AM_6
100
AcDbText
 10
6.5125
 20
1.5625
 30
0.0
 40
0.5
  1
Type K
100
AcDbAttributeDefinition
  3

  2
NT
 70
     8
280
     0
  0
ATTDEF
  5
19E
330
198
100
AcDbEntity
  8
AM_6
100
AcDbText
 10
6.5125
 20
1.0625
 30
0.0
 40
0.5
  1
WSTU-K-107R
100
AcDbAttributeDefinition
  3

  2
NB
 70
     8
280
     0
  0
ATTDEF
  5
19F
330
198
100
AcDbEntity
  8
AM_6
100
AcDbText
 10
6.5125
 20
0.5625000000000004
 30
0.0
 40
0.5
  1
$PN.
100
AcDbAttributeDefinition
  3

  2
NBSYN
 70
     8
280
     0
  0
ATTDEF
  5
1A0
330
198
100
AcDbEntity
  8
AM_6
100
AcDbText
 10
6.5125
 20
0.0625000000000004
 30
0.0
 40
0.5
  1
WSTU-K-107R
100
AcDbAttributeDefinition
  3

  2
LINA
 70
     8
280
     0
  0
ATTDEF
  5
1A1
330
198
100
AcDbEntity
  8
AM_6
100
AcDbText
 10
6.5125
 20
-0.4374999999999996
 30
0.0
 40
0.5
  1
1-3/8
100
AcDbAttributeDefinition
  3

  2
SS
 70
     8
280
     0
  0
ATTDEF
  5
1A2
330
198
100
AcDbEntity
  8
AM_6
100
AcDbText
 10
6.5125
 20
-0.9374999999999996
 30
0.0
 40
0.5
  1
1.437500
100
AcDbAttributeDefinition
  3

  2
SS1
 70
     8
280
     0
  0
ATTDEF
  5
1A3
330
198
100
AcDbEntity
  8
AM_6
100
AcDbText
 10
6.5125
 20
-1.4375
 30
0.0
 40
0.5
  1
WSTU-K-107R
100
AcDbAttributeDefinition
  3

  2
PN
 70
     8
280
     0
  0
ATTDEF
  5
1A4
330
198
100
AcDbEntity
  8
AM_6
100
AcDbText
 10
6.5125
 20
-1.9375
 30
0.0
 40
0.5
  1
WSTU-K-107R
100
AcDbAttributeDefinition
  3

  2
PNA
 70
     8
280
     0
  0
ATTDEF
  5
1A5
330
198
100
AcDbEntity
  8
AM_6
100
AcDbText
 10
6.5125
 20
-2.4375
 30
0.0
 40
0.5
  1
8
100
AcDbAttributeDefinition
  3

  2
WEIGHT
 70
     8
280
     0
  0
ATTDEF
  5
1A6
330
198
100
AcDbEntity
  8
AM_6
100
AcDbText
 10
6.5125
 20
-2.9375
 30
0.0
 40
0.5
  1
3.250000
100
AcDbAttributeDefinition
  3

  2
BOD
 70
     8
280
     0
  0
ATTDEF
  5
1A7
330
198
100
AcDbEntity
  8
AM_6
100
AcDbText
 10
6.5125
 20
-3.4375
 30
0.0
 40
0.5
  1
CP308
100
AcDbAttributeDefinition
  3

  2
CP
 70
     8
280
     0
  0
ATTDEF
  5
1A8
330
198
100
AcDbEntity
  8
AM_6
100
AcDbText
 10
6.5125
 20
-3.9375
 30
0.0
 40
0.5
  1
2-17/32
100
AcDbAttributeDefinition
  3

  2
A
 70
     8
280
     0
  0
ATTDEF
  5
1A9
330
198
100
AcDbEntity
  8
AM_6
100
AcDbText
 10
6.5125
 20
-4.4375
 30
0.0
 40
0.5
  1
2.531250
100
AcDbAttributeDefinition
  3

  2
A1
 70
     8
280
     0
  0
ATTDEF
  5
1AA
330
198
100
AcDbEntity
  8
AM_6
100
AcDbText
 10
6.5125
 20
-4.9375
 30
0.0
 40
0.5
  1
5-3/32
100
AcDbAttributeDefinition
  3

  2
B
 70
     8
280
     0
  0
ATTDEF
  5
1AB
330
198
100
AcDbEntity
  8
AM_6
100
AcDbText
 10
6.5125
 20
-5.4375
 30
0.0
 40
0.5
  1
5.093750
100
AcDbAttributeDefinition
  3

  2
B1
 70
     8
280
     0
  0
ATTDEF
  5
1AC
330
198
100
AcDbEntity
  8
AM_6
100
AcDbText
 10
6.5125
 20
-5.9375
 30
0.0
 40
0.5
  1
17/32
100
AcDbAttributeDefinition
  3

  2
C
 70
     8
280
     0
  0
ATTDEF
  5
1AD
330
198
100
AcDbEntity
  8
AM_6
100
AcDbText
 10
6.5125
 20
-6.4375
 30
0.0
 40
0.5
  1
0.531250
100
AcDbAttributeDefinition
  3

  2
C1
 70
     8
280
     0
  0
ATTDEF
  5
1AE
330
198
100
AcDbEntity
  8
AM_6
100
AcDbText
 10
6.5125
 20
-6.9375
 30
0.0
 40
0.5
  1
2-3/4
100
AcDbAttributeDefinition
  3

  2
D
 70
     8
280
     0
  0
ATTDEF
  5
1AF
330
198
100
AcDbEntity
  8
AM_6
100
AcDbText
 10
6.5125
 20
-7.4375
 30
0.0
 40
0.5
  1
2.750000
100
AcDbAttributeDefinition
  3

  2
D1
 70
     8
280
     0
  0
ATTDEF
  5
1B0
330
198
100
AcDbEntity
  8
AM_6
100
AcDbText
 10
6.5125
 20
-7.9375
 30
0.0
 40
0.5
  1
3-7/32
100
AcDbAttributeDefinition
  3

  2
E
 70
     8
280
     0
  0
ATTDEF
  5
1B1
330
198
100
AcDbEntity
  8
AM_6
100
AcDbText
 10
6.5125
 20
-8.4375
 30
0.0
 40
0.5
  1
3.218750
100
AcDbAttributeDefinition
  3

  2
E1
 70
     8
280
     0
  0
ATTDEF
  5
1B2
330
198
100
AcDbEntity
  8
AM_6
100
AcDbText
 10
6.5125
 20
-8.9375
 30
0.0
 40
0.5
  1
3/4
100
AcDbAttributeDefinition
  3

  2
F
 70
     8
280
     0
  0
ATTDEF
  5
1B3
330
198
100
AcDbEntity
  8
AM_6
100
AcDbText
 10
6.5125
 20
-9.4375
 30
0.0
 40
0.5
  1
0.750000
100
AcDbAttributeDefinition
  3

  2
F1
 70
     8
280
     0
  0
ATTDEF
  5
1B4
330
198
100
AcDbEntity
  8
AM_6
100
AcDbText
 10
6.5125
 20
-9.9375
 30
0.0
 40
0.5
  1
11/16
100
AcDbAttributeDefinition
  3

  2
G
 70
     8
280
     0
  0
ATTDEF
  5
1B5
330
198
100
AcDbEntity
  8
AM_6
100
AcDbText
 10
6.5125
 20
-10.4375
 30
0.0
 40
0.5
  1
0.687500
100
AcDbAttributeDefinition
  3

  2
G1
 70
     8
280
     0
  0
ATTDEF
  5
1B6
330
198
100
AcDbEntity
  8
AM_6
100
AcDbText
 10
6.5125
 20
-10.9375
 30
0.0
 40
0.5
  1
5/8
100
AcDbAttributeDefinition
  3

  2
H
 70
     8
280
     0
  0
ATTDEF
  5
1B7
330
198
100
AcDbEntity
  8
AM_6
100
AcDbText
 10
6.5125
 20
-11.4375
 30
0.0
 40
0.5
  1
0.625000
100
AcDbAttributeDefinition
  3

  2
H1
 70
     8
280
     0
  0
ATTDEF
  5
1B8
330
198
100
AcDbEntity
  8
AM_6
100
AcDbText
 10
6.5125
 20
-11.9375
 30
0.0
 40
0.5
  1
2-7/16
100
AcDbAttributeDefinition
  3

  2
J
 70
     8
280
     0
  0
ATTDEF
  5
1B9
330
198
100
AcDbEntity
  8
AM_6
100
AcDbText
 10
6.5125
 20
-12.4375
 30
0.0
 40
0.5
  1
2.437500
100
AcDbAttributeDefinition
  3

  2
J1
 70
     8
280
     0
  0
ATTDEF
  5
1BA
330
198
100
AcDbEntity
  8
AM_6
100
AcDbText
 10
6.5125
 20
-12.9375
 30
0.0
 40
0.5
  1
1-7/16
100
AcDbAttributeDefinition
  3

  2
K
 70
     8
280
     0
  0
ATTDEF
  5
1BB
330
198
100
AcDbEntity
  8
AM_6
100
AcDbText
 10
6.5125
 20
-13.4375
 30
0.0
 40
0.5
  1
1.437500
100
AcDbAttributeDefinition
  3

  2
K1
 70
     8
280
     0
  0
ATTDEF
  5
1BC
330
198
100
AcDbEntity
  8
AM_6
100
AcDbText
 10
6.5125
 20
-13.9375
 30
0.0
 40
0.5
  1
2-3/4
100
AcDbAttributeDefinition
  3

  2
L
 70
     8
280
     0
  0
ATTDEF
  5
1BD
330
198
100
AcDbEntity
  8
AM_6
100
AcDbText
 10
6.5125
 20
-14.4375
 30
0.0
 40
0.5
  1
2.750000
100
AcDbAttributeDefinition
  3

  2
L1
 70
     8
280
     0
  0
ATTDEF
  5
1BE
330
198
100
AcDbEntity
  8
AM_6
100
AcDbText
 10
6.5125
 20
-14.9375
 30
0.0
 40
0.5
  1
3-1/2
100
AcDbAttributeDefinition
  3

  2
M
 70
     8
280
     0
  0
ATTDEF
  5
1BF
330
198
100
AcDbEntity
  8
AM_6
100
AcDbText
 10
6.5125
 20
-15.4375
 30
0.0
 40
0.5
  1
3.500000
100
AcDbAttributeDefinition
  3

  2
M1
 70
     8
280
     0
  0
ATTDEF
  5
1C0
330
198
100
AcDbEntity
  8
AM_6
100
AcDbText
 10
6.5125
 20
-15.9375
 30
0.0
 40
0.5
  1
4-1/8
100
AcDbAttributeDefinition
  3

  2
N
 70
     8
280
     0
  0
ATTDEF
  5
1C1
330
198
100
AcDbEntity
  8
AM_6
100
AcDbText
 10
6.5125
 20
-16.4375
 30
0.0
 40
0.5
  1
4.125000
100
AcDbAttributeDefinition
  3

  2
N1
 70
     8
280
     0
  0
ATTDEF
  5
1C2
330
198
100
AcDbEntity
  8
AM_6
100
AcDbText
 10
6.5125
 20
-16.9375
 30
0.0
 40
0.5
  1
1-1/32
100
AcDbAttributeDefinition
  3

  2
R
 70
     8
280
     0
  0
ATTDEF
  5
1C3
330
198
100
AcDbEntity
  8
AM_6
100
AcDbText
 10
6.5125
 20
-17.4375
 30
0.0
 40
0.5
  1
1.031250
100
AcDbAttributeDefinition
  3

  2
R1
 70
     8
280
     0
  0
ATTDEF
  5
1C4
330
198
100
AcDbEntity
  8
AM_6
100
AcDbText
 10
6.5125
 20
-17.9375
 30
0.0
 40
0.5
  1
1-1/2
100
AcDbAttributeDefinition
  3

  2
S
 70
     8
280
     0
  0
ATTDEF
  5
1C5
330
198
100
AcDbEntity
  8
AM_6
100
AcDbText
 10
6.5125
 20
-18.4375
 30
0.0
 40
0.5
  1
1.500000
100
AcDbAttributeDefinition
  3

  2
S1
 70
     8
280
     0
  0
ATTDEF
  5
1C6
330
198
100
AcDbEntity
  8
AM_6
100
AcDbText
 10
6.5125
 20
-18.9375
 30
0.0
 40
0.5
  1
2-1/16
100
AcDbAttributeDefinition
  3

  2
T
 70
     8
280
     0
  0
ATTDEF
  5
1C7
330
198
100
AcDbEntity
  8
AM_6
100
AcDbText
 10
6.5125
 20
-19.4375
 30
0.0
 40
0.5
  1
2.062500
100
AcDbAttributeDefinition
  3

  2
T1
 70
     8
280
     0
  0
ATTDEF
  5
1C8
330
198
100
AcDbEntity
  8
AM_6
100
AcDbText
 10
6.5125
 20
-19.9375
 30
0.0
 40
0.5
  1
baldor
100
AcDbAttributeDefinition
  3

  2
COMPANY
 70
     8
280
     0
  0
LINE
  5
1C9
330
198
100
AcDbEntity
  8
AM_9
 48
0.0124964534792968
100
AcDbLine
 10
-1.03125
 20
-1.375
 30
0.0
 11
1.03125
 21
-1.375
 31
0.0
  0
LINE
  5
1CA
330
198
100
AcDbEntity
  8
AM_9
 48
0.0124964534792968
100
AcDbLine
 10
1.03125
 20
1.375
 30
0.0
 11
-1.03125
 21
1.375
 31
0.0
  0
LINE
  5
1CB
330
198
100
AcDbEntity
  8
AM_9
 48
0.0124964534792968
100
AcDbLine
 10
0.825
 20
-1.082531754730548
 30
0.0
 11
-0.8250000000000002
 21
-1.082531754730549
 31
0.0
  0
LINE
  5
1CC
330
198
100
AcDbEntity
  8
AM_9
 48
0.0124964534792968
100
AcDbLine
 10
-0.8250000000000002
 20
1.082531754730548
 30
0.0
 11
0.8250000000000001
 21
1.082531754730548
 31
0.0
  0
LINE
  5
1CD
330
198
100
AcDbEntity
  8
AM_9
 48
0.0124964534792968
100
AcDbLine
 10
-0.825
 20
0.5472430904086409
 30
0.0
 11
-0.8250000000000001
 21
-0.5472430904086404
 31
0.0
  0
LINE
  5
1CE
330
198
100
AcDbEntity
  8
AM_9
 48
0.0124964534792968
100
AcDbLine
 10
0.8250000000000002
 20
-0.5472430904086407
 30
0.0
 11
0.8250000000000002
 21
0.5472430904086406
 31
0.0
  0
LINE
  5
1CF
330
198
100
AcDbEntity
  8
AM_9
 48
0.0124964534792968
100
AcDbLine
 10
-0.825
 20
-0.7187500000000001
 30
0.0
 11
0.8250000000000004
 21
-0.71875
 31
0.0
  0
LINE
  5
1D0
330
198
100
AcDbEntity
  8
AM_9
 48
0.0124964534792968
100
AcDbLine
 10
0.8250000000000002
 20
0.7187500000000001
 30
0.0
 11
-0.8250000000000001
 21
0.71875
 31
0.0
  0
LINE
  5
1D1
330
198
100
AcDbEntity
  8
AM_7
 48
0.0124964534792968
100
AcDbLine
 10
0.0000000000000002
 20
-0.3937499999999999
 30
0.0
 11
0.0000000000000002
 21
0.3937499999999999
 31
0.0
  0
LINE
  5
1D2
330
198
100
AcDbEntity
  8
AM_7
 48
0.0124964534792968
100
AcDbLine
 10
1.5125
 20
0.0
 30
0.0
 11
-1.61474375
 21
0.0
 31
0.0
  0
LINE
  5
1D3
330
198
100
AcDbEntity
  8
AM_0
 48
0.0124964534792968
100
AcDbLine
 10
0.3049107142857143
 20
-2.0625
 30
0.0
 11
0.7857142857142857
 21
-2.0625
 31
0.0
  0
ARC
  5
1D4
330
198
100
AcDbEntity
  8
AM_0
 48
0.0124964534792968
100
AcDbCircle
 10
0.7857142857142854
 20
-2.023214285714285
 30
0.0
 40
0.0392857142857146
100
AcDbArc
 50
270.0000000000005
 51
359.9999999999993
  0
ARC
  5
1D5
330
198
100
AcDbEntity
  8
AM_0
 48
0.0124964534792968
100
AcDbCircle
 10
-0.7857142857142858
 20
-2.023214285714286
 30
0.0
 40
0.0392857142857141
100
AcDbArc
 50
179.9999999999994
 51
270.0000000000003
  0
LINE
  5
1D6
330
198
100
AcDbEntity
  8
AM_0
 48
0.0124964534792968
100
AcDbLine
 10
-0.7857142857142856
 20
-2.0625
 30
0.0
 11
-0.3049107142857142
 21
-2.0625
 31
0.0
  0
ARC
  5
1D7
330
198
100
AcDbEntity
  8
AM_0
 48
0.0124964534792968
100
AcDbCircle
 10
-0.3049107142857145
 20
-2.023214285714285
 30
0.0
 40
0.0392857142857146
100
AcDbArc
 50
270.0000000000005
 51
359.9999999999993
  0
LINE
  5
1D8
330
198
100
AcDbEntity
  8
AM_0
 48
0.0124964534792968
100
AcDbLine
 10
-0.265625
 20
-1.789285714285714
 30
0.0
 11
-0.2656249999999999
 21
-2.023214285714286
 31
0.0
  0
ARC
  5
1D9
330
198
100
AcDbEntity
  8
AM_0
 48
0.0124964534792968
100
AcDbCircle
 10
-0.2263392857142854
 20
-1.789285714285715
 30
0.0
 40
0.0392857142857146
100
AcDbArc
 50
90.00000000000503
 51
179.9999999999997
  0
LINE
  5
1DA
330
198
100
AcDbEntity
  8
AM_0
 48
0.0124964534792968
100
AcDbLine
 10
0.2263392857142859
 20
-1.75
 30
0.0
 11
-0.2263392857142889
 21
-1.75
 31
0.0
  0
ARC
  5
1DB
330
198
100
AcDbEntity
  8
AM_0
 48
0.0124964534792968
100
AcDbCircle
 10
0.2263392857142855
 20
-1.789285714285715
 30
0.0
 40
0.0392857142857146
100
AcDbArc
 50
0.0000000000006477
 51
89.99999999999945
  0
LINE
  5
1DC
330
198
100
AcDbEntity
  8
AM_0
 48
0.0124964534792968
100
AcDbLine
 10
0.2656249999999999
 20
-2.023214285714286
 30
0.0
 11
0.2656250000000001
 21
-1.789285714285714
 31
0.0
  0
ARC
  5
1DD
330
198
100
AcDbEntity
  8
AM_0
 48
0.0124964534792968
100
AcDbCircle
 10
0.3049107142857145
 20
-2.023214285714285
 30
0.0
 40
0.0392857142857146
100
AcDbArc
 50
180.0000000000007
 51
269.9999999999996
  0
LINE
  5
1DE
330
198
100
AcDbEntity
  8
AM_0
 48
0.0124964534792968
100
AcDbLine
 10
-0.2656249999999997
 20
2.023214285714286
 30
0.0
 11
-0.2656249999999999
 21
1.789285714285714
 31
0.0
  0
ARC
  5
1DF
330
198
100
AcDbEntity
  8
AM_0
 48
0.0124964534792968
100
AcDbCircle
 10
-0.3049107142857146
 20
2.023214285714285
 30
0.0
 40
0.0392857142857149
100
AcDbArc
 50
0.0000000000006477
 51
89.99999999999945
  0
LINE
  5
1E0
330
198
100
AcDbEntity
  8
AM_0
 48
0.0124964534792968
100
AcDbLine
 10
-0.7857142857142856
 20
2.0625
 30
0.0
 11
-0.3049107142857142
 21
2.0625
 31
0.0
  0
ARC
  5
1E1
330
198
100
AcDbEntity
  8
AM_0
 48
0.0124964534792968
100
AcDbCircle
 10
-0.7857142857142856
 20
2.023214285714285
 30
0.0
 40
0.0392857142857146
100
AcDbArc
 50
90.0
 51
180.0
  0
ARC
  5
1E2
330
198
100
AcDbEntity
  8
AM_0
 48
0.0124964534792968
100
AcDbCircle
 10
0.785714285714285
 20
2.023214285714285
 30
0.0
 40
0.0392857142857151
100
AcDbArc
 50
0.0000000000006477
 51
89.99999999999902
  0
LINE
  5
1E3
330
198
100
AcDbEntity
  8
AM_0
 48
0.0124964534792968
100
AcDbLine
 10
0.3049107142857143
 20
2.0625
 30
0.0
 11
0.7857142857142857
 21
2.0625
 31
0.0
  0
ARC
  5
1E4
330
198
100
AcDbEntity
  8
AM_0
 48
0.0124964534792968
100
AcDbCircle
 10
0.3049107142857146
 20
2.023214285714285
 30
0.0
 40
0.0392857142857146
100
AcDbArc
 50
90.0000000000005
 51
179.9999999999994
  0
LINE
  5
1E5
330
198
100
AcDbEntity
  8
AM_0
 48
0.0124964534792968
100
AcDbLine
 10
0.2656249999999999
 20
1.789285714285714
 30
0.0
 11
0.2656250000000001
 21
2.023214285714286
 31
0.0
  0
ARC
  5
1E6
330
198
100
AcDbEntity
  8
AM_0
 48
0.0124964534792968
100
AcDbCircle
 10
0.2263392857142854
 20
1.789285714285715
 30
0.0
 40
0.0392857142857148
100
AcDbArc
 50
270.0000000000005
 51
359.9999999999993
  0
LINE
  5
1E7
330
198
100
AcDbEntity
  8
AM_0
 48
0.0124964534792968
100
AcDbLine
 10
-0.2263392857142857
 20
1.75
 30
0.0
 11
0.2263392857142857
 21
1.75
 31
0.0
  0
ARC
  5
1E8
330
198
100
AcDbEntity
  8
AM_0
 48
0.0124964534792968
100
AcDbCircle
 10
-0.2263392857142855
 20
1.789285714285714
 30
0.0
 40
0.0392857142857144
100
AcDbArc
 50
180.0
 51
269.9999999999997
  0
LINE
  5
1E9
330
198
100
AcDbEntity
  8
AM_0
 48
0.0124964534792968
100
AcDbLine
 10
1.03125
 20
-1.75
 30
0.0
 11
1.03125
 21
1.75
 31
0.0
  0
LINE
  5
1EA
330
198
100
AcDbEntity
  8
AM_0
 48
0.0124964534792968
100
AcDbLine
 10
-1.03125
 20
-1.75
 30
0.0
 11
-1.03125
 21
1.75
 31
0.0
  0
LINE
  5
1EB
330
198
100
AcDbEntity
  8
AM_0
 48
0.0124964534792968
100
AcDbLine
 10
-1.03125
 20
-1.75
 30
0.0
 11
-0.8250000000000001
 21
-1.75
 31
0.0
  0
LINE
  5
1EC
330
198
100
AcDbEntity
  8
AM_0
 48
0.0124964534792968
100
AcDbLine
 10
0.8250000000000002
 20
-1.75
 30
0.0
 11
1.03125
 21
-1.75
 31
0.0
  0
LINE
  5
1ED
330
198
100
AcDbEntity
  8
AM_0
 48
0.0124964534792968
100
AcDbLine
 10
1.03125
 20
1.75
 30
0.0
 11
0.8250000000000002
 21
1.75
 31
0.0
  0
LINE
  5
1EE
330
198
100
AcDbEntity
  8
AM_0
 48
0.0124964534792968
100
AcDbLine
 10
-0.8250000000000002
 20
1.75
 30
0.0
 11
-1.03125
 21
1.75
 31
0.0
  0
ARC
  5
1EF
330
198
100
AcDbEntity
  8
AM_0
 48
0.0124964534792968
100
AcDbCircle
 10
0.7218750000000007
 20
-1.115625000000001
 30
0.0
 40
0.1031249999999992
100
AcDbArc
 50
269.9999999999994
 51
0.0000000000003701
  0
ARC
  5
1F0
330
198
100
AcDbEntity
  8
AM_0
 48
0.0124964534792968
100
AcDbCircle
 10
0.7218750000000009
 20
1.115625000000001
 30
0.0
 40
0.1031249999999992
100
AcDbArc
 50
359.9999999999996
 51
90.00000000000044
  0
LINE
  5
1F1
330
198
100
AcDbEntity
  8
AM_0
 48
0.0124964534792968
100
AcDbLine
 10
0.7218749999999997
 20
-1.21875
 30
0.0
 11
-0.7218749999999999
 21
-1.21875
 31
0.0
  0
ARC
  5
1F2
330
198
100
AcDbEntity
  8
AM_0
 48
0.0124964534792968
100
AcDbCircle
 10
-0.7218750000000006
 20
-1.115625000000001
 30
0.0
 40
0.1031249999999994
100
AcDbArc
 50
179.9999999999996
 51
270.0000000000004
  0
LINE
  5
1F3
330
198
100
AcDbEntity
  8
AM_0
 48
0.0124964534792968
100
AcDbLine
 10
-0.7218749999999994
 20
1.21875
 30
0.0
 11
0.7218750000000002
 21
1.21875
 31
0.0
  0
ARC
  5
1F4
330
198
100
AcDbEntity
  8
AM_0
 48
0.0124964534792968
100
AcDbCircle
 10
-0.7218750000000003
 20
1.115625
 30
0.0
 40
0.1031249999999997
100
AcDbArc
 50
89.99999999999949
 51
180.0000000000002
  0
CIRCLE
  5
1F5
330
198
100
AcDbEntity
  8
AM_0
 48
0.0124964534792968
100
AcDbCircle
 10
0.0000000000000002
 20
0.0
 30
0.0
 40
0.3749999999999999
  0
ARC
  5
1F6
330
198
100
AcDbEntity
  8
AM_0
 48
0.0124964534792968
100
AcDbCircle
 10
0.0000000000000009
 20
0.0000000000000002
 30
0.0
 40
0.9900000000000005
100
AcDbArc
 50
146.4426902380793
 51
213.5573097619206
  0
ARC
  5
1F7
330
198
100
AcDbEntity
  8
AM_0
 48
0.0124964534792968
100
AcDbCircle
 10
-0.6874999999999994
 20
-1.081249999999999
 30
0.0
 40
0.1375000000000005
100
AcDbArc
 50
180.0000000000003
 51
269.9999999999998
  0
ARC
  5
1F8
330
198
100
AcDbEntity
  8
AM_0
 48
0.0124964534792968
100
AcDbCircle
 10
0.6875000000000003
 20
-1.08125
 30
0.0
 40
0.1374999999999997
100
AcDbArc
 50
269.9999999999999
 51
0.0000000000001851
  0
LINE
  5
1F9
330
198
100
AcDbEntity
  8
AM_0
 48
0.0124964534792968
100
AcDbLine
 10
-0.825
 20
2.023214285714285
 30
0.0
 11
-0.825
 21
0.5472430904086408
 31
0.0
  0
LINE
  5
1FA
330
198
100
AcDbEntity
  8
AM_0
 48
0.0124964534792968
100
AcDbLine
 10
-0.8250000000000002
 20
-0.5472430904086403
 30
0.0
 11
-0.825
 21
-2.023214285714285
 31
0.0
  0
ARC
  5
1FB
330
198
100
AcDbEntity
  8
AM_0
 48
0.0124964534792968
100
AcDbCircle
 10
0.6874999999999997
 20
1.081249999999999
 30
0.0
 40
0.1375000000000005
100
AcDbArc
 50
0.0000000000002776
 51
89.99999999999982
  0
ARC
  5
1FC
330
198
100
AcDbEntity
  8
AM_0
 48
0.0124964534792968
100
AcDbCircle
 10
-0.6875000000000002
 20
1.08125
 30
0.0
 40
0.1374999999999997
100
AcDbArc
 50
89.99999999999986
 51
180.0
  0
LINE
  5
1FD
330
198
100
AcDbEntity
  8
AM_0
 48
0.0124964534792968
100
AcDbLine
 10
0.8250000000000002
 20
-2.023214285714286
 30
0.0
 11
0.8250000000000002
 21
-0.5472430904086408
 31
0.0
  0
ARC
  5
1FE
330
198
100
AcDbEntity
  8
AM_0
 48
0.0124964534792968
100
AcDbCircle
 10
-0.0000000000000009
 20
0.0000000000000002
 30
0.0
 40
0.9900000000000009
100
AcDbArc
 50
326.4426902380793
 51
33.55730976192065
  0
LINE
  5
1FF
330
198
100
AcDbEntity
  8
AM_0
 48
0.0124964534792968
100
AcDbLine
 10
0.8250000000000004
 20
0.5472430904086407
 30
0.0
 11
0.8250000000000002
 21
2.023214285714285
 31
0.0
  0
ENDBLK
  5
19B
330
198
100
AcDbEntity
  8
0
100
AcDbBlockEnd
  0
ENDSEC
  0
SECTION
  2
ENTITIES
  0
ATTDEF
  5
6F
330
1F
100
AcDbEntity
  8
AM_6
100
AcDbText
 10
6.5125
 20
2.0625
 30
0.0
 40
0.5
  1
Wide Slot Take Up Ball Bearing Inch Bore
100
AcDbAttributeDefinition
  3

  2
NN
 70
     8
280
     0
  0
ATTDEF
  5
70
330
1F
100
AcDbEntity
  8
AM_6
100
AcDbText
 10
6.5125
 20
1.5625
 30
0.0
 40
0.5
  1
Type K
100
AcDbAttributeDefinition
  3

  2
NT
 70
     8
280
     0
  0
ATTDEF
  5
71
330
1F
100
AcDbEntity
  8
AM_6
100
AcDbText
 10
6.5125
 20
1.0625
 30
0.0
 40
0.5
  1
023255
100
AcDbAttributeDefinition
  3

  2
NB
 70
     8
280
     0
  0
ATTDEF
  5
72
330
1F
100
AcDbEntity
  8
AM_6
100
AcDbText
 10
6.5125
 20
0.5625000000000004
 30
0.0
 40
0.5
  1
$PN.
100
AcDbAttributeDefinition
  3

  2
NBSYN
 70
     8
280
     0
  0
ATTDEF
  5
73
330
1F
100
AcDbEntity
  8
AM_6
100
AcDbText
 10
6.5125
 20
0.0625000000000004
 30
0.0
 40
0.5
  1
023255
100
AcDbAttributeDefinition
  3

  2
LINA
 70
     8
280
     0
  0
ATTDEF
  5
74
330
1F
100
AcDbEntity
  8
AM_6
100
AcDbText
 10
6.5125
 20
-0.4374999999999996
 30
0.0
 40
0.5
  1
1-3/8
100
AcDbAttributeDefinition
  3

  2
SS
 70
     8
280
     0
  0
ATTDEF
  5
75
330
1F
100
AcDbEntity
  8
AM_6
100
AcDbText
 10
6.5125
 20
-0.9374999999999996
 30
0.0
 40
0.5
  1
023255
100
AcDbAttributeDefinition
  3

  2
PN
 70
     8
280
     0
  0
ATTDEF
  5
76
330
1F
100
AcDbEntity
  8
AM_6
100
AcDbText
 10
6.5125
 20
-1.4375
 30
0.0
 40
0.5
  1
WSTU-K-106R
100
AcDbAttributeDefinition
  3

  2
PNA
 70
     8
280
     0
  0
ATTDEF
  5
77
330
1F
100
AcDbEntity
  8
AM_6
100
AcDbText
 10
6.5125
 20
-1.9375
 30
0.0
 40
0.5
  1
8
100
AcDbAttributeDefinition
  3

  2
WEIGHT
 70
     8
280
     0
  0
ATTDEF
  5
78
330
1F
100
AcDbEntity
  8
AM_6
100
AcDbText
 10
6.5125
 20
-2.4375
 30
0.0
 40
0.5
  1
2-17/32
100
AcDbAttributeDefinition
  3

  2
A
 70
     8
280
     0
  0
ATTDEF
  5
79
330
1F
100
AcDbEntity
  8
AM_6
100
AcDbText
 10
6.5125
 20
-2.9375
 30
0.0
 40
0.5
  1
5-3/32
100
AcDbAttributeDefinition
  3

  2
B
 70
     8
280
     0
  0
ATTDEF
  5
7A
330
1F
100
AcDbEntity
  8
AM_6
100
AcDbText
 10
6.5125
 20
-3.4375
 30
0.0
 40
0.5
  1
17/32
100
AcDbAttributeDefinition
  3

  2
C
 70
     8
280
     0
  0
ATTDEF
  5
7B
330
1F
100
AcDbEntity
  8
AM_6
100
AcDbText
 10
6.5125
 20
-3.9375
 30
0.0
 40
0.5
  1
2-3/4
100
AcDbAttributeDefinition
  3

  2
D
 70
     8
280
     0
  0
ATTDEF
  5
7C
330
1F
100
AcDbEntity
  8
AM_6
100
AcDbText
 10
6.5125
 20
-4.4375
 30
0.0
 40
0.5
  1
3-7/32
100
AcDbAttributeDefinition
  3

  2
E
 70
     8
280
     0
  0
ATTDEF
  5
7D
330
1F
100
AcDbEntity
  8
AM_6
100
AcDbText
 10
6.5125
 20
-4.9375
 30
0.0
 40
0.5
  1
3/4
100
AcDbAttributeDefinition
  3

  2
F
 70
     8
280
     0
  0
ATTDEF
  5
7E
330
1F
100
AcDbEntity
  8
AM_6
100
AcDbText
 10
6.5125
 20
-5.4375
 30
0.0
 40
0.5
  1
11/16
100
AcDbAttributeDefinition
  3

  2
G
 70
     8
280
     0
  0
ATTDEF
  5
7F
330
1F
100
AcDbEntity
  8
AM_6
100
AcDbText
 10
6.5125
 20
-5.9375
 30
0.0
 40
0.5
  1
5/8
100
AcDbAttributeDefinition
  3

  2
H
 70
     8
280
     0
  0
ATTDEF
  5
80
330
1F
100
AcDbEntity
  8
AM_6
100
AcDbText
 10
6.5125
 20
-6.4375
 30
0.0
 40
0.5
  1
2-7/16
100
AcDbAttributeDefinition
  3

  2
J
 70
     8
280
     0
  0
ATTDEF
  5
81
330
1F
100
AcDbEntity
  8
AM_6
100
AcDbText
 10
6.5125
 20
-6.9375
 30
0.0
 40
0.5
  1
1-7/16
100
AcDbAttributeDefinition
  3

  2
K
 70
     8
280
     0
  0
ATTDEF
  5
82
330
1F
100
AcDbEntity
  8
AM_6
100
AcDbText
 10
6.5125
 20
-7.4375
 30
0.0
 40
0.5
  1
2-3/4
100
AcDbAttributeDefinition
  3

  2
L
 70
     8
280
     0
  0
ATTDEF
  5
83
330
1F
100
AcDbEntity
  8
AM_6
100
AcDbText
 10
6.5125
 20
-7.9375
 30
0.0
 40
0.5
  1
3-1/2
100
AcDbAttributeDefinition
  3

  2
M
 70
     8
280
     0
  0
ATTDEF
  5
84
330
1F
100
AcDbEntity
  8
AM_6
100
AcDbText
 10
6.5125
 20
-8.4375
 30
0.0
 40
0.5
  1
4-1/8
100
AcDbAttributeDefinition
  3

  2
N
 70
     8
280
     0
  0
ATTDEF
  5
85
330
1F
100
AcDbEntity
  8
AM_6
100
AcDbText
 10
6.5125
 20
-8.9375
 30
0.0
 40
0.5
  1
1-1/32
100
AcDbAttributeDefinition
  3

  2
R
 70
     8
280
     0
  0
ATTDEF
  5
86
330
1F
100
AcDbEntity
  8
AM_6
100
AcDbText
 10
6.5125
 20
-9.4375
 30
0.0
 40
0.5
  1
1-1/2
100
AcDbAttributeDefinition
  3

  2
S
 70
     8
280
     0
  0
ATTDEF
  5
87
330
1F
100
AcDbEntity
  8
AM_6
100
AcDbText
 10
6.5125
 20
-9.9375
 30
0.0
 40
0.5
  1
2-1/16
100
AcDbAttributeDefinition
  3

  2
T
 70
     8
280
     0
  0
ATTDEF
  5
88
330
1F
100
AcDbEntity
  8
AM_6
100
AcDbText
 10
6.5125
 20
-10.4375
 30
0.0
 40
0.5
  1
26000
100
AcDbAttributeDefinition
  3

  2
CS
 70
     8
280
     0
  0
ATTDEF
  5
89
330
1F
100
AcDbEntity
  8
AM_6
100
AcDbText
 10
6.5125
 20
-10.9375
 30
0.0
 40
0.5
  1
4760
100
AcDbAttributeDefinition
  3

  2
CD
 70
     8
280
     0
  0
ATTDEF
  5
8A
330
1F
100
AcDbEntity
  8
AM_6
100
AcDbText
 10
6.5125
 20
-11.4375
 30
0.0
 40
0.5
  1
20
100
AcDbAttributeDefinition
  3

  2
RN
 70
     8
280
     0
  0
ATTDEF
  5
8B
330
1F
100
AcDbEntity
  8
AM_6
100
AcDbText
 10
6.5125
 20
-11.9375
 30
0.0
 40
0.5
  1
.29
100
AcDbAttributeDefinition
  3

  2
RM
 70
     8
280
     0
  0
ATTDEF
  5
8C
330
1F
100
AcDbEntity
  8
AM_6
100
AcDbText
 10
6.5125
 20
-12.4375
 30
0.0
 40
0.5
  1
2.084
100
AcDbAttributeDefinition
  3

  2
PDI
 70
     8
280
     0
  0
ATTDEF
  5
8D
330
1F
100
AcDbEntity
  8
AM_6
100
AcDbText
 10
6.5125
 20
-12.9375
 30
0.0
 40
0.5
  1
.004-.012
100
AcDbAttributeDefinition
  3

  2
EP
 70
     8
280
     0
  0
ATTDEF
  5
8E
330
1F
100
AcDbEntity
  8
AM_6
100
AcDbText
 10
6.5125
 20
-13.4375
 30
0.0
 40
0.5
  1
5/16-18*5/8
100
AcDbAttributeDefinition
  3

  2
SC
 70
     8
280
     0
  0
ATTDEF
  5
8F
330
1F
100
AcDbEntity
  8
AM_6
100
AcDbText
 10
6.5125
 20
-13.9375
 30
0.0
 40
0.5
  1
165
100
AcDbAttributeDefinition
  3

  2
TC
 70
     8
280
     0
  0
ATTDEF
  5
90
330
1F
100
AcDbEntity
  8
AM_6
100
AcDbText
 10
6.5125
 20
-14.4375
 30
0.0
 40
0.5
  1
C.I. ASTM A48 CLASS 30
100
AcDbAttributeDefinition
  3

  2
MH
 70
     8
280
     0
  0
ATTDEF
  5
91
330
1F
100
AcDbEntity
  8
AM_6
100
AcDbText
 10
6.5125
 20
-14.9375
 30
0.0
 40
0.5
  1
4118 CASE CARB.
100
AcDbAttributeDefinition
  3

  2
MC
 70
     8
280
     0
  0
ATTDEF
  5
92
330
1F
100
AcDbEntity
  8
AM_6
100
AcDbText
 10
6.5125
 20
-15.4375
 30
0.0
 40
0.5
  1
4118 CASE CARB.
100
AcDbAttributeDefinition
  3

  2
MCU
 70
     8
280
     0
  0
ATTDEF
  5
93
330
1F
100
AcDbEntity
  8
AM_6
100
AcDbText
 10
6.5125
 20
-15.9375
 30
0.0
 40
0.5
  1
STEEL
100
AcDbAttributeDefinition
  3

  2
MR
 70
     8
280
     0
  0
ATTDEF
  5
94
330
1F
100
AcDbEntity
  8
AM_6
100
AcDbText
 10
6.5125
 20
-16.4375
 30
0.0
 40
0.5
  1
4118 CASE CARB.
100
AcDbAttributeDefinition
  3

  2
MRO
 70
     8
280
     0
  0
ATTDEF
  5
95
330
1F
100
AcDbEntity
  8
AM_6
100
AcDbText
 10
6.5125
 20
-16.9375
 30
0.0
 40
0.5
  1
±.001" PER INCH
100
AcDbAttributeDefinition
  3

  2
SM
 70
     8
280
     0
  0
ATTDEF
  5
96
330
1F
100
AcDbEntity
  8
AM_6
100
AcDbText
 10
6.5125
 20
-17.4375
 30
0.0
 40
0.5
  1
baldor
100
AcDbAttributeDefinition
  3

  2
COMPANY
 70
     8
280
     0
  0
INSERT
  5
98
330
1F
100
AcDbEntity
  8
0
100
AcDbBlockReference
  2
1_405020c_Inch_0_in_023255_2
 10
0.0
 20
0.0
 30
0.0
  0
INSERT
  5
ED
330
1F
100
AcDbEntity
  8
0
100
AcDbBlockReference
  2
2_1_3_8C_0_in_023255_2
 10
0.0
 20
0.0
 30
0.0
  0
INSERT
  5
131
330
1F
100
AcDbEntity
  8
0
100
AcDbBlockReference
  2
3_B1U_K_106R_0_in_023255_2
 10
0.0
 20
0.0
 30
0.0
  0
INSERT
  5
199
330
1F
100
AcDbEntity
  8
0
100
AcDbBlockReference
  2
4_WSTU_K_107R_0_in_023255_2
 10
0.0
 20
0.0
 30
0.0
  0
POINT
  5
201
330
1F
100
AcDbEntity
  8
ConnectionPoints
100
AcDbPoint
 10
-1.5
 20
0.0
 30
0.0000000000000001
  0
POINT
  5
202
330
1F
100
AcDbEntity
  8
ConnectionPoints
100
AcDbPoint
 10
-0.234275
 20
0.0
 30
0.0
  0
POINT
  5
203
330
1F
100
AcDbEntity
  8
ConnectionPoints
100
AcDbPoint
 10
-1.5
 20
0.0
 30
0.0000000000000001
  0
POINT
  5
204
330
1F
100
AcDbEntity
  8
ConnectionPoints
100
AcDbPoint
 10
1.03235
 20
0.0
 30
-0.0000000000000001
  0
POINT
  5
205
330
1F
100
AcDbEntity
  8
ConnectionPoints
100
AcDbPoint
 10
-1.5
 20
0.0
 30
0.0000000000000001
  0
POINT
  5
206
330
1F
100
AcDbEntity
  8
ConnectionPoints
100
AcDbPoint
 10
-0.0000000000000001
 20
-0.7395819580462237
 30
-1.586038627314138
  0
ENDSEC
  0
SECTION
  2
OBJECTS
  0
DICTIONARY
  5
C
330
0
100
AcDbDictionary
281
     1
  3
ACAD_DETAILVIEWSTYLE
350
20E
  3
ACAD_GROUP
350
D
  3
ACAD_LAYOUT
350
1A
  3
ACAD_MATERIAL
350
43
  3
ACAD_MLEADERSTYLE
350
6B
  3
ACAD_MLINESTYLE
350
17
  3
ACAD_PLOTSETTINGS
350
19
  3
ACAD_PLOTSTYLENAME
350
E
  3
ACAD_SCALELIST
350
47
  3
ACAD_SECTIONVIEWSTYLE
350
20F
  3
ACAD_TABLESTYLE
350
69
  3
ACAD_VISUALSTYLE
350
2A
  3
ACDB_RECOMPOSE_DATA
350
20B
  3
AcDbVariableDictionary
350
207
  0
SUN
  5
6D
330
29
100
AcDbSun
 90
        1
290
     0
 63
     7
421
 16777215
 40
1.0
291
     1
 91
  2455826
 92
 54000000
292
     0
 70
     2
 71
   256
280
     1
  0
DICTIONARY
  5
20E
102
{ACAD_REACTORS
330
C
102
}
330
C
100
AcDbDictionary
281
     1
  0
DICTIONARY
  5
D
102
{ACAD_REACTORS
330
C
102
}
330
C
100
AcDbDictionary
281
     1
  0
DICTIONARY
  5
1A
102
{ACAD_REACTORS
330
C
102
}
330
C
100
AcDbDictionary
281
     1
  3
Layout1
350
1E
  3
Layout2
350
26
  3
Model
350
22
  0
DICTIONARY
  5
43
102
{ACAD_REACTORS
330
C
102
}
330
C
100
AcDbDictionary
281
     1
  3
ByBlock
350
45
  3
ByLayer
350
44
  3
Global
350
46
  0
DICTIONARY
  5
6B
102
{ACAD_REACTORS
330
C
102
}
330
C
100
AcDbDictionary
281
     1
  3
Standard
350
6C
  0
DICTIONARY
  5
17
102
{ACAD_REACTORS
330
C
102
}
330
C
100
AcDbDictionary
281
     1
  3
Standard
350
18
  0
DICTIONARY
  5
19
102
{ACAD_REACTORS
330
C
102
}
330
C
100
AcDbDictionary
281
     1
  0
ACDBDICTIONARYWDFLT
  5
E
102
{ACAD_REACTORS
330
C
102
}
330
C
100
AcDbDictionary
281
     1
  3
Normal
350
F
100
AcDbDictionaryWithDefault
340
F
  0
DICTIONARY
  5
47
102
{ACAD_REACTORS
330
C
102
}
330
C
100
AcDbDictionary
281
     1
  3
A0
350
48
  3
A1
350
49
  3
A2
350
4A
  3
A3
350
4B
  3
A4
350
4C
  3
A5
350
4D
  3
A6
350
4E
  3
A7
350
4F
  3
A8
350
50
  3
A9
350
51
  3
B0
350
52
  3
B1
350
53
  3
B2
350
54
  3
B3
350
55
  3
B4
350
56
  3
B5
350
57
  3
B6
350
58
  3
B7
350
59
  3
B8
350
5A
  3
B9
350
5B
  3
C0
350
5C
  3
C1
350
5D
  3
C2
350
5E
  3
C3
350
5F
  3
C4
350
60
  3
C5
350
61
  3
C6
350
62
  3
C7
350
63
  3
C8
350
64
  3
C9
350
65
  3
D0
350
66
  3
D1
350
67
  3
D2
350
68
  0
DICTIONARY
  5
20F
102
{ACAD_REACTORS
330
C
102
}
330
C
100
AcDbDictionary
281
     1
  0
DICTIONARY
  5
69
102
{ACAD_REACTORS
330
C
102
}
330
C
100
AcDbDictionary
281
     1
  3
Standard
350
6A
  0
DICTIONARY
  5
2A
102
{ACAD_REACTORS
330
C
102
}
330
C
100
AcDbDictionary
281
     1
  3
2dWireframe
350
2F
  3
Basic
350
32
  3
Brighten
350
36
  3
ColorChange
350
3A
  3
Conceptual
350
34
  3
Dim
350
35
  3
EdgeColorOff
350
3D
  3
Facepattern
350
39
  3
Flat
350
2B
  3
FlatWithEdges
350
2C
  3
Gouraud
350
2D
  3
GouraudWithEdges
350
2E
  3
Hidden
350
31
  3
JitterOff
350
3B
  3
Linepattern
350
38
  3
OverhangOff
350
3C
  3
Realistic
350
33
  3
Shaded
350
42
  3
Shaded with edges
350
41
  3
Shades of Gray
350
3E
  3
Sketchy
350
3F
  3
Thicken
350
37
  3
Wireframe
350
30
  3
X-Ray
350
40
  0
XRECORD
  5
20B
102
{ACAD_REACTORS
330
C
102
}
330
C
100
AcDbXrecord
280
     1
 90
        1
330
6A
  0
DICTIONARY
  5
207
102
{ACAD_REACTORS
330
C
102
}
330
C
100
AcDbDictionary
281
     1
  3
CANNOSCALE
350
208
  3
CMLEADERSTYLE
350
20D
  3
CTABLESTYLE
350
20C
  0
LAYOUT
  5
1E
102
{ACAD_REACTORS
330
1A
102
}
330
1A
100
AcDbPlotSettings
  1

  2
none_device
  4

  6

 40
0.0
 41
0.0
 42
0.0
 43
0.0
 44
0.0
 45
0.0
 46
0.0
 47
0.0
 48
0.0
 49
0.0
140
0.0
141
0.0
142
1.0
143
1.0
 70
   688
 72
     0
 73
     0
 74
     5
  7

 75
    16
 76
     0
 77
     2
 78
   300
147
1.0
148
0.0
149
0.0
100
AcDbLayout
  1
Layout1
 70
     1
 71
     1
 10
0.0
 20
0.0
 11
12.0
 21
9.0
 12
0.0
 22
0.0
 32
0.0
 14
1.000000000000000E+20
 24
1.000000000000000E+20
 34
1.000000000000000E+20
 15
-1.000000000000000E+20
 25
-1.000000000000000E+20
 35
-1.000000000000000E+20
146
0.0
 13
0.0
 23
0.0
 33
0.0
 16
1.0
 26
0.0
 36
0.0
 17
0.0
 27
1.0
 37
0.0
 76
     0
330
1B
  0
LAYOUT
  5
26
102
{ACAD_REACTORS
330
1A
102
}
330
1A
100
AcDbPlotSettings
  1

  2
none_device
  4

  6

 40
0.0
 41
0.0
 42
0.0
 43
0.0
 44
0.0
 45
0.0
 46
0.0
 47
0.0
 48
0.0
 49
0.0
140
0.0
141
0.0
142
1.0
143
1.0
 70
   688
 72
     0
 73
     0
 74
     5
  7

 75
    16
 76
     0
 77
     2
 78
   300
147
1.0
148
0.0
149
0.0
100
AcDbLayout
  1
Layout2
 70
     1
 71
     2
 10
0.0
 20
0.0
 11
0.0
 21
0.0
 12
0.0
 22
0.0
 32
0.0
 14
0.0
 24
0.0
 34
0.0
 15
0.0
 25
0.0
 35
0.0
146
0.0
 13
0.0
 23
0.0
 33
0.0
 16
1.0
 26
0.0
 36
0.0
 17
0.0
 27
1.0
 37
0.0
 76
     0
330
23
  0
LAYOUT
  5
22
102
{ACAD_REACTORS
330
1A
102
}
330
1A
100
AcDbPlotSettings
  1

  2
none_device
  4
Letter_(8.50_x_11.00_Inches)
  6

 40
6.35
 41
6.35
 42
6.35000508
 43
6.35000508
 44
215.9
 45
279.4
 46
0.0
 47
0.0
 48
0.0
 49
0.0
140
0.0
141
0.0
142
1.0
143
1.0
 70
  1712
 72
     0
 73
     0
 74
     0
  7

 75
     0
 76
     0
 77
     2
 78
   300
147
1.0
148
0.0
149
0.0
100
AcDbLayout
  1
Model
 70
     1
 71
     0
 10
0.0
 20
0.0
 11
12.0
 21
9.0
 12
0.0
 22
0.0
 32
0.0
 14
1.000000000000000E+20
 24
1.000000000000000E+20
 34
1.000000000000000E+20
 15
-1.000000000000000E+20
 25
-1.000000000000000E+20
 35
-1.000000000000000E+20
146
0.0
 13
0.0
 23
0.0
 33
0.0
 16
1.0
 26
0.0
 36
0.0
 17
0.0
 27
1.0
 37
0.0
 76
     0
330
1F
331
29
  0
MATERIAL
  5
45
102
{ACAD_REACTORS
330
43
102
}
330
43
100
AcDbMaterial
  1
ByBlock
 72
     1
 94
      127
  0
MATERIAL
  5
44
102
{ACAD_REACTORS
330
43
102
}
330
43
100
AcDbMaterial
  1
ByLayer
 72
     1
 94
      127
  0
MATERIAL
  5
46
102
{ACAD_REACTORS
330
43
102
}
330
43
100
AcDbMaterial
  1
Global
 72
     1
 94
      127
  0
MLEADERSTYLE
  5
6C
102
{ACAD_REACTORS
330
6B
102
}
330
6B
100
AcDbMLeaderStyle
179
     2
170
     2
171
     1
172
     0
 90
        2
 40
0.0
 41
0.0
173
     1
 91
-1056964608
340
14
 92
       -2
290
     1
 42
0.09
291
     1
 43
0.36
  3
Standard
341
0
 44
0.18
300

342
11
174
     1
178
     6
175
     1
176
     0
 93
-1056964608
 45
0.18
292
     0
297
     0
 46
0.18
343
0
 94
-1056964608
 47
1.0
 49
1.0
140
1.0
293
     1
141
0.0
294
     1
177
     0
142
1.0
295
     0
296
     0
143
0.125
271
     0
272
     9
273
     9
298
     0
  0
MLINESTYLE
  5
18
102
{ACAD_REACTORS
330
17
102
}
330
17
100
AcDbMlineStyle
  2
Standard
 70
     0
  3

 62
   256
 51
90.0
 52
90.0
 71
     2
 49
0.5
 62
   256
  6
BYLAYER
 49
-0.5
 62
   256
  6
BYLAYER
  0
ACDBPLACEHOLDER
  5
F
102
{ACAD_REACTORS
330
E
102
}
330
E
  0
SCALE
  5
48
102
{ACAD_REACTORS
330
47
102
}
330
47
100
AcDbScale
 70
     0
300
1:1
140
1.0
141
1.0
290
     1
  0
SCALE
  5
49
102
{ACAD_REACTORS
330
47
102
}
330
47
100
AcDbScale
 70
     0
300
1:2
140
1.0
141
2.0
290
     0
  0
SCALE
  5
4A
102
{ACAD_REACTORS
330
47
102
}
330
47
100
AcDbScale
 70
     0
300
1:4
140
1.0
141
4.0
290
     0
  0
SCALE
  5
4B
102
{ACAD_REACTORS
330
47
102
}
330
47
100
AcDbScale
 70
     0
300
1:5
140
1.0
141
5.0
290
     0
  0
SCALE
  5
4C
102
{ACAD_REACTORS
330
47
102
}
330
47
100
AcDbScale
 70
     0
300
1:8
140
1.0
141
8.0
290
     0
  0
SCALE
  5
4D
102
{ACAD_REACTORS
330
47
102
}
330
47
100
AcDbScale
 70
     0
300
1:10
140
1.0
141
10.0
290
     0
  0
SCALE
  5
4E
102
{ACAD_REACTORS
330
47
102
}
330
47
100
AcDbScale
 70
     0
300
1:16
140
1.0
141
16.0
290
     0
  0
SCALE
  5
4F
102
{ACAD_REACTORS
330
47
102
}
330
47
100
AcDbScale
 70
     0
300
1:20
140
1.0
141
20.0
290
     0
  0
SCALE
  5
50
102
{ACAD_REACTORS
330
47
102
}
330
47
100
AcDbScale
 70
     0
300
1:30
140
1.0
141
30.0
290
     0
  0
SCALE
  5
51
102
{ACAD_REACTORS
330
47
102
}
330
47
100
AcDbScale
 70
     0
300
1:40
140
1.0
141
40.0
290
     0
  0
SCALE
  5
52
102
{ACAD_REACTORS
330
47
102
}
330
47
100
AcDbScale
 70
     0
300
1:50
140
1.0
141
50.0
290
     0
  0
SCALE
  5
53
102
{ACAD_REACTORS
330
47
102
}
330
47
100
AcDbScale
 70
     0
300
1:100
140
1.0
141
100.0
290
     0
  0
SCALE
  5
54
102
{ACAD_REACTORS
330
47
102
}
330
47
100
AcDbScale
 70
     0
300
2:1
140
2.0
141
1.0
290
     0
  0
SCALE
  5
55
102
{ACAD_REACTORS
330
47
102
}
330
47
100
AcDbScale
 70
     0
300
4:1
140
4.0
141
1.0
290
     0
  0
SCALE
  5
56
102
{ACAD_REACTORS
330
47
102
}
330
47
100
AcDbScale
 70
     0
300
8:1
140
8.0
141
1.0
290
     0
  0
SCALE
  5
57
102
{ACAD_REACTORS
330
47
102
}
330
47
100
AcDbScale
 70
     0
300
10:1
140
10.0
141
1.0
290
     0
  0
SCALE
  5
58
102
{ACAD_REACTORS
330
47
102
}
330
47
100
AcDbScale
 70
     0
300
100:1
140
100.0
141
1.0
290
     0
  0
SCALE
  5
59
102
{ACAD_REACTORS
330
47
102
}
330
47
100
AcDbScale
 70
     0
300
1/128" = 1'-0"
140
0.0078125
141
12.0
290
     0
  0
SCALE
  5
5A
102
{ACAD_REACTORS
330
47
102
}
330
47
100
AcDbScale
 70
     0
300
1/64" = 1'-0"
140
0.015625
141
12.0
290
     0
  0
SCALE
  5
5B
102
{ACAD_REACTORS
330
47
102
}
330
47
100
AcDbScale
 70
     0
300
1/32" = 1'-0"
140
0.03125
141
12.0
290
     0
  0
SCALE
  5
5C
102
{ACAD_REACTORS
330
47
102
}
330
47
100
AcDbScale
 70
     0
300
1/16" = 1'-0"
140
0.0625
141
12.0
290
     0
  0
SCALE
  5
5D
102
{ACAD_REACTORS
330
47
102
}
330
47
100
AcDbScale
 70
     0
300
3/32" = 1'-0"
140
0.09375
141
12.0
290
     0
  0
SCALE
  5
5E
102
{ACAD_REACTORS
330
47
102
}
330
47
100
AcDbScale
 70
     0
300
1/8" = 1'-0"
140
0.125
141
12.0
290
     0
  0
SCALE
  5
5F
102
{ACAD_REACTORS
330
47
102
}
330
47
100
AcDbScale
 70
     0
300
3/16" = 1'-0"
140
0.1875
141
12.0
290
     0
  0
SCALE
  5
60
102
{ACAD_REACTORS
330
47
102
}
330
47
100
AcDbScale
 70
     0
300
1/4" = 1'-0"
140
0.25
141
12.0
290
     0
  0
SCALE
  5
61
102
{ACAD_REACTORS
330
47
102
}
330
47
100
AcDbScale
 70
     0
300
3/8" = 1'-0"
140
0.375
141
12.0
290
     0
  0
SCALE
  5
62
102
{ACAD_REACTORS
330
47
102
}
330
47
100
AcDbScale
 70
     0
300
1/2" = 1'-0"
140
0.5
141
12.0
290
     0
  0
SCALE
  5
63
102
{ACAD_REACTORS
330
47
102
}
330
47
100
AcDbScale
 70
     0
300
3/4" = 1'-0"
140
0.75
141
12.0
290
     0
  0
SCALE
  5
64
102
{ACAD_REACTORS
330
47
102
}
330
47
100
AcDbScale
 70
     0
300
1" = 1'-0"
140
1.0
141
12.0
290
     0
  0
SCALE
  5
65
102
{ACAD_REACTORS
330
47
102
}
330
47
100
AcDbScale
 70
     0
300
1-1/2" = 1'-0"
140
1.5
141
12.0
290
     0
  0
SCALE
  5
66
102
{ACAD_REACTORS
330
47
102
}
330
47
100
AcDbScale
 70
     0
300
3" = 1'-0"
140
3.0
141
12.0
290
     0
  0
SCALE
  5
67
102
{ACAD_REACTORS
330
47
102
}
330
47
100
AcDbScale
 70
     0
300
6" = 1'-0"
140
6.0
141
12.0
290
     0
  0
SCALE
  5
68
102
{ACAD_REACTORS
330
47
102
}
330
47
100
AcDbScale
 70
     0
300
1'-0" = 1'-0"
140
12.0
141
12.0
290
     0
  0
TABLESTYLE
  5
6A
102
{ACAD_REACTORS
330
69
102
}
102
{ACAD_XDICTIONARY
360
209
102
}
330
69
100
AcDbTableStyle
  3
Standard
 70
     0
 71
     0
 40
0.06
 41
0.06
280
     0
281
     0
  7
Standard
140
0.18
170
     2
 62
     0
 63
   257
283
     0
 90
        4
 91
        0
  1

274
    -2
284
     1
 64
     0
275
    -2
285
     1
 65
     0
276
    -2
286
     1
 66
     0
277
    -2
287
     1
 67
     0
278
    -2
288
     1
 68
     0
279
    -2
289
     1
 69
     0
  7
Standard
140
0.25
170
     5
 62
     0
 63
   257
283
     0
 90
        4
 91
        0
  1

274
    -2
284
     1
 64
     0
275
    -2
285
     1
 65
     0
276
    -2
286
     1
 66
     0
277
    -2
287
     1
 67
     0
278
    -2
288
     1
 68
     0
279
    -2
289
     1
 69
     0
  7
Standard
140
0.18
170
     5
 62
     0
 63
   257
283
     0
 90
        4
 91
        0
  1

274
    -2
284
     1
 64
     0
275
    -2
285
     1
 65
     0
276
    -2
286
     1
 66
     0
277
    -2
287
     1
 67
     0
278
    -2
288
     1
 68
     0
279
    -2
289
     1
 69
     0
  0
VISUALSTYLE
  5
2F
102
{ACAD_REACTORS
330
2A
102
}
330
2A
100
AcDbVisualStyle
  2
2dWireframe
 70
     4
177
     3
291
     0
 70
    58
 90
        0
176
     1
 90
        2
176
     1
 90
        0
176
     1
 90
        0
176
     1
 40
0.6
176
     1
 40
30.0
176
     1
 62
     7
420
 16777215
176
     1
 90
        1
176
     1
 90
        4
176
     1
 62
     7
176
     1
 62
   257
176
     1
 90
        1
176
     1
 90
        1
176
     1
 40
1.0
176
     1
 90
        0
176
     1
 62
   257
176
     1
 40
1.0
176
     1
 90
        1
176
     1
 90
        6
176
     1
 90
        2
176
     1
 62
     7
176
     1
 90
        5
176
     1
 90
        0
176
     1
 90
        0
176
     1
290
     0
176
     1
 90
        1
176
     1
 40
0.0
176
     1
 90
        0
176
     1
290
     1
176
     1
290
     1
176
     1
290
     0
176
     1
290
     0
176
     1
290
     0
176
     1
290
     0
176
     1
290
     0
176
     1
290
     0
176
     1
290
     0
176
     1
 90
       50
176
     1
 40
0.0
176
     1
 40
1.0
176
     1
 90
        0
176
     1
 62
    18
420
        0
176
     1
 90
       50
176
     1
 90
        3
176
     1
 62
     5
420
      255
176
     1
290
     0
176
     1
 90
       50
176
     1
 90
       50
176
     1
 90
       50
176
     1
290
     0
176
     1
 90
       50
176
     1
 62
   256
176
     0
 40
1.0
176
     0
 90
        2
176
     1
  1
strokes_ogs.tif
176
     1
290
     0
176
     1
 40
1.0
176
     1
 40
1.0
176
     1
  0
VISUALSTYLE
  5
32
102
{ACAD_REACTORS
330
2A
102
}
330
2A
100
AcDbVisualStyle
  2
Basic
 70
     7
177
     3
291
     1
 70
    58
 90
        1
176
     1
 90
        0
176
     1
 90
        1
176
     1
 90
        0
176
     1
 40
0.6
176
     1
 40
30.0
176
     1
 62
     7
420
 16777215
176
     1
 90
        0
176
     1
 90
        4
176
     1
 62
     7
176
     1
 62
   257
176
     1
 90
        1
176
     1
 90
        1
176
     1
 40
1.0
176
     1
 90
        8
176
     1
 62
     7
176
     1
 40
1.0
176
     1
 90
        1
176
     1
 90
        6
176
     1
 90
        2
176
     1
 62
     7
176
     1
 90
        5
176
     1
 90
        0
176
     1
 90
        0
176
     1
290
     0
176
     1
 90
        1
176
     1
 40
0.0
176
     1
 90
        0
176
     1
290
     0
176
     1
290
     1
176
     1
290
     1
176
     1
290
     0
176
     1
290
     0
176
     1
290
     0
176
     1
290
     0
176
     1
290
     0
176
     1
290
     0
176
     1
 90
       50
176
     1
 40
0.0
176
     1
 40
1.0
176
     1
 90
        0
176
     1
 62
    18
420
        0
176
     1
 90
       50
176
     1
 90
        3
176
     1
 62
     5
420
      255
176
     1
290
     0
176
     1
 90
       50
176
     1
 90
       50
176
     1
 90
       50
176
     1
290
     0
176
     1
 90
       50
176
     1
 62
   256
176
     0
 40
1.0
176
     0
 90
        2
176
     1
  1
strokes_ogs.tif
176
     1
290
     0
176
     1
 40
1.0
176
     1
 40
1.0
176
     1
  0
VISUALSTYLE
  5
36
102
{ACAD_REACTORS
330
2A
102
}
330
2A
100
AcDbVisualStyle
  2
Brighten
 70
    12
177
     3
291
     1
 70
    58
 90
        2
176
     1
 90
        2
176
     1
 90
        0
176
     1
 90
        0
176
     1
 40
0.6
176
     1
 40
30.0
176
     1
 62
     7
420
 16777215
176
     1
 90
        1
176
     1
 90
        4
176
     1
 62
     7
176
     1
 62
   257
176
     1
 90
        1
176
     1
 90
        1
176
     1
 40
1.0
176
     1
 90
        8
176
     1
 62
     7
176
     1
 40
1.0
176
     1
 90
        1
176
     1
 90
        6
176
     1
 90
        2
176
     1
 62
     7
176
     1
 90
        5
176
     1
 90
        0
176
     1
 90
        0
176
     1
290
     0
176
     1
 90
        1
176
     1
 40
50.0
176
     1
 90
        0
176
     1
290
     0
176
     1
290
     1
176
     1
290
     1
176
     1
290
     0
176
     1
290
     0
176
     1
290
     0
176
     1
290
     0
176
     1
290
     0
176
     1
290
     0
176
     1
 90
       50
176
     1
 40
0.0
176
     1
 40
1.0
176
     1
 90
        0
176
     1
 62
    18
420
        0
176
     1
 90
       50
176
     1
 90
        3
176
     1
 62
     5
420
      255
176
     1
290
     0
176
     1
 90
       50
176
     1
 90
       50
176
     1
 90
       50
176
     1
290
     0
176
     1
 90
       50
176
     1
 62
   256
176
     0
 40
1.0
176
     0
 90
        2
176
     1
  1
strokes_ogs.tif
176
     1
290
     0
176
     1
 40
1.0
176
     1
 40
1.0
176
     1
  0
VISUALSTYLE
  5
3A
102
{ACAD_REACTORS
330
2A
102
}
330
2A
100
AcDbVisualStyle
  2
ColorChange
 70
    16
177
     3
291
     1
 70
    58
 90
        2
176
     1
 90
        2
176
     1
 90
        3
176
     1
 90
        0
176
     1
 40
0.6
176
     1
 40
30.0
176
     1
 62
     8
420
  8421504
176
     1
 90
        1
176
     1
 90
        4
176
     1
 62
     7
176
     1
 62
   257
176
     1
 90
        1
176
     1
 90
        1
176
     1
 40
1.0
176
     1
 90
        8
176
     1
 62
     8
420
  8421504
176
     1
 40
1.0
176
     1
 90
        1
176
     1
 90
        6
176
     1
 90
        2
176
     1
 62
     7
176
     1
 90
        5
176
     1
 90
        0
176
     1
 90
        0
176
     1
290
     0
176
     1
 90
        1
176
     1
 40
0.0
176
     1
 90
        0
176
     1
290
     0
176
     1
290
     1
176
     1
290
     1
176
     1
290
     0
176
     1
290
     0
176
     1
290
     0
176
     1
290
     0
176
     1
290
     0
176
     1
290
     0
176
     1
 90
       50
176
     1
 40
0.0
176
     1
 40
1.0
176
     1
 90
        0
176
     1
 62
    18
420
        0
176
     1
 90
       50
176
     1
 90
        3
176
     1
 62
     5
420
      255
176
     1
290
     0
176
     1
 90
       50
176
     1
 90
       50
176
     1
 90
       50
176
     1
290
     0
176
     1
 90
       50
176
     1
 62
   256
176
     0
 40
1.0
176
     0
 90
        2
176
     1
  1
strokes_ogs.tif
176
     1
290
     0
176
     1
 40
1.0
176
     1
 40
1.0
176
     1
  0
VISUALSTYLE
  5
34
102
{ACAD_REACTORS
330
2A
102
}
330
2A
100
AcDbVisualStyle
  2
Conceptual
 70
     9
177
     3
291
     0
 70
    58
 90
        3
176
     1
 90
        2
176
     1
 90
        0
176
     1
 90
        0
176
     1
 40
0.6
176
     1
 40
30.0
176
     1
 62
     7
420
 16777215
176
     1
 90
        2
176
     1
 90
        2
176
     1
 62
     7
176
     1
 62
   257
176
     1
 90
        1
176
     1
 90
        1
176
     1
 40
179.0
176
     1
 90
        8
176
     1
 62
     7
176
     1
 40
1.0
176
     1
 90
        1
176
     1
 90
        6
176
     1
 90
        2
176
     1
 62
     7
176
     1
 90
        3
176
     1
 90
        0
176
     1
 90
        0
176
     1
290
     0
176
     1
 90
        1
176
     1
 40
0.0
176
     1
 90
        0
176
     1
290
     0
176
     1
290
     1
176
     1
290
     1
176
     1
290
     0
176
     1
290
     0
176
     1
290
     0
176
     1
290
     0
176
     1
290
     0
176
     1
290
     0
176
     1
 90
       50
176
     1
 40
0.0
176
     1
 40
1.0
176
     1
 90
        0
176
     1
 62
    18
420
        0
176
     1
 90
       50
176
     1
 90
        3
176
     1
 62
     5
420
      255
176
     1
290
     0
176
     1
 90
       50
176
     1
 90
       50
176
     1
 90
       50
176
     1
290
     0
176
     1
 90
       50
176
     1
 62
   256
176
     0
 40
1.0
176
     0
 90
        2
176
     1
  1
strokes_ogs.tif
176
     1
290
     0
176
     1
 40
1.0
176
     1
 40
1.0
176
     1
  0
VISUALSTYLE
  5
35
102
{ACAD_REACTORS
330
2A
102
}
330
2A
100
AcDbVisualStyle
  2
Dim
 70
    11
177
     3
291
     1
 70
    58
 90
        2
176
     1
 90
        2
176
     1
 90
        0
176
     1
 90
        0
176
     1
 40
0.6
176
     1
 40
30.0
176
     1
 62
     7
420
 16777215
176
     1
 90
        1
176
     1
 90
        4
176
     1
 62
     7
176
     1
 62
   257
176
     1
 90
        1
176
     1
 90
        1
176
     1
 40
1.0
176
     1
 90
        8
176
     1
 62
     7
176
     1
 40
1.0
176
     1
 90
        1
176
     1
 90
        6
176
     1
 90
        2
176
     1
 62
     7
176
     1
 90
        5
176
     1
 90
        0
176
     1
 90
        0
176
     1
290
     0
176
     1
 90
        1
176
     1
 40
-50.0
176
     1
 90
        0
176
     1
290
     0
176
     1
290
     1
176
     1
290
     1
176
     1
290
     0
176
     1
290
     0
176
     1
290
     0
176
     1
290
     0
176
     1
290
     0
176
     1
290
     0
176
     1
 90
       50
176
     1
 40
0.0
176
     1
 40
1.0
176
     1
 90
        0
176
     1
 62
    18
420
        0
176
     1
 90
       50
176
     1
 90
        3
176
     1
 62
     5
420
      255
176
     1
290
     0
176
     1
 90
       50
176
     1
 90
       50
176
     1
 90
       50
176
     1
290
     0
176
     1
 90
       50
176
     1
 62
   256
176
     0
 40
1.0
176
     0
 90
        2
176
     1
  1
strokes_ogs.tif
176
     1
290
     0
176
     1
 40
1.0
176
     1
 40
1.0
176
     1
  0
VISUALSTYLE
  5
3D
102
{ACAD_REACTORS
330
2A
102
}
330
2A
100
AcDbVisualStyle
  2
EdgeColorOff
 70
    22
177
     3
291
     1
 70
    58
 90
        2
176
     0
 90
        2
176
     0
 90
        0
176
     0
 90
        0
176
     0
 40
0.6
176
     0
 40
30.0
176
     0
 62
     7
420
 16777215
176
     0
 90
        1
176
     0
 90
        4
176
     0
 62
     7
176
     0
 62
   257
176
     0
 90
        1
176
     0
 90
        1
176
     0
 40
1.0
176
     0
 90
        8
176
     2
 62
     7
176
     0
 40
1.0
176
     0
 90
        1
176
     0
 90
        6
176
     0
 90
        2
176
     0
 62
     7
176
     0
 90
        5
176
     0
 90
        0
176
     0
 90
        0
176
     0
290
     0
176
     0
 90
        1
176
     0
 40
0.0
176
     0
 90
        0
176
     0
290
     0
176
     0
290
     1
176
     0
290
     1
176
     0
290
     0
176
     0
290
     0
176
     0
290
     0
176
     0
290
     0
176
     0
290
     0
176
     0
290
     0
176
     0
 90
       50
176
     0
 40
0.0
176
     0
 40
1.0
176
     0
 90
        0
176
     0
 62
    18
420
        0
176
     0
 90
       50
176
     0
 90
        3
176
     0
 62
     5
420
      255
176
     0
290
     0
176
     0
 90
       50
176
     0
 90
       50
176
     0
 90
       50
176
     0
290
     0
176
     0
 90
       50
176
     0
 62
   256
176
     0
 40
1.0
176
     0
 90
        2
176
     0
  1
strokes_ogs.tif
176
     0
290
     0
176
     0
 40
1.0
176
     0
 40
1.0
176
     0
  0
VISUALSTYLE
  5
39
102
{ACAD_REACTORS
330
2A
102
}
330
2A
100
AcDbVisualStyle
  2
Facepattern
 70
    15
177
     3
291
     1
 70
    58
 90
        2
176
     1
 90
        2
176
     1
 90
        0
176
     1
 90
        0
176
     1
 40
0.6
176
     1
 40
30.0
176
     1
 62
     7
420
 16777215
176
     1
 90
        1
176
     1
 90
        4
176
     1
 62
     7
176
     1
 62
   257
176
     1
 90
        1
176
     1
 90
        1
176
     1
 40
1.0
176
     1
 90
        8
176
     1
 62
     7
176
     1
 40
1.0
176
     1
 90
        1
176
     1
 90
        6
176
     1
 90
        2
176
     1
 62
     7
176
     1
 90
        5
176
     1
 90
        0
176
     1
 90
        0
176
     1
290
     0
176
     1
 90
        1
176
     1
 40
0.0
176
     1
 90
        0
176
     1
290
     0
176
     1
290
     1
176
     1
290
     1
176
     1
290
     0
176
     1
290
     0
176
     1
290
     0
176
     1
290
     0
176
     1
290
     0
176
     1
290
     0
176
     1
 90
       50
176
     1
 40
0.0
176
     1
 40
1.0
176
     1
 90
        0
176
     1
 62
    18
420
        0
176
     1
 90
       50
176
     1
 90
        3
176
     1
 62
     5
420
      255
176
     1
290
     0
176
     1
 90
       50
176
     1
 90
       50
176
     1
 90
       50
176
     1
290
     0
176
     1
 90
       50
176
     1
 62
   256
176
     0
 40
1.0
176
     0
 90
        2
176
     1
  1
strokes_ogs.tif
176
     1
290
     0
176
     1
 40
1.0
176
     1
 40
1.0
176
     1
  0
VISUALSTYLE
  5
2B
102
{ACAD_REACTORS
330
2A
102
}
330
2A
100
AcDbVisualStyle
  2
Flat
 70
     0
177
     3
291
     1
 70
    58
 90
        2
176
     1
 90
        1
176
     1
 90
        1
176
     1
 90
        2
176
     1
 40
0.6
176
     1
 40
30.0
176
     1
 62
     7
420
 16777215
176
     1
 90
        0
176
     1
 90
        0
176
     1
 62
     7
176
     1
 62
   257
176
     1
 90
        1
176
     1
 90
        1
176
     1
 40
1.0
176
     1
 90
        8
176
     1
 62
     7
176
     1
 40
1.0
176
     1
 90
        1
176
     1
 90
        6
176
     1
 90
        2
176
     1
 62
     7
176
     1
 90
        5
176
     1
 90
        0
176
     1
 90
        0
176
     1
290
     0
176
     1
 90
       13
176
     1
 40
0.0
176
     1
 90
        0
176
     1
290
     0
176
     1
290
     1
176
     1
290
     1
176
     1
290
     0
176
     1
290
     0
176
     1
290
     0
176
     1
290
     0
176
     1
290
     0
176
     1
290
     0
176
     1
 90
       50
176
     1
 40
0.0
176
     1
 40
1.0
176
     1
 90
        0
176
     1
 62
    18
420
        0
176
     1
 90
       50
176
     1
 90
        3
176
     1
 62
     5
420
      255
176
     1
290
     0
176
     1
 90
       50
176
     1
 90
       50
176
     1
 90
       50
176
     1
290
     0
176
     1
 90
       50
176
     1
 62
   256
176
     0
 40
1.0
176
     0
 90
        2
176
     1
  1
strokes_ogs.tif
176
     1
290
     0
176
     1
 40
1.0
176
     1
 40
1.0
176
     1
  0
VISUALSTYLE
  5
2C
102
{ACAD_REACTORS
330
2A
102
}
330
2A
100
AcDbVisualStyle
  2
FlatWithEdges
 70
     1
177
     3
291
     1
 70
    58
 90
        2
176
     1
 90
        1
176
     1
 90
        1
176
     1
 90
        2
176
     1
 40
0.6
176
     1
 40
30.0
176
     1
 62
     7
420
 16777215
176
     1
 90
        1
176
     1
 90
        0
176
     1
 62
     7
176
     1
 62
   257
176
     1
 90
        1
176
     1
 90
        1
176
     1
 40
1.0
176
     1
 90
        0
176
     1
 62
   257
176
     1
 40
1.0
176
     1
 90
        1
176
     1
 90
        6
176
     1
 90
        2
176
     1
 62
     7
176
     1
 90
        5
176
     1
 90
        0
176
     1
 90
        0
176
     1
290
     0
176
     1
 90
       13
176
     1
 40
0.0
176
     1
 90
        0
176
     1
290
     0
176
     1
290
     1
176
     1
290
     1
176
     1
290
     0
176
     1
290
     0
176
     1
290
     0
176
     1
290
     0
176
     1
290
     0
176
     1
290
     0
176
     1
 90
       50
176
     1
 40
0.0
176
     1
 40
1.0
176
     1
 90
        0
176
     1
 62
    18
420
        0
176
     1
 90
       50
176
     1
 90
        3
176
     1
 62
     5
420
      255
176
     1
290
     0
176
     1
 90
       50
176
     1
 90
       50
176
     1
 90
       50
176
     1
290
     0
176
     1
 90
       50
176
     1
 62
   256
176
     0
 40
1.0
176
     0
 90
        2
176
     1
  1
strokes_ogs.tif
176
     1
290
     0
176
     1
 40
1.0
176
     1
 40
1.0
176
     1
  0
VISUALSTYLE
  5
2D
102
{ACAD_REACTORS
330
2A
102
}
330
2A
100
AcDbVisualStyle
  2
Gouraud
 70
     2
177
     3
291
     1
 70
    58
 90
        2
176
     1
 90
        2
176
     1
 90
        1
176
     1
 90
        2
176
     1
 40
0.6
176
     1
 40
30.0
176
     1
 62
     7
420
 16777215
176
     1
 90
        0
176
     1
 90
        0
176
     1
 62
     7
176
     1
 62
   257
176
     1
 90
        1
176
     1
 90
        1
176
     1
 40
1.0
176
     1
 90
        0
176
     1
 62
     7
176
     1
 40
1.0
176
     1
 90
        1
176
     1
 90
        6
176
     1
 90
        2
176
     1
 62
     7
176
     1
 90
        5
176
     1
 90
        0
176
     1
 90
        0
176
     1
290
     0
176
     1
 90
       13
176
     1
 40
0.0
176
     1
 90
        0
176
     1
290
     0
176
     1
290
     1
176
     1
290
     1
176
     1
290
     0
176
     1
290
     0
176
     1
290
     0
176
     1
290
     0
176
     1
290
     0
176
     1
290
     0
176
     1
 90
       50
176
     1
 40
0.0
176
     1
 40
1.0
176
     1
 90
        0
176
     1
 62
    18
420
        0
176
     1
 90
       50
176
     1
 90
        3
176
     1
 62
     5
420
      255
176
     1
290
     0
176
     1
 90
       50
176
     1
 90
       50
176
     1
 90
       50
176
     1
290
     0
176
     1
 90
       50
176
     1
 62
   256
176
     0
 40
1.0
176
     0
 90
        2
176
     1
  1
strokes_ogs.tif
176
     1
290
     0
176
     1
 40
1.0
176
     1
 40
1.0
176
     1
  0
VISUALSTYLE
  5
2E
102
{ACAD_REACTORS
330
2A
102
}
330
2A
100
AcDbVisualStyle
  2
GouraudWithEdges
 70
     3
177
     3
291
     1
 70
    58
 90
        2
176
     1
 90
        2
176
     1
 90
        1
176
     1
 90
        2
176
     1
 40
0.6
176
     1
 40
30.0
176
     1
 62
     7
420
 16777215
176
     1
 90
        1
176
     1
 90
        0
176
     1
 62
     7
176
     1
 62
   257
176
     1
 90
        1
176
     1
 90
        1
176
     1
 40
1.0
176
     1
 90
        0
176
     1
 62
   257
176
     1
 40
1.0
176
     1
 90
        1
176
     1
 90
        6
176
     1
 90
        2
176
     1
 62
     7
176
     1
 90
        5
176
     1
 90
        0
176
     1
 90
        0
176
     1
290
     0
176
     1
 90
       13
176
     1
 40
0.0
176
     1
 90
        0
176
     1
290
     0
176
     1
290
     1
176
     1
290
     1
176
     1
290
     0
176
     1
290
     0
176
     1
290
     0
176
     1
290
     0
176
     1
290
     0
176
     1
290
     0
176
     1
 90
       50
176
     1
 40
0.0
176
     1
 40
1.0
176
     1
 90
        0
176
     1
 62
    18
420
        0
176
     1
 90
       50
176
     1
 90
        3
176
     1
 62
     5
420
      255
176
     1
290
     0
176
     1
 90
       50
176
     1
 90
       50
176
     1
 90
       50
176
     1
290
     0
176
     1
 90
       50
176
     1
 62
   256
176
     0
 40
1.0
176
     0
 90
        2
176
     1
  1
strokes_ogs.tif
176
     1
290
     0
176
     1
 40
1.0
176
     1
 40
1.0
176
     1
  0
VISUALSTYLE
  5
31
102
{ACAD_REACTORS
330
2A
102
}
330
2A
100
AcDbVisualStyle
  2
Hidden
 70
     6
177
     3
291
     0
 70
    58
 90
        1
176
     1
 90
        2
176
     1
 90
        2
176
     1
 90
        0
176
     1
 40
0.6
176
     1
 40
30.0
176
     1
 62
     7
420
 16777215
176
     1
 90
        2
176
     1
 90
        2
176
     1
 62
     7
176
     1
 62
   257
176
     1
 90
        2
176
     1
 90
        1
176
     1
 40
40.0
176
     1
 90
        0
176
     1
 62
   257
176
     1
 40
1.0
176
     1
 90
        1
176
     1
 90
        6
176
     1
 90
        2
176
     1
 62
     7
176
     1
 90
        3
176
     1
 90
        0
176
     1
 90
        0
176
     1
290
     0
176
     1
 90
        1
176
     1
 40
0.0
176
     1
 90
        0
176
     1
290
     0
176
     1
290
     1
176
     1
290
     1
176
     1
290
     0
176
     1
290
     0
176
     1
290
     0
176
     1
290
     0
176
     1
290
     0
176
     1
290
     0
176
     1
 90
       50
176
     1
 40
0.0
176
     1
 40
1.0
176
     1
 90
        0
176
     1
 62
    18
420
        0
176
     1
 90
       50
176
     1
 90
        3
176
     1
 62
     5
420
      255
176
     1
290
     0
176
     1
 90
       50
176
     1
 90
       50
176
     1
 90
       50
176
     1
290
     0
176
     1
 90
       50
176
     1
 62
   256
176
     0
 40
1.0
176
     0
 90
        2
176
     1
  1
strokes_ogs.tif
176
     1
290
     0
176
     1
 40
1.0
176
     1
 40
1.0
176
     1
  0
VISUALSTYLE
  5
3B
102
{ACAD_REACTORS
330
2A
102
}
330
2A
100
AcDbVisualStyle
  2
JitterOff
 70
    20
177
     3
291
     1
 70
    58
 90
        2
176
     0
 90
        2
176
     0
 90
        0
176
     0
 90
        0
176
     0
 40
0.6
176
     0
 40
30.0
176
     0
 62
     7
420
 16777215
176
     0
 90
        1
176
     0
 90
        4
176
     0
 62
     7
176
     0
 62
   257
176
     0
 90
        1
176
     0
 90
        1
176
     0
 40
1.0
176
     0
 90
       10
176
     2
 62
     7
176
     0
 40
1.0
176
     0
 90
        1
176
     0
 90
        6
176
     0
 90
        2
176
     0
 62
     7
176
     0
 90
        5
176
     0
 90
        0
176
     0
 90
        0
176
     0
290
     0
176
     0
 90
        1
176
     0
 40
0.0
176
     0
 90
        0
176
     0
290
     0
176
     0
290
     1
176
     0
290
     1
176
     0
290
     0
176
     0
290
     0
176
     0
290
     0
176
     0
290
     0
176
     0
290
     0
176
     0
290
     0
176
     0
 90
       50
176
     0
 40
0.0
176
     0
 40
1.0
176
     0
 90
        0
176
     0
 62
    18
420
        0
176
     0
 90
       50
176
     0
 90
        3
176
     0
 62
     5
420
      255
176
     0
290
     0
176
     0
 90
       50
176
     0
 90
       50
176
     0
 90
       50
176
     0
290
     0
176
     0
 90
       50
176
     0
 62
   256
176
     0
 40
1.0
176
     0
 90
        2
176
     0
  1
strokes_ogs.tif
176
     0
290
     0
176
     0
 40
1.0
176
     0
 40
1.0
176
     0
  0
VISUALSTYLE
  5
38
102
{ACAD_REACTORS
330
2A
102
}
330
2A
100
AcDbVisualStyle
  2
Linepattern
 70
    14
177
     3
291
     1
 70
    58
 90
        2
176
     1
 90
        2
176
     1
 90
        0
176
     1
 90
        0
176
     1
 40
0.6
176
     1
 40
30.0
176
     1
 62
     7
420
 16777215
176
     1
 90
        1
176
     1
 90
        4
176
     1
 62
     7
176
     1
 62
   257
176
     1
 90
        7
176
     1
 90
        7
176
     1
 40
1.0
176
     1
 90
        8
176
     1
 62
     7
176
     1
 40
1.0
176
     1
 90
        1
176
     1
 90
        6
176
     1
 90
        2
176
     1
 62
     7
176
     1
 90
        5
176
     1
 90
        0
176
     1
 90
        0
176
     1
290
     0
176
     1
 90
        1
176
     1
 40
0.0
176
     1
 90
        0
176
     1
290
     0
176
     1
290
     1
176
     1
290
     1
176
     1
290
     0
176
     1
290
     0
176
     1
290
     0
176
     1
290
     0
176
     1
290
     0
176
     1
290
     0
176
     1
 90
       50
176
     1
 40
0.0
176
     1
 40
1.0
176
     1
 90
        0
176
     1
 62
    18
420
        0
176
     1
 90
       50
176
     1
 90
        3
176
     1
 62
     5
420
      255
176
     1
290
     0
176
     1
 90
       50
176
     1
 90
       50
176
     1
 90
       50
176
     1
290
     0
176
     1
 90
       50
176
     1
 62
   256
176
     0
 40
1.0
176
     0
 90
        2
176
     1
  1
strokes_ogs.tif
176
     1
290
     0
176
     1
 40
1.0
176
     1
 40
1.0
176
     1
  0
VISUALSTYLE
  5
3C
102
{ACAD_REACTORS
330
2A
102
}
330
2A
100
AcDbVisualStyle
  2
OverhangOff
 70
    21
177
     3
291
     1
 70
    58
 90
        2
176
     0
 90
        2
176
     0
 90
        0
176
     0
 90
        0
176
     0
 40
0.6
176
     0
 40
30.0
176
     0
 62
     7
420
 16777215
176
     0
 90
        1
176
     0
 90
        4
176
     0
 62
     7
176
     0
 62
   257
176
     0
 90
        1
176
     0
 90
        1
176
     0
 40
1.0
176
     0
 90
        9
176
     2
 62
     7
176
     0
 40
1.0
176
     0
 90
        1
176
     0
 90
        6
176
     0
 90
        2
176
     0
 62
     7
176
     0
 90
        5
176
     0
 90
        0
176
     0
 90
        0
176
     0
290
     0
176
     0
 90
        1
176
     0
 40
0.0
176
     0
 90
        0
176
     0
290
     0
176
     0
290
     1
176
     0
290
     1
176
     0
290
     0
176
     0
290
     0
176
     0
290
     0
176
     0
290
     0
176
     0
290
     0
176
     0
290
     0
176
     0
 90
       50
176
     0
 40
0.0
176
     0
 40
1.0
176
     0
 90
        0
176
     0
 62
    18
420
        0
176
     0
 90
       50
176
     0
 90
        3
176
     0
 62
     5
420
      255
176
     0
290
     0
176
     0
 90
       50
176
     0
 90
       50
176
     0
 90
       50
176
     0
290
     0
176
     0
 90
       50
176
     0
 62
   256
176
     0
 40
1.0
176
     0
 90
        2
176
     0
  1
strokes_ogs.tif
176
     0
290
     0
176
     0
 40
1.0
176
     0
 40
1.0
176
     0
  0
VISUALSTYLE
  5
33
102
{ACAD_REACTORS
330
2A
102
}
330
2A
100
AcDbVisualStyle
  2
Realistic
 70
     8
177
     3
291
     0
 70
    58
 90
        2
176
     1
 90
        3
176
     1
 90
        0
176
     1
 90
        2
176
     1
 40
0.6
176
     1
 40
30.0
176
     1
 62
     7
420
 16777215
176
     1
 90
        0
176
     1
 90
        0
176
     1
 62
     7
176
     1
 62
   257
176
     1
 90
        1
176
     1
 90
        1
176
     1
 40
1.0
176
     1
 90
        8
176
     1
 62
   257
176
     1
 40
1.0
176
     1
 90
        1
176
     1
 90
        6
176
     1
 90
        2
176
     1
 62
     7
176
     1
 90
        3
176
     1
 90
        0
176
     1
 90
        0
176
     1
290
     0
176
     1
 90
       13
176
     1
 40
0.0
176
     1
 90
        0
176
     1
290
     0
176
     1
290
     1
176
     1
290
     1
176
     1
290
     0
176
     1
290
     0
176
     1
290
     0
176
     1
290
     0
176
     1
290
     0
176
     1
290
     0
176
     1
 90
       50
176
     1
 40
0.0
176
     1
 40
1.0
176
     1
 90
        0
176
     1
 62
    18
420
        0
176
     1
 90
       50
176
     1
 90
        3
176
     1
 62
     5
420
      255
176
     1
290
     0
176
     1
 90
       50
176
     1
 90
       50
176
     1
 90
       50
176
     1
290
     0
176
     1
 90
       50
176
     1
 62
   256
176
     0
 40
1.0
176
     0
 90
        2
176
     1
  1
strokes_ogs.tif
176
     1
290
     0
176
     1
 40
1.0
176
     1
 40
1.0
176
     1
  0
VISUALSTYLE
  5
42
102
{ACAD_REACTORS
330
2A
102
}
330
2A
100
AcDbVisualStyle
  2
Shaded
 70
    27
177
     3
291
     0
 70
    58
 90
        2
176
     1
 90
        2
176
     1
 90
        1
176
     1
 90
        2
176
     1
 40
0.6
176
     1
 40
30.0
176
     1
 62
     7
420
 16777215
176
     1
 90
        0
176
     1
 90
        4
176
     1
 62
     7
176
     1
 62
   257
176
     1
 90
        1
176
     1
 90
        1
176
     1
 40
1.0
176
     1
 90
        8
176
     1
 62
   257
176
     1
 40
1.0
176
     1
 90
        1
176
     1
 90
        6
176
     1
 90
        2
176
     1
 62
     8
420
  7895160
176
     1
 90
        3
176
     1
 90
        0
176
     1
 90
        0
176
     1
290
     0
176
     1
 90
        5
176
     1
 40
0.0
176
     1
 90
        0
176
     1
290
     0
176
     1
290
     1
176
     1
290
     1
176
     1
290
     0
176
     1
290
     0
176
     1
290
     0
176
     1
290
     0
176
     1
290
     0
176
     1
290
     0
176
     1
 90
       50
176
     1
 40
0.0
176
     1
 40
1.0
176
     1
 90
        0
176
     1
 62
    18
420
        0
176
     1
 90
       50
176
     1
 90
        3
176
     1
 62
     5
420
      255
176
     1
290
     0
176
     1
 90
       50
176
     1
 90
       50
176
     1
 90
       50
176
     1
290
     0
176
     1
 90
       50
176
     1
 62
   256
176
     0
 40
1.0
176
     0
 90
        2
176
     1
  1
strokes_ogs.tif
176
     1
290
     0
176
     1
 40
1.0
176
     1
 40
1.0
176
     1
  0
VISUALSTYLE
  5
41
102
{ACAD_REACTORS
330
2A
102
}
330
2A
100
AcDbVisualStyle
  2
Shaded with edges
 70
    26
177
     3
291
     0
 70
    58
 90
        2
176
     1
 90
        2
176
     1
 90
        1
176
     1
 90
        2
176
     1
 40
0.6
176
     1
 40
30.0
176
     1
 62
     7
420
 16777215
176
     1
 90
        1
176
     1
 90
       10
176
     1
 62
     7
176
     1
 62
   257
176
     1
 90
        2
176
     1
 90
        1
176
     1
 40
1.0
176
     1
 90
        8
176
     1
 62
   257
176
     1
 40
1.0
176
     1
 90
        1
176
     1
 90
        6
176
     1
 90
        2
176
     1
 62
     7
176
     1
 90
        3
176
     1
 90
        0
176
     1
 90
        0
176
     1
290
     0
176
     1
 90
        5
176
     1
 40
0.0
176
     1
 90
        0
176
     1
290
     0
176
     1
290
     1
176
     1
290
     1
176
     1
290
     0
176
     1
290
     0
176
     1
290
     0
176
     1
290
     0
176
     1
290
     0
176
     1
290
     0
176
     1
 90
       50
176
     1
 40
0.0
176
     1
 40
1.0
176
     1
 90
        0
176
     1
 62
    18
420
        0
176
     1
 90
       50
176
     1
 90
        3
176
     1
 62
     5
420
      255
176
     1
290
     0
176
     1
 90
       50
176
     1
 90
       50
176
     1
 90
       50
176
     1
290
     0
176
     1
 90
       50
176
     1
 62
   256
176
     0
 40
1.0
176
     0
 90
        2
176
     1
  1
strokes_ogs.tif
176
     1
290
     0
176
     1
 40
1.0
176
     1
 40
1.0
176
     1
  0
VISUALSTYLE
  5
3E
102
{ACAD_REACTORS
330
2A
102
}
330
2A
100
AcDbVisualStyle
  2
Shades of Gray
 70
    23
177
     3
291
     0
 70
    58
 90
        2
176
     1
 90
        2
176
     1
 90
        3
176
     1
 90
        0
176
     1
 40
0.6
176
     1
 40
30.0
176
     1
 62
     7
420
 16777215
176
     1
 90
        2
176
     1
 90
        2
176
     1
 62
     7
176
     1
 62
     7
176
     1
 90
        1
176
     1
 90
        1
176
     1
 40
40.0
176
     1
 90
        8
176
     1
 62
     7
176
     1
 40
1.0
176
     1
 90
        1
176
     1
 90
        6
176
     1
 90
        2
176
     1
 62
     7
176
     1
 90
        3
176
     1
 90
        0
176
     1
 90
        0
176
     1
290
     0
176
     1
 90
        1
176
     1
 40
0.0
176
     1
 90
        0
176
     1
290
     0
176
     1
290
     1
176
     1
290
     1
176
     1
290
     0
176
     1
290
     0
176
     1
290
     0
176
     1
290
     0
176
     1
290
     0
176
     1
290
     0
176
     1
 90
       50
176
     1
 40
0.0
176
     1
 40
1.0
176
     1
 90
        0
176
     1
 62
    18
420
        0
176
     1
 90
       50
176
     1
 90
        3
176
     1
 62
     5
420
      255
176
     1
290
     0
176
     1
 90
       50
176
     1
 90
       50
176
     1
 90
       50
176
     1
290
     0
176
     1
 90
       50
176
     1
 62
   256
176
     0
 40
1.0
176
     0
 90
        2
176
     1
  1
strokes_ogs.tif
176
     1
290
     0
176
     1
 40
1.0
176
     1
 40
1.0
176
     1
  0
VISUALSTYLE
  5
3F
102
{ACAD_REACTORS
330
2A
102
}
330
2A
100
AcDbVisualStyle
  2
Sketchy
 70
    24
177
     3
291
     0
 70
    58
 90
        1
176
     1
 90
        2
176
     1
 90
        2
176
     1
 90
        0
176
     1
 40
0.6
176
     1
 40
30.0
176
     1
 62
     7
420
 16777215
176
     1
 90
        2
176
     1
 90
        2
176
     1
 62
     7
176
     1
 62
     7
176
     1
 90
        1
176
     1
 90
        1
176
     1
 40
40.0
176
     1
 90
       11
176
     1
 62
     7
176
     1
 40
1.0
176
     1
 90
        1
176
     1
 90
        6
176
     1
 90
        2
176
     1
 62
     7
176
     1
 90
        6
176
     1
 90
        0
176
     1
 90
        0
176
     1
290
     0
176
     1
 90
        1
176
     1
 40
0.0
176
     1
 90
        0
176
     1
290
     0
176
     1
290
     1
176
     1
290
     1
176
     1
290
     0
176
     1
290
     0
176
     1
290
     0
176
     1
290
     0
176
     1
290
     0
176
     1
290
     0
176
     1
 90
       50
176
     1
 40
0.0
176
     1
 40
1.0
176
     1
 90
        0
176
     1
 62
    18
420
        0
176
     1
 90
       50
176
     1
 90
        3
176
     1
 62
     5
420
      255
176
     1
290
     0
176
     1
 90
       50
176
     1
 90
       50
176
     1
 90
       50
176
     1
290
     0
176
     1
 90
       50
176
     1
 62
   256
176
     0
 40
1.0
176
     0
 90
        2
176
     1
  1
strokes_ogs.tif
176
     1
290
     0
176
     1
 40
1.0
176
     1
 40
1.0
176
     1
  0
VISUALSTYLE
  5
37
102
{ACAD_REACTORS
330
2A
102
}
330
2A
100
AcDbVisualStyle
  2
Thicken
 70
    13
177
     3
291
     1
 70
    58
 90
        2
176
     1
 90
        2
176
     1
 90
        0
176
     1
 90
        0
176
     1
 40
0.6
176
     1
 40
30.0
176
     1
 62
     7
420
 16777215
176
     1
 90
        1
176
     1
 90
        4
176
     1
 62
     7
176
     1
 62
   257
176
     1
 90
        1
176
     1
 90
        1
176
     1
 40
1.0
176
     1
 90
       12
176
     1
 62
     7
176
     1
 40
1.0
176
     1
 90
        1
176
     1
 90
        6
176
     1
 90
        2
176
     1
 62
     7
176
     1
 90
        5
176
     1
 90
        0
176
     1
 90
        0
176
     1
290
     0
176
     1
 90
        1
176
     1
 40
0.0
176
     1
 90
        0
176
     1
290
     0
176
     1
290
     1
176
     1
290
     1
176
     1
290
     0
176
     1
290
     0
176
     1
290
     0
176
     1
290
     0
176
     1
290
     0
176
     1
290
     0
176
     1
 90
       50
176
     1
 40
0.0
176
     1
 40
1.0
176
     1
 90
        0
176
     1
 62
    18
420
        0
176
     1
 90
       50
176
     1
 90
        3
176
     1
 62
     5
420
      255
176
     1
290
     0
176
     1
 90
       50
176
     1
 90
       50
176
     1
 90
       50
176
     1
290
     0
176
     1
 90
       50
176
     1
 62
   256
176
     0
 40
1.0
176
     0
 90
        2
176
     1
  1
strokes_ogs.tif
176
     1
290
     0
176
     1
 40
1.0
176
     1
 40
1.0
176
     1
  0
VISUALSTYLE
  5
30
102
{ACAD_REACTORS
330
2A
102
}
330
2A
100
AcDbVisualStyle
  2
Wireframe
 70
     5
177
     3
291
     0
 70
    58
 90
        0
176
     1
 90
        2
176
     1
 90
        0
176
     1
 90
        0
176
     1
 40
0.6
176
     1
 40
30.0
176
     1
 62
     7
420
 16777215
176
     1
 90
        1
176
     1
 90
        4
176
     1
 62
     7
176
     1
 62
   257
176
     1
 90
        1
176
     1
 90
        1
176
     1
 40
1.0
176
     1
 90
        0
176
     1
 62
   257
176
     1
 40
1.0
176
     1
 90
        1
176
     1
 90
        6
176
     1
 90
        2
176
     1
 62
     7
176
     1
 90
        3
176
     1
 90
        0
176
     1
 90
        0
176
     1
290
     0
176
     1
 90
        1
176
     1
 40
0.0
176
     1
 90
        0
176
     1
290
     0
176
     1
290
     1
176
     1
290
     1
176
     1
290
     0
176
     1
290
     0
176
     1
290
     0
176
     1
290
     0
176
     1
290
     0
176
     1
290
     0
176
     1
 90
       50
176
     1
 40
0.0
176
     1
 40
1.0
176
     1
 90
        0
176
     1
 62
    18
420
        0
176
     1
 90
       50
176
     1
 90
        3
176
     1
 62
     5
420
      255
176
     1
290
     0
176
     1
 90
       50
176
     1
 90
       50
176
     1
 90
       50
176
     1
290
     0
176
     1
 90
       50
176
     1
 62
   256
176
     0
 40
1.0
176
     0
 90
        2
176
     1
  1
strokes_ogs.tif
176
     1
290
     0
176
     1
 40
1.0
176
     1
 40
1.0
176
     1
  0
VISUALSTYLE
  5
40
102
{ACAD_REACTORS
330
2A
102
}
330
2A
100
AcDbVisualStyle
  2
X-Ray
 70
    25
177
     3
291
     0
 70
    58
 90
        2
176
     1
 90
        2
176
     1
 90
        1
176
     1
 90
        1
176
     1
 40
0.5
176
     1
 40
30.0
176
     1
 62
     7
420
 16777215
176
     1
 90
        1
176
     1
 90
        0
176
     1
 62
     7
176
     1
 62
   257
176
     1
 90
        1
176
     1
 90
        1
176
     1
 40
1.0
176
     1
 90
        8
176
     1
 62
     7
176
     1
 40
1.0
176
     1
 90
        1
176
     1
 90
        6
176
     1
 90
        2
176
     1
 62
     7
176
     1
 90
        3
176
     1
 90
        0
176
     1
 90
        0
176
     1
290
     0
176
     1
 90
       13
176
     1
 40
0.0
176
     1
 90
        0
176
     1
290
     0
176
     1
290
     1
176
     1
290
     1
176
     1
290
     0
176
     1
290
     0
176
     1
290
     0
176
     1
290
     0
176
     1
290
     0
176
     1
290
     0
176
     1
 90
       50
176
     1
 40
0.0
176
     1
 40
1.0
176
     1
 90
        0
176
     1
 62
    18
420
        0
176
     1
 90
       50
176
     1
 90
        3
176
     1
 62
     5
420
      255
176
     1
290
     0
176
     1
 90
       50
176
     1
 90
       50
176
     1
 90
       50
176
     1
290
     0
176
     1
 90
       50
176
     1
 62
   256
176
     0
 40
1.0
176
     0
 90
        2
176
     1
  1
strokes_ogs.tif
176
     1
290
     0
176
     1
 40
1.0
176
     1
 40
1.0
176
     1
  0
DICTIONARYVAR
  5
208
102
{ACAD_REACTORS
330
207
102
}
330
207
100
DictionaryVariables
280
     0
  1
1:1
  0
DICTIONARYVAR
  5
20D
102
{ACAD_REACTORS
330
207
102
}
330
207
100
DictionaryVariables
280
     0
  1
Standard
  0
DICTIONARYVAR
  5
20C
102
{ACAD_REACTORS
330
207
102
}
330
207
100
DictionaryVariables
280
     0
  1
Standard
  0
DICTIONARY
  5
209
330
6A
100
AcDbDictionary
280
     1
281
     1
  3
ACAD_ROUNDTRIP_2008_TABLESTYLE_CELLSTYLEMAP
360
20A
  0
CELLSTYLEMAP
  5
20A
102
{ACAD_REACTORS
330
209
102
}
330
209
100
AcDbCellStyleMap
 90
        3
300
CELLSTYLE
  1
TABLEFORMAT_BEGIN
 90
        5
170
     1
 91
        0
 92
    32768
 62
   257
 93
        1
300
CONTENTFORMAT
  1
CONTENTFORMAT_BEGIN
 90
        0
 91
        0
 92
        4
 93
        0
300

 40
0.0
140
1.0
 94
        5
 62
     0
340
11
144
0.25
309
CONTENTFORMAT_END
171
     1
301
MARGIN
  1
CELLMARGIN_BEGIN
 40
0.06
 40
0.06
 40
0.06
 40
0.06
 40
0.06
 40
0.06
309
CELLMARGIN_END
 94
        6
 95
        1
302
GRIDFORMAT
  1
GRIDFORMAT_BEGIN
 90
        0
 91
        1
 62
     0
 92
       -2
340
14
 93
        0
 40
0.045
309
GRIDFORMAT_END
 95
        2
302
GRIDFORMAT
  1
GRIDFORMAT_BEGIN
 90
        0
 91
        1
 62
     0
 92
       -2
340
14
 93
        0
 40
0.045
309
GRIDFORMAT_END
 95
        4
302
GRIDFORMAT
  1
GRIDFORMAT_BEGIN
 90
        0
 91
        1
 62
     0
 92
       -2
340
14
 93
        0
 40
0.045
309
GRIDFORMAT_END
 95
        8
302
GRIDFORMAT
  1
GRIDFORMAT_BEGIN
 90
        0
 91
        1
 62
     0
 92
       -2
340
14
 93
        0
 40
0.045
309
GRIDFORMAT_END
 95
       16
302
GRIDFORMAT
  1
GRIDFORMAT_BEGIN
 90
        0
 91
        1
 62
     0
 92
       -2
340
14
 93
        0
 40
0.045
309
GRIDFORMAT_END
 95
       32
302
GRIDFORMAT
  1
GRIDFORMAT_BEGIN
 90
        0
 91
        1
 62
     0
 92
       -2
340
14
 93
        0
 40
0.045
309
GRIDFORMAT_END
309
TABLEFORMAT_END
  1
CELLSTYLE_BEGIN
 90
        1
 91
        1
300
_TITLE
309
CELLSTYLE_END
300
CELLSTYLE
  1
TABLEFORMAT_BEGIN
 90
        5
170
     1
 91
        0
 92
        0
 62
   257
 93
        1
300
CONTENTFORMAT
  1
CONTENTFORMAT_BEGIN
 90
        0
 91
        0
 92
        4
 93
        0
300

 40
0.0
140
1.0
 94
        5
 62
     0
340
11
144
0.18
309
CONTENTFORMAT_END
171
     1
301
MARGIN
  1
CELLMARGIN_BEGIN
 40
0.06
 40
0.06
 40
0.06
 40
0.06
 40
0.06
 40
0.06
309
CELLMARGIN_END
 94
        6
 95
        1
302
GRIDFORMAT
  1
GRIDFORMAT_BEGIN
 90
        0
 91
        1
 62
     0
 92
       -2
340
14
 93
        0
 40
0.045
309
GRIDFORMAT_END
 95
        2
302
GRIDFORMAT
  1
GRIDFORMAT_BEGIN
 90
        0
 91
        1
 62
     0
 92
       -2
340
14
 93
        0
 40
0.045
309
GRIDFORMAT_END
 95
        4
302
GRIDFORMAT
  1
GRIDFORMAT_BEGIN
 90
        0
 91
        1
 62
     0
 92
       -2
340
14
 93
        0
 40
0.045
309
GRIDFORMAT_END
 95
        8
302
GRIDFORMAT
  1
GRIDFORMAT_BEGIN
 90
        0
 91
        1
 62
     0
 92
       -2
340
14
 93
        0
 40
0.045
309
GRIDFORMAT_END
 95
       16
302
GRIDFORMAT
  1
GRIDFORMAT_BEGIN
 90
        0
 91
        1
 62
     0
 92
       -2
340
14
 93
        0
 40
0.045
309
GRIDFORMAT_END
 95
       32
302
GRIDFORMAT
  1
GRIDFORMAT_BEGIN
 90
        0
 91
        1
 62
     0
 92
       -2
340
14
 93
        0
 40
0.045
309
GRIDFORMAT_END
309
TABLEFORMAT_END
  1
CELLSTYLE_BEGIN
 90
        2
 91
        1
300
_HEADER
309
CELLSTYLE_END
300
CELLSTYLE
  1
TABLEFORMAT_BEGIN
 90
        5
170
     1
 91
        0
 92
        0
 62
   257
 93
        1
300
CONTENTFORMAT
  1
CONTENTFORMAT_BEGIN
 90
        0
 91
        0
 92
        4
 93
        0
300

 40
0.0
140
1.0
 94
        2
 62
     0
340
11
144
0.18
309
CONTENTFORMAT_END
171
     1
301
MARGIN
  1
CELLMARGIN_BEGIN
 40
0.06
 40
0.06
 40
0.06
 40
0.06
 40
0.06
 40
0.06
309
CELLMARGIN_END
 94
        6
 95
        1
302
GRIDFORMAT
  1
GRIDFORMAT_BEGIN
 90
        0
 91
        1
 62
     0
 92
       -2
340
14
 93
        0
 40
0.045
309
GRIDFORMAT_END
 95
        2
302
GRIDFORMAT
  1
GRIDFORMAT_BEGIN
 90
        0
 91
        1
 62
     0
 92
       -2
340
14
 93
        0
 40
0.045
309
GRIDFORMAT_END
 95
        4
302
GRIDFORMAT
  1
GRIDFORMAT_BEGIN
 90
        0
 91
        1
 62
     0
 92
       -2
340
14
 93
        0
 40
0.045
309
GRIDFORMAT_END
 95
        8
302
GRIDFORMAT
  1
GRIDFORMAT_BEGIN
 90
        0
 91
        1
 62
     0
 92
       -2
340
14
 93
        0
 40
0.045
309
GRIDFORMAT_END
 95
       16
302
GRIDFORMAT
  1
GRIDFORMAT_BEGIN
 90
        0
 91
        1
 62
     0
 92
       -2
340
14
 93
        0
 40
0.045
309
GRIDFORMAT_END
 95
       32
302
GRIDFORMAT
  1
GRIDFORMAT_BEGIN
 90
        0
 91
        1
 62
     0
 92
       -2
340
14
 93
        0
 40
0.045
309
GRIDFORMAT_END
309
TABLEFORMAT_END
  1
CELLSTYLE_BEGIN
 90
        3
 91
        2
300
_DATA
309
CELLSTYLE_END
  0
ENDSEC
  0
EOF