0
SECTION
  2
HEADER
  9
$ACADVER
  1
AC1027
  9
$ACADMAINTVER
 70
     8
  9
$DWGCODEPAGE
  3
ANSI_1252
  9
$REQUIREDVERSIONS
160
                 0
  9
$COMMENTS
  1
File was created by Cadenas
  9
$CUSTOMPROPERTYTAG
  1
NN
  9
$CUSTOMPROPERTY
  1
Flange Bearing -  Non-Expansion - Inch
  9
$CUSTOMPROPERTYTAG
  1
NT
  9
$CUSTOMPROPERTY
  1
Type K
  9
$CUSTOMPROPERTYTAG
  1
NB
  9
$CUSTOMPROPERTY
  1
023228
  9
$CUSTOMPROPERTYTAG
  1
NBSYN
  9
$CUSTOMPROPERTY
  1
$PN.
  9
$CUSTOMPROPERTYTAG
  1
LINA
  9
$CUSTOMPROPERTY
  1
023228
  9
$CUSTOMPROPERTYTAG
  1
SS
  9
$CUSTOMPROPERTY
  1
3
  9
$CUSTOMPROPERTYTAG
  1
PN
  9
$CUSTOMPROPERTY
  1
023228
  9
$CUSTOMPROPERTYTAG
  1
PNA
  9
$CUSTOMPROPERTY
  1
F4B-K-300R
  9
$CUSTOMPROPERTYTAG
  1
WEIGHT
  9
$CUSTOMPROPERTY
  1
24
  9
$CUSTOMPROPERTYTAG
  1
A
  9
$CUSTOMPROPERTY
  1
4
  9
$CUSTOMPROPERTYTAG
  1
B
  9
$CUSTOMPROPERTY
  1
8-7/8
  9
$CUSTOMPROPERTYTAG
  1
C
  9
$CUSTOMPROPERTY
  1
3-11/32
  9
$CUSTOMPROPERTYTAG
  1
D
  9
$CUSTOMPROPERTY
  1
6-57/64
  9
$CUSTOMPROPERTYTAG
  1
E
  9
$CUSTOMPROPERTY
  1
1/4
  9
$CUSTOMPROPERTYTAG
  1
F
  9
$CUSTOMPROPERTY
  1
3/4
  9
$CUSTOMPROPERTYTAG
  1
G
  9
$CUSTOMPROPERTY
  1
9-1/2
  9
$CUSTOMPROPERTYTAG
  1
H
  9
$CUSTOMPROPERTY
  1
11/16
  9
$CUSTOMPROPERTYTAG
  1
J
  9
$CUSTOMPROPERTY
  1
6-57/64
  9
$CUSTOMPROPERTYTAG
  1
L
  9
$CUSTOMPROPERTY
  1
4-23/32
  9
$CUSTOMPROPERTYTAG
  1
CS
  9
$CUSTOMPROPERTY
  1
61200
  9
$CUSTOMPROPERTYTAG
  1
CD
  9
$CUSTOMPROPERTY
  1
9600
  9
$CUSTOMPROPERTYTAG
  1
RN
  9
$CUSTOMPROPERTY
  1
24
  9
$CUSTOMPROPERTYTAG
  1
RM
  9
$CUSTOMPROPERTY
  1
.41
  9
$CUSTOMPROPERTYTAG
  1
PDI
  9
$CUSTOMPROPERTY
  1
3.900
  9
$CUSTOMPROPERTYTAG
  1
EP
  9
$CUSTOMPROPERTY
  1
.004-0.12
  9
$CUSTOMPROPERTYTAG
  1
SC
  9
$CUSTOMPROPERTY
  1
1/2-13*7/8
  9
$CUSTOMPROPERTYTAG
  1
TC
  9
$CUSTOMPROPERTY
  1
620
  9
$CUSTOMPROPERTYTAG
  1
MH
  9
$CUSTOMPROPERTY
  1
C.I. ASTM A48 CLASS 30
  9
$CUSTOMPROPERTYTAG
  1
MC
  9
$CUSTOMPROPERTY
  1
4118 CASE CARB.
  9
$CUSTOMPROPERTYTAG
  1
MCU
  9
$CUSTOMPROPERTY
  1
4118 CASE CARB.
  9
$CUSTOMPROPERTYTAG
  1
MR
  9
$CUSTOMPROPERTY
  1
STEEL
  9
$CUSTOMPROPERTYTAG
  1
MRO
  9
$CUSTOMPROPERTY
  1
4118 CASE CARB.
  9
$CUSTOMPROPERTYTAG
  1
SM
  9
$CUSTOMPROPERTY
  1
3.77
  9
$CUSTOMPROPERTYTAG
  1
COMPANY
  9
$CUSTOMPROPERTY
  1
baldor
  9
$INSBASE
 10
0.0
 20
0.0
 30
0.0
  9
$EXTMIN
 10
1.000000000000000E+20
 20
1.000000000000000E+20
 30
1.000000000000000E+20
  9
$EXTMAX
 10
-1.000000000000000E+20
 20
-1.000000000000000E+20
 30
-1.000000000000000E+20
  9
$LIMMIN
 10
0.0
 20
0.0
  9
$LIMMAX
 10
12.0
 20
9.0
  9
$ORTHOMODE
 70
     0
  9
$REGENMODE
 70
     1
  9
$FILLMODE
 70
     1
  9
$QTEXTMODE
 70
     0
  9
$MIRRTEXT
 70
     1
  9
$LTSCALE
 40
1.0
  9
$ATTMODE
 70
     1
  9
$TEXTSIZE
 40
0.2
  9
$TRACEWID
 40
0.05
  9
$TEXTSTYLE
  7
Standard
  9
$CLAYER
  8
0
  9
$CELTYPE
  6
ByLayer
  9
$CECOLOR
 62
   256
  9
$CELTSCALE
 40
1.0
  9
$DISPSILH
 70
     0
  9
$DIMSCALE
 40
1.0
  9
$DIMASZ
 40
0.18
  9
$DIMEXO
 40
0.0625
  9
$DIMDLI
 40
0.38
  9
$DIMRND
 40
0.0
  9
$DIMDLE
 40
0.0
  9
$DIMEXE
 40
0.18
  9
$DIMTP
 40
0.0
  9
$DIMTM
 40
0.0
  9
$DIMTXT
 40
0.18
  9
$DIMCEN
 40
0.09
  9
$DIMTSZ
 40
0.0
  9
$DIMTOL
 70
     0
  9
$DIMLIM
 70
     0
  9
$DIMTIH
 70
     1
  9
$DIMTOH
 70
     1
  9
$DIMSE1
 70
     0
  9
$DIMSE2
 70
     0
  9
$DIMTAD
 70
     0
  9
$DIMZIN
 70
     0
  9
$DIMBLK
  1

  9
$DIMASO
 70
     1
  9
$DIMSHO
 70
     1
  9
$DIMPOST
  1

  9
$DIMAPOST
  1

  9
$DIMALT
 70
     0
  9
$DIMALTD
 70
     2
  9
$DIMALTF
 40
25.4
  9
$DIMLFAC
 40
1.0
  9
$DIMTOFL
 70
     0
  9
$DIMTVP
 40
0.0
  9
$DIMTIX
 70
     0
  9
$DIMSOXD
 70
     0
  9
$DIMSAH
 70
     0
  9
$DIMBLK1
  1

  9
$DIMBLK2
  1

  9
$DIMSTYLE
  2
Standard
  9
$DIMCLRD
 70
     0
  9
$DIMCLRE
 70
     0
  9
$DIMCLRT
 70
     0
  9
$DIMTFAC
 40
1.0
  9
$DIMGAP
 40
0.09
  9
$DIMJUST
 70
     0
  9
$DIMSD1
 70
     0
  9
$DIMSD2
 70
     0
  9
$DIMTOLJ
 70
     1
  9
$DIMTZIN
 70
     0
  9
$DIMALTZ
 70
     0
  9
$DIMALTTZ
 70
     0
  9
$DIMUPT
 70
     0
  9
$DIMDEC
 70
     4
  9
$DIMTDEC
 70
     4
  9
$DIMALTU
 70
     2
  9
$DIMALTTD
 70
     2
  9
$DIMTXSTY
  7
Standard
  9
$DIMAUNIT
 70
     0
  9
$DIMADEC
 70
     0
  9
$DIMALTRND
 40
0.0
  9
$DIMAZIN
 70
     0
  9
$DIMDSEP
 70
    46
  9
$DIMATFIT
 70
     3
  9
$DIMFRAC
 70
     0
  9
$DIMLDRBLK
  1

  9
$DIMLUNIT
 70
     2
  9
$DIMLWD
 70
    -2
  9
$DIMLWE
 70
    -2
  9
$DIMTMOVE
 70
     0
  9
$DIMFXL
 40
1.0
  9
$DIMFXLON
 70
     0
  9
$DIMJOGANG
 40
0.7853981633974483
  9
$DIMTFILL
 70
     0
  9
$DIMTFILLCLR
 70
     0
  9
$DIMARCSYM
 70
     0
  9
$DIMLTYPE
  6

  9
$DIMLTEX1
  6

  9
$DIMLTEX2
  6

  9
$DIMTXTDIRECTION
 70
     0
  9
$LUNITS
 70
     2
  9
$LUPREC
 70
     4
  9
$SKETCHINC
 40
0.1
  9
$FILLETRAD
 40
0.5
  9
$AUNITS
 70
     0
  9
$AUPREC
 70
     0
  9
$MENU
  1
.
  9
$ELEVATION
 40
0.0
  9
$PELEVATION
 40
0.0
  9
$THICKNESS
 40
0.0
  9
$LIMCHECK
 70
     0
  9
$CHAMFERA
 40
0.0
  9
$CHAMFERB
 40
0.0
  9
$CHAMFERC
 40
0.0
  9
$CHAMFERD
 40
0.0
  9
$SKPOLY
 70
     0
  9
$TDCREATE
 40
2458169.005489572
  9
$TDUCREATE
 40
2458168.963822905
  9
$TDUPDATE
 40
2458169.005489572
  9
$TDUUPDATE
 40
2458168.963822905
  9
$TDINDWG
 40
0.0000000116
  9
$TDUSRTIMER
 40
0.0000000116
  9
$USRTIMER
 70
     1
  9
$ANGBASE
 50
0.0
  9
$ANGDIR
 70
     0
  9
$PDMODE
 70
     0
  9
$PDSIZE
 40
0.0
  9
$PLINEWID
 40
0.0
  9
$SPLFRAME
 70
     0
  9
$SPLINETYPE
 70
     6
  9
$SPLINESEGS
 70
     8
  9
$HANDSEED
  5
1F7
  9
$SURFTAB1
 70
     6
  9
$SURFTAB2
 70
     6
  9
$SURFTYPE
 70
     6
  9
$SURFU
 70
     6
  9
$SURFV
 70
     6
  9
$UCSBASE
  2

  9
$UCSNAME
  2

  9
$UCSORG
 10
0.0
 20
0.0
 30
0.0
  9
$UCSXDIR
 10
1.0
 20
0.0
 30
0.0
  9
$UCSYDIR
 10
0.0
 20
1.0
 30
0.0
  9
$UCSORTHOREF
  2

  9
$UCSORTHOVIEW
 70
     0
  9
$UCSORGTOP
 10
0.0
 20
0.0
 30
0.0
  9
$UCSORGBOTTOM
 10
0.0
 20
0.0
 30
0.0
  9
$UCSORGLEFT
 10
0.0
 20
0.0
 30
0.0
  9
$UCSORGRIGHT
 10
0.0
 20
0.0
 30
0.0
  9
$UCSORGFRONT
 10
0.0
 20
0.0
 30
0.0
  9
$UCSORGBACK
 10
0.0
 20
0.0
 30
0.0
  9
$PUCSBASE
  2

  9
$PUCSNAME
  2

  9
$PUCSORG
 10
0.0
 20
0.0
 30
0.0
  9
$PUCSXDIR
 10
1.0
 20
0.0
 30
0.0
  9
$PUCSYDIR
 10
0.0
 20
1.0
 30
0.0
  9
$PUCSORTHOREF
  2

  9
$PUCSORTHOVIEW
 70
     0
  9
$PUCSORGTOP
 10
0.0
 20
0.0
 30
0.0
  9
$PUCSORGBOTTOM
 10
0.0
 20
0.0
 30
0.0
  9
$PUCSORGLEFT
 10
0.0
 20
0.0
 30
0.0
  9
$PUCSORGRIGHT
 10
0.0
 20
0.0
 30
0.0
  9
$PUCSORGFRONT
 10
0.0
 20
0.0
 30
0.0
  9
$PUCSORGBACK
 10
0.0
 20
0.0
 30
0.0
  9
$USERI1
 70
     0
  9
$USERI2
 70
     0
  9
$USERI3
 70
     0
  9
$USERI4
 70
     0
  9
$USERI5
 70
     0
  9
$USERR1
 40
0.0
  9
$USERR2
 40
0.0
  9
$USERR3
 40
0.0
  9
$USERR4
 40
0.0
  9
$USERR5
 40
0.0
  9
$WORLDVIEW
 70
     1
  9
$SHADEDGE
 70
     3
  9
$SHADEDIF
 70
    70
  9
$TILEMODE
 70
     1
  9
$MAXACTVP
 70
    64
  9
$PINSBASE
 10
0.0
 20
0.0
 30
0.0
  9
$PLIMCHECK
 70
     0
  9
$PEXTMIN
 10
1.000000000000000E+20
 20
1.000000000000000E+20
 30
1.000000000000000E+20
  9
$PEXTMAX
 10
-1.000000000000000E+20
 20
-1.000000000000000E+20
 30
-1.000000000000000E+20
  9
$PLIMMIN
 10
0.0
 20
0.0
  9
$PLIMMAX
 10
12.0
 20
9.0
  9
$UNITMODE
 70
     0
  9
$VISRETAIN
 70
     1
  9
$PLINEGEN
 70
     0
  9
$PSLTSCALE
 70
     1
  9
$TREEDEPTH
 70
  3020
  9
$CMLSTYLE
  2
Standard
  9
$CMLJUST
 70
     0
  9
$CMLSCALE
 40
1.0
  9
$PROXYGRAPHICS
 70
     1
  9
$MEASUREMENT
 70
     0
  9
$CELWEIGHT
370
    -1
  9
$ENDCAPS
280
     0
  9
$JOINSTYLE
280
     0
  9
$LWDISPLAY
290
     0
  9
$INSUNITS
 70
     1
  9
$HYPERLINKBASE
  1

  9
$STYLESHEET
  1

  9
$XEDIT
290
     1
  9
$CEPSNTYPE
380
     0
  9
$PSTYLEMODE
290
     1
  9
$FINGERPRINTGUID
  2
{53C71D45-8CB1-44AE-8998-479492A33D5E}
  9
$VERSIONGUID
  2
{FAEB1C32-E019-11D5-929B-00C0DF256EC4}
  9
$EXTNAMES
290
     1
  9
$PSVPSCALE
 40
0.0
  9
$OLESTARTUP
290
     0
  9
$SORTENTS
280
   127
  9
$INDEXCTL
280
     0
  9
$HIDETEXT
280
     1
  9
$XCLIPFRAME
280
     2
  9
$HALOGAP
280
     0
  9
$OBSCOLOR
 70
   257
  9
$OBSLTYPE
280
     0
  9
$INTERSECTIONDISPLAY
280
     0
  9
$INTERSECTIONCOLOR
 70
   257
  9
$DIMASSOC
280
     2
  9
$PROJECTNAME
  1

  9
$CAMERADISPLAY
290
     0
  9
$LENSLENGTH
 40
50.0
  9
$CAMERAHEIGHT
 40
0.0
  9
$STEPSPERSEC
 40
2.0
  9
$STEPSIZE
 40
6.0
  9
$3DDWFPREC
 40
2.0
  9
$PSOLWIDTH
 40
0.25
  9
$PSOLHEIGHT
 40
4.0
  9
$LOFTANG1
 40
1.570796326794897
  9
$LOFTANG2
 40
1.570796326794897
  9
$LOFTMAG1
 40
0.0
  9
$LOFTMAG2
 40
0.0
  9
$LOFTPARAM
 70
     7
  9
$LOFTNORMALS
280
     1
  9
$LATITUDE
 40
37.795
  9
$LONGITUDE
 40
-122.394
  9
$NORTHDIRECTION
 40
0.0
  9
$TIMEZONE
 70
 -8000
  9
$LIGHTGLYPHDISPLAY
280
     1
  9
$TILEMODELIGHTSYNCH
280
     1
  9
$CMATERIAL
347
44
  9
$SOLIDHIST
280
     0
  9
$SHOWHIST
280
     1
  9
$DWFFRAME
280
     2
  9
$DGNFRAME
280
     2
  9
$REALWORLDSCALE
290
     1
  9
$INTERFERECOLOR
 62
   256
  9
$CSHADOW
280
     0
  9
$SHADOWPLANELOCATION
 40
0.0
  0
ENDSEC
  0
SECTION
  2
CLASSES
  0
CLASS
  1
ACDBDICTIONARYWDFLT
  2
AcDbDictionaryWithDefault
  3
ObjectDBX Classes
 90
        0
 91
        4
280
     0
281
     0
  0
CLASS
  1
VISUALSTYLE
  2
AcDbVisualStyle
  3
ObjectDBX Classes
 90
     4095
 91
        4
280
     0
281
     0
  0
CLASS
  1
MATERIAL
  2
AcDbMaterial
  3
ObjectDBX Classes
 90
     1153
 91
        4
280
     0
281
     0
  0
CLASS
  1
SCALE
  2
AcDbScale
  3
ObjectDBX Classes
 90
     1153
 91
        4
280
     0
281
     0
  0
CLASS
  1
TABLESTYLE
  2
AcDbTableStyle
  3
ObjectDBX Classes
 90
     4095
 91
        4
280
     0
281
     0
  0
CLASS
  1
MLEADERSTYLE
  2
AcDbMLeaderStyle
  3
ACDB_MLEADERSTYLE_CLASS
 90
     4095
 91
        4
280
     0
281
     0
  0
CLASS
  1
SUN
  2
AcDbSun
  3
SCENEOE
 90
     1153
 91
        4
280
     0
281
     0
  0
CLASS
  1
DICTIONARYVAR
  2
AcDbDictionaryVar
  3
ObjectDBX Classes
 90
        0
 91
        4
280
     0
281
     0
  0
CLASS
  1
CELLSTYLEMAP
  2
AcDbCellStyleMap
  3
ObjectDBX Classes
 90
     1152
 91
        4
280
     0
281
     0
  0
ENDSEC
  0
SECTION
  2
TABLES
  0
TABLE
  2
VPORT
  5
8
330
0
100
AcDbSymbolTable
 70
     1
  0
VPORT
  5
29
330
8
100
AcDbSymbolTableRecord
100
AcDbViewportTableRecord
  2
*Active
 70
     0
 10
0.0
 20
0.0
 11
1.0
 21
1.0
 12
0.0
 22
-2.0078125
 13
0.0
 23
0.0
 14
0.5
 24
0.5
 15
0.5
 25
0.5
 16
0.0
 26
0.0
 36
1.0
 17
0.0
 27
0.0
 37
0.0
 40
4.4465625
 41
2.17921146953405
 42
50.0
 43
0.0
 44
0.0
 50
0.0
 51
0.0
 71
     0
 72
   100
 73
     1
 74
     3
 75
     0
 76
     0
 77
     0
 78
     0
281
     0
 65
     1
110
0.0
120
0.0
130
0.0
111
1.0
121
0.0
131
0.0
112
0.0
122
1.0
132
0.0
 79
     0
146
0.0
348
2F
 60
     3
 61
     5
292
     1
282
     1
141
0.0
142
0.0
 63
   250
361
6D
  0
ENDTAB
  0
TABLE
  2
LTYPE
  5
5
330
0
100
AcDbSymbolTable
 70
     3
  0
LTYPE
  5
14
330
5
100
AcDbSymbolTableRecord
100
AcDbLinetypeTableRecord
  2
ByBlock
 70
     0
  3

 72
    65
 73
     0
 40
0.0
  0
LTYPE
  5
15
330
5
100
AcDbSymbolTableRecord
100
AcDbLinetypeTableRecord
  2
ByLayer
 70
     0
  3

 72
    65
 73
     0
 40
0.0
  0
LTYPE
  5
16
330
5
100
AcDbSymbolTableRecord
100
AcDbLinetypeTableRecord
  2
Continuous
 70
     0
  3
Solid line
 72
    65
 73
     0
 40
0.0
  0
LTYPE
  5
AA
330
5
100
AcDbSymbolTableRecord
100
AcDbLinetypeTableRecord
  2
Dashed
 70
     0
  3

 72
    65
 73
     2
 40
2.0
 49
1.0
 74
     0
 49
-1.0
 74
     0
  0
LTYPE
  5
C5
330
5
100
AcDbSymbolTableRecord
100
AcDbLinetypeTableRecord
  2
Center
 70
     0
  3

 72
    65
 73
     4
 40
1.5
 49
0.45
 74
     0
 49
-0.5
 74
     0
 49
0.05
 74
     0
 49
-0.5
 74
     0
  0
ENDTAB
  0
TABLE
  2
LAYER
  5
2
330
0
100
AcDbSymbolTable
 70
     7
  0
LAYER
  5
10
330
2
100
AcDbSymbolTableRecord
100
AcDbLayerTableRecord
  2
0
 70
     0
 62
     7
  6
Continuous
370
    -3
390
F
347
46
348
0
  0
LAYER
  5
72
330
2
100
AcDbSymbolTableRecord
100
AcDbLayerTableRecord
  2
AM_6
 70
     0
 62
    -2
  6
Continuous
370
    35
390
F
347
46
348
0
  0
LAYER
  5
AB
330
2
100
AcDbSymbolTableRecord
100
AcDbLayerTableRecord
  2
AM_9
 70
     0
 62
     6
  6
Dashed
370
    25
390
F
347
46
348
0
  0
LAYER
  5
C6
330
2
100
AcDbSymbolTableRecord
100
AcDbLayerTableRecord
  2
AM_7
 70
     0
 62
     7
  6
Center
370
    25
390
F
347
46
348
0
  0
LAYER
  5
C8
330
2
100
AcDbSymbolTableRecord
100
AcDbLayerTableRecord
  2
AM_4
 70
     0
 62
     7
  6
Continuous
370
    50
390
F
347
46
348
0
  0
LAYER
  5
D6
330
2
100
AcDbSymbolTableRecord
100
AcDbLayerTableRecord
  2
AM_5
 70
     0
 62
     3
  6
Continuous
370
    25
390
F
347
46
348
0
  0
LAYER
  5
1E7
330
2
100
AcDbSymbolTableRecord
100
AcDbLayerTableRecord
  2
ConnectionPoints
 70
     0
 62
     7
  6
Continuous
370
    50
390
F
347
46
348
0
  0
ENDTAB
  0
TABLE
  2
STYLE
  5
3
330
0
100
AcDbSymbolTable
 70
     1
  0
STYLE
  5
11
330
3
100
AcDbSymbolTableRecord
100
AcDbTextStyleTableRecord
  2
Standard
 70
     0
 40
0.0
 41
1.0
 50
0.0
 71
     0
 42
0.2
  3
txt
  4

  0
ENDTAB
  0
TABLE
  2
VIEW
  5
6
330
0
100
AcDbSymbolTable
 70
     0
  0
ENDTAB
  0
TABLE
  2
UCS
  5
7
330
0
100
AcDbSymbolTable
 70
     0
  0
ENDTAB
  0
TABLE
  2
APPID
  5
9
330
0
100
AcDbSymbolTable
 70
     1
  0
APPID
  5
12
330
9
100
AcDbSymbolTableRecord
100
AcDbRegAppTableRecord
  2
ACAD
 70
     0
  0
ENDTAB
  0
TABLE
  2
DIMSTYLE
  5
A
330
0
100
AcDbSymbolTable
 70
     1
100
AcDbDimStyleTable
  0
DIMSTYLE
105
27
330
A
100
AcDbSymbolTableRecord
100
AcDbDimStyleTableRecord
  2
Standard
 70
     0
178
     0
340
11
  0
ENDTAB
  0
TABLE
  2
BLOCK_RECORD
  5
1
330
0
100
AcDbSymbolTable
 70
     6
  0
BLOCK_RECORD
  5
1F
330
1
100
AcDbSymbolTableRecord
100
AcDbBlockTableRecord
  2
*Model_Space
340
22
 70
     0
280
     1
281
     0
  0
BLOCK_RECORD
  5
1B
330
1
100
AcDbSymbolTableRecord
100
AcDbBlockTableRecord
  2
*Paper_Space
340
1E
 70
     0
280
     1
281
     0
  0
BLOCK_RECORD
  5
23
330
1
100
AcDbSymbolTableRecord
100
AcDbBlockTableRecord
  2
*Paper_Space0
340
26
 70
     0
280
     1
281
     0
  0
BLOCK_RECORD
  5
6E
330
1
100
AcDbSymbolTableRecord
100
AcDbBlockTableRecord
  2
1_023228_4
340
0
102
{BLKREFS
331
6F
102
}
 70
     0
280
     1
281
     0
  0
BLOCK_RECORD
  5
95
330
1
100
AcDbSymbolTableRecord
100
AcDbBlockTableRecord
  2
2_3C_0_in_023228_4
340
0
102
{BLKREFS
331
96
102
}
 70
     0
280
     1
281
     0
  0
BLOCK_RECORD
  5
D8
330
1
100
AcDbSymbolTableRecord
100
AcDbBlockTableRecord
  2
3_405020c_Inch_0_in_023228_4
340
0
102
{BLKREFS
331
D9
102
}
 70
     0
280
     1
281
     0
  0
BLOCK_RECORD
  5
FA
330
1
100
AcDbSymbolTableRecord
100
AcDbBlockTableRecord
  2
4_S1U_K_300R_0_in_023228_4
340
0
102
{BLKREFS
331
FB
102
}
 70
     0
280
     1
281
     0
  0
BLOCK_RECORD
  5
15A
330
1
100
AcDbSymbolTableRecord
100
AcDbBlockTableRecord
  2
5_F4B_K_300R_0_in_023228_4
340
0
102
{BLKREFS
331
15B
102
}
 70
     0
280
     1
281
     0
  0
ENDTAB
  0
ENDSEC
  0
SECTION
  2
BLOCKS
  0
BLOCK
  5
20
330
1F
100
AcDbEntity
  8
0
100
AcDbBlockBegin
  2
*Model_Space
 70
     0
 10
0.0
 20
0.0
 30
0.0
  3
*Model_Space
  1

  0
ENDBLK
  5
21
330
1F
100
AcDbEntity
  8
0
100
AcDbBlockEnd
  0
BLOCK
  5
1C
330
1B
100
AcDbEntity
 67
     1
  8
0
100
AcDbBlockBegin
  2
*Paper_Space
 70
     0
 10
0.0
 20
0.0
 30
0.0
  3
*Paper_Space
  1

  0
ENDBLK
  5
1D
330
1B
100
AcDbEntity
 67
     1
  8
0
100
AcDbBlockEnd
  0
BLOCK
  5
24
330
23
100
AcDbEntity
  8
0
100
AcDbBlockBegin
  2
*Paper_Space0
 70
     0
 10
0.0
 20
0.0
 30
0.0
  3
*Paper_Space0
  1

  0
ENDBLK
  5
25
330
23
100
AcDbEntity
  8
0
100
AcDbBlockEnd
  0
BLOCK
  5
70
330
6E
100
AcDbEntity
  8
0
100
AcDbBlockBegin
  2
1_023228_4
 70
     2
 10
0.0
 20
0.0
 30
0.0
  3
1_023228_4
  1

  0
ATTDEF
  5
73
330
6E
100
AcDbEntity
  8
AM_6
100
AcDbText
 10
9.75
 20
0.1718750000000002
 30
0.0
 40
0.5
  1
Flange Bearing -  Non-Expansion - Inch
100
AcDbAttributeDefinition
  3

  2
NN
 70
     8
280
     0
  0
ATTDEF
  5
74
330
6E
100
AcDbEntity
  8
AM_6
100
AcDbText
 10
9.75
 20
-0.3281249999999998
 30
0.0
 40
0.5
  1
Type K
100
AcDbAttributeDefinition
  3

  2
NT
 70
     8
280
     0
  0
ATTDEF
  5
75
330
6E
100
AcDbEntity
  8
AM_6
100
AcDbText
 10
9.75
 20
-0.8281249999999998
 30
0.0
 40
0.5
  1
023228
100
AcDbAttributeDefinition
  3

  2
NB
 70
     8
280
     0
  0
ATTDEF
  5
76
330
6E
100
AcDbEntity
  8
AM_6
100
AcDbText
 10
9.75
 20
-1.328125
 30
0.0
 40
0.5
  1
$PN.
100
AcDbAttributeDefinition
  3

  2
NBSYN
 70
     8
280
     0
  0
ATTDEF
  5
77
330
6E
100
AcDbEntity
  8
AM_6
100
AcDbText
 10
9.75
 20
-1.828125
 30
0.0
 40
0.5
  1
023228
100
AcDbAttributeDefinition
  3

  2
LINA
 70
     8
280
     0
  0
ATTDEF
  5
78
330
6E
100
AcDbEntity
  8
AM_6
100
AcDbText
 10
9.75
 20
-2.328125
 30
0.0
 40
0.5
  1
3
100
AcDbAttributeDefinition
  3

  2
SS
 70
     8
280
     0
  0
ATTDEF
  5
79
330
6E
100
AcDbEntity
  8
AM_6
100
AcDbText
 10
9.75
 20
-2.828125
 30
0.0
 40
0.5
  1
023228
100
AcDbAttributeDefinition
  3

  2
PN
 70
     8
280
     0
  0
ATTDEF
  5
7A
330
6E
100
AcDbEntity
  8
AM_6
100
AcDbText
 10
9.75
 20
-3.328125
 30
0.0
 40
0.5
  1
F4B-K-300R
100
AcDbAttributeDefinition
  3

  2
PNA
 70
     8
280
     0
  0
ATTDEF
  5
7B
330
6E
100
AcDbEntity
  8
AM_6
100
AcDbText
 10
9.75
 20
-3.828125
 30
0.0
 40
0.5
  1
24
100
AcDbAttributeDefinition
  3

  2
WEIGHT
 70
     8
280
     0
  0
ATTDEF
  5
7C
330
6E
100
AcDbEntity
  8
AM_6
100
AcDbText
 10
9.75
 20
-4.328125
 30
0.0
 40
0.5
  1
4
100
AcDbAttributeDefinition
  3

  2
A
 70
     8
280
     0
  0
ATTDEF
  5
7D
330
6E
100
AcDbEntity
  8
AM_6
100
AcDbText
 10
9.75
 20
-4.828125
 30
0.0
 40
0.5
  1
8-7/8
100
AcDbAttributeDefinition
  3

  2
B
 70
     8
280
     0
  0
ATTDEF
  5
7E
330
6E
100
AcDbEntity
  8
AM_6
100
AcDbText
 10
9.75
 20
-5.328125
 30
0.0
 40
0.5
  1
3-11/32
100
AcDbAttributeDefinition
  3

  2
C
 70
     8
280
     0
  0
ATTDEF
  5
7F
330
6E
100
AcDbEntity
  8
AM_6
100
AcDbText
 10
9.75
 20
-5.828125
 30
0.0
 40
0.5
  1
6-57/64
100
AcDbAttributeDefinition
  3

  2
D
 70
     8
280
     0
  0
ATTDEF
  5
80
330
6E
100
AcDbEntity
  8
AM_6
100
AcDbText
 10
9.75
 20
-6.328125
 30
0.0
 40
0.5
  1
1/4
100
AcDbAttributeDefinition
  3

  2
E
 70
     8
280
     0
  0
ATTDEF
  5
81
330
6E
100
AcDbEntity
  8
AM_6
100
AcDbText
 10
9.75
 20
-6.828125
 30
0.0
 40
0.5
  1
3/4
100
AcDbAttributeDefinition
  3

  2
F
 70
     8
280
     0
  0
ATTDEF
  5
82
330
6E
100
AcDbEntity
  8
AM_6
100
AcDbText
 10
9.75
 20
-7.328125
 30
0.0
 40
0.5
  1
9-1/2
100
AcDbAttributeDefinition
  3

  2
G
 70
     8
280
     0
  0
ATTDEF
  5
83
330
6E
100
AcDbEntity
  8
AM_6
100
AcDbText
 10
9.75
 20
-7.828125
 30
0.0
 40
0.5
  1
11/16
100
AcDbAttributeDefinition
  3

  2
H
 70
     8
280
     0
  0
ATTDEF
  5
84
330
6E
100
AcDbEntity
  8
AM_6
100
AcDbText
 10
9.75
 20
-8.328125
 30
0.0
 40
0.5
  1
6-57/64
100
AcDbAttributeDefinition
  3

  2
J
 70
     8
280
     0
  0
ATTDEF
  5
85
330
6E
100
AcDbEntity
  8
AM_6
100
AcDbText
 10
9.75
 20
-8.828125
 30
0.0
 40
0.5
  1
4-23/32
100
AcDbAttributeDefinition
  3

  2
L
 70
     8
280
     0
  0
ATTDEF
  5
86
330
6E
100
AcDbEntity
  8
AM_6
100
AcDbText
 10
9.75
 20
-9.328125
 30
0.0
 40
0.5
  1
61200
100
AcDbAttributeDefinition
  3

  2
CS
 70
     8
280
     0
  0
ATTDEF
  5
87
330
6E
100
AcDbEntity
  8
AM_6
100
AcDbText
 10
9.75
 20
-9.828125
 30
0.0
 40
0.5
  1
9600
100
AcDbAttributeDefinition
  3

  2
CD
 70
     8
280
     0
  0
ATTDEF
  5
88
330
6E
100
AcDbEntity
  8
AM_6
100
AcDbText
 10
9.75
 20
-10.328125
 30
0.0
 40
0.5
  1
24
100
AcDbAttributeDefinition
  3

  2
RN
 70
     8
280
     0
  0
ATTDEF
  5
89
330
6E
100
AcDbEntity
  8
AM_6
100
AcDbText
 10
9.75
 20
-10.828125
 30
0.0
 40
0.5
  1
.41
100
AcDbAttributeDefinition
  3

  2
RM
 70
     8
280
     0
  0
ATTDEF
  5
8A
330
6E
100
AcDbEntity
  8
AM_6
100
AcDbText
 10
9.75
 20
-11.328125
 30
0.0
 40
0.5
  1
3.900
100
AcDbAttributeDefinition
  3

  2
PDI
 70
     8
280
     0
  0
ATTDEF
  5
8B
330
6E
100
AcDbEntity
  8
AM_6
100
AcDbText
 10
9.75
 20
-11.828125
 30
0.0
 40
0.5
  1
.004-0.12
100
AcDbAttributeDefinition
  3

  2
EP
 70
     8
280
     0
  0
ATTDEF
  5
8C
330
6E
100
AcDbEntity
  8
AM_6
100
AcDbText
 10
9.75
 20
-12.328125
 30
0.0
 40
0.5
  1
1/2-13*7/8
100
AcDbAttributeDefinition
  3

  2
SC
 70
     8
280
     0
  0
ATTDEF
  5
8D
330
6E
100
AcDbEntity
  8
AM_6
100
AcDbText
 10
9.75
 20
-12.828125
 30
0.0
 40
0.5
  1
620
100
AcDbAttributeDefinition
  3

  2
TC
 70
     8
280
     0
  0
ATTDEF
  5
8E
330
6E
100
AcDbEntity
  8
AM_6
100
AcDbText
 10
9.75
 20
-13.328125
 30
0.0
 40
0.5
  1
C.I. ASTM A48 CLASS 30
100
AcDbAttributeDefinition
  3

  2
MH
 70
     8
280
     0
  0
ATTDEF
  5
8F
330
6E
100
AcDbEntity
  8
AM_6
100
AcDbText
 10
9.75
 20
-13.828125
 30
0.0
 40
0.5
  1
4118 CASE CARB.
100
AcDbAttributeDefinition
  3

  2
MC
 70
     8
280
     0
  0
ATTDEF
  5
90
330
6E
100
AcDbEntity
  8
AM_6
100
AcDbText
 10
9.75
 20
-14.328125
 30
0.0
 40
0.5
  1
4118 CASE CARB.
100
AcDbAttributeDefinition
  3

  2
MCU
 70
     8
280
     0
  0
ATTDEF
  5
91
330
6E
100
AcDbEntity
  8
AM_6
100
AcDbText
 10
9.75
 20
-14.828125
 30
0.0
 40
0.5
  1
STEEL
100
AcDbAttributeDefinition
  3

  2
MR
 70
     8
280
     0
  0
ATTDEF
  5
92
330
6E
100
AcDbEntity
  8
AM_6
100
AcDbText
 10
9.75
 20
-15.328125
 30
0.0
 40
0.5
  1
4118 CASE CARB.
100
AcDbAttributeDefinition
  3

  2
MRO
 70
     8
280
     0
  0
ATTDEF
  5
93
330
6E
100
AcDbEntity
  8
AM_6
100
AcDbText
 10
9.75
 20
-15.828125
 30
0.0
 40
0.5
  1
3.77
100
AcDbAttributeDefinition
  3

  2
SM
 70
     8
280
     0
  0
ATTDEF
  5
94
330
6E
100
AcDbEntity
  8
AM_6
100
AcDbText
 10
9.75
 20
-16.328125
 30
0.0
 40
0.5
  1
baldor
100
AcDbAttributeDefinition
  3

  2
COMPANY
 70
     8
280
     0
  0
INSERT
  5
96
330
6E
100
AcDbEntity
  8
0
100
AcDbBlockReference
  2
2_3C_0_in_023228_4
 10
0.0
 20
0.0
 30
0.0
  0
INSERT
  5
D9
330
6E
100
AcDbEntity
  8
0
100
AcDbBlockReference
  2
3_405020c_Inch_0_in_023228_4
 10
0.0
 20
0.0
 30
0.0
  0
INSERT
  5
FB
330
6E
100
AcDbEntity
  8
0
100
AcDbBlockReference
  2
4_S1U_K_300R_0_in_023228_4
 10
0.0
 20
0.0
 30
0.0
  0
INSERT
  5
15B
330
6E
100
AcDbEntity
  8
0
100
AcDbBlockReference
  2
5_F4B_K_300R_0_in_023228_4
 10
0.0
 20
0.0
 30
0.0
  0
ENDBLK
  5
71
330
6E
100
AcDbEntity
  8
0
100
AcDbBlockEnd
  0
BLOCK
  5
97
330
95
100
AcDbEntity
  8
0
100
AcDbBlockBegin
  2
2_3C_0_in_023228_4
 70
     2
 10
0.0
 20
0.0
 30
0.0
  3
2_3C_0_in_023228_4
  1

  0
ATTDEF
  5
99
330
95
100
AcDbEntity
  8
AM_6
100
AcDbText
 10
7.359375
 20
-3.12
 30
0.0
 40
0.5
  1
E-Type Collar -Inch
100
AcDbAttributeDefinition
  3

  2
NN
 70
     8
280
     0
  0
ATTDEF
  5
9A
330
95
100
AcDbEntity
  8
AM_6
100
AcDbText
 10
7.359375
 20
-3.62
 30
0.0
 40
0.5
  1
E-Type Bearings
100
AcDbAttributeDefinition
  3

  2
NT
 70
     8
280
     0
  0
ATTDEF
  5
9B
330
95
100
AcDbEntity
  8
AM_6
100
AcDbText
 10
7.359375
 20
-4.12
 30
0.0
 40
0.5
  1
3C
100
AcDbAttributeDefinition
  3

  2
NB
 70
     8
280
     0
  0
ATTDEF
  5
9C
330
95
100
AcDbEntity
  8
AM_6
100
AcDbText
 10
7.359375
 20
-4.62
 30
0.0
 40
0.5
  1
$BORE.C
100
AcDbAttributeDefinition
  3

  2
NBSYN
 70
     8
280
     0
  0
ATTDEF
  5
9D
330
95
100
AcDbEntity
  8
AM_6
100
AcDbText
 10
7.359375
 20
-5.12
 30
0.0
 40
0.5
  1
3C
100
AcDbAttributeDefinition
  3

  2
LINA
 70
     8
280
     0
  0
ATTDEF
  5
9E
330
95
100
AcDbEntity
  8
AM_6
100
AcDbText
 10
7.359375
 20
-5.62
 30
0.0
 40
0.5
  1
3
100
AcDbAttributeDefinition
  3

  2
BORE
 70
     8
280
     0
  0
ATTDEF
  5
9F
330
95
100
AcDbEntity
  8
AM_6
100
AcDbText
 10
7.359375
 20
-6.12
 30
0.0
 40
0.5
  1
4.71875
100
AcDbAttributeDefinition
  3

  2
L
 70
     8
280
     0
  0
ATTDEF
  5
A0
330
95
100
AcDbEntity
  8
AM_6
100
AcDbText
 10
7.359375
 20
-6.62
 30
0.0
 40
0.5
  1
4.50
100
AcDbAttributeDefinition
  3

  2
A
 70
     8
280
     0
  0
ATTDEF
  5
A1
330
95
100
AcDbEntity
  8
AM_6
100
AcDbText
 10
7.359375
 20
-7.12
 30
0.0
 40
0.5
  1
1.94
100
AcDbAttributeDefinition
  3

  2
B
 70
     8
280
     0
  0
ATTDEF
  5
A2
330
95
100
AcDbEntity
  8
AM_6
100
AcDbText
 10
7.359375
 20
-7.62
 30
0.0
 40
0.5
  1
3.47
100
AcDbAttributeDefinition
  3

  2
C
 70
     8
280
     0
  0
ATTDEF
  5
A3
330
95
100
AcDbEntity
  8
AM_6
100
AcDbText
 10
7.359375
 20
-8.120000000000001
 30
0.0
 40
0.5
  1
4.78
100
AcDbAttributeDefinition
  3

  2
D
 70
     8
280
     0
  0
ATTDEF
  5
A4
330
95
100
AcDbEntity
  8
AM_6
100
AcDbText
 10
7.359375
 20
-8.620000000000001
 30
0.0
 40
0.5
  1
0.54
100
AcDbAttributeDefinition
  3

  2
E
 70
     8
280
     0
  0
ATTDEF
  5
A5
330
95
100
AcDbEntity
  8
AM_6
100
AcDbText
 10
7.359375
 20
-9.120000000000001
 30
0.0
 40
0.5
  1
0.44
100
AcDbAttributeDefinition
  3

  2
F
 70
     8
280
     0
  0
ATTDEF
  5
A6
330
95
100
AcDbEntity
  8
AM_6
100
AcDbText
 10
7.359375
 20
-9.620000000000001
 30
0.0
 40
0.5
  1
1/2-13
100
AcDbAttributeDefinition
  3

  2
CS
 70
     8
280
     0
  0
ATTDEF
  5
A7
330
95
100
AcDbEntity
  8
AM_6
100
AcDbText
 10
7.359375
 20
-10.12
 30
0.0
 40
0.5
  1
0.5000
100
AcDbAttributeDefinition
  3

  2
NDM
 70
     8
280
     0
  0
ATTDEF
  5
A8
330
95
100
AcDbEntity
  8
AM_6
100
AcDbText
 10
7.359375
 20
-10.62
 30
0.0
 40
0.5
  1
0.4170
100
AcDbAttributeDefinition
  3

  2
KDM
 70
     8
280
     0
  0
ATTDEF
  5
A9
330
95
100
AcDbEntity
  8
AM_6
100
AcDbText
 10
7.359375
 20
-11.12
 30
0.0
 40
0.5
  1
baldor
100
AcDbAttributeDefinition
  3

  2
COMPANY
 70
     8
280
     0
  0
LINE
  5
AC
330
95
100
AcDbEntity
  8
AM_9
100
AcDbLine
 10
1.621041032257525
 20
-3.375688878520796
 30
0.0
 11
1.61305440722388
 21
-3.365727268251337
 31
0.0
  0
LINE
  5
AD
330
95
100
AcDbEntity
  8
AM_9
100
AcDbLine
 10
1.613170729530423
 20
-3.754127644496094
 30
0.0
 11
1.621041032257525
 21
-3.744311121479204
 31
0.0
  0
LWPOLYLINE
  5
AE
330
95
100
AcDbEntity
  8
AM_9
100
AcDbPolyline
 90
       16
 70
     0
 43
0.0
 10
1.465314908214149
 20
-3.498592078750655
 10
1.464056919187704
 20
-3.506437628082113
 10
1.460611199751108
 20
-3.541318106206523
 10
1.460501342178344
 20
-3.576778266969307
 10
1.463559790983706
 20
-3.610006309297697
 10
1.469471304412095
 20
-3.641855005921871
 10
1.478080152316678
 20
-3.671822817727664
 10
1.488875959469234
 20
-3.698868925596456
 10
1.502221246461338
 20
-3.72371424441401
 10
1.516948169503487
 20
-3.744175428933712
 10
1.533630517432525
 20
-3.760743085542844
 10
1.550677039470555
 20
-3.771566887546211
 10
1.568314873597992
 20
-3.776455950329134
 10
1.585225053095024
 20
-3.774738766420171
 10
1.601192387018168
 20
-3.766166359535574
 10
1.612992634762477
 20
-3.754349779511936
  0
LWPOLYLINE
  5
AF
330
95
100
AcDbEntity
  8
AM_9
100
AcDbPolyline
 90
       12
 70
     0
 43
0.0
 10
1.612990574754573
 20
-3.365647651442558
 10
1.612046645345024
 20
-3.364490675361804
 10
1.59785768535058
 20
-3.351404494522102
 10
1.582275798261554
 20
-3.344461797028247
 10
1.565046956142054
 20
-3.343960288434045
 10
1.547173428377315
 20
-3.35017042818074
 10
1.529059042951489
 20
-3.363187605814696
 10
1.51153768200074
 20
-3.382629757231117
 10
1.495645357798667
 20
-3.407641421991179
 10
1.481812561533488
 20
-3.437854894468451
 10
1.471353800244299
 20
-3.470626323758072
 10
1.465314908214149
 20
-3.498592078750655
  0
LWPOLYLINE
  5
B0
330
95
100
AcDbEntity
  8
AM_9
100
AcDbPolyline
 90
        5
 70
     0
 43
0.0
 10
1.653422092345572
 20
-3.497227016821113
 10
1.649650426497844
 20
-3.467762826461814
 10
1.644091577252382
 20
-3.438992724445749
 10
1.638505512378883
 20
-3.418167613816592
 10
1.631954042127872
 20
-3.399555668756486
  0
LWPOLYLINE
  5
B1
330
95
100
AcDbEntity
  8
AM_9
100
AcDbPolyline
 90
       10
 70
     0
 43
0.0
 10
1.616930365935706
 20
-3.74907080959075
 10
1.6279561720087
 20
-3.729608146632971
 10
1.638294116472994
 20
-3.70252598454245
 10
1.646116998041128
 20
-3.671709367588373
 10
1.651811072303223
 20
-3.637052376945247
 10
1.655093810789353
 20
-3.602306650676083
 10
1.656427427866309
 20
-3.566196659427123
 10
1.655869411456413
 20
-3.532182542507812
 10
1.653592459925614
 20
-3.498963263442656
 10
1.653422092345572
 20
-3.497227016821113
  0
LWPOLYLINE
  5
B2
330
95
100
AcDbEntity
  8
AM_9
100
AcDbPolyline
 90
        3
 70
     0
 43
0.0
 10
1.612992634762477
 20
-3.754349779511936
 10
1.615575161783561
 20
-3.750972840272981
 10
1.616930365935706
 20
-3.74907080959075
  0
LINE
  5
B3
330
95
100
AcDbEntity
  8
AM_9
100
AcDbLine
 10
1.579981470270776
 20
-3.76835
 30
0.0
 11
2.100572215709519
 21
-3.76835
 31
0.0
  0
LINE
  5
B4
330
95
100
AcDbEntity
  8
AM_9
100
AcDbLine
 10
2.100572215709519
 20
-3.35165
 30
0.0
 11
1.579981470270776
 21
-3.35165
 31
0.0
  0
ELLIPSE
  5
B5
330
95
100
AcDbEntity
  8
AM_9
100
AcDbEllipse
 10
2.100572215709518
 20
-3.560000000000001
 30
0.0
 11
-3.827327409035221E-17
 21
-0.2083499999999976
 31
0.0
210
0.0
220
0.0
230
1.0
 40
0.4226182617406994
 41
3.480266860178835
 42
5.968451107486162
  0
LINE
  5
B6
330
95
100
AcDbEntity
  8
AM_9
100
AcDbLine
 10
2.05951265372277
 20
-3.744311121479204
 30
0.0
 11
2.086768563749931
 21
-3.778307052437054
 31
0.0
  0
LINE
  5
B7
330
95
100
AcDbEntity
  8
AM_9
100
AcDbLine
 10
2.086992627282338
 20
-3.341413476124632
 30
0.0
 11
2.05951265372277
 21
-3.375688878520796
 31
0.0
  0
LWPOLYLINE
  5
B8
330
95
100
AcDbEntity
  8
AM_9
100
AcDbPolyline
 90
        8
 70
     0
 43
0.0
 10
2.087049049370266
 20
-3.34134310200578
 10
2.103200994354455
 20
-3.324673442383182
 10
2.120732731620358
 20
-3.313719650834173
 10
2.137387423611663
 20
-3.310038125304694
 10
2.153502731230021
 20
-3.312969512772891
 10
2.168276424512343
 20
-3.322215035880981
 10
2.181769502003525
 20
-3.337344822729626
 10
2.185791122533311
 20
-3.343400313247511
  0
LWPOLYLINE
  5
B9
330
95
100
AcDbEntity
  8
AM_9
100
AcDbPolyline
 90
       14
 70
     0
 43
0.0
 10
0.2224160082797009
 20
-3.49768025777556
 10
0.2167515968369033
 20
-3.482295213212401
 10
0.201484692398876
 20
-3.452422082354892
 10
0.1811810434242241
 20
-3.424654236130354
 10
0.1559727047703959
 20
-3.39965509630899
 10
0.1264175880709437
 20
-3.378388550425192
 10
0.0924403988119422
 20
-3.361321425731918
 10
0.0551932495490422
 20
-3.349573200158219
 10
0.0156939869056604
 20
-3.343831299756221
 10
-0.0253357208255691
 20
-3.344633464860007
 10
-0.0652749777003967
 20
-3.352112024932895
 10
-0.104479704336164
 20
-3.366602020644808
 10
-0.1340654191770725
 20
-3.383235434007992
 10
-0.161466984200568
 20
-3.404460767138978
  0
LWPOLYLINE
  5
BA
330
95
100
AcDbEntity
  8
AM_9
100
AcDbPolyline
 90
       24
 70
     0
 43
0.0
 10
-0.2232066180228044
 20
-3.500177407578532
 10
-0.2292723317967972
 20
-3.525308884043453
 10
-0.2322858014840316
 20
-3.559448280293216
 10
-0.2292778394375693
 20
-3.594659609339304
 10
-0.2209335884976223
 20
-3.626729276553558
 10
-0.2071343034778658
 20
-3.657831273095757
 10
-0.1885143827045351
 20
-3.68634634917952
 10
-0.1650679263850962
 20
-3.712214827786413
 10
-0.1367356484815354
 20
-3.734972569846915
 10
-0.1043519545037619
 20
-3.753458188147673
 10
-0.0680667931565343
 20
-3.767103700389159
 10
-0.029012447489535
 20
-3.774960235219265
 10
0.011245841761008
 20
-3.776411114352762
 10
0.0523225662588102
 20
-3.771067220647529
 10
0.0911718498606498
 20
-3.759189965200795
 10
0.1284866317154247
 20
-3.740340734915682
 10
0.1604137427744478
 20
-3.716484769650647
 10
0.1884649820641357
 20
-3.686410334238764
 10
0.2088734306056461
 20
-3.654571293770885
 10
0.2236575397198451
 20
-3.6183464517832
 10
0.2308455463607826
 20
-3.584026229611861
 10
0.2319177534005022
 20
-3.547831398016388
 10
0.2271667767931077
 20
-3.514888599907362
 10
0.2224160082797009
 20
-3.49768025777556
  0
LWPOLYLINE
  5
BB
330
95
100
AcDbEntity
  8
AM_9
100
AcDbPolyline
 90
        5
 70
     0
 43
0.0
 10
-0.161466984200568
 20
-3.404460767138978
 10
-0.1841635177382099
 20
-3.428197992660089
 10
-0.2034646077066688
 20
-3.455704398860351
 10
-0.2192983224346119
 20
-3.488752577690727
 10
-0.2232066180228044
 20
-3.500177407578532
  0
LINE
  5
BC
330
95
100
AcDbEntity
  8
AM_9
100
AcDbLine
 10
1.617820976782331
 20
-3.372230350811209
 30
0.0
 11
1.612990574754573
 21
-3.365647651442558
 31
0.0
  0
LWPOLYLINE
  5
BD
330
95
100
AcDbEntity
  8
AM_9
100
AcDbPolyline
 90
        3
 70
     0
 43
0.0
 10
1.631954042127872
 20
-3.399555668756486
 10
1.622646391369938
 20
-3.380059625999035
 10
1.617820976782331
 20
-3.372230350811209
  0
LINE
  5
BE
330
95
100
AcDbEntity
  8
AM_9
100
AcDbLine
 10
1.735
 20
-4.000000000000001
 30
0.0
 11
1.735
 21
-3.12
 31
0.0
  0
LINE
  5
BF
330
95
100
AcDbEntity
  8
AM_9
100
AcDbLine
 10
-1.735
 20
-3.12
 30
0.0
 11
-1.735
 21
-4.000000000000001
 31
0.0
  0
LWPOLYLINE
  5
C0
330
95
100
AcDbEntity
  8
AM_9
100
AcDbPolyline
 90
        9
 70
     0
 43
0.0
 10
-0.11898873224975
 20
-3.343552497380592
 10
-0.1161669867659381
 20
-3.341865539762076
 10
-0.0801119934861985
 20
-3.324620141961733
 10
-0.0403536291642562
 20
-3.313628037766915
 10
-0.0022807947082506
 20
-3.310011506727427
 10
0.0370078731793555
 20
-3.31304783600187
 10
0.0733016447498684
 20
-3.322179289720224
 10
0.1085497050525195
 20
-3.337572465257049
 10
0.1184068553738717
 20
-3.343200238400398
  0
LINE
  5
C1
330
95
100
AcDbEntity
  8
AM_9
100
AcDbLine
 10
-2.359375
 20
-3.12
 30
0.0
 11
2.359375
 21
-3.12
 31
0.0
  0
LINE
  5
C2
330
95
100
AcDbEntity
  8
AM_9
100
AcDbLine
 10
2.359375
 20
-3.34375
 30
0.0
 11
2.359375
 21
-3.12
 31
0.0
  0
LINE
  5
C3
330
95
100
AcDbEntity
  8
AM_9
100
AcDbLine
 10
-2.359375
 20
-3.12
 30
0.0
 11
-2.359375
 21
-3.34375
 31
0.0
  0
ELLIPSE
  5
C4
330
95
100
AcDbEntity
  8
AM_9
100
AcDbEllipse
 10
1.579981470270776
 20
-3.56
 30
0.0
 11
-3.827327409035278E-17
 21
-0.2083500000000007
 31
0.0
210
0.0
220
0.0
230
1.0
 40
0.4226182617406984
 41
0.0
 42
6.283185307179586
  0
LINE
  5
C7
330
95
100
AcDbEntity
  8
AM_7
100
AcDbLine
 10
-0.2187675
 20
-3.56
 30
0.0
 11
0.2187675
 21
-3.56
 31
0.0
  0
ELLIPSE
  5
C9
330
95
100
AcDbEntity
  8
AM_4
100
AcDbEllipse
 10
2.100572215709519
 20
-3.56
 30
0.0
 11
-3.827327409035270E-17
 21
-0.2083500000000003
 31
0.0
210
0.0
220
0.0
230
1.0
 40
0.4226182617406983
 41
5.968451107486155
 42
9.763452167358434
  0
LWPOLYLINE
  5
CA
330
95
100
AcDbEntity
  8
AM_4
100
AcDbPolyline
 90
       15
 70
     0
 43
0.0
 10
2.087038993558085
 20
-3.778644352600969
 10
2.08052553538475
 20
-3.76990401441403
 10
2.066003691308386
 20
-3.745387412921692
 10
2.053248002709108
 20
-3.71634609979954
 10
2.042247373118455
 20
-3.68190128760042
 10
2.034001798565066
 20
-3.644355779474501
 10
2.02867863020075
 20
-3.602922522691474
 10
2.026845957795331
 20
-3.560335157342085
 10
2.028709897046415
 20
-3.516728038421502
 10
2.034230547427344
 20
-3.474340608412546
 10
2.043263360425617
 20
-3.434388346186649
 10
2.055403774996589
 20
-3.398096106934724
 10
2.069852602559496
 20
-3.367376195886266
 10
2.086265739815987
 20
-3.342328862213463
 10
2.087049049370266
 20
-3.34134310200578
  0
LWPOLYLINE
  5
CB
330
95
100
AcDbEntity
  8
AM_4
100
AcDbPolyline
 90
        3
 70
     0
 43
0.0
 10
2.185791122533311
 20
-3.343400313247511
 10
2.190713015830739
 20
-3.351979114065063
 10
2.198759430678418
 20
-3.3692853651871
  0
CIRCLE
  5
CC
330
95
100
AcDbEntity
  8
AM_4
100
AcDbCircle
 10
0.0
 20
-3.56
 30
0.0
 40
0.20835
  0
LWPOLYLINE
  5
CD
330
95
100
AcDbEntity
  8
AM_4
100
AcDbPolyline
 90
       31
 70
     0
 43
0.0
 10
0.1184068553738717
 20
-3.343200238400398
 10
0.140487504229317
 20
-3.358288276301586
 10
0.1694286859655187
 20
-3.384542345156681
 10
0.1942114323624739
 20
-3.415630273573559
 10
0.2142153945418072
 20
-3.451214275261731
 10
0.2285211543798913
 20
-3.490324688946399
 10
0.2365076396732887
 20
-3.532369947754167
 10
0.2375223472899202
 20
-3.575285198617749
 10
0.2312372177884384
 20
-3.618982517114074
 10
0.2180073703684086
 20
-3.660139280342119
 10
0.1973685630034215
 20
-3.699567829201778
 10
0.1714668011870681
 20
-3.73325880122131
 10
0.139080191558381
 20
-3.762785918076061
 10
0.1045490521048732
 20
-3.784535294416357
 10
0.0654846700451922
 20
-3.800329177094185
 10
0.0275297010434625
 20
-3.808318007781718
 10
-0.0124457646366751
 20
-3.809657146848933
 10
-0.049618992851523
 20
-3.804494008322143
 10
-0.086434327986544
 20
-3.792894249982266
 10
-0.1200505184001991
 20
-3.775798774137946
 10
-0.1512756537329037
 20
-3.752903908805469
 10
-0.1787123961597089
 20
-3.724981156631457
 10
-0.2019280275827619
 20
-3.692179994433425
 10
-0.2199723378634819
 20
-3.655285908795002
 10
-0.2321508269293254
 20
-3.614886803876491
 10
-0.2376638599215573
 20
-3.572632273486196
 10
-0.2361096917292606
 20
-3.528845934574491
 10
-0.2274255397027932
 20
-3.486481139256238
 10
-0.2112602456404956
 20
-3.445020400036164
 10
-0.1938675201563416
 20
-3.415121363204347
 10
-0.1720721192740836
 20
-3.387404745047907
  0
LWPOLYLINE
  5
CE
330
95
100
AcDbEntity
  8
AM_4
100
AcDbPolyline
 90
        3
 70
     0
 43
0.0
 10
-0.1720721192740836
 20
-3.387404745047907
 10
-0.1461564540370465
 20
-3.36278652197004
 10
-0.11898873224975
 20
-3.343552497380592
  0
LWPOLYLINE
  5
CF
330
95
100
AcDbEntity
  8
AM_4
100
AcDbPolyline
 90
       19
 70
     0
 43
0.0
 10
2.198759430678418
 20
-3.3692853651871
 10
2.207810880031491
 20
-3.395402722853204
 10
2.215211574161231
 20
-3.424930600228178
 10
2.221612545756906
 20
-3.462108774653524
 10
2.225812747392423
 20
-3.501831614328399
 10
2.227829942004008
 20
-3.54456404648549
 10
2.227498811563288
 20
-3.587718466308976
 10
2.224732238461724
 20
-3.630797789163623
 10
2.219529600033362
 20
-3.671856891605151
 10
2.211918025309107
 20
-3.709393492189768
 10
2.201917981862616
 20
-3.74254717544095
 10
2.189984356526584
 20
-3.769343903191148
 10
2.176025768532093
 20
-3.790007460099333
 10
2.161081415379777
 20
-3.803122732471662
 10
2.144881916949871
 20
-3.809458491903518
 10
2.128602486702705
 20
-3.808826544248452
 10
2.112055487180372
 20
-3.801773801286873
 10
2.095917557065508
 20
-3.788633429695194
 10
2.087038993558085
 20
-3.778644352600969
  0
LINE
  5
D0
330
95
100
AcDbEntity
  8
AM_4
100
AcDbLine
 10
2.359375
 20
-3.853333333333333
 30
0.0
 11
2.359375
 21
-3.34375
 31
0.0
  0
LINE
  5
D1
330
95
100
AcDbEntity
  8
AM_4
100
AcDbLine
 10
-2.359375
 20
-3.34375
 30
0.0
 11
-2.359375
 21
-3.853333333333333
 31
0.0
  0
LINE
  5
D2
330
95
100
AcDbEntity
  8
AM_4
100
AcDbLine
 10
-2.212708333333333
 20
-4.000000000000001
 30
0.0
 11
2.21270833331964
 21
-4.000000000000001
 31
0.0
  0
LINE
  5
D3
330
95
100
AcDbEntity
  8
AM_4
100
AcDbLine
 10
-2.359375
 20
-3.853333333333333
 30
0.0
 11
2.359375
 21
-3.853333333333333
 31
0.0
  0
ARC
  5
D4
330
95
100
AcDbEntity
  8
AM_4
100
AcDbCircle
 10
2.212708333333333
 20
-3.853333333333333
 30
0.0
 40
0.1466666666666674
100
AcDbArc
 50
270.0
 51
0.0
  0
ARC
  5
D5
330
95
100
AcDbEntity
  8
AM_4
100
AcDbCircle
 10
-2.212708333333332
 20
-3.853333333333333
 30
0.0
 40
0.1466666666666678
100
AcDbArc
 50
180.0
 51
270.0
  0
CIRCLE
  5
D7
330
95
100
AcDbEntity
  8
AM_5
100
AcDbCircle
 10
-0.0000000000000002
 20
-3.560000000000001
 30
0.0
 40
0.2499999999999996
  0
ENDBLK
  5
98
330
95
100
AcDbEntity
  8
0
100
AcDbBlockEnd
  0
BLOCK
  5
DA
330
D8
100
AcDbEntity
  8
0
100
AcDbBlockBegin
  2
3_405020c_Inch_0_in_023228_4
 70
     2
 10
0.0
 20
0.0
 30
0.0
  3
3_405020c_Inch_0_in_023228_4
  1

  0
ATTDEF
  5
DC
330
D8
100
AcDbEntity
  8
AM_6
100
AcDbText
 10
5.14065
 20
-1.587591369276958
 30
0.0
 40
0.5
  1
405020C -Inch
100
AcDbAttributeDefinition
  3

  2
NN
 70
     8
280
     0
  0
ATTDEF
  5
DD
330
D8
100
AcDbEntity
  8
AM_6
100
AcDbText
 10
5.14065
 20
-2.087591369276958
 30
0.0
 40
0.5
  1
Grease fitting
100
AcDbAttributeDefinition
  3

  2
NT
 70
     8
280
     0
  0
ATTDEF
  5
DE
330
D8
100
AcDbEntity
  8
AM_6
100
AcDbText
 10
5.14065
 20
-2.587591369276958
 30
0.0
 40
0.5
  1
405020c-Inch
100
AcDbAttributeDefinition
  3

  2
NB
 70
     8
280
     0
  0
ATTDEF
  5
DF
330
D8
100
AcDbEntity
  8
AM_6
100
AcDbText
 10
5.14065
 20
-3.087591369276958
 30
0.0
 40
0.5
  1
$MN.-Inch
100
AcDbAttributeDefinition
  3

  2
NBSYN
 70
     8
280
     0
  0
ATTDEF
  5
E0
330
D8
100
AcDbEntity
  8
AM_6
100
AcDbText
 10
5.14065
 20
-3.587591369276958
 30
0.0
 40
0.5
  1
405020c
100
AcDbAttributeDefinition
  3

  2
LINA
 70
     8
280
     0
  0
ATTDEF
  5
E1
330
D8
100
AcDbEntity
  8
AM_6
100
AcDbText
 10
5.14065
 20
-4.087591369276958
 30
0.0
 40
0.5
  1
405020c
100
AcDbAttributeDefinition
  3

  2
MN
 70
     8
280
     0
  0
ATTDEF
  5
E2
330
D8
100
AcDbEntity
  8
AM_6
100
AcDbText
 10
5.14065
 20
-4.587591369276958
 30
0.0
 40
0.5
  1
0.230
100
AcDbAttributeDefinition
  3

  2
NDR
 70
     8
280
     0
  0
ATTDEF
  5
E3
330
D8
100
AcDbEntity
  8
AM_6
100
AcDbText
 10
5.14065
 20
-5.087591369276958
 30
0.0
 40
0.5
  1
0.210
100
AcDbAttributeDefinition
  3

  2
KDR
 70
     8
280
     0
  0
ATTDEF
  5
E4
330
D8
100
AcDbEntity
  8
AM_6
100
AcDbText
 10
5.14065
 20
-5.587591369276958
 30
0.0
 40
0.5
  1
0.157
100
AcDbAttributeDefinition
  3

  2
BZE
 70
     8
280
     0
  0
ATTDEF
  5
E5
330
D8
100
AcDbEntity
  8
AM_6
100
AcDbText
 10
5.14065
 20
-6.087591369276958
 30
0.0
 40
0.5
  1
9/32
100
AcDbAttributeDefinition
  3

  2
WAF
 70
     8
280
     0
  0
ATTDEF
  5
E6
330
D8
100
AcDbEntity
  8
AM_6
100
AcDbText
 10
5.14065
 20
-6.587591369276958
 30
0.0
 40
0.5
  1
0.2813
100
AcDbAttributeDefinition
  3

  2
WAF1
 70
     8
280
     0
  0
ATTDEF
  5
E7
330
D8
100
AcDbEntity
  8
AM_6
100
AcDbText
 10
5.14065
 20
-7.087591369276958
 30
0.0
 40
0.5
  1
0.545
100
AcDbAttributeDefinition
  3

  2
BL
 70
     8
280
     0
  0
ATTDEF
  5
E8
330
D8
100
AcDbEntity
  8
AM_6
100
AcDbText
 10
5.14065
 20
-7.587591369276958
 30
0.0
 40
0.5
  1
0.200
100
AcDbAttributeDefinition
  3

  2
TL
 70
     8
280
     0
  0
ATTDEF
  5
E9
330
D8
100
AcDbEntity
  8
AM_6
100
AcDbText
 10
5.14065
 20
-8.087591369276957
 30
0.0
 40
0.5
  1
baldor
100
AcDbAttributeDefinition
  3

  2
COMPANY
 70
     8
280
     0
  0
CIRCLE
  5
EA
330
D8
100
AcDbEntity
  8
AM_9
100
AcDbCircle
 10
0.0
 20
-1.75
 30
0.0
 40
0.1000886227036577
  0
CIRCLE
  5
EB
330
D8
100
AcDbEntity
  8
AM_9
100
AcDbCircle
 10
0.0
 20
-1.75
 30
0.0
 40
0.1104162595939891
  0
CIRCLE
  5
EC
330
D8
100
AcDbEntity
  8
AM_9
100
AcDbCircle
 10
0.0
 20
-1.75
 30
0.0
 40
0.1163438171532771
  0
LINE
  5
ED
330
D8
100
AcDbEntity
  8
AM_9
100
AcDbLine
 10
0.0
 20
-1.912408630723041
 30
0.0
 11
0.14065
 21
-1.831204315361521
 31
0.0
  0
LINE
  5
EE
330
D8
100
AcDbEntity
  8
AM_9
100
AcDbLine
 10
-0.14065
 20
-1.831204315361521
 30
0.0
 11
0.0
 21
-1.912408630723041
 31
0.0
  0
LINE
  5
EF
330
D8
100
AcDbEntity
  8
AM_9
100
AcDbLine
 10
0.0
 20
-1.587591369276958
 30
0.0
 11
-0.14065
 21
-1.668795684638479
 31
0.0
  0
LINE
  5
F0
330
D8
100
AcDbEntity
  8
AM_9
100
AcDbLine
 10
-0.14065
 20
-1.668795684638479
 30
0.0
 11
-0.14065
 21
-1.831204315361521
 31
0.0
  0
LINE
  5
F1
330
D8
100
AcDbEntity
  8
AM_9
100
AcDbLine
 10
0.14065
 20
-1.831204315361521
 30
0.0
 11
0.14065
 21
-1.668795684638479
 31
0.0
  0
LINE
  5
F2
330
D8
100
AcDbEntity
  8
AM_9
100
AcDbLine
 10
0.14065
 20
-1.668795684638479
 30
0.0
 11
0.0
 21
-1.587591369276958
 31
0.0
  0
CIRCLE
  5
F3
330
D8
100
AcDbEntity
  8
AM_9
100
AcDbCircle
 10
0.0
 20
-1.75
 30
0.0
 40
0.1093294505797714
  0
CIRCLE
  5
F4
330
D8
100
AcDbEntity
  8
AM_9
100
AcDbCircle
 10
0.0
 20
-1.75
 30
0.0
 40
0.0946847896390988
  0
CIRCLE
  5
F5
330
D8
100
AcDbEntity
  8
AM_9
100
AcDbCircle
 10
0.0
 20
-1.75
 30
0.0
 40
0.135926521995058
  0
CIRCLE
  5
F6
330
D8
100
AcDbEntity
  8
AM_9
100
AcDbCircle
 10
0.0
 20
-1.75
 30
0.0
 40
0.13195176466768
  0
CIRCLE
  5
F7
330
D8
100
AcDbEntity
  8
AM_9
100
AcDbCircle
 10
0.0
 20
-1.75
 30
0.0
 40
0.080806429716728
  0
CIRCLE
  5
F8
330
D8
100
AcDbEntity
  8
AM_9
100
AcDbCircle
 10
0.0
 20
-1.75
 30
0.0
 40
0.1038190510530391
  0
CIRCLE
  5
F9
330
D8
100
AcDbEntity
  8
AM_9
100
AcDbCircle
 10
0.0
 20
-1.75
 30
0.0
 40
0.1406499999999999
  0
ENDBLK
  5
DB
330
D8
100
AcDbEntity
  8
0
100
AcDbBlockEnd
  0
BLOCK
  5
FC
330
FA
100
AcDbEntity
  8
0
100
AcDbBlockBegin
  2
4_S1U_K_300R_0_in_023228_4
 70
     2
 10
0.0
 20
0.0
 30
0.0
  3
4_S1U_K_300R_0_in_023228_4
  1

  0
ATTDEF
  5
FE
330
FA
100
AcDbEntity
  8
AM_6
100
AcDbText
 10
8.029308703190843
 20
0.1718750000000002
 30
0.0
 40
0.5
  1
Type K Units - Inch
100
AcDbAttributeDefinition
  3

  2
NN
 70
     8
280
     0
  0
ATTDEF
  5
FF
330
FA
100
AcDbEntity
  8
AM_6
100
AcDbText
 10
8.029308703190843
 20
-0.3281249999999998
 30
0.0
 40
0.5
  1
Type K
100
AcDbAttributeDefinition
  3

  2
NT
 70
     8
280
     0
  0
ATTDEF
  5
100
330
FA
100
AcDbEntity
  8
AM_6
100
AcDbText
 10
8.029308703190843
 20
-0.8281249999999998
 30
0.0
 40
0.5
  1
S1U-K-300R
100
AcDbAttributeDefinition
  3

  2
NB
 70
     8
280
     0
  0
ATTDEF
  5
101
330
FA
100
AcDbEntity
  8
AM_6
100
AcDbText
 10
8.029308703190843
 20
-1.328125
 30
0.0
 40
0.5
  1
$PN.
100
AcDbAttributeDefinition
  3

  2
NBSYN
 70
     8
280
     0
  0
ATTDEF
  5
102
330
FA
100
AcDbEntity
  8
AM_6
100
AcDbText
 10
8.029308703190843
 20
-1.828125
 30
0.0
 40
0.5
  1
S1U-K-300R
100
AcDbAttributeDefinition
  3

  2
LINA
 70
     8
280
     0
  0
ATTDEF
  5
103
330
FA
100
AcDbEntity
  8
AM_6
100
AcDbText
 10
8.029308703190843
 20
-2.328125
 30
0.0
 40
0.5
  1
3
100
AcDbAttributeDefinition
  3

  2
SS
 70
     8
280
     0
  0
ATTDEF
  5
104
330
FA
100
AcDbEntity
  8
AM_6
100
AcDbText
 10
8.029308703190843
 20
-2.828125
 30
0.0
 40
0.5
  1
3.000000
100
AcDbAttributeDefinition
  3

  2
SS1
 70
     8
280
     0
  0
ATTDEF
  5
105
330
FA
100
AcDbEntity
  8
AM_6
100
AcDbText
 10
8.029308703190843
 20
-3.328125
 30
0.0
 40
0.5
  1
S1U-K-300R
100
AcDbAttributeDefinition
  3

  2
PN
 70
     8
280
     0
  0
ATTDEF
  5
106
330
FA
100
AcDbEntity
  8
AM_6
100
AcDbText
 10
8.029308703190843
 20
-3.828125
 30
0.0
 40
0.5
  1
S1U-K-300R
100
AcDbAttributeDefinition
  3

  2
PNA
 70
     8
280
     0
  0
ATTDEF
  5
107
330
FA
100
AcDbEntity
  8
AM_6
100
AcDbText
 10
8.029308703190843
 20
-4.328125
 30
0.0
 40
0.5
  1
15
100
AcDbAttributeDefinition
  3

  2
WEIGHT
 70
     8
280
     0
  0
ATTDEF
  5
108
330
FA
100
AcDbEntity
  8
AM_6
100
AcDbText
 10
8.029308703190843
 20
-4.828125
 30
0.0
 40
0.5
  1
3-3/4
100
AcDbAttributeDefinition
  3

  2
A
 70
     8
280
     0
  0
ATTDEF
  5
109
330
FA
100
AcDbEntity
  8
AM_6
100
AcDbText
 10
8.029308703190843
 20
-5.328125
 30
0.0
 40
0.5
  1
3.750000
100
AcDbAttributeDefinition
  3

  2
A1
 70
     8
280
     0
  0
ATTDEF
  5
10A
330
FA
100
AcDbEntity
  8
AM_6
100
AcDbText
 10
8.029308703190843
 20
-5.828125
 30
0.0
 40
0.5
  1
3
100
AcDbAttributeDefinition
  3

  2
B
 70
     8
280
     0
  0
ATTDEF
  5
10B
330
FA
100
AcDbEntity
  8
AM_6
100
AcDbText
 10
8.029308703190843
 20
-6.328125
 30
0.0
 40
0.5
  1
3.000000
100
AcDbAttributeDefinition
  3

  2
B1
 70
     8
280
     0
  0
ATTDEF
  5
10C
330
FA
100
AcDbEntity
  8
AM_6
100
AcDbText
 10
8.029308703190843
 20
-6.828125
 30
0.0
 40
0.5
  1
1-7/8
100
AcDbAttributeDefinition
  3

  2
C
 70
     8
280
     0
  0
ATTDEF
  5
10D
330
FA
100
AcDbEntity
  8
AM_6
100
AcDbText
 10
8.029308703190843
 20
-7.328125
 30
0.0
 40
0.5
  1
1.875000
100
AcDbAttributeDefinition
  3

  2
C1
 70
     8
280
     0
  0
ATTDEF
  5
10E
330
FA
100
AcDbEntity
  8
AM_6
100
AcDbText
 10
8.029308703190843
 20
-7.828125
 30
0.0
 40
0.5
  1
5-7/8
100
AcDbAttributeDefinition
  3

  2
D
 70
     8
280
     0
  0
ATTDEF
  5
10F
330
FA
100
AcDbEntity
  8
AM_6
100
AcDbText
 10
8.029308703190843
 20
-8.328125
 30
0.0
 40
0.5
  1
5.875000
100
AcDbAttributeDefinition
  3

  2
D1
 70
     8
280
     0
  0
ATTDEF
  5
110
330
FA
100
AcDbEntity
  8
AM_6
100
AcDbText
 10
8.029308703190843
 20
-8.828125
 30
0.0
 40
0.5
  1
0.450
100
AcDbAttributeDefinition
  3

  2
E
 70
     8
280
     0
  0
ATTDEF
  5
111
330
FA
100
AcDbEntity
  8
AM_6
100
AcDbText
 10
8.029308703190843
 20
-9.328125
 30
0.0
 40
0.5
  1
5.563
100
AcDbAttributeDefinition
  3

  2
EM
 70
     8
280
     0
  0
ATTDEF
  5
112
330
FA
100
AcDbEntity
  8
AM_6
100
AcDbText
 10
8.029308703190843
 20
-9.828125
 30
0.0
 40
0.5
  1
5.630
100
AcDbAttributeDefinition
  3

  2
EC
 70
     8
280
     0
  0
ATTDEF
  5
113
330
FA
100
AcDbEntity
  8
AM_6
100
AcDbText
 10
8.029308703190843
 20
-10.328125
 30
0.0
 40
0.5
  1
11/16
100
AcDbAttributeDefinition
  3

  2
H
 70
     8
280
     0
  0
ATTDEF
  5
114
330
FA
100
AcDbEntity
  8
AM_6
100
AcDbText
 10
8.029308703190843
 20
-10.828125
 30
0.0
 40
0.5
  1
0.687500
100
AcDbAttributeDefinition
  3

  2
H1
 70
     8
280
     0
  0
ATTDEF
  5
115
330
FA
100
AcDbEntity
  8
AM_6
100
AcDbText
 10
8.029308703190843
 20
-11.328125
 30
0.0
 40
0.5
  1
3-7/8
100
AcDbAttributeDefinition
  3

  2
J
 70
     8
280
     0
  0
ATTDEF
  5
116
330
FA
100
AcDbEntity
  8
AM_6
100
AcDbText
 10
8.029308703190843
 20
-11.828125
 30
0.0
 40
0.5
  1
3.875000
100
AcDbAttributeDefinition
  3

  2
J1
 70
     8
280
     0
  0
ATTDEF
  5
117
330
FA
100
AcDbEntity
  8
AM_6
100
AcDbText
 10
8.029308703190843
 20
-12.328125
 30
0.0
 40
0.5
  1
6.061
100
AcDbAttributeDefinition
  3

  2
K
 70
     8
280
     0
  0
ATTDEF
  5
118
330
FA
100
AcDbEntity
  8
AM_6
100
AcDbText
 10
8.029308703190843
 20
-12.828125
 30
0.0
 40
0.5
  1
4-23/32
100
AcDbAttributeDefinition
  3

  2
L
 70
     8
280
     0
  0
ATTDEF
  5
119
330
FA
100
AcDbEntity
  8
AM_6
100
AcDbText
 10
8.029308703190843
 20
-13.328125
 30
0.0
 40
0.5
  1
4.718750
100
AcDbAttributeDefinition
  3

  2
L1
 70
     8
280
     0
  0
ATTDEF
  5
11A
330
FA
100
AcDbEntity
  8
AM_6
100
AcDbText
 10
8.029308703190843
 20
-13.828125
 30
0.0
 40
0.5
  1
3-13/16
100
AcDbAttributeDefinition
  3

  2
M
 70
     8
280
     0
  0
ATTDEF
  5
11B
330
FA
100
AcDbEntity
  8
AM_6
100
AcDbText
 10
8.029308703190843
 20
-14.328125
 30
0.0
 40
0.5
  1
3.812500
100
AcDbAttributeDefinition
  3

  2
M1
 70
     8
280
     0
  0
ATTDEF
  5
11C
330
FA
100
AcDbEntity
  8
AM_6
100
AcDbText
 10
8.029308703190843
 20
-14.828125
 30
0.0
 40
0.5
  1
1-7/16
100
AcDbAttributeDefinition
  3

  2
R
 70
     8
280
     0
  0
ATTDEF
  5
11D
330
FA
100
AcDbEntity
  8
AM_6
100
AcDbText
 10
8.029308703190843
 20
-15.328125
 30
0.0
 40
0.5
  1
1.437500
100
AcDbAttributeDefinition
  3

  2
R1
 70
     8
280
     0
  0
ATTDEF
  5
11E
330
FA
100
AcDbEntity
  8
AM_6
100
AcDbText
 10
8.029308703190843
 20
-15.828125
 30
0.0
 40
0.5
  1
2-1/4
100
AcDbAttributeDefinition
  3

  2
S
 70
     8
280
     0
  0
ATTDEF
  5
11F
330
FA
100
AcDbEntity
  8
AM_6
100
AcDbText
 10
8.029308703190843
 20
-16.328125
 30
0.0
 40
0.5
  1
2.250000
100
AcDbAttributeDefinition
  3

  2
S1
 70
     8
280
     0
  0
ATTDEF
  5
120
330
FA
100
AcDbEntity
  8
AM_6
100
AcDbText
 10
8.029308703190843
 20
-16.828125
 30
0.0
 40
0.5
  1
3.4700
100
AcDbAttributeDefinition
  3

  2
CC
 70
     8
280
     0
  0
ATTDEF
  5
121
330
FA
100
AcDbEntity
  8
AM_6
100
AcDbText
 10
8.029308703190843
 20
-17.328125
 30
0.0
 40
0.5
  1
baldor
100
AcDbAttributeDefinition
  3

  2
COMPANY
 70
     8
280
     0
  0
LINE
  5
122
330
FA
100
AcDbEntity
  8
AM_9
100
AcDbLine
 10
1.57235728975929
 20
-3.30625
 30
0.0
 11
1.359360303183465
 21
-3.30625
 31
0.0
  0
LINE
  5
123
330
FA
100
AcDbEntity
  8
AM_9
100
AcDbLine
 10
1.359445169413368
 20
-3.75625
 30
0.0
 11
1.572438635058629
 21
-3.75625
 31
0.0
  0
LWPOLYLINE
  5
124
330
FA
100
AcDbEntity
  8
AM_9
100
AcDbPolyline
 90
       21
 70
     0
 43
0.0
 10
1.359469687610639
 20
-3.306250000797716
 10
1.348777123106153
 20
-3.307625448317829
 10
1.332500140263996
 20
-3.31471180699062
 10
1.315768577041463
 20
-3.328087763207115
 10
1.300043338462421
 20
-3.34671270940472
 10
1.285121125571551
 20
-3.371067371138864
 10
1.272313993979624
 20
-3.39944276872222
 10
1.26162878394223
 20
-3.432450645194297
 10
1.254153083584139
 20
-3.467355984036247
 10
1.249840488166098
 20
-3.505168228628301
 10
1.249143452493295
 20
-3.542292142459254
 10
1.251998032567122
 20
-3.580174865816985
 10
1.258065186475789
 20
-3.615448825051923
 10
1.267391028222334
 20
-3.649326777614878
 10
1.279129805194436
 20
-3.679238984669027
 10
1.293345615014153
 20
-3.705782452592095
 10
1.308788509693984
 20
-3.726923275732147
 10
1.325594398924327
 20
-3.743024118649037
 10
1.34212009856517
 20
-3.75268471572582
 10
1.358804547722097
 20
-3.756244639088474
 10
1.359457772415083
 20
-3.756249999809969
  0
LWPOLYLINE
  5
125
330
FA
100
AcDbEntity
  8
AM_9
100
AcDbPolyline
 90
       10
 70
     0
 43
0.0
 10
1.359457772415083
 20
-3.756249999809969
 10
1.374037728453531
 20
-3.753450132867626
 10
1.388462692975764
 20
-3.74429425635128
 10
1.400961867374182
 20
-3.729565336204106
 10
1.412064012790287
 20
-3.708853833323228
 10
1.421125098522263
 20
-3.683611691721846
 10
1.428511608558226
 20
-3.653283301930474
 10
1.433838398798116
 20
-3.620205570130488
 10
1.437400968519668
 20
-3.583548263032204
 10
1.439169835458022
 20
-3.53125
  0
LWPOLYLINE
  5
126
330
FA
100
AcDbEntity
  8
AM_9
100
AcDbPolyline
 90
       13
 70
     0
 43
0.0
 10
1.465355328210114
 20
-3.498705447330603
 10
1.464858393280021
 20
-3.505781527888528
 10
1.464272210692533
 20
-3.543505952437713
 10
1.467067525531305
 20
-3.580882798370445
 10
1.473138289359514
 20
-3.616706482067063
 10
1.482154841613792
 20
-3.65014233809172
 10
1.493828068678873
 20
-3.680388426178935
 10
1.507574855646054
 20
-3.706461966976427
 10
1.522951514011417
 20
-3.727691146299216
 10
1.539259314097679
 20
-3.743367882451615
 10
1.555849603211102
 20
-3.75293487875551
 10
1.572210363266948
 20
-3.75624932123988
 10
1.572442422442609
 20
-3.756249999968622
  0
LWPOLYLINE
  5
127
330
FA
100
AcDbEntity
  8
AM_9
100
AcDbPolyline
 90
        7
 70
     0
 43
0.0
 10
1.516145863757821
 20
-3.343330186897327
 10
1.513257194526346
 20
-3.347378886305249
 10
1.498884119664133
 20
-3.371553457905335
 10
1.486306676259674
 20
-3.400456171701059
 10
1.476145625925137
 20
-3.433062831634634
 10
1.468897415246403
 20
-3.468523537952737
 10
1.465355328210114
 20
-3.498705447330603
  0
LWPOLYLINE
  5
128
330
FA
100
AcDbEntity
  8
AM_9
100
AcDbPolyline
 90
        5
 70
     0
 43
0.0
 10
1.572452371873925
 20
-3.306250000869873
 10
1.561651978561931
 20
-3.307659499578066
 10
1.545221927919784
 20
-3.314990876764758
 10
1.528913569850127
 20
-3.328310620458581
 10
1.516145863757821
 20
-3.343330186897327
  0
LINE
  5
129
330
FA
100
AcDbEntity
  8
AM_9
100
AcDbLine
 10
1.652466864274682
 20
-3.582219112218062
 30
0.0
 11
1.654254624420442
 21
-3.53125
 31
0.0
  0
LWPOLYLINE
  5
12A
330
FA
100
AcDbEntity
  8
AM_9
100
AcDbPolyline
 90
        9
 70
     0
 43
0.0
 10
1.572442422442609
 20
-3.756249999968622
 10
1.587710026987211
 20
-3.753167401825015
 10
1.602082883690209
 20
-3.74391716553152
 10
1.614979439209963
 20
-3.728692114518764
 10
1.626211726965614
 20
-3.708003386150287
 10
1.635671725821562
 20
-3.682158594715624
 10
1.643222515297758
 20
-3.652070937407042
 10
1.648826008436532
 20
-3.618391481891149
 10
1.652466864274682
 20
-3.582219112218062
  0
LWPOLYLINE
  5
12B
330
FA
100
AcDbEntity
  8
AM_9
100
AcDbPolyline
 90
        6
 70
     0
 43
0.0
 10
1.407201568467686
 20
-3.343480624222937
 10
1.405955116121399
 20
-3.341167962798828
 10
1.394000571772608
 20
-3.323818278501034
 10
1.37999395337197
 20
-3.311967394531698
 10
1.36511897308243
 20
-3.306656381771022
 10
1.359469687610639
 20
-3.306250000797716
  0
LWPOLYLINE
  5
12C
330
FA
100
AcDbEntity
  8
AM_9
100
AcDbPolyline
 90
        7
 70
     0
 43
0.0
 10
1.439169835458022
 20
-3.53125
 10
1.438293567755557
 20
-3.494249923041987
 10
1.4355520865211
 20
-3.457249846083974
 10
1.43107790563656
 20
-3.42336595060723
 10
1.424583437248079
 20
-3.391599399347058
 10
1.416348730539771
 20
-3.364383131254537
 10
1.407201568467686
 20
-3.343480624222937
  0
LINE
  5
12D
330
FA
100
AcDbEntity
  8
AM_9
100
AcDbLine
 10
1.5
 20
-4.0
 30
0.0
 11
1.5
 21
-0.2499999999999998
 31
0.0
  0
LINE
  5
12E
330
FA
100
AcDbEntity
  8
AM_9
100
AcDbLine
 10
-1.5
 20
-0.2499999999999998
 30
0.0
 11
-1.5
 21
-4.0
 31
0.0
  0
LWPOLYLINE
  5
12F
330
FA
100
AcDbEntity
  8
AM_9
100
AcDbPolyline
 90
        5
 70
     0
 43
0.0
 10
-0.1240057133057911
 20
-3.343506603132034
 10
-0.1208244751433717
 20
-3.341443661311512
 10
-0.087662973440866
 20
-3.324029819787005
 10
-0.0509735550544948
 20
-3.31210005889778
 10
0.0
 20
-3.30625
  0
LWPOLYLINE
  5
130
330
FA
100
AcDbEntity
  8
AM_9
100
AcDbPolyline
 90
        4
 70
     0
 43
0.0
 10
-0.1826533103755996
 20
-3.399862145885417
 10
-0.1767585192611333
 20
-3.392032810441342
 10
-0.1513273218525085
 20
-3.364741616844835
 10
-0.1240057133057911
 20
-3.343506603132034
  0
LWPOLYLINE
  5
131
330
FA
100
AcDbEntity
  8
AM_9
100
AcDbPolyline
 90
        5
 70
     0
 43
0.0
 10
-0.2228683089842908
 20
-3.500351507310506
 10
-0.2220273718614375
 20
-3.494796657981703
 10
-0.2126672470369836
 20
-3.457781353369546
 10
-0.1977172150493003
 20
-3.423858646189981
 10
-0.1826533103755996
 20
-3.399862145885417
  0
LWPOLYLINE
  5
132
330
FA
100
AcDbEntity
  8
AM_9
100
AcDbPolyline
 90
        7
 70
     0
 43
0.0
 10
-0.1701044898432836
 20
-3.678523427797265
 10
-0.1752153665346598
 20
-3.672404437869041
 10
-0.1961950009970952
 20
-3.641397726185109
 10
-0.2121187479415198
 20
-3.60628756906858
 10
-0.2216137342539719
 20
-3.570138980315892
 10
-0.2249993370282309
 20
-3.53179620221216
 10
-0.2228683089842908
 20
-3.500351507310506
  0
LWPOLYLINE
  5
133
330
FA
100
AcDbEntity
  8
AM_9
100
AcDbPolyline
 90
        7
 70
     0
 43
0.0
 10
0.2224976614734478
 20
-3.497786727015323
 10
0.2246109636159754
 20
-3.51802445564436
 10
0.2235898555085177
 20
-3.556401073807696
 10
0.2164273065514313
 20
-3.592766022131578
 10
0.2029411808329229
 20
-3.628409030059685
 10
0.1841982311779432
 20
-3.660463047448456
 10
0.1771882993231458
 20
-3.669919775304395
  0
LWPOLYLINE
  5
134
330
FA
100
AcDbEntity
  8
AM_9
100
AcDbPolyline
 90
        5
 70
     0
 43
0.0
 10
0.1836423085710343
 20
-3.40124806731167
 10
0.1902637813130712
 20
-3.411147154403187
 10
0.2075515948618953
 20
-3.444374598013686
 10
0.2193420149839745
 20
-3.481109393075373
 10
0.2224976614734478
 20
-3.497786727015323
  0
LWPOLYLINE
  5
135
330
FA
100
AcDbEntity
  8
AM_9
100
AcDbPolyline
 90
        4
 70
     0
 43
0.0
 10
0.123350662778533
 20
-3.343075575616407
 10
0.1398859423932333
 20
-3.355020254721976
 10
0.1670811838615932
 20
-3.380555348471127
 10
0.1836423085710343
 20
-3.40124806731167
  0
LWPOLYLINE
  5
136
330
FA
100
AcDbEntity
  8
AM_9
100
AcDbPolyline
 90
        5
 70
     0
 43
0.0
 10
0.0
 20
-3.30625
 10
0.0370618995731323
 20
-3.309323400422502
 10
0.0741237991462647
 20
-3.318810214648658
 10
0.1080670637908447
 20
-3.333901299159013
 10
0.123350662778533
 20
-3.343075575616407
  0
LWPOLYLINE
  5
137
330
FA
100
AcDbEntity
  8
AM_9
100
AcDbPolyline
 90
        6
 70
     0
 43
0.0
 10
1.62080743355983
 20
-3.343465658199438
 10
1.619430704105767
 20
-3.340988075701573
 10
1.606988191930961
 20
-3.323508542394947
 10
1.592979101732981
 20
-3.311908866953496
 10
1.577755661288136
 20
-3.306630835990092
 10
1.572452371873925
 20
-3.306250000869873
  0
LWPOLYLINE
  5
138
330
FA
100
AcDbEntity
  8
AM_9
100
AcDbPolyline
 90
        5
 70
     0
 43
0.0
 10
1.645727698653387
 20
-3.423676119648444
 10
1.645555287101455
 20
-3.42273001318632
 10
1.63879088907976
 20
-3.391370034078952
 10
1.630044852743261
 20
-3.363828561474208
 10
1.62080743355983
 20
-3.343465658199438
  0
LWPOLYLINE
  5
139
330
FA
100
AcDbEntity
  8
AM_9
100
AcDbPolyline
 90
        4
 70
     0
 43
0.0
 10
1.65346604956609
 20
-3.49722610588375
 10
1.653285564128679
 20
-3.49365768442776
 10
1.65039336800728
 20
-3.457129312509571
 10
1.645727698653387
 20
-3.423676119648444
  0
LINE
  5
13A
330
FA
100
AcDbEntity
  8
AM_9
100
AcDbLine
 10
1.654254624420442
 20
-3.53125
 30
0.0
 11
1.65346604956609
 21
-3.49722610588375
 31
0.0
  0
LINE
  5
13B
330
FA
100
AcDbEntity
  8
AM_9
100
AcDbLine
 10
1.735
 20
-4.0
 30
0.0
 11
1.735
 21
-3.0625
 31
0.0
  0
LINE
  5
13C
330
FA
100
AcDbEntity
  8
AM_9
100
AcDbLine
 10
-1.735
 20
-3.0625
 30
0.0
 11
-1.735
 21
-4.0
 31
0.0
  0
LINE
  5
13D
330
FA
100
AcDbEntity
  8
AM_9
100
AcDbLine
 10
-1.966145833333334
 20
-0.2500000000000001
 30
0.0
 11
-1.966145833333334
 21
-0.8124999999999999
 31
0.0
  0
LINE
  5
13E
330
FA
100
AcDbEntity
  8
AM_9
100
AcDbLine
 10
1.966145833333334
 20
-0.8124999999999999
 30
0.0
 11
1.966145833333334
 21
-0.2500000000000001
 31
0.0
  0
LINE
  5
13F
330
FA
100
AcDbEntity
  8
AM_9
100
AcDbLine
 10
-2.419871794871795
 20
-3.0625
 30
0.0
 11
2.419871794871795
 21
-3.0625
 31
0.0
  0
LINE
  5
140
330
FA
100
AcDbEntity
  8
AM_9
100
AcDbLine
 10
-2.419871794871795
 20
-3.0625
 30
0.0
 11
-2.452933103754632
 21
-3.25
 31
0.0
  0
LINE
  5
141
330
FA
100
AcDbEntity
  8
AM_9
100
AcDbLine
 10
2.452933103754632
 20
-3.25
 30
0.0
 11
2.419871794871795
 21
-3.0625
 31
0.0
  0
LINE
  5
142
330
FA
100
AcDbEntity
  8
AM_9
100
AcDbLine
 10
2.419871794871795
 20
-0.8125
 30
0.0
 11
2.519055721520307
 21
-0.2500000000000001
 31
0.0
  0
LINE
  5
143
330
FA
100
AcDbEntity
  8
AM_9
100
AcDbLine
 10
-2.519055721520307
 20
-0.2500000000000001
 30
0.0
 11
-2.419871794871795
 21
-0.8125
 31
0.0
  0
LINE
  5
144
330
FA
100
AcDbEntity
  8
AM_9
100
AcDbLine
 10
-2.718999999999999
 20
-3.25
 30
0.0
 11
2.718999999992637
 21
-3.25
 31
0.0
  0
ARC
  5
145
330
FA
100
AcDbEntity
  8
AM_9
100
AcDbCircle
 10
2.718999999999999
 20
-3.187499999999999
 30
0.0
 40
0.0625000000000009
100
AcDbArc
 50
270.0
 51
0.0
  0
ARC
  5
146
330
FA
100
AcDbEntity
  8
AM_9
100
AcDbCircle
 10
-2.718999999999999
 20
-3.187499999999999
 30
0.0
 40
0.0625000000000009
100
AcDbArc
 50
180.0
 51
270.0
  0
LINE
  5
147
330
FA
100
AcDbEntity
  8
AM_9
100
AcDbLine
 10
-2.7815
 20
-3.1875
 30
0.0
 11
2.7815
 21
-3.1875
 31
0.0
  0
LINE
  5
148
330
FA
100
AcDbEntity
  8
AM_9
100
AcDbLine
 10
2.7815
 20
-3.1875
 30
0.0
 11
2.7815
 21
-2.6875
 31
0.0
  0
LINE
  5
149
330
FA
100
AcDbEntity
  8
AM_9
100
AcDbLine
 10
-2.7815
 20
-2.6875
 30
0.0
 11
-2.7815
 21
-3.1875
 31
0.0
  0
LINE
  5
14A
330
FA
100
AcDbEntity
  8
AM_9
100
AcDbLine
 10
-2.7525
 20
-0.2500000000000001
 30
0.0
 11
2.752499999999884
 21
-0.2500000000000001
 31
0.0
  0
ARC
  5
14B
330
FA
100
AcDbEntity
  8
AM_9
100
AcDbCircle
 10
2.7525
 20
-0.3124999999999996
 30
0.0
 40
0.0624999999999996
100
AcDbArc
 50
0.0
 51
90.0
  0
ARC
  5
14C
330
FA
100
AcDbEntity
  8
AM_9
100
AcDbCircle
 10
-2.7525
 20
-0.3124999999999996
 30
0.0
 40
0.0624999999999995
100
AcDbArc
 50
90.0
 51
180.0
  0
LINE
  5
14D
330
FA
100
AcDbEntity
  8
AM_9
100
AcDbLine
 10
-2.815
 20
-0.8124999999999999
 30
0.0
 11
2.815
 21
-0.8124999999999999
 31
0.0
  0
LINE
  5
14E
330
FA
100
AcDbEntity
  8
AM_9
100
AcDbLine
 10
-2.815
 20
-0.3124999999999997
 30
0.0
 11
2.815
 21
-0.3124999999999997
 31
0.0
  0
LINE
  5
14F
330
FA
100
AcDbEntity
  8
AM_9
100
AcDbLine
 10
2.815
 20
-0.8124999999999999
 30
0.0
 11
2.815
 21
-0.3124999999999997
 31
0.0
  0
LINE
  5
150
330
FA
100
AcDbEntity
  8
AM_9
100
AcDbLine
 10
-2.815
 20
-0.3124999999999997
 30
0.0
 11
-2.815
 21
-0.8124999999999999
 31
0.0
  0
LINE
  5
151
330
FA
100
AcDbEntity
  8
AM_9
100
AcDbLine
 10
-2.977838813636493
 20
-2.6875
 30
0.0
 11
2.977838813636489
 21
-2.6875
 31
0.0
  0
ARC
  5
152
330
FA
100
AcDbEntity
  8
AM_9
100
AcDbCircle
 10
0.0000000000065556
 20
-2.124999999999136
 30
0.0
 40
3.030499999993714
100
AcDbArc
 50
349.3031300574487
 51
25.66425509789354
  0
ARC
  5
153
330
FA
100
AcDbEntity
  8
AM_9
100
AcDbCircle
 10
0.0000000000000675
 20
-2.125000000000006
 30
0.0
 40
3.03050000000006
100
AcDbArc
 50
154.3357449021459
 51
190.6968699425118
  0
LWPOLYLINE
  5
154
330
FA
100
AcDbEntity
  8
AM_9
100
AcDbPolyline
 90
       75
 70
     0
 43
0.0
 10
-0.3455762286851688
 20
-1.407816742615529
 10
-0.3170470395549347
 20
-1.380474662288906
 10
-0.286122202423557
 20
-1.355395631830581
 10
-0.2524658795999434
 20
-1.332499357290072
 10
-0.2166966828460503
 20
-1.31239345027929
 10
-0.1806485139959679
 20
-1.295951734594633
 10
-0.1426603303975195
 20
-1.282326798412087
 10
-0.1036456297612435
 20
-1.271937157871073
 10
-0.0631429364485616
 20
-1.264771479463159
 10
-0.0238637767745458
 20
-1.261187194884646
 10
0.0162896159139893
 20
-1.260872589904259
 10
0.0563268225556741
 20
-1.263914983275708
 10
0.0966812859285232
 20
-1.270448320542572
 10
0.1348432793080511
 20
-1.279958438646591
 10
0.1727346813802946
 20
-1.292815263552992
 10
0.2094063417126216
 20
-1.30877441985323
 10
0.2452191132900336
 20
-1.328095530386282
 10
0.2782011181285681
 20
-1.349624744333456
 10
0.3098129597761821
 20
-1.374223310132377
 10
0.33924526981742
 20
-1.401350898016779
 10
0.366752881999197
 20
-1.431366527620928
 10
0.390963568224453
 20
-1.462686261743162
 10
0.4128477216444779
 20
-1.496475945381591
 10
0.4318157504598468
 20
-1.531957465606583
 10
0.4479891204950611
 20
-1.569556201275454
 10
0.4605968494394985
 20
-1.607345446368514
 10
0.470158057024513
 20
-1.64672958928218
 10
0.4763657593017004
 20
-1.686769720197404
 10
0.4791887710682377
 20
-1.727914636490067
 10
0.4785396198330699
 20
-1.767936918526934
 10
0.4744514020472168
 20
-1.808478639303613
 10
0.4669414855175218
 20
-1.84853722897284
 10
0.4558222296415225
 20
-1.888532259765666
 10
0.4418458315780345
 20
-1.926092099404418
 10
0.4246433331673941
 20
-1.962620788599629
 10
0.4039392819743087
 20
-1.998342137955804
 10
0.3800351281469426
 20
-2.032416414943798
 10
0.3543857883700631
 20
-2.063063821817894
 10
0.3257183386755835
 20
-2.091979469326958
 10
0.2946826124416937
 20
-2.11838024611919
 10
0.2608580388961237
 20
-2.142474692207744
 10
0.2266485862875852
 20
-2.162709780588577
 10
0.1901956455058648
 20
-2.180334002783479
 10
0.1523683772053644
 20
-2.194830411231062
 10
0.1127054504752112
 20
-2.206258191234983
 10
0.0739457398830528
 20
-2.213961731605866
 10
0.0339634455492868
 20
-2.218493744452285
 10
-0.0062617567570393
 20
-2.219661150694965
 10
-0.047177450495554
 20
-2.217373825219466
 10
-0.0861696220611334
 20
-2.211890032413835
 10
-0.125249399412298
 20
-2.203039318068719
 10
-0.163442202070127
 20
-2.19096488572133
 10
-0.2011357955402612
 20
-2.175443086967562
 10
-0.2361661700436943
 20
-2.157460581835192
 10
-0.2701580855178987
 20
-2.136280810763762
 10
-0.3022472574198127
 20
-2.112357844658902
 10
-0.3327249712108592
 20
-2.085359414232677
 10
-0.3600111467073062
 20
-2.056774589758297
 10
-0.3852473988900595
 20
-2.025499855011824
 10
-0.4077673103614753
 20
-1.992247694190802
 10
-0.4277364120238347
 20
-1.956608950025186
 10
-0.4441842500040225
 20
-1.920429622031021
 10
-0.4577805432823706
 20
-1.882360332312794
 10
-0.468125401161397
 20
-1.843299254439003
 10
-0.4752368920439938
 20
-1.802800304130299
 10
-0.4788005301774617
 20
-1.762999409336195
 10
-0.4790108417481654
 20
-1.722332775921553
 10
-0.4757822322906763
 20
-1.681793103403181
 10
-0.4689759554421906
 20
-1.64094659262251
 10
-0.459058701935034
 20
-1.602117955847959
 10
-0.4458273584714653
 20
-1.563979193150541
 10
-0.429034381999995
 20
-1.526279529903268
 10
-0.408890761732786
 20
-1.489881541850163
 10
-0.379656476743793
 20
-1.44739187468421
 10
-0.3455762286851689
 20
-1.407816742615529
  0
CIRCLE
  5
155
330
FA
100
AcDbEntity
  8
AM_9
100
AcDbCircle
 10
0.0
 20
-1.75
 30
0.0
 40
0.305316369154144
  0
CIRCLE
  5
156
330
FA
100
AcDbEntity
  8
AM_9
100
AcDbCircle
 10
0.0
 20
-1.75
 30
0.0
 40
0.3497623444809251
  0
LINE
  5
157
330
FA
100
AcDbEntity
  8
AM_7
100
AcDbLine
 10
-0.3672504617049714
 20
-1.75
 30
0.0
 11
0.3672504617049714
 21
-1.75
 31
0.0
  0
LINE
  5
158
330
FA
100
AcDbEntity
  8
AM_7
100
AcDbLine
 10
0.0
 20
-4.1875
 30
0.0
 11
0.0
 21
0.1718750000000002
 31
0.0
  0
LWPOLYLINE
  5
159
330
FA
100
AcDbEntity
  8
AM_4
100
AcDbPolyline
 90
       12
 70
     0
 43
0.0
 10
0.1771882993231458
 20
-3.669919775304395
 10
0.1597020153309338
 20
-3.689743742145354
 10
0.1312535162688272
 20
-3.713999868582904
 10
0.0981899168645751
 20
-3.733694412681921
 10
0.0632685546735576
 20
-3.747171490337389
 10
0.0254746708671268
 20
-3.754803217700421
 10
-0.0117076589042843
 20
-3.755945195148853
 10
-0.0496288877316435
 20
-3.750708363938401
 10
-0.084973056860506
 20
-3.739587657680461
 10
-0.118897768445167
 20
-3.722269163066849
 10
-0.1487567536217191
 20
-3.700058851225068
 10
-0.1701044898432836
 20
-3.678523427797265
  0
ENDBLK
  5
FD
330
FA
100
AcDbEntity
  8
0
100
AcDbBlockEnd
  0
BLOCK
  5
15C
330
15A
100
AcDbEntity
  8
0
100
AcDbBlockBegin
  2
5_F4B_K_300R_0_in_023228_4
 70
     2
 10
0.0
 20
0.0
 30
0.0
  3
5_F4B_K_300R_0_in_023228_4
  1

  0
ATTDEF
  5
15E
330
15A
100
AcDbEntity
  8
AM_6
100
AcDbText
 10
9.75
 20
0.0343749999999998
 30
0.0
 40
0.5
  1
Flange Bearing -Body -  Non-Expansion - Inch
100
AcDbAttributeDefinition
  3

  2
NN
 70
     8
280
     0
  0
ATTDEF
  5
15F
330
15A
100
AcDbEntity
  8
AM_6
100
AcDbText
 10
9.75
 20
-0.4656250000000002
 30
0.0
 40
0.5
  1
Type K
100
AcDbAttributeDefinition
  3

  2
NT
 70
     8
280
     0
  0
ATTDEF
  5
160
330
15A
100
AcDbEntity
  8
AM_6
100
AcDbText
 10
9.75
 20
-0.9656250000000002
 30
0.0
 40
0.5
  1
F4B-K-300R
100
AcDbAttributeDefinition
  3

  2
NB
 70
     8
280
     0
  0
ATTDEF
  5
161
330
15A
100
AcDbEntity
  8
AM_6
100
AcDbText
 10
9.75
 20
-1.465625
 30
0.0
 40
0.5
  1
$PN.
100
AcDbAttributeDefinition
  3

  2
NBSYN
 70
     8
280
     0
  0
ATTDEF
  5
162
330
15A
100
AcDbEntity
  8
AM_6
100
AcDbText
 10
9.75
 20
-1.965625
 30
0.0
 40
0.5
  1
F4B-K-300R
100
AcDbAttributeDefinition
  3

  2
LINA
 70
     8
280
     0
  0
ATTDEF
  5
163
330
15A
100
AcDbEntity
  8
AM_6
100
AcDbText
 10
9.75
 20
-2.465625
 30
0.0
 40
0.5
  1
3
100
AcDbAttributeDefinition
  3

  2
SS
 70
     8
280
     0
  0
ATTDEF
  5
164
330
15A
100
AcDbEntity
  8
AM_6
100
AcDbText
 10
9.75
 20
-2.965625
 30
0.0
 40
0.5
  1
3.000000
100
AcDbAttributeDefinition
  3

  2
SS1
 70
     8
280
     0
  0
ATTDEF
  5
165
330
15A
100
AcDbEntity
  8
AM_6
100
AcDbText
 10
9.75
 20
-3.465625
 30
0.0
 40
0.5
  1
F4B-K-300R
100
AcDbAttributeDefinition
  3

  2
PN
 70
     8
280
     0
  0
ATTDEF
  5
166
330
15A
100
AcDbEntity
  8
AM_6
100
AcDbText
 10
9.75
 20
-3.965625
 30
0.0
 40
0.5
  1
F4B-K-300R
100
AcDbAttributeDefinition
  3

  2
PNA
 70
     8
280
     0
  0
ATTDEF
  5
167
330
15A
100
AcDbEntity
  8
AM_6
100
AcDbText
 10
9.75
 20
-4.465625
 30
0.0
 40
0.5
  1
24
100
AcDbAttributeDefinition
  3

  2
WEIGHT
 70
     8
280
     0
  0
ATTDEF
  5
168
330
15A
100
AcDbEntity
  8
AM_6
100
AcDbText
 10
9.75
 20
-4.965625
 30
0.0
 40
0.5
  1
5.563000
100
AcDbAttributeDefinition
  3

  2
BOD
 70
     8
280
     0
  0
ATTDEF
  5
169
330
15A
100
AcDbEntity
  8
AM_6
100
AcDbText
 10
9.75
 20
-5.465625
 30
0.0
 40
0.5
  1
4
100
AcDbAttributeDefinition
  3

  2
A
 70
     8
280
     0
  0
ATTDEF
  5
16A
330
15A
100
AcDbEntity
  8
AM_6
100
AcDbText
 10
9.75
 20
-5.965625
 30
0.0
 40
0.5
  1
4.000000
100
AcDbAttributeDefinition
  3

  2
A1
 70
     8
280
     0
  0
ATTDEF
  5
16B
330
15A
100
AcDbEntity
  8
AM_6
100
AcDbText
 10
9.75
 20
-6.465625
 30
0.0
 40
0.5
  1
8-7/8
100
AcDbAttributeDefinition
  3

  2
B
 70
     8
280
     0
  0
ATTDEF
  5
16C
330
15A
100
AcDbEntity
  8
AM_6
100
AcDbText
 10
9.75
 20
-6.965625
 30
0.0
 40
0.5
  1
8.875000
100
AcDbAttributeDefinition
  3

  2
B1
 70
     8
280
     0
  0
ATTDEF
  5
16D
330
15A
100
AcDbEntity
  8
AM_6
100
AcDbText
 10
9.75
 20
-7.465625
 30
0.0
 40
0.5
  1
3-11/32
100
AcDbAttributeDefinition
  3

  2
C
 70
     8
280
     0
  0
ATTDEF
  5
16E
330
15A
100
AcDbEntity
  8
AM_6
100
AcDbText
 10
9.75
 20
-7.965625
 30
0.0
 40
0.5
  1
3.343750
100
AcDbAttributeDefinition
  3

  2
C1
 70
     8
280
     0
  0
ATTDEF
  5
16F
330
15A
100
AcDbEntity
  8
AM_6
100
AcDbText
 10
9.75
 20
-8.465625
 30
0.0
 40
0.5
  1
6-57/64
100
AcDbAttributeDefinition
  3

  2
D
 70
     8
280
     0
  0
ATTDEF
  5
170
330
15A
100
AcDbEntity
  8
AM_6
100
AcDbText
 10
9.75
 20
-8.965625
 30
0.0
 40
0.5
  1
6.890625
100
AcDbAttributeDefinition
  3

  2
D1
 70
     8
280
     0
  0
ATTDEF
  5
171
330
15A
100
AcDbEntity
  8
AM_6
100
AcDbText
 10
9.75
 20
-9.465625
 30
0.0
 40
0.5
  1
1/4
100
AcDbAttributeDefinition
  3

  2
E
 70
     8
280
     0
  0
ATTDEF
  5
172
330
15A
100
AcDbEntity
  8
AM_6
100
AcDbText
 10
9.75
 20
-9.965625
 30
0.0
 40
0.5
  1
0.250000
100
AcDbAttributeDefinition
  3

  2
E1
 70
     8
280
     0
  0
ATTDEF
  5
173
330
15A
100
AcDbEntity
  8
AM_6
100
AcDbText
 10
9.75
 20
-10.465625
 30
0.0
 40
0.5
  1
3/4
100
AcDbAttributeDefinition
  3

  2
F
 70
     8
280
     0
  0
ATTDEF
  5
174
330
15A
100
AcDbEntity
  8
AM_6
100
AcDbText
 10
9.75
 20
-10.965625
 30
0.0
 40
0.5
  1
0.750000
100
AcDbAttributeDefinition
  3

  2
F1
 70
     8
280
     0
  0
ATTDEF
  5
175
330
15A
100
AcDbEntity
  8
AM_6
100
AcDbText
 10
9.75
 20
-11.465625
 30
0.0
 40
0.5
  1
9-1/2
100
AcDbAttributeDefinition
  3

  2
G
 70
     8
280
     0
  0
ATTDEF
  5
176
330
15A
100
AcDbEntity
  8
AM_6
100
AcDbText
 10
9.75
 20
-11.965625
 30
0.0
 40
0.5
  1
9.500000
100
AcDbAttributeDefinition
  3

  2
G1
 70
     8
280
     0
  0
ATTDEF
  5
177
330
15A
100
AcDbEntity
  8
AM_6
100
AcDbText
 10
9.75
 20
-12.465625
 30
0.0
 40
0.5
  1
11/16
100
AcDbAttributeDefinition
  3

  2
H
 70
     8
280
     0
  0
ATTDEF
  5
178
330
15A
100
AcDbEntity
  8
AM_6
100
AcDbText
 10
9.75
 20
-12.965625
 30
0.0
 40
0.5
  1
0.687500
100
AcDbAttributeDefinition
  3

  2
H1
 70
     8
280
     0
  0
ATTDEF
  5
179
330
15A
100
AcDbEntity
  8
AM_6
100
AcDbText
 10
9.75
 20
-13.465625
 30
0.0
 40
0.5
  1
6-57/64
100
AcDbAttributeDefinition
  3

  2
J
 70
     8
280
     0
  0
ATTDEF
  5
17A
330
15A
100
AcDbEntity
  8
AM_6
100
AcDbText
 10
9.75
 20
-13.965625
 30
0.0
 40
0.5
  1
6.890625
100
AcDbAttributeDefinition
  3

  2
J1
 70
     8
280
     0
  0
ATTDEF
  5
17B
330
15A
100
AcDbEntity
  8
AM_6
100
AcDbText
 10
9.75
 20
-14.465625
 30
0.0
 40
0.5
  1
4-23/32
100
AcDbAttributeDefinition
  3

  2
L
 70
     8
280
     0
  0
ATTDEF
  5
17C
330
15A
100
AcDbEntity
  8
AM_6
100
AcDbText
 10
9.75
 20
-14.965625
 30
0.0
 40
0.5
  1
4.718750
100
AcDbAttributeDefinition
  3

  2
L1
 70
     8
280
     0
  0
ATTDEF
  5
17D
330
15A
100
AcDbEntity
  8
AM_6
100
AcDbText
 10
9.75
 20
-15.465625
 30
0.0
 40
0.5
  1
5/16
100
AcDbAttributeDefinition
  3

  2
EXP
 70
     8
280
     0
  0
ATTDEF
  5
17E
330
15A
100
AcDbEntity
  8
AM_6
100
AcDbText
 10
9.75
 20
-15.965625
 30
0.0
 40
0.5
  1
0.312500
100
AcDbAttributeDefinition
  3

  2
EXP1
 70
     8
280
     0
  0
ATTDEF
  5
17F
330
15A
100
AcDbEntity
  8
AM_6
100
AcDbText
 10
9.75
 20
-16.465625
 30
0.0
 40
0.5
  1
f4b_flange_ne_i_templ.prj
100
AcDbAttributeDefinition
  3

  2
PPATH
 70
     8
280
     0
  0
ATTDEF
  5
180
330
15A
100
AcDbEntity
  8
AM_6
100
AcDbText
 10
9.75
 20
-16.965625
 30
0.0
 40
0.5
  1
baldor
100
AcDbAttributeDefinition
  3

  2
COMPANY
 70
     8
280
     0
  0
LWPOLYLINE
  5
181
330
15A
100
AcDbEntity
  8
AM_9
100
AcDbPolyline
 90
       11
 70
     0
 43
0.0
 10
-3.268053573926013
 20
0.0000000000000004
 10
-3.285626082184366
 20
-0.002409618984608
 10
-3.303198590442717
 20
-0.0099432526565724
 10
-3.318806289851049
 20
-0.0217168852934928
 10
-3.333631628727206
 20
-0.0388026264421323
 10
-3.343751632756442
 20
-0.0553717241374488
 10
-3.35262155627347
 20
-0.0755034304251794
 10
-3.358356074121205
 20
-0.0939602300707701
 10
-3.362598132728602
 20
-0.1146085984377641
 10
-3.364937458800912
 20
-0.1368513643203778
 10
-3.365073010064562
 20
-0.1604634710616187
  0
ARC
  5
182
330
15A
100
AcDbEntity
  8
AM_9
100
AcDbCircle
 10
-3.465789430338403
 20
-0.1499999999999994
 30
0.0
 40
0.1499999999999997
100
AcDbArc
 50
90.0
 51
184.0000000000001
  0
LWPOLYLINE
  5
183
330
15A
100
AcDbEntity
  8
AM_9
100
AcDbPolyline
 90
       12
 70
     0
 43
0.0
 10
3.365073010064562
 20
-0.1604634710616187
 10
3.365070303552671
 20
-0.139691923240495
 10
3.363266996186055
 20
-0.1192322573227853
 10
3.359754283829437
 20
-0.099749524935766
 10
3.354743890070162
 20
-0.0816101746491457
 10
3.348100331955093
 20
-0.0643715965354217
 10
3.340311302971774
 20
-0.0491516293921998
 10
3.327290374624266
 20
-0.0306551238651747
 10
3.312919491588499
 20
-0.0166369773660374
 10
3.293735285315989
 20
-0.0052170759249863
 10
3.273858145483406
 20
-0.0002600605753424
 10
3.268053573926013
 20
0.0000000000000004
  0
ARC
  5
184
330
15A
100
AcDbEntity
  8
AM_9
100
AcDbCircle
 10
3.465789430338403
 20
-0.1499999999999994
 30
0.0
 40
0.15
100
AcDbArc
 50
355.9999999999999
 51
90.0
  0
LINE
  5
185
330
15A
100
AcDbEntity
  8
AM_9
100
AcDbLine
 10
2.7815
 20
-3.34375
 30
0.0
 11
2.7815
 21
0.0
 31
0.0
  0
LINE
  5
186
330
15A
100
AcDbEntity
  8
AM_9
100
AcDbLine
 10
-2.7815
 20
0.0
 30
0.0
 11
-2.7815
 21
-3.34375
 31
0.0
  0
LINE
  5
187
330
15A
100
AcDbEntity
  8
AM_9
100
AcDbLine
 10
-3.341432551564346
 20
-0.6874999999999996
 30
0.0
 11
-3.365073010064562
 21
-0.1604634710616187
 31
0.0
  0
LINE
  5
188
330
15A
100
AcDbEntity
  8
AM_9
100
AcDbLine
 10
3.365073010064562
 20
-0.1604634710616187
 30
0.0
 11
3.615424037877377
 21
-0.1604634710616188
 31
0.0
  0
LINE
  5
189
330
15A
100
AcDbEntity
  8
AM_9
100
AcDbLine
 10
3.365073010064562
 20
-0.1604634710616187
 30
0.0
 11
3.341432551564346
 21
-0.6874999999999996
 31
0.0
  0
LINE
  5
18A
330
15A
100
AcDbEntity
  8
AM_9
100
AcDbLine
 10
3.578570053630942
 20
-0.6875000000000002
 30
0.0
 11
3.615424037877377
 21
-0.1604634710616188
 31
0.0
  0
LINE
  5
18B
330
15A
100
AcDbEntity
  8
AM_9
100
AcDbLine
 10
-3.615424037877377
 20
-0.1604634710616188
 30
0.0
 11
-3.578570053630942
 21
-0.6875000000000002
 31
0.0
  0
LINE
  5
18C
330
15A
100
AcDbEntity
  8
AM_9
100
AcDbLine
 10
-3.615424037877377
 20
-0.1604634710616188
 30
0.0
 11
-3.365073010064562
 21
-0.1604634710616187
 31
0.0
  0
LINE
  5
18D
330
15A
100
AcDbEntity
  8
AM_9
100
AcDbLine
 10
3.8203125
 20
-0.6874999999999997
 30
0.0
 11
3.8203125
 21
0.0000000000000002
 31
0.0
  0
LINE
  5
18E
330
15A
100
AcDbEntity
  8
AM_9
100
AcDbLine
 10
3.0703125
 20
0.0000000000000002
 30
0.0
 11
3.0703125
 21
-0.6874999999999997
 31
0.0
  0
LINE
  5
18F
330
15A
100
AcDbEntity
  8
AM_9
100
AcDbLine
 10
-3.0703125
 20
-0.6874999999999997
 30
0.0
 11
-3.0703125
 21
0.0000000000000002
 31
0.0
  0
LINE
  5
190
330
15A
100
AcDbEntity
  8
AM_9
100
AcDbLine
 10
-3.8203125
 20
0.0000000000000002
 30
0.0
 11
-3.8203125
 21
-0.6874999999999997
 31
0.0
  0
CIRCLE
  5
191
330
15A
100
AcDbEntity
  8
AM_9
100
AcDbCircle
 10
0.0
 20
-1.84375
 30
0.0
 40
0.8359375
  0
LINE
  5
192
330
15A
100
AcDbEntity
  8
AM_9
100
AcDbLine
 10
4.304572080317373
 20
-0.6874999999999999
 30
0.0
 11
4.304572080317373
 21
0.0000000000000002
 31
0.0
  0
LINE
  5
193
330
15A
100
AcDbEntity
  8
AM_9
100
AcDbLine
 10
-4.304572080317372
 20
-0.6874999999999999
 30
0.0
 11
-4.304572080317372
 21
0.0000000000000002
 31
0.0
  0
LINE
  5
194
330
15A
100
AcDbEntity
  8
AM_7
100
AcDbLine
 10
-0.8777343750000001
 20
-1.84375
 30
0.0
 11
0.8777343750000001
 21
-1.84375
 31
0.0
  0
LINE
  5
195
330
15A
100
AcDbEntity
  8
AM_7
100
AcDbLine
 10
3.4453125
 20
0.0343749999999998
 30
0.0
 11
3.4453125
 21
-0.7218750000000003
 31
0.0
  0
LINE
  5
196
330
15A
100
AcDbEntity
  8
AM_7
100
AcDbLine
 10
-3.4453125
 20
0.0343749999999998
 30
0.0
 11
-3.4453125
 21
-0.7218750000000003
 31
0.0
  0
ARC
  5
197
330
15A
100
AcDbEntity
  8
AM_4
100
AcDbCircle
 10
4.062500000000002
 20
-1.718749999999998
 30
0.0
 40
0.6874999999999982
100
AcDbArc
 50
0.0
 51
90.0
  0
LINE
  5
198
330
15A
100
AcDbEntity
  8
AM_4
100
AcDbLine
 10
4.75
 20
-2.31249998975545
 30
0.0
 11
4.75
 21
-1.71875
 31
0.0
  0
LINE
  5
199
330
15A
100
AcDbEntity
  8
AM_4
100
AcDbLine
 10
3.333535908240274
 20
-3.0
 30
0.0
 11
4.0625
 21
-3.0
 31
0.0
  0
ARC
  5
19A
330
15A
100
AcDbEntity
  8
AM_4
100
AcDbCircle
 10
4.0625
 20
-2.3125
 30
0.0
 40
0.6874999999999996
100
AcDbArc
 50
270.0
 51
0.0000008537736463
  0
LINE
  5
19B
330
15A
100
AcDbEntity
  8
AM_4
100
AcDbLine
 10
4.062500000000001
 20
-1.03125
 30
0.0
 11
3.474507562354464
 21
-1.03125
 31
0.0
  0
LINE
  5
19C
330
15A
100
AcDbEntity
  8
AM_4
100
AcDbLine
 10
-3.474507562354464
 20
-1.03125
 30
0.0
 11
-4.0625
 21
-1.03125
 31
0.0
  0
ARC
  5
19D
330
15A
100
AcDbEntity
  8
AM_4
100
AcDbCircle
 10
-4.062500000000001
 20
-1.718749999999998
 30
0.0
 40
0.6874999999999978
100
AcDbArc
 50
90.0
 51
180.0
  0
LINE
  5
19E
330
15A
100
AcDbEntity
  8
AM_4
100
AcDbLine
 10
-4.749999999999999
 20
-1.718749999999999
 30
0.0
 11
-4.75
 21
-2.312500000000001
 31
0.0
  0
ARC
  5
19F
330
15A
100
AcDbEntity
  8
AM_4
100
AcDbCircle
 10
-4.062500000000001
 20
-2.312500000000001
 30
0.0
 40
0.6874999999999991
100
AcDbArc
 50
180.0
 51
270.0
  0
LINE
  5
1A0
330
15A
100
AcDbEntity
  8
AM_4
100
AcDbLine
 10
-4.062500000000001
 20
-3.0
 30
0.0
 11
-3.333535908240274
 21
-3.0
 31
0.0
  0
LINE
  5
1A1
330
15A
100
AcDbEntity
  8
AM_4
100
AcDbLine
 10
4.060733204574817
 20
-1.582612298107783
 30
0.0
 11
3.685733204574817
 21
-1.79911864905389
 31
0.0
  0
LINE
  5
1A2
330
15A
100
AcDbEntity
  8
AM_4
100
AcDbLine
 10
4.435733204574817
 20
-1.79911864905389
 30
0.0
 11
4.060733204574817
 21
-1.582612298107783
 31
0.0
  0
LINE
  5
1A3
330
15A
100
AcDbEntity
  8
AM_4
100
AcDbLine
 10
3.685733204574817
 20
-2.23213135094611
 30
0.0
 11
4.060733204574817
 21
-2.44863770189222
 31
0.0
  0
LINE
  5
1A4
330
15A
100
AcDbEntity
  8
AM_4
100
AcDbLine
 10
3.685733204574817
 20
-1.79911864905389
 30
0.0
 11
3.685733204574817
 21
-2.23213135094611
 31
0.0
  0
LINE
  5
1A5
330
15A
100
AcDbEntity
  8
AM_4
100
AcDbLine
 10
4.435733204574817
 20
-2.23213135094611
 30
0.0
 11
4.435733204574817
 21
-1.79911864905389
 31
0.0
  0
LINE
  5
1A6
330
15A
100
AcDbEntity
  8
AM_4
100
AcDbLine
 10
4.060733204574817
 20
-2.44863770189222
 30
0.0
 11
4.435733204574817
 21
-2.23213135094611
 31
0.0
  0
LINE
  5
1A7
330
15A
100
AcDbEntity
  8
AM_4
100
AcDbLine
 10
-4.435733204574817
 20
-1.799118649053891
 30
0.0
 11
-4.435733204574817
 21
-2.23213135094611
 31
0.0
  0
LINE
  5
1A8
330
15A
100
AcDbEntity
  8
AM_4
100
AcDbLine
 10
-4.435733204574817
 20
-2.23213135094611
 30
0.0
 11
-4.060733204574817
 21
-2.44863770189222
 31
0.0
  0
LINE
  5
1A9
330
15A
100
AcDbEntity
  8
AM_4
100
AcDbLine
 10
-4.060733204574817
 20
-2.44863770189222
 30
0.0
 11
-3.685733204574817
 21
-2.23213135094611
 31
0.0
  0
LINE
  5
1AA
330
15A
100
AcDbEntity
  8
AM_4
100
AcDbLine
 10
-3.685733204574817
 20
-2.23213135094611
 30
0.0
 11
-3.685733204574817
 21
-1.799118649053891
 31
0.0
  0
LINE
  5
1AB
330
15A
100
AcDbEntity
  8
AM_4
100
AcDbLine
 10
-3.685733204574817
 20
-1.799118649053891
 30
0.0
 11
-4.060733204574817
 21
-1.582612298107781
 31
0.0
  0
LINE
  5
1AC
330
15A
100
AcDbEntity
  8
AM_4
100
AcDbLine
 10
-4.060733204574817
 20
-1.582612298107781
 30
0.0
 11
-4.435733204574817
 21
-1.799118649053891
 31
0.0
  0
LINE
  5
1AD
330
15A
100
AcDbEntity
  8
AM_4
100
AcDbLine
 10
-3.322888327945666
 20
-3.34375
 30
0.0
 11
3.322888327945518
 21
-3.34375
 31
0.0
  0
ARC
  5
1AE
330
15A
100
AcDbEntity
  8
AM_4
100
AcDbCircle
 10
3.322888327945667
 20
-3.26875
 30
0.0
 40
0.0750000000000002
100
AcDbArc
 50
270.0
 51
356.0000000000004
  0
ARC
  5
1AF
330
15A
100
AcDbEntity
  8
AM_4
100
AcDbCircle
 10
-3.322888327945667
 20
-3.26875
 30
0.0
 40
0.0750000000000008
100
AcDbArc
 50
183.9999999999995
 51
270.0
  0
LINE
  5
1B0
330
15A
100
AcDbEntity
  8
AM_4
100
AcDbLine
 10
-3.474507562354464
 20
-1.03125
 30
0.0
 11
-3.333535908240274
 21
-3.0
 31
0.0
  0
LINE
  5
1B1
330
15A
100
AcDbEntity
  8
AM_4
100
AcDbLine
 10
3.333535908240274
 20
-3.0
 30
0.0
 11
3.474507562354464
 21
-1.03125
 31
0.0
  0
LINE
  5
1B2
330
15A
100
AcDbEntity
  8
AM_4
100
AcDbLine
 10
-3.397705631715155
 20
-3.273981735530809
 30
0.0
 11
3.397705631715155
 21
-3.273981735530809
 31
0.0
  0
LINE
  5
1B3
330
15A
100
AcDbEntity
  8
AM_4
100
AcDbLine
 10
3.397705631715155
 20
-3.273981735530809
 30
0.0
 11
3.416864301011574
 21
-3.0
 31
0.0
  0
LINE
  5
1B4
330
15A
100
AcDbEntity
  8
AM_4
100
AcDbLine
 10
3.55453271202536
 20
-1.03125
 30
0.0
 11
3.578570053630942
 21
-0.6875000000000002
 31
0.0
  0
LINE
  5
1B5
330
15A
100
AcDbEntity
  8
AM_4
100
AcDbLine
 10
-3.578570053630942
 20
-0.6875000000000002
 30
0.0
 11
-3.55453271202536
 21
-1.03125
 31
0.0
  0
LINE
  5
1B6
330
15A
100
AcDbEntity
  8
AM_4
100
AcDbLine
 10
-3.416864301011574
 20
-3.0
 30
0.0
 11
-3.397705631715155
 21
-3.273981735530809
 31
0.0
  0
LINE
  5
1B7
330
15A
100
AcDbEntity
  8
AM_4
100
AcDbLine
 10
-1.321958626658408
 20
-0.1604634710616185
 30
0.0
 11
1.321958626658409
 21
-0.1604634710616185
 31
0.0
  0
ARC
  5
1B8
330
15A
100
AcDbEntity
  8
AM_4
100
AcDbCircle
 10
-0.5937499999999994
 20
-1.375000000000002
 30
0.0
 40
0.6875000000000026
100
AcDbArc
 50
90.0
 51
120.0
  0
LINE
  5
1B9
330
15A
100
AcDbEntity
  8
AM_4
100
AcDbLine
 10
-1.96875
 20
-2.114035844966066
 30
0.0
 11
-1.96875
 21
-1.573464155033932
 31
0.0
  0
LINE
  5
1BA
330
15A
100
AcDbEntity
  8
AM_4
100
AcDbLine
 10
0.5937500000000004
 20
-3.0
 30
0.0
 11
-0.5937500000000043
 21
-3.0
 31
0.0
  0
ARC
  5
1BB
330
15A
100
AcDbEntity
  8
AM_4
100
AcDbCircle
 10
0.5937499999999998
 20
-1.375000000000001
 30
0.0
 40
0.6875000000000014
100
AcDbArc
 50
60.0
 51
90.0
  0
LINE
  5
1BC
330
15A
100
AcDbEntity
  8
AM_4
100
AcDbLine
 10
0.9375000000000006
 20
-0.7796075348981983
 30
0.0
 11
1.796875
 21
-1.275767922483033
 31
0.0
  0
ARC
  5
1BD
330
15A
100
AcDbEntity
  8
AM_4
100
AcDbCircle
 10
1.624999999999999
 20
-1.573464155033934
 30
0.0
 40
0.3437500000000011
100
AcDbArc
 50
0.0
 51
59.99999999999986
  0
LINE
  5
1BE
330
15A
100
AcDbEntity
  8
AM_4
100
AcDbLine
 10
1.96875
 20
-1.573464155033933
 30
0.0
 11
1.96875
 21
-2.114035844966066
 31
0.0
  0
ARC
  5
1BF
330
15A
100
AcDbEntity
  8
AM_4
100
AcDbCircle
 10
0.5937500000000037
 20
-2.312500000000011
 30
0.0
 40
0.6874999999999885
100
AcDbArc
 50
270.0
 51
300.0000000000002
  0
LINE
  5
1C0
330
15A
100
AcDbEntity
  8
AM_4
100
AcDbLine
 10
1.796875
 20
-2.411732077516966
 30
0.0
 11
0.9375
 21
-2.907892465101801
 31
0.0
  0
LINE
  5
1C1
330
15A
100
AcDbEntity
  8
AM_4
100
AcDbLine
 10
-0.9375000000000002
 20
-2.907892465101801
 30
0.0
 11
-1.796875
 21
-2.411732077516966
 31
0.0
  0
ARC
  5
1C2
330
15A
100
AcDbEntity
  8
AM_4
100
AcDbCircle
 10
-1.625000000000002
 20
-2.114035844966068
 30
0.0
 40
0.3437499999999973
100
AcDbArc
 50
180.0
 51
240.0000000000001
  0
ARC
  5
1C3
330
15A
100
AcDbEntity
  8
AM_4
100
AcDbCircle
 10
-0.5937500000000026
 20
-2.312500000000007
 30
0.0
 40
0.6874999999999926
100
AcDbArc
 50
239.9999999999999
 51
270.0
  0
LINE
  5
1C4
330
15A
100
AcDbEntity
  8
AM_4
100
AcDbLine
 10
0.5937500000000013
 20
-0.6874999999999997
 30
0.0
 11
-0.5937499999999986
 21
-0.6874999999999997
 31
0.0
  0
LINE
  5
1C5
330
15A
100
AcDbEntity
  8
AM_4
100
AcDbLine
 10
-1.796875
 20
-1.275767922483033
 30
0.0
 11
-0.9375000000000002
 21
-0.7796075348981981
 31
0.0
  0
ARC
  5
1C6
330
15A
100
AcDbEntity
  8
AM_4
100
AcDbCircle
 10
-1.625000000000002
 20
-1.573464155033932
 30
0.0
 40
0.343749999999998
100
AcDbArc
 50
119.9999999999999
 51
180.0
  0
ARC
  5
1C7
330
15A
100
AcDbEntity
  8
AM_4
100
AcDbCircle
 10
1.625000000000001
 20
-2.114035844966066
 30
0.0
 40
0.3437499999999991
100
AcDbArc
 50
300.0
 51
0.0
  0
LINE
  5
1C8
330
15A
100
AcDbEntity
  8
AM_4
100
AcDbLine
 10
0.8153063102043172
 20
-2.659056310204316
 30
0.0
 11
1.394173790449381
 21
-2.080188829959251
 31
0.0
  0
ARC
  5
1C9
330
15A
100
AcDbEntity
  8
AM_4
100
AcDbCircle
 10
-1.157734960490129
 20
-1.84375
 30
0.0
 40
0.334375
100
AcDbArc
 50
135.0000000000001
 51
225.0000000000001
  0
ARC
  5
1CA
330
15A
100
AcDbEntity
  8
AM_4
100
AcDbCircle
 10
0.0000000000000003
 20
-1.843749999999998
 30
0.0
 40
1.153017241379312
100
AcDbArc
 50
225.0
 51
314.9999999999999
  0
ARC
  5
1CB
330
15A
100
AcDbEntity
  8
AM_4
100
AcDbCircle
 10
1.15773496049013
 20
-1.843749999999999
 30
0.0
 40
0.3343749999999995
100
AcDbArc
 50
314.9999999999998
 51
45.00000000000003
  0
LINE
  5
1CC
330
15A
100
AcDbEntity
  8
AM_4
100
AcDbLine
 10
-1.394173790449381
 20
-2.080188829959252
 30
0.0
 11
-0.8153063102043169
 21
-2.659056310204316
 31
0.0
  0
ARC
  5
1CD
330
15A
100
AcDbEntity
  8
AM_4
100
AcDbCircle
 10
0.0000000000000001
 20
-1.843750000000001
 30
0.0
 40
1.153017241379311
100
AcDbArc
 50
45.00000000000008
 51
135.0
  0
LINE
  5
1CE
330
15A
100
AcDbEntity
  8
AM_4
100
AcDbLine
 10
1.394173790449382
 20
-1.607311170040748
 30
0.0
 11
0.815306310204316
 21
-1.028443689795683
 31
0.0
  0
LINE
  5
1CF
330
15A
100
AcDbEntity
  8
AM_4
100
AcDbLine
 10
-0.8153063102043165
 20
-1.028443689795683
 30
0.0
 11
-1.394173790449381
 21
-1.607311170040748
 31
0.0
  0
LINE
  5
1D0
330
15A
100
AcDbEntity
  8
AM_4
100
AcDbLine
 10
4.437499999999999
 20
-0.6874999999999997
 30
0.0
 11
1.281012151421813
 21
-0.6874999999999996
 31
0.0
  0
LINE
  5
1D1
330
15A
100
AcDbEntity
  8
AM_4
100
AcDbLine
 10
1.281012151421813
 20
-0.6874999999999996
 30
0.0
 11
1.321958626658409
 21
-0.1604634710616185
 31
0.0
  0
LWPOLYLINE
  5
1D2
330
15A
100
AcDbEntity
  8
AM_4
100
AcDbPolyline
 90
       11
 70
     0
 43
0.0
 10
1.15391603394476
 20
0.0000000000000005
 10
1.184665660335846
 20
-0.002464313357555
 10
1.214788988184539
 20
-0.0099432526565725
 10
1.242170794063228
 20
-0.0219152274802148
 10
1.267500556721961
 20
-0.038802626442132
 10
1.285242575616705
 20
-0.0556238538294728
 10
1.300392076064141
 20
-0.0755034304251798
 10
1.310434659300747
 20
-0.0942388596710253
 10
1.317672013370025
 20
-0.1146085984377642
 10
1.321741296713275
 20
-0.1372993585168306
 10
1.321958626658409
 20
-0.1604634710616185
  0
LINE
  5
1D3
330
15A
100
AcDbEntity
  8
AM_4
100
AcDbLine
 10
-1.281012151421812
 20
-0.6874999999999996
 30
0.0
 11
-4.4375
 21
-0.6874999999999997
 31
0.0
  0
LINE
  5
1D4
330
15A
100
AcDbEntity
  8
AM_4
100
AcDbLine
 10
-1.321958626658408
 20
-0.1604634710616185
 30
0.0
 11
-1.281012151421812
 21
-0.6874999999999996
 31
0.0
  0
LWPOLYLINE
  5
1D5
330
15A
100
AcDbEntity
  8
AM_4
100
AcDbPolyline
 90
       12
 70
     0
 43
0.0
 10
-1.321958626658408
 20
-0.1604634710616185
 10
-1.321994684563139
 20
-0.1400130746459394
 10
-1.31883051886166
 20
-0.1192322573227852
 10
-1.312851608362012
 20
-0.099987062368736
 10
-1.304068066030631
 20
-0.0816101746491456
 10
-1.292691088644242
 20
-0.0645297917766661
 10
-1.279070091891563
 20
-0.0491516293921994
 10
-1.256847871513984
 20
-0.0308690484933917
 10
-1.231626082864385
 20
-0.0166369773660376
 10
-1.198871675490158
 20
-0.0053228365166471
 10
-1.163969846798332
 20
-0.0002600605753423
 10
-1.153916033944759
 20
0.0000000000000005
  0
LINE
  5
1D6
330
15A
100
AcDbEntity
  8
AM_4
100
AcDbLine
 10
-1.048783625504724
 20
-1.74722425186986
 30
0.0
 11
-1.215971125504724
 21
-1.650698503739719
 31
0.0
  0
LINE
  5
1D7
330
15A
100
AcDbEntity
  8
AM_4
100
AcDbLine
 10
-1.215971125504724
 20
-1.650698503739719
 30
0.0
 11
-1.383158625504724
 21
-1.74722425186986
 31
0.0
  0
LINE
  5
1D8
330
15A
100
AcDbEntity
  8
AM_4
100
AcDbLine
 10
-1.048783625504724
 20
-1.94027574813014
 30
0.0
 11
-1.048783625504724
 21
-1.74722425186986
 31
0.0
  0
LINE
  5
1D9
330
15A
100
AcDbEntity
  8
AM_4
100
AcDbLine
 10
-1.383158625504724
 20
-1.74722425186986
 30
0.0
 11
-1.383158625504724
 21
-1.94027574813014
 31
0.0
  0
LINE
  5
1DA
330
15A
100
AcDbEntity
  8
AM_4
100
AcDbLine
 10
-1.383158625504724
 20
-1.94027574813014
 30
0.0
 11
-1.215971125504724
 21
-2.036801496260281
 31
0.0
  0
LINE
  5
1DB
330
15A
100
AcDbEntity
  8
AM_4
100
AcDbLine
 10
-1.215971125504724
 20
-2.036801496260281
 30
0.0
 11
-1.048783625504724
 21
-1.94027574813014
 31
0.0
  0
LINE
  5
1DC
330
15A
100
AcDbEntity
  8
AM_4
100
AcDbLine
 10
1.383158625504724
 20
-1.747224251869859
 30
0.0
 11
1.215971125504724
 21
-1.650698503739718
 31
0.0
  0
LINE
  5
1DD
330
15A
100
AcDbEntity
  8
AM_4
100
AcDbLine
 10
1.215971125504724
 20
-1.650698503739718
 30
0.0
 11
1.048783625504724
 21
-1.747224251869859
 31
0.0
  0
LINE
  5
1DE
330
15A
100
AcDbEntity
  8
AM_4
100
AcDbLine
 10
1.048783625504724
 20
-1.747224251869859
 30
0.0
 11
1.048783625504724
 21
-1.94027574813014
 31
0.0
  0
LINE
  5
1DF
330
15A
100
AcDbEntity
  8
AM_4
100
AcDbLine
 10
1.048783625504724
 20
-1.94027574813014
 30
0.0
 11
1.215971125504724
 21
-2.036801496260281
 31
0.0
  0
LINE
  5
1E0
330
15A
100
AcDbEntity
  8
AM_4
100
AcDbLine
 10
1.215971125504724
 20
-2.036801496260281
 30
0.0
 11
1.383158625504724
 21
-1.94027574813014
 31
0.0
  0
LINE
  5
1E1
330
15A
100
AcDbEntity
  8
AM_4
100
AcDbLine
 10
1.383158625504724
 20
-1.94027574813014
 30
0.0
 11
1.383158625504724
 21
-1.747224251869859
 31
0.0
  0
LINE
  5
1E2
330
15A
100
AcDbEntity
  8
AM_4
100
AcDbLine
 10
2.94921875
 20
-0.6874999999999997
 30
0.0
 11
2.94921875
 21
0.0000000000000003
 31
0.0
  0
LINE
  5
1E3
330
15A
100
AcDbEntity
  8
AM_4
100
AcDbLine
 10
4.437499999999999
 20
-0.6874999999999997
 30
0.0
 11
4.437499999999999
 21
0.0000000000000002
 31
0.0
  0
LINE
  5
1E4
330
15A
100
AcDbEntity
  8
AM_4
100
AcDbLine
 10
4.437499999999999
 20
0.0000000000000002
 30
0.0
 11
-4.4375
 21
0.0000000000000002
 31
0.0
  0
LINE
  5
1E5
330
15A
100
AcDbEntity
  8
AM_4
100
AcDbLine
 10
-2.949218749999998
 20
-0.6874999999999997
 30
0.0
 11
-2.949218749999998
 21
0.0000000000000003
 31
0.0
  0
LINE
  5
1E6
330
15A
100
AcDbEntity
  8
AM_4
100
AcDbLine
 10
-4.4375
 20
0.0000000000000002
 30
0.0
 11
-4.4375
 21
-0.6874999999999997
 31
0.0
  0
ENDBLK
  5
15D
330
15A
100
AcDbEntity
  8
0
100
AcDbBlockEnd
  0
ENDSEC
  0
SECTION
  2
ENTITIES
  0
INSERT
  5
6F
330
1F
100
AcDbEntity
  8
0
100
AcDbBlockReference
  2
1_023228_4
 10
0.0
 20
0.0
 30
0.0
  0
POINT
  5
1E8
330
1F
100
AcDbEntity
  8
ConnectionPoints
100
AcDbPoint
 10
0.0
 20
-1.75
 30
3.82425
  0
POINT
  5
1E9
330
1F
100
AcDbEntity
  8
ConnectionPoints
100
AcDbPoint
 10
0.0
 20
-1.75
 30
3.82425
  0
POINT
  5
1EA
330
1F
100
AcDbEntity
  8
ConnectionPoints
100
AcDbPoint
 10
0.0
 20
-1.75
 30
0.0000000000000001
  0
POINT
  5
1EB
330
1F
100
AcDbEntity
  8
ConnectionPoints
100
AcDbPoint
 10
0.0
 20
-4.0
 30
0.0000000000000002
  0
POINT
  5
1EC
330
1F
100
AcDbEntity
  8
ConnectionPoints
100
AcDbPoint
 10
0.0
 20
0.1259999999999999
 30
0.0
  0
POINT
  5
1ED
330
1F
100
AcDbEntity
  8
ConnectionPoints
100
AcDbPoint
 10
0.0
 20
-4.0
 30
0.0000000000000002
  0
ENDSEC
  0
SECTION
  2
OBJECTS
  0
DICTIONARY
  5
C
330
0
100
AcDbDictionary
281
     1
  3
ACAD_DETAILVIEWSTYLE
350
1F5
  3
ACAD_GROUP
350
D
  3
ACAD_LAYOUT
350
1A
  3
ACAD_MATERIAL
350
43
  3
ACAD_MLEADERSTYLE
350
6B
  3
ACAD_MLINESTYLE
350
17
  3
ACAD_PLOTSETTINGS
350
19
  3
ACAD_PLOTSTYLENAME
350
E
  3
ACAD_SCALELIST
350
47
  3
ACAD_SECTIONVIEWSTYLE
350
1F6
  3
ACAD_TABLESTYLE
350
69
  3
ACAD_VISUALSTYLE
350
2A
  3
ACDB_RECOMPOSE_DATA
350
1F2
  3
AcDbVariableDictionary
350
1EE
  0
SUN
  5
6D
330
29
100
AcDbSun
 90
        1
290
     0
 63
     7
421
 16777215
 40
1.0
291
     1
 91
  2455826
 92
 54000000
292
     0
 70
     2
 71
   256
280
     1
  0
DICTIONARY
  5
1F5
102
{ACAD_REACTORS
330
C
102
}
330
C
100
AcDbDictionary
281
     1
  0
DICTIONARY
  5
D
102
{ACAD_REACTORS
330
C
102
}
330
C
100
AcDbDictionary
281
     1
  0
DICTIONARY
  5
1A
102
{ACAD_REACTORS
330
C
102
}
330
C
100
AcDbDictionary
281
     1
  3
Layout1
350
1E
  3
Layout2
350
26
  3
Model
350
22
  0
DICTIONARY
  5
43
102
{ACAD_REACTORS
330
C
102
}
330
C
100
AcDbDictionary
281
     1
  3
ByBlock
350
45
  3
ByLayer
350
44
  3
Global
350
46
  0
DICTIONARY
  5
6B
102
{ACAD_REACTORS
330
C
102
}
330
C
100
AcDbDictionary
281
     1
  3
Standard
350
6C
  0
DICTIONARY
  5
17
102
{ACAD_REACTORS
330
C
102
}
330
C
100
AcDbDictionary
281
     1
  3
Standard
350
18
  0
DICTIONARY
  5
19
102
{ACAD_REACTORS
330
C
102
}
330
C
100
AcDbDictionary
281
     1
  0
ACDBDICTIONARYWDFLT
  5
E
102
{ACAD_REACTORS
330
C
102
}
330
C
100
AcDbDictionary
281
     1
  3
Normal
350
F
100
AcDbDictionaryWithDefault
340
F
  0
DICTIONARY
  5
47
102
{ACAD_REACTORS
330
C
102
}
330
C
100
AcDbDictionary
281
     1
  3
A0
350
48
  3
A1
350
49
  3
A2
350
4A
  3
A3
350
4B
  3
A4
350
4C
  3
A5
350
4D
  3
A6
350
4E
  3
A7
350
4F
  3
A8
350
50
  3
A9
350
51
  3
B0
350
52
  3
B1
350
53
  3
B2
350
54
  3
B3
350
55
  3
B4
350
56
  3
B5
350
57
  3
B6
350
58
  3
B7
350
59
  3
B8
350
5A
  3
B9
350
5B
  3
C0
350
5C
  3
C1
350
5D
  3
C2
350
5E
  3
C3
350
5F
  3
C4
350
60
  3
C5
350
61
  3
C6
350
62
  3
C7
350
63
  3
C8
350
64
  3
C9
350
65
  3
D0
350
66
  3
D1
350
67
  3
D2
350
68
  0
DICTIONARY
  5
1F6
102
{ACAD_REACTORS
330
C
102
}
330
C
100
AcDbDictionary
281
     1
  0
DICTIONARY
  5
69
102
{ACAD_REACTORS
330
C
102
}
330
C
100
AcDbDictionary
281
     1
  3
Standard
350
6A
  0
DICTIONARY
  5
2A
102
{ACAD_REACTORS
330
C
102
}
330
C
100
AcDbDictionary
281
     1
  3
2dWireframe
350
2F
  3
Basic
350
32
  3
Brighten
350
36
  3
ColorChange
350
3A
  3
Conceptual
350
34
  3
Dim
350
35
  3
EdgeColorOff
350
3D
  3
Facepattern
350
39
  3
Flat
350
2B
  3
FlatWithEdges
350
2C
  3
Gouraud
350
2D
  3
GouraudWithEdges
350
2E
  3
Hidden
350
31
  3
JitterOff
350
3B
  3
Linepattern
350
38
  3
OverhangOff
350
3C
  3
Realistic
350
33
  3
Shaded
350
42
  3
Shaded with edges
350
41
  3
Shades of Gray
350
3E
  3
Sketchy
350
3F
  3
Thicken
350
37
  3
Wireframe
350
30
  3
X-Ray
350
40
  0
XRECORD
  5
1F2
102
{ACAD_REACTORS
330
C
102
}
330
C
100
AcDbXrecord
280
     1
 90
        1
330
6A
  0
DICTIONARY
  5
1EE
102
{ACAD_REACTORS
330
C
102
}
330
C
100
AcDbDictionary
281
     1
  3
CANNOSCALE
350
1EF
  3
CMLEADERSTYLE
350
1F4
  3
CTABLESTYLE
350
1F3
  0
LAYOUT
  5
1E
102
{ACAD_REACTORS
330
1A
102
}
330
1A
100
AcDbPlotSettings
  1

  2
none_device
  4

  6

 40
0.0
 41
0.0
 42
0.0
 43
0.0
 44
0.0
 45
0.0
 46
0.0
 47
0.0
 48
0.0
 49
0.0
140
0.0
141
0.0
142
1.0
143
1.0
 70
   688
 72
     0
 73
     0
 74
     5
  7

 75
    16
 76
     0
 77
     2
 78
   300
147
1.0
148
0.0
149
0.0
100
AcDbLayout
  1
Layout1
 70
     1
 71
     1
 10
0.0
 20
0.0
 11
12.0
 21
9.0
 12
0.0
 22
0.0
 32
0.0
 14
1.000000000000000E+20
 24
1.000000000000000E+20
 34
1.000000000000000E+20
 15
-1.000000000000000E+20
 25
-1.000000000000000E+20
 35
-1.000000000000000E+20
146
0.0
 13
0.0
 23
0.0
 33
0.0
 16
1.0
 26
0.0
 36
0.0
 17
0.0
 27
1.0
 37
0.0
 76
     0
330
1B
  0
LAYOUT
  5
26
102
{ACAD_REACTORS
330
1A
102
}
330
1A
100
AcDbPlotSettings
  1

  2
none_device
  4

  6

 40
0.0
 41
0.0
 42
0.0
 43
0.0
 44
0.0
 45
0.0
 46
0.0
 47
0.0
 48
0.0
 49
0.0
140
0.0
141
0.0
142
1.0
143
1.0
 70
   688
 72
     0
 73
     0
 74
     5
  7

 75
    16
 76
     0
 77
     2
 78
   300
147
1.0
148
0.0
149
0.0
100
AcDbLayout
  1
Layout2
 70
     1
 71
     2
 10
0.0
 20
0.0
 11
0.0
 21
0.0
 12
0.0
 22
0.0
 32
0.0
 14
0.0
 24
0.0
 34
0.0
 15
0.0
 25
0.0
 35
0.0
146
0.0
 13
0.0
 23
0.0
 33
0.0
 16
1.0
 26
0.0
 36
0.0
 17
0.0
 27
1.0
 37
0.0
 76
     0
330
23
  0
LAYOUT
  5
22
102
{ACAD_REACTORS
330
1A
102
}
330
1A
100
AcDbPlotSettings
  1

  2
none_device
  4
Letter_(8.50_x_11.00_Inches)
  6

 40
6.35
 41
6.35
 42
6.35000508
 43
6.35000508
 44
215.9
 45
279.4
 46
0.0
 47
0.0
 48
0.0
 49
0.0
140
0.0
141
0.0
142
1.0
143
1.0
 70
  1712
 72
     0
 73
     0
 74
     0
  7

 75
     0
 76
     0
 77
     2
 78
   300
147
1.0
148
0.0
149
0.0
100
AcDbLayout
  1
Model
 70
     1
 71
     0
 10
0.0
 20
0.0
 11
12.0
 21
9.0
 12
0.0
 22
0.0
 32
0.0
 14
1.000000000000000E+20
 24
1.000000000000000E+20
 34
1.000000000000000E+20
 15
-1.000000000000000E+20
 25
-1.000000000000000E+20
 35
-1.000000000000000E+20
146
0.0
 13
0.0
 23
0.0
 33
0.0
 16
1.0
 26
0.0
 36
0.0
 17
0.0
 27
1.0
 37
0.0
 76
     0
330
1F
331
29
  0
MATERIAL
  5
45
102
{ACAD_REACTORS
330
43
102
}
330
43
100
AcDbMaterial
  1
ByBlock
 72
     1
 94
      127
  0
MATERIAL
  5
44
102
{ACAD_REACTORS
330
43
102
}
330
43
100
AcDbMaterial
  1
ByLayer
 72
     1
 94
      127
  0
MATERIAL
  5
46
102
{ACAD_REACTORS
330
43
102
}
330
43
100
AcDbMaterial
  1
Global
 72
     1
 94
      127
  0
MLEADERSTYLE
  5
6C
102
{ACAD_REACTORS
330
6B
102
}
330
6B
100
AcDbMLeaderStyle
179
     2
170
     2
171
     1
172
     0
 90
        2
 40
0.0
 41
0.0
173
     1
 91
-1056964608
340
14
 92
       -2
290
     1
 42
0.09
291
     1
 43
0.36
  3
Standard
341
0
 44
0.18
300

342
11
174
     1
178
     6
175
     1
176
     0
 93
-1056964608
 45
0.18
292
     0
297
     0
 46
0.18
343
0
 94
-1056964608
 47
1.0
 49
1.0
140
1.0
293
     1
141
0.0
294
     1
177
     0
142
1.0
295
     0
296
     0
143
0.125
271
     0
272
     9
273
     9
298
     0
  0
MLINESTYLE
  5
18
102
{ACAD_REACTORS
330
17
102
}
330
17
100
AcDbMlineStyle
  2
Standard
 70
     0
  3

 62
   256
 51
90.0
 52
90.0
 71
     2
 49
0.5
 62
   256
  6
BYLAYER
 49
-0.5
 62
   256
  6
BYLAYER
  0
ACDBPLACEHOLDER
  5
F
102
{ACAD_REACTORS
330
E
102
}
330
E
  0
SCALE
  5
48
102
{ACAD_REACTORS
330
47
102
}
330
47
100
AcDbScale
 70
     0
300
1:1
140
1.0
141
1.0
290
     1
  0
SCALE
  5
49
102
{ACAD_REACTORS
330
47
102
}
330
47
100
AcDbScale
 70
     0
300
1:2
140
1.0
141
2.0
290
     0
  0
SCALE
  5
4A
102
{ACAD_REACTORS
330
47
102
}
330
47
100
AcDbScale
 70
     0
300
1:4
140
1.0
141
4.0
290
     0
  0
SCALE
  5
4B
102
{ACAD_REACTORS
330
47
102
}
330
47
100
AcDbScale
 70
     0
300
1:5
140
1.0
141
5.0
290
     0
  0
SCALE
  5
4C
102
{ACAD_REACTORS
330
47
102
}
330
47
100
AcDbScale
 70
     0
300
1:8
140
1.0
141
8.0
290
     0
  0
SCALE
  5
4D
102
{ACAD_REACTORS
330
47
102
}
330
47
100
AcDbScale
 70
     0
300
1:10
140
1.0
141
10.0
290
     0
  0
SCALE
  5
4E
102
{ACAD_REACTORS
330
47
102
}
330
47
100
AcDbScale
 70
     0
300
1:16
140
1.0
141
16.0
290
     0
  0
SCALE
  5
4F
102
{ACAD_REACTORS
330
47
102
}
330
47
100
AcDbScale
 70
     0
300
1:20
140
1.0
141
20.0
290
     0
  0
SCALE
  5
50
102
{ACAD_REACTORS
330
47
102
}
330
47
100
AcDbScale
 70
     0
300
1:30
140
1.0
141
30.0
290
     0
  0
SCALE
  5
51
102
{ACAD_REACTORS
330
47
102
}
330
47
100
AcDbScale
 70
     0
300
1:40
140
1.0
141
40.0
290
     0
  0
SCALE
  5
52
102
{ACAD_REACTORS
330
47
102
}
330
47
100
AcDbScale
 70
     0
300
1:50
140
1.0
141
50.0
290
     0
  0
SCALE
  5
53
102
{ACAD_REACTORS
330
47
102
}
330
47
100
AcDbScale
 70
     0
300
1:100
140
1.0
141
100.0
290
     0
  0
SCALE
  5
54
102
{ACAD_REACTORS
330
47
102
}
330
47
100
AcDbScale
 70
     0
300
2:1
140
2.0
141
1.0
290
     0
  0
SCALE
  5
55
102
{ACAD_REACTORS
330
47
102
}
330
47
100
AcDbScale
 70
     0
300
4:1
140
4.0
141
1.0
290
     0
  0
SCALE
  5
56
102
{ACAD_REACTORS
330
47
102
}
330
47
100
AcDbScale
 70
     0
300
8:1
140
8.0
141
1.0
290
     0
  0
SCALE
  5
57
102
{ACAD_REACTORS
330
47
102
}
330
47
100
AcDbScale
 70
     0
300
10:1
140
10.0
141
1.0
290
     0
  0
SCALE
  5
58
102
{ACAD_REACTORS
330
47
102
}
330
47
100
AcDbScale
 70
     0
300
100:1
140
100.0
141
1.0
290
     0
  0
SCALE
  5
59
102
{ACAD_REACTORS
330
47
102
}
330
47
100
AcDbScale
 70
     0
300
1/128" = 1'-0"
140
0.0078125
141
12.0
290
     0
  0
SCALE
  5
5A
102
{ACAD_REACTORS
330
47
102
}
330
47
100
AcDbScale
 70
     0
300
1/64" = 1'-0"
140
0.015625
141
12.0
290
     0
  0
SCALE
  5
5B
102
{ACAD_REACTORS
330
47
102
}
330
47
100
AcDbScale
 70
     0
300
1/32" = 1'-0"
140
0.03125
141
12.0
290
     0
  0
SCALE
  5
5C
102
{ACAD_REACTORS
330
47
102
}
330
47
100
AcDbScale
 70
     0
300
1/16" = 1'-0"
140
0.0625
141
12.0
290
     0
  0
SCALE
  5
5D
102
{ACAD_REACTORS
330
47
102
}
330
47
100
AcDbScale
 70
     0
300
3/32" = 1'-0"
140
0.09375
141
12.0
290
     0
  0
SCALE
  5
5E
102
{ACAD_REACTORS
330
47
102
}
330
47
100
AcDbScale
 70
     0
300
1/8" = 1'-0"
140
0.125
141
12.0
290
     0
  0
SCALE
  5
5F
102
{ACAD_REACTORS
330
47
102
}
330
47
100
AcDbScale
 70
     0
300
3/16" = 1'-0"
140
0.1875
141
12.0
290
     0
  0
SCALE
  5
60
102
{ACAD_REACTORS
330
47
102
}
330
47
100
AcDbScale
 70
     0
300
1/4" = 1'-0"
140
0.25
141
12.0
290
     0
  0
SCALE
  5
61
102
{ACAD_REACTORS
330
47
102
}
330
47
100
AcDbScale
 70
     0
300
3/8" = 1'-0"
140
0.375
141
12.0
290
     0
  0
SCALE
  5
62
102
{ACAD_REACTORS
330
47
102
}
330
47
100
AcDbScale
 70
     0
300
1/2" = 1'-0"
140
0.5
141
12.0
290
     0
  0
SCALE
  5
63
102
{ACAD_REACTORS
330
47
102
}
330
47
100
AcDbScale
 70
     0
300
3/4" = 1'-0"
140
0.75
141
12.0
290
     0
  0
SCALE
  5
64
102
{ACAD_REACTORS
330
47
102
}
330
47
100
AcDbScale
 70
     0
300
1" = 1'-0"
140
1.0
141
12.0
290
     0
  0
SCALE
  5
65
102
{ACAD_REACTORS
330
47
102
}
330
47
100
AcDbScale
 70
     0
300
1-1/2" = 1'-0"
140
1.5
141
12.0
290
     0
  0
SCALE
  5
66
102
{ACAD_REACTORS
330
47
102
}
330
47
100
AcDbScale
 70
     0
300
3" = 1'-0"
140
3.0
141
12.0
290
     0
  0
SCALE
  5
67
102
{ACAD_REACTORS
330
47
102
}
330
47
100
AcDbScale
 70
     0
300
6" = 1'-0"
140
6.0
141
12.0
290
     0
  0
SCALE
  5
68
102
{ACAD_REACTORS
330
47
102
}
330
47
100
AcDbScale
 70
     0
300
1'-0" = 1'-0"
140
12.0
141
12.0
290
     0
  0
TABLESTYLE
  5
6A
102
{ACAD_REACTORS
330
69
102
}
102
{ACAD_XDICTIONARY
360
1F0
102
}
330
69
100
AcDbTableStyle
  3
Standard
 70
     0
 71
     0
 40
0.06
 41
0.06
280
     0
281
     0
  7
Standard
140
0.18
170
     2
 62
     0
 63
   257
283
     0
 90
        4
 91
        0
  1

274
    -2
284
     1
 64
     0
275
    -2
285
     1
 65
     0
276
    -2
286
     1
 66
     0
277
    -2
287
     1
 67
     0
278
    -2
288
     1
 68
     0
279
    -2
289
     1
 69
     0
  7
Standard
140
0.25
170
     5
 62
     0
 63
   257
283
     0
 90
        4
 91
        0
  1

274
    -2
284
     1
 64
     0
275
    -2
285
     1
 65
     0
276
    -2
286
     1
 66
     0
277
    -2
287
     1
 67
     0
278
    -2
288
     1
 68
     0
279
    -2
289
     1
 69
     0
  7
Standard
140
0.18
170
     5
 62
     0
 63
   257
283
     0
 90
        4
 91
        0
  1

274
    -2
284
     1
 64
     0
275
    -2
285
     1
 65
     0
276
    -2
286
     1
 66
     0
277
    -2
287
     1
 67
     0
278
    -2
288
     1
 68
     0
279
    -2
289
     1
 69
     0
  0
VISUALSTYLE
  5
2F
102
{ACAD_REACTORS
330
2A
102
}
330
2A
100
AcDbVisualStyle
  2
2dWireframe
 70
     4
177
     3
291
     0
 70
    58
 90
        0
176
     1
 90
        2
176
     1
 90
        0
176
     1
 90
        0
176
     1
 40
0.6
176
     1
 40
30.0
176
     1
 62
     7
420
 16777215
176
     1
 90
        1
176
     1
 90
        4
176
     1
 62
     7
176
     1
 62
   257
176
     1
 90
        1
176
     1
 90
        1
176
     1
 40
1.0
176
     1
 90
        0
176
     1
 62
   257
176
     1
 40
1.0
176
     1
 90
        1
176
     1
 90
        6
176
     1
 90
        2
176
     1
 62
     7
176
     1
 90
        5
176
     1
 90
        0
176
     1
 90
        0
176
     1
290
     0
176
     1
 90
        1
176
     1
 40
0.0
176
     1
 90
        0
176
     1
290
     1
176
     1
290
     1
176
     1
290
     0
176
     1
290
     0
176
     1
290
     0
176
     1
290
     0
176
     1
290
     0
176
     1
290
     0
176
     1
290
     0
176
     1
 90
       50
176
     1
 40
0.0
176
     1
 40
1.0
176
     1
 90
        0
176
     1
 62
    18
420
        0
176
     1
 90
       50
176
     1
 90
        3
176
     1
 62
     5
420
      255
176
     1
290
     0
176
     1
 90
       50
176
     1
 90
       50
176
     1
 90
       50
176
     1
290
     0
176
     1
 90
       50
176
     1
 62
   256
176
     0
 40
1.0
176
     0
 90
        2
176
     1
  1
strokes_ogs.tif
176
     1
290
     0
176
     1
 40
1.0
176
     1
 40
1.0
176
     1
  0
VISUALSTYLE
  5
32
102
{ACAD_REACTORS
330
2A
102
}
330
2A
100
AcDbVisualStyle
  2
Basic
 70
     7
177
     3
291
     1
 70
    58
 90
        1
176
     1
 90
        0
176
     1
 90
        1
176
     1
 90
        0
176
     1
 40
0.6
176
     1
 40
30.0
176
     1
 62
     7
420
 16777215
176
     1
 90
        0
176
     1
 90
        4
176
     1
 62
     7
176
     1
 62
   257
176
     1
 90
        1
176
     1
 90
        1
176
     1
 40
1.0
176
     1
 90
        8
176
     1
 62
     7
176
     1
 40
1.0
176
     1
 90
        1
176
     1
 90
        6
176
     1
 90
        2
176
     1
 62
     7
176
     1
 90
        5
176
     1
 90
        0
176
     1
 90
        0
176
     1
290
     0
176
     1
 90
        1
176
     1
 40
0.0
176
     1
 90
        0
176
     1
290
     0
176
     1
290
     1
176
     1
290
     1
176
     1
290
     0
176
     1
290
     0
176
     1
290
     0
176
     1
290
     0
176
     1
290
     0
176
     1
290
     0
176
     1
 90
       50
176
     1
 40
0.0
176
     1
 40
1.0
176
     1
 90
        0
176
     1
 62
    18
420
        0
176
     1
 90
       50
176
     1
 90
        3
176
     1
 62
     5
420
      255
176
     1
290
     0
176
     1
 90
       50
176
     1
 90
       50
176
     1
 90
       50
176
     1
290
     0
176
     1
 90
       50
176
     1
 62
   256
176
     0
 40
1.0
176
     0
 90
        2
176
     1
  1
strokes_ogs.tif
176
     1
290
     0
176
     1
 40
1.0
176
     1
 40
1.0
176
     1
  0
VISUALSTYLE
  5
36
102
{ACAD_REACTORS
330
2A
102
}
330
2A
100
AcDbVisualStyle
  2
Brighten
 70
    12
177
     3
291
     1
 70
    58
 90
        2
176
     1
 90
        2
176
     1
 90
        0
176
     1
 90
        0
176
     1
 40
0.6
176
     1
 40
30.0
176
     1
 62
     7
420
 16777215
176
     1
 90
        1
176
     1
 90
        4
176
     1
 62
     7
176
     1
 62
   257
176
     1
 90
        1
176
     1
 90
        1
176
     1
 40
1.0
176
     1
 90
        8
176
     1
 62
     7
176
     1
 40
1.0
176
     1
 90
        1
176
     1
 90
        6
176
     1
 90
        2
176
     1
 62
     7
176
     1
 90
        5
176
     1
 90
        0
176
     1
 90
        0
176
     1
290
     0
176
     1
 90
        1
176
     1
 40
50.0
176
     1
 90
        0
176
     1
290
     0
176
     1
290
     1
176
     1
290
     1
176
     1
290
     0
176
     1
290
     0
176
     1
290
     0
176
     1
290
     0
176
     1
290
     0
176
     1
290
     0
176
     1
 90
       50
176
     1
 40
0.0
176
     1
 40
1.0
176
     1
 90
        0
176
     1
 62
    18
420
        0
176
     1
 90
       50
176
     1
 90
        3
176
     1
 62
     5
420
      255
176
     1
290
     0
176
     1
 90
       50
176
     1
 90
       50
176
     1
 90
       50
176
     1
290
     0
176
     1
 90
       50
176
     1
 62
   256
176
     0
 40
1.0
176
     0
 90
        2
176
     1
  1
strokes_ogs.tif
176
     1
290
     0
176
     1
 40
1.0
176
     1
 40
1.0
176
     1
  0
VISUALSTYLE
  5
3A
102
{ACAD_REACTORS
330
2A
102
}
330
2A
100
AcDbVisualStyle
  2
ColorChange
 70
    16
177
     3
291
     1
 70
    58
 90
        2
176
     1
 90
        2
176
     1
 90
        3
176
     1
 90
        0
176
     1
 40
0.6
176
     1
 40
30.0
176
     1
 62
     8
420
  8421504
176
     1
 90
        1
176
     1
 90
        4
176
     1
 62
     7
176
     1
 62
   257
176
     1
 90
        1
176
     1
 90
        1
176
     1
 40
1.0
176
     1
 90
        8
176
     1
 62
     8
420
  8421504
176
     1
 40
1.0
176
     1
 90
        1
176
     1
 90
        6
176
     1
 90
        2
176
     1
 62
     7
176
     1
 90
        5
176
     1
 90
        0
176
     1
 90
        0
176
     1
290
     0
176
     1
 90
        1
176
     1
 40
0.0
176
     1
 90
        0
176
     1
290
     0
176
     1
290
     1
176
     1
290
     1
176
     1
290
     0
176
     1
290
     0
176
     1
290
     0
176
     1
290
     0
176
     1
290
     0
176
     1
290
     0
176
     1
 90
       50
176
     1
 40
0.0
176
     1
 40
1.0
176
     1
 90
        0
176
     1
 62
    18
420
        0
176
     1
 90
       50
176
     1
 90
        3
176
     1
 62
     5
420
      255
176
     1
290
     0
176
     1
 90
       50
176
     1
 90
       50
176
     1
 90
       50
176
     1
290
     0
176
     1
 90
       50
176
     1
 62
   256
176
     0
 40
1.0
176
     0
 90
        2
176
     1
  1
strokes_ogs.tif
176
     1
290
     0
176
     1
 40
1.0
176
     1
 40
1.0
176
     1
  0
VISUALSTYLE
  5
34
102
{ACAD_REACTORS
330
2A
102
}
330
2A
100
AcDbVisualStyle
  2
Conceptual
 70
     9
177
     3
291
     0
 70
    58
 90
        3
176
     1
 90
        2
176
     1
 90
        0
176
     1
 90
        0
176
     1
 40
0.6
176
     1
 40
30.0
176
     1
 62
     7
420
 16777215
176
     1
 90
        2
176
     1
 90
        2
176
     1
 62
     7
176
     1
 62
   257
176
     1
 90
        1
176
     1
 90
        1
176
     1
 40
179.0
176
     1
 90
        8
176
     1
 62
     7
176
     1
 40
1.0
176
     1
 90
        1
176
     1
 90
        6
176
     1
 90
        2
176
     1
 62
     7
176
     1
 90
        3
176
     1
 90
        0
176
     1
 90
        0
176
     1
290
     0
176
     1
 90
        1
176
     1
 40
0.0
176
     1
 90
        0
176
     1
290
     0
176
     1
290
     1
176
     1
290
     1
176
     1
290
     0
176
     1
290
     0
176
     1
290
     0
176
     1
290
     0
176
     1
290
     0
176
     1
290
     0
176
     1
 90
       50
176
     1
 40
0.0
176
     1
 40
1.0
176
     1
 90
        0
176
     1
 62
    18
420
        0
176
     1
 90
       50
176
     1
 90
        3
176
     1
 62
     5
420
      255
176
     1
290
     0
176
     1
 90
       50
176
     1
 90
       50
176
     1
 90
       50
176
     1
290
     0
176
     1
 90
       50
176
     1
 62
   256
176
     0
 40
1.0
176
     0
 90
        2
176
     1
  1
strokes_ogs.tif
176
     1
290
     0
176
     1
 40
1.0
176
     1
 40
1.0
176
     1
  0
VISUALSTYLE
  5
35
102
{ACAD_REACTORS
330
2A
102
}
330
2A
100
AcDbVisualStyle
  2
Dim
 70
    11
177
     3
291
     1
 70
    58
 90
        2
176
     1
 90
        2
176
     1
 90
        0
176
     1
 90
        0
176
     1
 40
0.6
176
     1
 40
30.0
176
     1
 62
     7
420
 16777215
176
     1
 90
        1
176
     1
 90
        4
176
     1
 62
     7
176
     1
 62
   257
176
     1
 90
        1
176
     1
 90
        1
176
     1
 40
1.0
176
     1
 90
        8
176
     1
 62
     7
176
     1
 40
1.0
176
     1
 90
        1
176
     1
 90
        6
176
     1
 90
        2
176
     1
 62
     7
176
     1
 90
        5
176
     1
 90
        0
176
     1
 90
        0
176
     1
290
     0
176
     1
 90
        1
176
     1
 40
-50.0
176
     1
 90
        0
176
     1
290
     0
176
     1
290
     1
176
     1
290
     1
176
     1
290
     0
176
     1
290
     0
176
     1
290
     0
176
     1
290
     0
176
     1
290
     0
176
     1
290
     0
176
     1
 90
       50
176
     1
 40
0.0
176
     1
 40
1.0
176
     1
 90
        0
176
     1
 62
    18
420
        0
176
     1
 90
       50
176
     1
 90
        3
176
     1
 62
     5
420
      255
176
     1
290
     0
176
     1
 90
       50
176
     1
 90
       50
176
     1
 90
       50
176
     1
290
     0
176
     1
 90
       50
176
     1
 62
   256
176
     0
 40
1.0
176
     0
 90
        2
176
     1
  1
strokes_ogs.tif
176
     1
290
     0
176
     1
 40
1.0
176
     1
 40
1.0
176
     1
  0
VISUALSTYLE
  5
3D
102
{ACAD_REACTORS
330
2A
102
}
330
2A
100
AcDbVisualStyle
  2
EdgeColorOff
 70
    22
177
     3
291
     1
 70
    58
 90
        2
176
     0
 90
        2
176
     0
 90
        0
176
     0
 90
        0
176
     0
 40
0.6
176
     0
 40
30.0
176
     0
 62
     7
420
 16777215
176
     0
 90
        1
176
     0
 90
        4
176
     0
 62
     7
176
     0
 62
   257
176
     0
 90
        1
176
     0
 90
        1
176
     0
 40
1.0
176
     0
 90
        8
176
     2
 62
     7
176
     0
 40
1.0
176
     0
 90
        1
176
     0
 90
        6
176
     0
 90
        2
176
     0
 62
     7
176
     0
 90
        5
176
     0
 90
        0
176
     0
 90
        0
176
     0
290
     0
176
     0
 90
        1
176
     0
 40
0.0
176
     0
 90
        0
176
     0
290
     0
176
     0
290
     1
176
     0
290
     1
176
     0
290
     0
176
     0
290
     0
176
     0
290
     0
176
     0
290
     0
176
     0
290
     0
176
     0
290
     0
176
     0
 90
       50
176
     0
 40
0.0
176
     0
 40
1.0
176
     0
 90
        0
176
     0
 62
    18
420
        0
176
     0
 90
       50
176
     0
 90
        3
176
     0
 62
     5
420
      255
176
     0
290
     0
176
     0
 90
       50
176
     0
 90
       50
176
     0
 90
       50
176
     0
290
     0
176
     0
 90
       50
176
     0
 62
   256
176
     0
 40
1.0
176
     0
 90
        2
176
     0
  1
strokes_ogs.tif
176
     0
290
     0
176
     0
 40
1.0
176
     0
 40
1.0
176
     0
  0
VISUALSTYLE
  5
39
102
{ACAD_REACTORS
330
2A
102
}
330
2A
100
AcDbVisualStyle
  2
Facepattern
 70
    15
177
     3
291
     1
 70
    58
 90
        2
176
     1
 90
        2
176
     1
 90
        0
176
     1
 90
        0
176
     1
 40
0.6
176
     1
 40
30.0
176
     1
 62
     7
420
 16777215
176
     1
 90
        1
176
     1
 90
        4
176
     1
 62
     7
176
     1
 62
   257
176
     1
 90
        1
176
     1
 90
        1
176
     1
 40
1.0
176
     1
 90
        8
176
     1
 62
     7
176
     1
 40
1.0
176
     1
 90
        1
176
     1
 90
        6
176
     1
 90
        2
176
     1
 62
     7
176
     1
 90
        5
176
     1
 90
        0
176
     1
 90
        0
176
     1
290
     0
176
     1
 90
        1
176
     1
 40
0.0
176
     1
 90
        0
176
     1
290
     0
176
     1
290
     1
176
     1
290
     1
176
     1
290
     0
176
     1
290
     0
176
     1
290
     0
176
     1
290
     0
176
     1
290
     0
176
     1
290
     0
176
     1
 90
       50
176
     1
 40
0.0
176
     1
 40
1.0
176
     1
 90
        0
176
     1
 62
    18
420
        0
176
     1
 90
       50
176
     1
 90
        3
176
     1
 62
     5
420
      255
176
     1
290
     0
176
     1
 90
       50
176
     1
 90
       50
176
     1
 90
       50
176
     1
290
     0
176
     1
 90
       50
176
     1
 62
   256
176
     0
 40
1.0
176
     0
 90
        2
176
     1
  1
strokes_ogs.tif
176
     1
290
     0
176
     1
 40
1.0
176
     1
 40
1.0
176
     1
  0
VISUALSTYLE
  5
2B
102
{ACAD_REACTORS
330
2A
102
}
330
2A
100
AcDbVisualStyle
  2
Flat
 70
     0
177
     3
291
     1
 70
    58
 90
        2
176
     1
 90
        1
176
     1
 90
        1
176
     1
 90
        2
176
     1
 40
0.6
176
     1
 40
30.0
176
     1
 62
     7
420
 16777215
176
     1
 90
        0
176
     1
 90
        0
176
     1
 62
     7
176
     1
 62
   257
176
     1
 90
        1
176
     1
 90
        1
176
     1
 40
1.0
176
     1
 90
        8
176
     1
 62
     7
176
     1
 40
1.0
176
     1
 90
        1
176
     1
 90
        6
176
     1
 90
        2
176
     1
 62
     7
176
     1
 90
        5
176
     1
 90
        0
176
     1
 90
        0
176
     1
290
     0
176
     1
 90
       13
176
     1
 40
0.0
176
     1
 90
        0
176
     1
290
     0
176
     1
290
     1
176
     1
290
     1
176
     1
290
     0
176
     1
290
     0
176
     1
290
     0
176
     1
290
     0
176
     1
290
     0
176
     1
290
     0
176
     1
 90
       50
176
     1
 40
0.0
176
     1
 40
1.0
176
     1
 90
        0
176
     1
 62
    18
420
        0
176
     1
 90
       50
176
     1
 90
        3
176
     1
 62
     5
420
      255
176
     1
290
     0
176
     1
 90
       50
176
     1
 90
       50
176
     1
 90
       50
176
     1
290
     0
176
     1
 90
       50
176
     1
 62
   256
176
     0
 40
1.0
176
     0
 90
        2
176
     1
  1
strokes_ogs.tif
176
     1
290
     0
176
     1
 40
1.0
176
     1
 40
1.0
176
     1
  0
VISUALSTYLE
  5
2C
102
{ACAD_REACTORS
330
2A
102
}
330
2A
100
AcDbVisualStyle
  2
FlatWithEdges
 70
     1
177
     3
291
     1
 70
    58
 90
        2
176
     1
 90
        1
176
     1
 90
        1
176
     1
 90
        2
176
     1
 40
0.6
176
     1
 40
30.0
176
     1
 62
     7
420
 16777215
176
     1
 90
        1
176
     1
 90
        0
176
     1
 62
     7
176
     1
 62
   257
176
     1
 90
        1
176
     1
 90
        1
176
     1
 40
1.0
176
     1
 90
        0
176
     1
 62
   257
176
     1
 40
1.0
176
     1
 90
        1
176
     1
 90
        6
176
     1
 90
        2
176
     1
 62
     7
176
     1
 90
        5
176
     1
 90
        0
176
     1
 90
        0
176
     1
290
     0
176
     1
 90
       13
176
     1
 40
0.0
176
     1
 90
        0
176
     1
290
     0
176
     1
290
     1
176
     1
290
     1
176
     1
290
     0
176
     1
290
     0
176
     1
290
     0
176
     1
290
     0
176
     1
290
     0
176
     1
290
     0
176
     1
 90
       50
176
     1
 40
0.0
176
     1
 40
1.0
176
     1
 90
        0
176
     1
 62
    18
420
        0
176
     1
 90
       50
176
     1
 90
        3
176
     1
 62
     5
420
      255
176
     1
290
     0
176
     1
 90
       50
176
     1
 90
       50
176
     1
 90
       50
176
     1
290
     0
176
     1
 90
       50
176
     1
 62
   256
176
     0
 40
1.0
176
     0
 90
        2
176
     1
  1
strokes_ogs.tif
176
     1
290
     0
176
     1
 40
1.0
176
     1
 40
1.0
176
     1
  0
VISUALSTYLE
  5
2D
102
{ACAD_REACTORS
330
2A
102
}
330
2A
100
AcDbVisualStyle
  2
Gouraud
 70
     2
177
     3
291
     1
 70
    58
 90
        2
176
     1
 90
        2
176
     1
 90
        1
176
     1
 90
        2
176
     1
 40
0.6
176
     1
 40
30.0
176
     1
 62
     7
420
 16777215
176
     1
 90
        0
176
     1
 90
        0
176
     1
 62
     7
176
     1
 62
   257
176
     1
 90
        1
176
     1
 90
        1
176
     1
 40
1.0
176
     1
 90
        0
176
     1
 62
     7
176
     1
 40
1.0
176
     1
 90
        1
176
     1
 90
        6
176
     1
 90
        2
176
     1
 62
     7
176
     1
 90
        5
176
     1
 90
        0
176
     1
 90
        0
176
     1
290
     0
176
     1
 90
       13
176
     1
 40
0.0
176
     1
 90
        0
176
     1
290
     0
176
     1
290
     1
176
     1
290
     1
176
     1
290
     0
176
     1
290
     0
176
     1
290
     0
176
     1
290
     0
176
     1
290
     0
176
     1
290
     0
176
     1
 90
       50
176
     1
 40
0.0
176
     1
 40
1.0
176
     1
 90
        0
176
     1
 62
    18
420
        0
176
     1
 90
       50
176
     1
 90
        3
176
     1
 62
     5
420
      255
176
     1
290
     0
176
     1
 90
       50
176
     1
 90
       50
176
     1
 90
       50
176
     1
290
     0
176
     1
 90
       50
176
     1
 62
   256
176
     0
 40
1.0
176
     0
 90
        2
176
     1
  1
strokes_ogs.tif
176
     1
290
     0
176
     1
 40
1.0
176
     1
 40
1.0
176
     1
  0
VISUALSTYLE
  5
2E
102
{ACAD_REACTORS
330
2A
102
}
330
2A
100
AcDbVisualStyle
  2
GouraudWithEdges
 70
     3
177
     3
291
     1
 70
    58
 90
        2
176
     1
 90
        2
176
     1
 90
        1
176
     1
 90
        2
176
     1
 40
0.6
176
     1
 40
30.0
176
     1
 62
     7
420
 16777215
176
     1
 90
        1
176
     1
 90
        0
176
     1
 62
     7
176
     1
 62
   257
176
     1
 90
        1
176
     1
 90
        1
176
     1
 40
1.0
176
     1
 90
        0
176
     1
 62
   257
176
     1
 40
1.0
176
     1
 90
        1
176
     1
 90
        6
176
     1
 90
        2
176
     1
 62
     7
176
     1
 90
        5
176
     1
 90
        0
176
     1
 90
        0
176
     1
290
     0
176
     1
 90
       13
176
     1
 40
0.0
176
     1
 90
        0
176
     1
290
     0
176
     1
290
     1
176
     1
290
     1
176
     1
290
     0
176
     1
290
     0
176
     1
290
     0
176
     1
290
     0
176
     1
290
     0
176
     1
290
     0
176
     1
 90
       50
176
     1
 40
0.0
176
     1
 40
1.0
176
     1
 90
        0
176
     1
 62
    18
420
        0
176
     1
 90
       50
176
     1
 90
        3
176
     1
 62
     5
420
      255
176
     1
290
     0
176
     1
 90
       50
176
     1
 90
       50
176
     1
 90
       50
176
     1
290
     0
176
     1
 90
       50
176
     1
 62
   256
176
     0
 40
1.0
176
     0
 90
        2
176
     1
  1
strokes_ogs.tif
176
     1
290
     0
176
     1
 40
1.0
176
     1
 40
1.0
176
     1
  0
VISUALSTYLE
  5
31
102
{ACAD_REACTORS
330
2A
102
}
330
2A
100
AcDbVisualStyle
  2
Hidden
 70
     6
177
     3
291
     0
 70
    58
 90
        1
176
     1
 90
        2
176
     1
 90
        2
176
     1
 90
        0
176
     1
 40
0.6
176
     1
 40
30.0
176
     1
 62
     7
420
 16777215
176
     1
 90
        2
176
     1
 90
        2
176
     1
 62
     7
176
     1
 62
   257
176
     1
 90
        2
176
     1
 90
        1
176
     1
 40
40.0
176
     1
 90
        0
176
     1
 62
   257
176
     1
 40
1.0
176
     1
 90
        1
176
     1
 90
        6
176
     1
 90
        2
176
     1
 62
     7
176
     1
 90
        3
176
     1
 90
        0
176
     1
 90
        0
176
     1
290
     0
176
     1
 90
        1
176
     1
 40
0.0
176
     1
 90
        0
176
     1
290
     0
176
     1
290
     1
176
     1
290
     1
176
     1
290
     0
176
     1
290
     0
176
     1
290
     0
176
     1
290
     0
176
     1
290
     0
176
     1
290
     0
176
     1
 90
       50
176
     1
 40
0.0
176
     1
 40
1.0
176
     1
 90
        0
176
     1
 62
    18
420
        0
176
     1
 90
       50
176
     1
 90
        3
176
     1
 62
     5
420
      255
176
     1
290
     0
176
     1
 90
       50
176
     1
 90
       50
176
     1
 90
       50
176
     1
290
     0
176
     1
 90
       50
176
     1
 62
   256
176
     0
 40
1.0
176
     0
 90
        2
176
     1
  1
strokes_ogs.tif
176
     1
290
     0
176
     1
 40
1.0
176
     1
 40
1.0
176
     1
  0
VISUALSTYLE
  5
3B
102
{ACAD_REACTORS
330
2A
102
}
330
2A
100
AcDbVisualStyle
  2
JitterOff
 70
    20
177
     3
291
     1
 70
    58
 90
        2
176
     0
 90
        2
176
     0
 90
        0
176
     0
 90
        0
176
     0
 40
0.6
176
     0
 40
30.0
176
     0
 62
     7
420
 16777215
176
     0
 90
        1
176
     0
 90
        4
176
     0
 62
     7
176
     0
 62
   257
176
     0
 90
        1
176
     0
 90
        1
176
     0
 40
1.0
176
     0
 90
       10
176
     2
 62
     7
176
     0
 40
1.0
176
     0
 90
        1
176
     0
 90
        6
176
     0
 90
        2
176
     0
 62
     7
176
     0
 90
        5
176
     0
 90
        0
176
     0
 90
        0
176
     0
290
     0
176
     0
 90
        1
176
     0
 40
0.0
176
     0
 90
        0
176
     0
290
     0
176
     0
290
     1
176
     0
290
     1
176
     0
290
     0
176
     0
290
     0
176
     0
290
     0
176
     0
290
     0
176
     0
290
     0
176
     0
290
     0
176
     0
 90
       50
176
     0
 40
0.0
176
     0
 40
1.0
176
     0
 90
        0
176
     0
 62
    18
420
        0
176
     0
 90
       50
176
     0
 90
        3
176
     0
 62
     5
420
      255
176
     0
290
     0
176
     0
 90
       50
176
     0
 90
       50
176
     0
 90
       50
176
     0
290
     0
176
     0
 90
       50
176
     0
 62
   256
176
     0
 40
1.0
176
     0
 90
        2
176
     0
  1
strokes_ogs.tif
176
     0
290
     0
176
     0
 40
1.0
176
     0
 40
1.0
176
     0
  0
VISUALSTYLE
  5
38
102
{ACAD_REACTORS
330
2A
102
}
330
2A
100
AcDbVisualStyle
  2
Linepattern
 70
    14
177
     3
291
     1
 70
    58
 90
        2
176
     1
 90
        2
176
     1
 90
        0
176
     1
 90
        0
176
     1
 40
0.6
176
     1
 40
30.0
176
     1
 62
     7
420
 16777215
176
     1
 90
        1
176
     1
 90
        4
176
     1
 62
     7
176
     1
 62
   257
176
     1
 90
        7
176
     1
 90
        7
176
     1
 40
1.0
176
     1
 90
        8
176
     1
 62
     7
176
     1
 40
1.0
176
     1
 90
        1
176
     1
 90
        6
176
     1
 90
        2
176
     1
 62
     7
176
     1
 90
        5
176
     1
 90
        0
176
     1
 90
        0
176
     1
290
     0
176
     1
 90
        1
176
     1
 40
0.0
176
     1
 90
        0
176
     1
290
     0
176
     1
290
     1
176
     1
290
     1
176
     1
290
     0
176
     1
290
     0
176
     1
290
     0
176
     1
290
     0
176
     1
290
     0
176
     1
290
     0
176
     1
 90
       50
176
     1
 40
0.0
176
     1
 40
1.0
176
     1
 90
        0
176
     1
 62
    18
420
        0
176
     1
 90
       50
176
     1
 90
        3
176
     1
 62
     5
420
      255
176
     1
290
     0
176
     1
 90
       50
176
     1
 90
       50
176
     1
 90
       50
176
     1
290
     0
176
     1
 90
       50
176
     1
 62
   256
176
     0
 40
1.0
176
     0
 90
        2
176
     1
  1
strokes_ogs.tif
176
     1
290
     0
176
     1
 40
1.0
176
     1
 40
1.0
176
     1
  0
VISUALSTYLE
  5
3C
102
{ACAD_REACTORS
330
2A
102
}
330
2A
100
AcDbVisualStyle
  2
OverhangOff
 70
    21
177
     3
291
     1
 70
    58
 90
        2
176
     0
 90
        2
176
     0
 90
        0
176
     0
 90
        0
176
     0
 40
0.6
176
     0
 40
30.0
176
     0
 62
     7
420
 16777215
176
     0
 90
        1
176
     0
 90
        4
176
     0
 62
     7
176
     0
 62
   257
176
     0
 90
        1
176
     0
 90
        1
176
     0
 40
1.0
176
     0
 90
        9
176
     2
 62
     7
176
     0
 40
1.0
176
     0
 90
        1
176
     0
 90
        6
176
     0
 90
        2
176
     0
 62
     7
176
     0
 90
        5
176
     0
 90
        0
176
     0
 90
        0
176
     0
290
     0
176
     0
 90
        1
176
     0
 40
0.0
176
     0
 90
        0
176
     0
290
     0
176
     0
290
     1
176
     0
290
     1
176
     0
290
     0
176
     0
290
     0
176
     0
290
     0
176
     0
290
     0
176
     0
290
     0
176
     0
290
     0
176
     0
 90
       50
176
     0
 40
0.0
176
     0
 40
1.0
176
     0
 90
        0
176
     0
 62
    18
420
        0
176
     0
 90
       50
176
     0
 90
        3
176
     0
 62
     5
420
      255
176
     0
290
     0
176
     0
 90
       50
176
     0
 90
       50
176
     0
 90
       50
176
     0
290
     0
176
     0
 90
       50
176
     0
 62
   256
176
     0
 40
1.0
176
     0
 90
        2
176
     0
  1
strokes_ogs.tif
176
     0
290
     0
176
     0
 40
1.0
176
     0
 40
1.0
176
     0
  0
VISUALSTYLE
  5
33
102
{ACAD_REACTORS
330
2A
102
}
330
2A
100
AcDbVisualStyle
  2
Realistic
 70
     8
177
     3
291
     0
 70
    58
 90
        2
176
     1
 90
        3
176
     1
 90
        0
176
     1
 90
        2
176
     1
 40
0.6
176
     1
 40
30.0
176
     1
 62
     7
420
 16777215
176
     1
 90
        0
176
     1
 90
        0
176
     1
 62
     7
176
     1
 62
   257
176
     1
 90
        1
176
     1
 90
        1
176
     1
 40
1.0
176
     1
 90
        8
176
     1
 62
   257
176
     1
 40
1.0
176
     1
 90
        1
176
     1
 90
        6
176
     1
 90
        2
176
     1
 62
     7
176
     1
 90
        3
176
     1
 90
        0
176
     1
 90
        0
176
     1
290
     0
176
     1
 90
       13
176
     1
 40
0.0
176
     1
 90
        0
176
     1
290
     0
176
     1
290
     1
176
     1
290
     1
176
     1
290
     0
176
     1
290
     0
176
     1
290
     0
176
     1
290
     0
176
     1
290
     0
176
     1
290
     0
176
     1
 90
       50
176
     1
 40
0.0
176
     1
 40
1.0
176
     1
 90
        0
176
     1
 62
    18
420
        0
176
     1
 90
       50
176
     1
 90
        3
176
     1
 62
     5
420
      255
176
     1
290
     0
176
     1
 90
       50
176
     1
 90
       50
176
     1
 90
       50
176
     1
290
     0
176
     1
 90
       50
176
     1
 62
   256
176
     0
 40
1.0
176
     0
 90
        2
176
     1
  1
strokes_ogs.tif
176
     1
290
     0
176
     1
 40
1.0
176
     1
 40
1.0
176
     1
  0
VISUALSTYLE
  5
42
102
{ACAD_REACTORS
330
2A
102
}
330
2A
100
AcDbVisualStyle
  2
Shaded
 70
    27
177
     3
291
     0
 70
    58
 90
        2
176
     1
 90
        2
176
     1
 90
        1
176
     1
 90
        2
176
     1
 40
0.6
176
     1
 40
30.0
176
     1
 62
     7
420
 16777215
176
     1
 90
        0
176
     1
 90
        4
176
     1
 62
     7
176
     1
 62
   257
176
     1
 90
        1
176
     1
 90
        1
176
     1
 40
1.0
176
     1
 90
        8
176
     1
 62
   257
176
     1
 40
1.0
176
     1
 90
        1
176
     1
 90
        6
176
     1
 90
        2
176
     1
 62
     8
420
  7895160
176
     1
 90
        3
176
     1
 90
        0
176
     1
 90
        0
176
     1
290
     0
176
     1
 90
        5
176
     1
 40
0.0
176
     1
 90
        0
176
     1
290
     0
176
     1
290
     1
176
     1
290
     1
176
     1
290
     0
176
     1
290
     0
176
     1
290
     0
176
     1
290
     0
176
     1
290
     0
176
     1
290
     0
176
     1
 90
       50
176
     1
 40
0.0
176
     1
 40
1.0
176
     1
 90
        0
176
     1
 62
    18
420
        0
176
     1
 90
       50
176
     1
 90
        3
176
     1
 62
     5
420
      255
176
     1
290
     0
176
     1
 90
       50
176
     1
 90
       50
176
     1
 90
       50
176
     1
290
     0
176
     1
 90
       50
176
     1
 62
   256
176
     0
 40
1.0
176
     0
 90
        2
176
     1
  1
strokes_ogs.tif
176
     1
290
     0
176
     1
 40
1.0
176
     1
 40
1.0
176
     1
  0
VISUALSTYLE
  5
41
102
{ACAD_REACTORS
330
2A
102
}
330
2A
100
AcDbVisualStyle
  2
Shaded with edges
 70
    26
177
     3
291
     0
 70
    58
 90
        2
176
     1
 90
        2
176
     1
 90
        1
176
     1
 90
        2
176
     1
 40
0.6
176
     1
 40
30.0
176
     1
 62
     7
420
 16777215
176
     1
 90
        1
176
     1
 90
       10
176
     1
 62
     7
176
     1
 62
   257
176
     1
 90
        2
176
     1
 90
        1
176
     1
 40
1.0
176
     1
 90
        8
176
     1
 62
   257
176
     1
 40
1.0
176
     1
 90
        1
176
     1
 90
        6
176
     1
 90
        2
176
     1
 62
     7
176
     1
 90
        3
176
     1
 90
        0
176
     1
 90
        0
176
     1
290
     0
176
     1
 90
        5
176
     1
 40
0.0
176
     1
 90
        0
176
     1
290
     0
176
     1
290
     1
176
     1
290
     1
176
     1
290
     0
176
     1
290
     0
176
     1
290
     0
176
     1
290
     0
176
     1
290
     0
176
     1
290
     0
176
     1
 90
       50
176
     1
 40
0.0
176
     1
 40
1.0
176
     1
 90
        0
176
     1
 62
    18
420
        0
176
     1
 90
       50
176
     1
 90
        3
176
     1
 62
     5
420
      255
176
     1
290
     0
176
     1
 90
       50
176
     1
 90
       50
176
     1
 90
       50
176
     1
290
     0
176
     1
 90
       50
176
     1
 62
   256
176
     0
 40
1.0
176
     0
 90
        2
176
     1
  1
strokes_ogs.tif
176
     1
290
     0
176
     1
 40
1.0
176
     1
 40
1.0
176
     1
  0
VISUALSTYLE
  5
3E
102
{ACAD_REACTORS
330
2A
102
}
330
2A
100
AcDbVisualStyle
  2
Shades of Gray
 70
    23
177
     3
291
     0
 70
    58
 90
        2
176
     1
 90
        2
176
     1
 90
        3
176
     1
 90
        0
176
     1
 40
0.6
176
     1
 40
30.0
176
     1
 62
     7
420
 16777215
176
     1
 90
        2
176
     1
 90
        2
176
     1
 62
     7
176
     1
 62
     7
176
     1
 90
        1
176
     1
 90
        1
176
     1
 40
40.0
176
     1
 90
        8
176
     1
 62
     7
176
     1
 40
1.0
176
     1
 90
        1
176
     1
 90
        6
176
     1
 90
        2
176
     1
 62
     7
176
     1
 90
        3
176
     1
 90
        0
176
     1
 90
        0
176
     1
290
     0
176
     1
 90
        1
176
     1
 40
0.0
176
     1
 90
        0
176
     1
290
     0
176
     1
290
     1
176
     1
290
     1
176
     1
290
     0
176
     1
290
     0
176
     1
290
     0
176
     1
290
     0
176
     1
290
     0
176
     1
290
     0
176
     1
 90
       50
176
     1
 40
0.0
176
     1
 40
1.0
176
     1
 90
        0
176
     1
 62
    18
420
        0
176
     1
 90
       50
176
     1
 90
        3
176
     1
 62
     5
420
      255
176
     1
290
     0
176
     1
 90
       50
176
     1
 90
       50
176
     1
 90
       50
176
     1
290
     0
176
     1
 90
       50
176
     1
 62
   256
176
     0
 40
1.0
176
     0
 90
        2
176
     1
  1
strokes_ogs.tif
176
     1
290
     0
176
     1
 40
1.0
176
     1
 40
1.0
176
     1
  0
VISUALSTYLE
  5
3F
102
{ACAD_REACTORS
330
2A
102
}
330
2A
100
AcDbVisualStyle
  2
Sketchy
 70
    24
177
     3
291
     0
 70
    58
 90
        1
176
     1
 90
        2
176
     1
 90
        2
176
     1
 90
        0
176
     1
 40
0.6
176
     1
 40
30.0
176
     1
 62
     7
420
 16777215
176
     1
 90
        2
176
     1
 90
        2
176
     1
 62
     7
176
     1
 62
     7
176
     1
 90
        1
176
     1
 90
        1
176
     1
 40
40.0
176
     1
 90
       11
176
     1
 62
     7
176
     1
 40
1.0
176
     1
 90
        1
176
     1
 90
        6
176
     1
 90
        2
176
     1
 62
     7
176
     1
 90
        6
176
     1
 90
        0
176
     1
 90
        0
176
     1
290
     0
176
     1
 90
        1
176
     1
 40
0.0
176
     1
 90
        0
176
     1
290
     0
176
     1
290
     1
176
     1
290
     1
176
     1
290
     0
176
     1
290
     0
176
     1
290
     0
176
     1
290
     0
176
     1
290
     0
176
     1
290
     0
176
     1
 90
       50
176
     1
 40
0.0
176
     1
 40
1.0
176
     1
 90
        0
176
     1
 62
    18
420
        0
176
     1
 90
       50
176
     1
 90
        3
176
     1
 62
     5
420
      255
176
     1
290
     0
176
     1
 90
       50
176
     1
 90
       50
176
     1
 90
       50
176
     1
290
     0
176
     1
 90
       50
176
     1
 62
   256
176
     0
 40
1.0
176
     0
 90
        2
176
     1
  1
strokes_ogs.tif
176
     1
290
     0
176
     1
 40
1.0
176
     1
 40
1.0
176
     1
  0
VISUALSTYLE
  5
37
102
{ACAD_REACTORS
330
2A
102
}
330
2A
100
AcDbVisualStyle
  2
Thicken
 70
    13
177
     3
291
     1
 70
    58
 90
        2
176
     1
 90
        2
176
     1
 90
        0
176
     1
 90
        0
176
     1
 40
0.6
176
     1
 40
30.0
176
     1
 62
     7
420
 16777215
176
     1
 90
        1
176
     1
 90
        4
176
     1
 62
     7
176
     1
 62
   257
176
     1
 90
        1
176
     1
 90
        1
176
     1
 40
1.0
176
     1
 90
       12
176
     1
 62
     7
176
     1
 40
1.0
176
     1
 90
        1
176
     1
 90
        6
176
     1
 90
        2
176
     1
 62
     7
176
     1
 90
        5
176
     1
 90
        0
176
     1
 90
        0
176
     1
290
     0
176
     1
 90
        1
176
     1
 40
0.0
176
     1
 90
        0
176
     1
290
     0
176
     1
290
     1
176
     1
290
     1
176
     1
290
     0
176
     1
290
     0
176
     1
290
     0
176
     1
290
     0
176
     1
290
     0
176
     1
290
     0
176
     1
 90
       50
176
     1
 40
0.0
176
     1
 40
1.0
176
     1
 90
        0
176
     1
 62
    18
420
        0
176
     1
 90
       50
176
     1
 90
        3
176
     1
 62
     5
420
      255
176
     1
290
     0
176
     1
 90
       50
176
     1
 90
       50
176
     1
 90
       50
176
     1
290
     0
176
     1
 90
       50
176
     1
 62
   256
176
     0
 40
1.0
176
     0
 90
        2
176
     1
  1
strokes_ogs.tif
176
     1
290
     0
176
     1
 40
1.0
176
     1
 40
1.0
176
     1
  0
VISUALSTYLE
  5
30
102
{ACAD_REACTORS
330
2A
102
}
330
2A
100
AcDbVisualStyle
  2
Wireframe
 70
     5
177
     3
291
     0
 70
    58
 90
        0
176
     1
 90
        2
176
     1
 90
        0
176
     1
 90
        0
176
     1
 40
0.6
176
     1
 40
30.0
176
     1
 62
     7
420
 16777215
176
     1
 90
        1
176
     1
 90
        4
176
     1
 62
     7
176
     1
 62
   257
176
     1
 90
        1
176
     1
 90
        1
176
     1
 40
1.0
176
     1
 90
        0
176
     1
 62
   257
176
     1
 40
1.0
176
     1
 90
        1
176
     1
 90
        6
176
     1
 90
        2
176
     1
 62
     7
176
     1
 90
        3
176
     1
 90
        0
176
     1
 90
        0
176
     1
290
     0
176
     1
 90
        1
176
     1
 40
0.0
176
     1
 90
        0
176
     1
290
     0
176
     1
290
     1
176
     1
290
     1
176
     1
290
     0
176
     1
290
     0
176
     1
290
     0
176
     1
290
     0
176
     1
290
     0
176
     1
290
     0
176
     1
 90
       50
176
     1
 40
0.0
176
     1
 40
1.0
176
     1
 90
        0
176
     1
 62
    18
420
        0
176
     1
 90
       50
176
     1
 90
        3
176
     1
 62
     5
420
      255
176
     1
290
     0
176
     1
 90
       50
176
     1
 90
       50
176
     1
 90
       50
176
     1
290
     0
176
     1
 90
       50
176
     1
 62
   256
176
     0
 40
1.0
176
     0
 90
        2
176
     1
  1
strokes_ogs.tif
176
     1
290
     0
176
     1
 40
1.0
176
     1
 40
1.0
176
     1
  0
VISUALSTYLE
  5
40
102
{ACAD_REACTORS
330
2A
102
}
330
2A
100
AcDbVisualStyle
  2
X-Ray
 70
    25
177
     3
291
     0
 70
    58
 90
        2
176
     1
 90
        2
176
     1
 90
        1
176
     1
 90
        1
176
     1
 40
0.5
176
     1
 40
30.0
176
     1
 62
     7
420
 16777215
176
     1
 90
        1
176
     1
 90
        0
176
     1
 62
     7
176
     1
 62
   257
176
     1
 90
        1
176
     1
 90
        1
176
     1
 40
1.0
176
     1
 90
        8
176
     1
 62
     7
176
     1
 40
1.0
176
     1
 90
        1
176
     1
 90
        6
176
     1
 90
        2
176
     1
 62
     7
176
     1
 90
        3
176
     1
 90
        0
176
     1
 90
        0
176
     1
290
     0
176
     1
 90
       13
176
     1
 40
0.0
176
     1
 90
        0
176
     1
290
     0
176
     1
290
     1
176
     1
290
     1
176
     1
290
     0
176
     1
290
     0
176
     1
290
     0
176
     1
290
     0
176
     1
290
     0
176
     1
290
     0
176
     1
 90
       50
176
     1
 40
0.0
176
     1
 40
1.0
176
     1
 90
        0
176
     1
 62
    18
420
        0
176
     1
 90
       50
176
     1
 90
        3
176
     1
 62
     5
420
      255
176
     1
290
     0
176
     1
 90
       50
176
     1
 90
       50
176
     1
 90
       50
176
     1
290
     0
176
     1
 90
       50
176
     1
 62
   256
176
     0
 40
1.0
176
     0
 90
        2
176
     1
  1
strokes_ogs.tif
176
     1
290
     0
176
     1
 40
1.0
176
     1
 40
1.0
176
     1
  0
DICTIONARYVAR
  5
1EF
102
{ACAD_REACTORS
330
1EE
102
}
330
1EE
100
DictionaryVariables
280
     0
  1
1:1
  0
DICTIONARYVAR
  5
1F4
102
{ACAD_REACTORS
330
1EE
102
}
330
1EE
100
DictionaryVariables
280
     0
  1
Standard
  0
DICTIONARYVAR
  5
1F3
102
{ACAD_REACTORS
330
1EE
102
}
330
1EE
100
DictionaryVariables
280
     0
  1
Standard
  0
DICTIONARY
  5
1F0
330
6A
100
AcDbDictionary
280
     1
281
     1
  3
ACAD_ROUNDTRIP_2008_TABLESTYLE_CELLSTYLEMAP
360
1F1
  0
CELLSTYLEMAP
  5
1F1
102
{ACAD_REACTORS
330
1F0
102
}
330
1F0
100
AcDbCellStyleMap
 90
        3
300
CELLSTYLE
  1
TABLEFORMAT_BEGIN
 90
        5
170
     1
 91
        0
 92
    32768
 62
   257
 93
        1
300
CONTENTFORMAT
  1
CONTENTFORMAT_BEGIN
 90
        0
 91
        0
 92
        4
 93
        0
300

 40
0.0
140
1.0
 94
        5
 62
     0
340
11
144
0.25
309
CONTENTFORMAT_END
171
     1
301
MARGIN
  1
CELLMARGIN_BEGIN
 40
0.06
 40
0.06
 40
0.06
 40
0.06
 40
0.06
 40
0.06
309
CELLMARGIN_END
 94
        6
 95
        1
302
GRIDFORMAT
  1
GRIDFORMAT_BEGIN
 90
        0
 91
        1
 62
     0
 92
       -2
340
14
 93
        0
 40
0.045
309
GRIDFORMAT_END
 95
        2
302
GRIDFORMAT
  1
GRIDFORMAT_BEGIN
 90
        0
 91
        1
 62
     0
 92
       -2
340
14
 93
        0
 40
0.045
309
GRIDFORMAT_END
 95
        4
302
GRIDFORMAT
  1
GRIDFORMAT_BEGIN
 90
        0
 91
        1
 62
     0
 92
       -2
340
14
 93
        0
 40
0.045
309
GRIDFORMAT_END
 95
        8
302
GRIDFORMAT
  1
GRIDFORMAT_BEGIN
 90
        0
 91
        1
 62
     0
 92
       -2
340
14
 93
        0
 40
0.045
309
GRIDFORMAT_END
 95
       16
302
GRIDFORMAT
  1
GRIDFORMAT_BEGIN
 90
        0
 91
        1
 62
     0
 92
       -2
340
14
 93
        0
 40
0.045
309
GRIDFORMAT_END
 95
       32
302
GRIDFORMAT
  1
GRIDFORMAT_BEGIN
 90
        0
 91
        1
 62
     0
 92
       -2
340
14
 93
        0
 40
0.045
309
GRIDFORMAT_END
309
TABLEFORMAT_END
  1
CELLSTYLE_BEGIN
 90
        1
 91
        1
300
_TITLE
309
CELLSTYLE_END
300
CELLSTYLE
  1
TABLEFORMAT_BEGIN
 90
        5
170
     1
 91
        0
 92
        0
 62
   257
 93
        1
300
CONTENTFORMAT
  1
CONTENTFORMAT_BEGIN
 90
        0
 91
        0
 92
        4
 93
        0
300

 40
0.0
140
1.0
 94
        5
 62
     0
340
11
144
0.18
309
CONTENTFORMAT_END
171
     1
301
MARGIN
  1
CELLMARGIN_BEGIN
 40
0.06
 40
0.06
 40
0.06
 40
0.06
 40
0.06
 40
0.06
309
CELLMARGIN_END
 94
        6
 95
        1
302
GRIDFORMAT
  1
GRIDFORMAT_BEGIN
 90
        0
 91
        1
 62
     0
 92
       -2
340
14
 93
        0
 40
0.045
309
GRIDFORMAT_END
 95
        2
302
GRIDFORMAT
  1
GRIDFORMAT_BEGIN
 90
        0
 91
        1
 62
     0
 92
       -2
340
14
 93
        0
 40
0.045
309
GRIDFORMAT_END
 95
        4
302
GRIDFORMAT
  1
GRIDFORMAT_BEGIN
 90
        0
 91
        1
 62
     0
 92
       -2
340
14
 93
        0
 40
0.045
309
GRIDFORMAT_END
 95
        8
302
GRIDFORMAT
  1
GRIDFORMAT_BEGIN
 90
        0
 91
        1
 62
     0
 92
       -2
340
14
 93
        0
 40
0.045
309
GRIDFORMAT_END
 95
       16
302
GRIDFORMAT
  1
GRIDFORMAT_BEGIN
 90
        0
 91
        1
 62
     0
 92
       -2
340
14
 93
        0
 40
0.045
309
GRIDFORMAT_END
 95
       32
302
GRIDFORMAT
  1
GRIDFORMAT_BEGIN
 90
        0
 91
        1
 62
     0
 92
       -2
340
14
 93
        0
 40
0.045
309
GRIDFORMAT_END
309
TABLEFORMAT_END
  1
CELLSTYLE_BEGIN
 90
        2
 91
        1
300
_HEADER
309
CELLSTYLE_END
300
CELLSTYLE
  1
TABLEFORMAT_BEGIN
 90
        5
170
     1
 91
        0
 92
        0
 62
   257
 93
        1
300
CONTENTFORMAT
  1
CONTENTFORMAT_BEGIN
 90
        0
 91
        0
 92
        4
 93
        0
300

 40
0.0
140
1.0
 94
        2
 62
     0
340
11
144
0.18
309
CONTENTFORMAT_END
171
     1
301
MARGIN
  1
CELLMARGIN_BEGIN
 40
0.06
 40
0.06
 40
0.06
 40
0.06
 40
0.06
 40
0.06
309
CELLMARGIN_END
 94
        6
 95
        1
302
GRIDFORMAT
  1
GRIDFORMAT_BEGIN
 90
        0
 91
        1
 62
     0
 92
       -2
340
14
 93
        0
 40
0.045
309
GRIDFORMAT_END
 95
        2
302
GRIDFORMAT
  1
GRIDFORMAT_BEGIN
 90
        0
 91
        1
 62
     0
 92
       -2
340
14
 93
        0
 40
0.045
309
GRIDFORMAT_END
 95
        4
302
GRIDFORMAT
  1
GRIDFORMAT_BEGIN
 90
        0
 91
        1
 62
     0
 92
       -2
340
14
 93
        0
 40
0.045
309
GRIDFORMAT_END
 95
        8
302
GRIDFORMAT
  1
GRIDFORMAT_BEGIN
 90
        0
 91
        1
 62
     0
 92
       -2
340
14
 93
        0
 40
0.045
309
GRIDFORMAT_END
 95
       16
302
GRIDFORMAT
  1
GRIDFORMAT_BEGIN
 90
        0
 91
        1
 62
     0
 92
       -2
340
14
 93
        0
 40
0.045
309
GRIDFORMAT_END
 95
       32
302
GRIDFORMAT
  1
GRIDFORMAT_BEGIN
 90
        0
 91
        1
 62
     0
 92
       -2
340
14
 93
        0
 40
0.045
309
GRIDFORMAT_END
309
TABLEFORMAT_END
  1
CELLSTYLE_BEGIN
 90
        3
 91
        2
300
_DATA
309
CELLSTYLE_END
  0
ENDSEC
  0
EOF