0
SECTION
  2
HEADER
  9
$ACADVER
  1
AC1027
  9
$ACADMAINTVER
 70
     8
  9
$DWGCODEPAGE
  3
ANSI_1252
  9
$REQUIREDVERSIONS
160
                 0
  9
$COMMENTS
  1
File was created by Cadenas
  9
$CUSTOMPROPERTYTAG
  1
NN
  9
$CUSTOMPROPERTY
  1
Flange Bearing -  Non-Expansion - Inch
  9
$CUSTOMPROPERTYTAG
  1
NT
  9
$CUSTOMPROPERTY
  1
Type K
  9
$CUSTOMPROPERTYTAG
  1
NB
  9
$CUSTOMPROPERTY
  1
023228
  9
$CUSTOMPROPERTYTAG
  1
NBSYN
  9
$CUSTOMPROPERTY
  1
$PN.
  9
$CUSTOMPROPERTYTAG
  1
LINA
  9
$CUSTOMPROPERTY
  1
023228
  9
$CUSTOMPROPERTYTAG
  1
SS
  9
$CUSTOMPROPERTY
  1
3
  9
$CUSTOMPROPERTYTAG
  1
PN
  9
$CUSTOMPROPERTY
  1
023228
  9
$CUSTOMPROPERTYTAG
  1
PNA
  9
$CUSTOMPROPERTY
  1
F4B-K-300R
  9
$CUSTOMPROPERTYTAG
  1
WEIGHT
  9
$CUSTOMPROPERTY
  1
24
  9
$CUSTOMPROPERTYTAG
  1
A
  9
$CUSTOMPROPERTY
  1
4
  9
$CUSTOMPROPERTYTAG
  1
B
  9
$CUSTOMPROPERTY
  1
8-7/8
  9
$CUSTOMPROPERTYTAG
  1
C
  9
$CUSTOMPROPERTY
  1
3-11/32
  9
$CUSTOMPROPERTYTAG
  1
D
  9
$CUSTOMPROPERTY
  1
6-57/64
  9
$CUSTOMPROPERTYTAG
  1
E
  9
$CUSTOMPROPERTY
  1
1/4
  9
$CUSTOMPROPERTYTAG
  1
F
  9
$CUSTOMPROPERTY
  1
3/4
  9
$CUSTOMPROPERTYTAG
  1
G
  9
$CUSTOMPROPERTY
  1
9-1/2
  9
$CUSTOMPROPERTYTAG
  1
H
  9
$CUSTOMPROPERTY
  1
11/16
  9
$CUSTOMPROPERTYTAG
  1
J
  9
$CUSTOMPROPERTY
  1
6-57/64
  9
$CUSTOMPROPERTYTAG
  1
L
  9
$CUSTOMPROPERTY
  1
4-23/32
  9
$CUSTOMPROPERTYTAG
  1
CS
  9
$CUSTOMPROPERTY
  1
61200
  9
$CUSTOMPROPERTYTAG
  1
CD
  9
$CUSTOMPROPERTY
  1
9600
  9
$CUSTOMPROPERTYTAG
  1
RN
  9
$CUSTOMPROPERTY
  1
24
  9
$CUSTOMPROPERTYTAG
  1
RM
  9
$CUSTOMPROPERTY
  1
.41
  9
$CUSTOMPROPERTYTAG
  1
PDI
  9
$CUSTOMPROPERTY
  1
3.900
  9
$CUSTOMPROPERTYTAG
  1
EP
  9
$CUSTOMPROPERTY
  1
.004-0.12
  9
$CUSTOMPROPERTYTAG
  1
SC
  9
$CUSTOMPROPERTY
  1
1/2-13*7/8
  9
$CUSTOMPROPERTYTAG
  1
TC
  9
$CUSTOMPROPERTY
  1
620
  9
$CUSTOMPROPERTYTAG
  1
MH
  9
$CUSTOMPROPERTY
  1
C.I. ASTM A48 CLASS 30
  9
$CUSTOMPROPERTYTAG
  1
MC
  9
$CUSTOMPROPERTY
  1
4118 CASE CARB.
  9
$CUSTOMPROPERTYTAG
  1
MCU
  9
$CUSTOMPROPERTY
  1
4118 CASE CARB.
  9
$CUSTOMPROPERTYTAG
  1
MR
  9
$CUSTOMPROPERTY
  1
STEEL
  9
$CUSTOMPROPERTYTAG
  1
MRO
  9
$CUSTOMPROPERTY
  1
4118 CASE CARB.
  9
$CUSTOMPROPERTYTAG
  1
SM
  9
$CUSTOMPROPERTY
  1
3.77
  9
$CUSTOMPROPERTYTAG
  1
COMPANY
  9
$CUSTOMPROPERTY
  1
baldor
  9
$INSBASE
 10
0.0
 20
0.0
 30
0.0
  9
$EXTMIN
 10
1.000000000000000E+20
 20
1.000000000000000E+20
 30
1.000000000000000E+20
  9
$EXTMAX
 10
-1.000000000000000E+20
 20
-1.000000000000000E+20
 30
-1.000000000000000E+20
  9
$LIMMIN
 10
0.0
 20
0.0
  9
$LIMMAX
 10
12.0
 20
9.0
  9
$ORTHOMODE
 70
     0
  9
$REGENMODE
 70
     1
  9
$FILLMODE
 70
     1
  9
$QTEXTMODE
 70
     0
  9
$MIRRTEXT
 70
     1
  9
$LTSCALE
 40
1.0
  9
$ATTMODE
 70
     1
  9
$TEXTSIZE
 40
0.2
  9
$TRACEWID
 40
0.05
  9
$TEXTSTYLE
  7
Standard
  9
$CLAYER
  8
0
  9
$CELTYPE
  6
ByLayer
  9
$CECOLOR
 62
   256
  9
$CELTSCALE
 40
1.0
  9
$DISPSILH
 70
     0
  9
$DIMSCALE
 40
1.0
  9
$DIMASZ
 40
0.18
  9
$DIMEXO
 40
0.0625
  9
$DIMDLI
 40
0.38
  9
$DIMRND
 40
0.0
  9
$DIMDLE
 40
0.0
  9
$DIMEXE
 40
0.18
  9
$DIMTP
 40
0.0
  9
$DIMTM
 40
0.0
  9
$DIMTXT
 40
0.18
  9
$DIMCEN
 40
0.09
  9
$DIMTSZ
 40
0.0
  9
$DIMTOL
 70
     0
  9
$DIMLIM
 70
     0
  9
$DIMTIH
 70
     1
  9
$DIMTOH
 70
     1
  9
$DIMSE1
 70
     0
  9
$DIMSE2
 70
     0
  9
$DIMTAD
 70
     0
  9
$DIMZIN
 70
     0
  9
$DIMBLK
  1

  9
$DIMASO
 70
     1
  9
$DIMSHO
 70
     1
  9
$DIMPOST
  1

  9
$DIMAPOST
  1

  9
$DIMALT
 70
     0
  9
$DIMALTD
 70
     2
  9
$DIMALTF
 40
25.4
  9
$DIMLFAC
 40
1.0
  9
$DIMTOFL
 70
     0
  9
$DIMTVP
 40
0.0
  9
$DIMTIX
 70
     0
  9
$DIMSOXD
 70
     0
  9
$DIMSAH
 70
     0
  9
$DIMBLK1
  1

  9
$DIMBLK2
  1

  9
$DIMSTYLE
  2
Standard
  9
$DIMCLRD
 70
     0
  9
$DIMCLRE
 70
     0
  9
$DIMCLRT
 70
     0
  9
$DIMTFAC
 40
1.0
  9
$DIMGAP
 40
0.09
  9
$DIMJUST
 70
     0
  9
$DIMSD1
 70
     0
  9
$DIMSD2
 70
     0
  9
$DIMTOLJ
 70
     1
  9
$DIMTZIN
 70
     0
  9
$DIMALTZ
 70
     0
  9
$DIMALTTZ
 70
     0
  9
$DIMUPT
 70
     0
  9
$DIMDEC
 70
     4
  9
$DIMTDEC
 70
     4
  9
$DIMALTU
 70
     2
  9
$DIMALTTD
 70
     2
  9
$DIMTXSTY
  7
Standard
  9
$DIMAUNIT
 70
     0
  9
$DIMADEC
 70
     0
  9
$DIMALTRND
 40
0.0
  9
$DIMAZIN
 70
     0
  9
$DIMDSEP
 70
    46
  9
$DIMATFIT
 70
     3
  9
$DIMFRAC
 70
     0
  9
$DIMLDRBLK
  1

  9
$DIMLUNIT
 70
     2
  9
$DIMLWD
 70
    -2
  9
$DIMLWE
 70
    -2
  9
$DIMTMOVE
 70
     0
  9
$DIMFXL
 40
1.0
  9
$DIMFXLON
 70
     0
  9
$DIMJOGANG
 40
0.7853981633974483
  9
$DIMTFILL
 70
     0
  9
$DIMTFILLCLR
 70
     0
  9
$DIMARCSYM
 70
     0
  9
$DIMLTYPE
  6

  9
$DIMLTEX1
  6

  9
$DIMLTEX2
  6

  9
$DIMTXTDIRECTION
 70
     0
  9
$LUNITS
 70
     2
  9
$LUPREC
 70
     4
  9
$SKETCHINC
 40
0.1
  9
$FILLETRAD
 40
0.5
  9
$AUNITS
 70
     0
  9
$AUPREC
 70
     0
  9
$MENU
  1
.
  9
$ELEVATION
 40
0.0
  9
$PELEVATION
 40
0.0
  9
$THICKNESS
 40
0.0
  9
$LIMCHECK
 70
     0
  9
$CHAMFERA
 40
0.0
  9
$CHAMFERB
 40
0.0
  9
$CHAMFERC
 40
0.0
  9
$CHAMFERD
 40
0.0
  9
$SKPOLY
 70
     0
  9
$TDCREATE
 40
2458169.005476921
  9
$TDUCREATE
 40
2458168.963810255
  9
$TDUPDATE
 40
2458169.005477095
  9
$TDUUPDATE
 40
2458168.963810428
  9
$TDINDWG
 40
0.0000000116
  9
$TDUSRTIMER
 40
0.0000000116
  9
$USRTIMER
 70
     1
  9
$ANGBASE
 50
0.0
  9
$ANGDIR
 70
     0
  9
$PDMODE
 70
     0
  9
$PDSIZE
 40
0.0
  9
$PLINEWID
 40
0.0
  9
$SPLFRAME
 70
     0
  9
$SPLINETYPE
 70
     6
  9
$SPLINESEGS
 70
     8
  9
$HANDSEED
  5
1EE
  9
$SURFTAB1
 70
     6
  9
$SURFTAB2
 70
     6
  9
$SURFTYPE
 70
     6
  9
$SURFU
 70
     6
  9
$SURFV
 70
     6
  9
$UCSBASE
  2

  9
$UCSNAME
  2

  9
$UCSORG
 10
0.0
 20
0.0
 30
0.0
  9
$UCSXDIR
 10
1.0
 20
0.0
 30
0.0
  9
$UCSYDIR
 10
0.0
 20
1.0
 30
0.0
  9
$UCSORTHOREF
  2

  9
$UCSORTHOVIEW
 70
     0
  9
$UCSORGTOP
 10
0.0
 20
0.0
 30
0.0
  9
$UCSORGBOTTOM
 10
0.0
 20
0.0
 30
0.0
  9
$UCSORGLEFT
 10
0.0
 20
0.0
 30
0.0
  9
$UCSORGRIGHT
 10
0.0
 20
0.0
 30
0.0
  9
$UCSORGFRONT
 10
0.0
 20
0.0
 30
0.0
  9
$UCSORGBACK
 10
0.0
 20
0.0
 30
0.0
  9
$PUCSBASE
  2

  9
$PUCSNAME
  2

  9
$PUCSORG
 10
0.0
 20
0.0
 30
0.0
  9
$PUCSXDIR
 10
1.0
 20
0.0
 30
0.0
  9
$PUCSYDIR
 10
0.0
 20
1.0
 30
0.0
  9
$PUCSORTHOREF
  2

  9
$PUCSORTHOVIEW
 70
     0
  9
$PUCSORGTOP
 10
0.0
 20
0.0
 30
0.0
  9
$PUCSORGBOTTOM
 10
0.0
 20
0.0
 30
0.0
  9
$PUCSORGLEFT
 10
0.0
 20
0.0
 30
0.0
  9
$PUCSORGRIGHT
 10
0.0
 20
0.0
 30
0.0
  9
$PUCSORGFRONT
 10
0.0
 20
0.0
 30
0.0
  9
$PUCSORGBACK
 10
0.0
 20
0.0
 30
0.0
  9
$USERI1
 70
     0
  9
$USERI2
 70
     0
  9
$USERI3
 70
     0
  9
$USERI4
 70
     0
  9
$USERI5
 70
     0
  9
$USERR1
 40
0.0
  9
$USERR2
 40
0.0
  9
$USERR3
 40
0.0
  9
$USERR4
 40
0.0
  9
$USERR5
 40
0.0
  9
$WORLDVIEW
 70
     1
  9
$SHADEDGE
 70
     3
  9
$SHADEDIF
 70
    70
  9
$TILEMODE
 70
     1
  9
$MAXACTVP
 70
    64
  9
$PINSBASE
 10
0.0
 20
0.0
 30
0.0
  9
$PLIMCHECK
 70
     0
  9
$PEXTMIN
 10
1.000000000000000E+20
 20
1.000000000000000E+20
 30
1.000000000000000E+20
  9
$PEXTMAX
 10
-1.000000000000000E+20
 20
-1.000000000000000E+20
 30
-1.000000000000000E+20
  9
$PLIMMIN
 10
0.0
 20
0.0
  9
$PLIMMAX
 10
12.0
 20
9.0
  9
$UNITMODE
 70
     0
  9
$VISRETAIN
 70
     1
  9
$PLINEGEN
 70
     0
  9
$PSLTSCALE
 70
     1
  9
$TREEDEPTH
 70
  3020
  9
$CMLSTYLE
  2
Standard
  9
$CMLJUST
 70
     0
  9
$CMLSCALE
 40
1.0
  9
$PROXYGRAPHICS
 70
     1
  9
$MEASUREMENT
 70
     0
  9
$CELWEIGHT
370
    -1
  9
$ENDCAPS
280
     0
  9
$JOINSTYLE
280
     0
  9
$LWDISPLAY
290
     0
  9
$INSUNITS
 70
     1
  9
$HYPERLINKBASE
  1

  9
$STYLESHEET
  1

  9
$XEDIT
290
     1
  9
$CEPSNTYPE
380
     0
  9
$PSTYLEMODE
290
     1
  9
$FINGERPRINTGUID
  2
{CDAD96B2-2EAB-41DC-B24F-399CA2D0483B}
  9
$VERSIONGUID
  2
{FAEB1C32-E019-11D5-929B-00C0DF256EC4}
  9
$EXTNAMES
290
     1
  9
$PSVPSCALE
 40
0.0
  9
$OLESTARTUP
290
     0
  9
$SORTENTS
280
   127
  9
$INDEXCTL
280
     0
  9
$HIDETEXT
280
     1
  9
$XCLIPFRAME
280
     2
  9
$HALOGAP
280
     0
  9
$OBSCOLOR
 70
   257
  9
$OBSLTYPE
280
     0
  9
$INTERSECTIONDISPLAY
280
     0
  9
$INTERSECTIONCOLOR
 70
   257
  9
$DIMASSOC
280
     2
  9
$PROJECTNAME
  1

  9
$CAMERADISPLAY
290
     0
  9
$LENSLENGTH
 40
50.0
  9
$CAMERAHEIGHT
 40
0.0
  9
$STEPSPERSEC
 40
2.0
  9
$STEPSIZE
 40
6.0
  9
$3DDWFPREC
 40
2.0
  9
$PSOLWIDTH
 40
0.25
  9
$PSOLHEIGHT
 40
4.0
  9
$LOFTANG1
 40
1.570796326794897
  9
$LOFTANG2
 40
1.570796326794897
  9
$LOFTMAG1
 40
0.0
  9
$LOFTMAG2
 40
0.0
  9
$LOFTPARAM
 70
     7
  9
$LOFTNORMALS
280
     1
  9
$LATITUDE
 40
37.795
  9
$LONGITUDE
 40
-122.394
  9
$NORTHDIRECTION
 40
0.0
  9
$TIMEZONE
 70
 -8000
  9
$LIGHTGLYPHDISPLAY
280
     1
  9
$TILEMODELIGHTSYNCH
280
     1
  9
$CMATERIAL
347
44
  9
$SOLIDHIST
280
     0
  9
$SHOWHIST
280
     1
  9
$DWFFRAME
280
     2
  9
$DGNFRAME
280
     2
  9
$REALWORLDSCALE
290
     1
  9
$INTERFERECOLOR
 62
   256
  9
$CSHADOW
280
     0
  9
$SHADOWPLANELOCATION
 40
0.0
  0
ENDSEC
  0
SECTION
  2
CLASSES
  0
CLASS
  1
ACDBDICTIONARYWDFLT
  2
AcDbDictionaryWithDefault
  3
ObjectDBX Classes
 90
        0
 91
        4
280
     0
281
     0
  0
CLASS
  1
VISUALSTYLE
  2
AcDbVisualStyle
  3
ObjectDBX Classes
 90
     4095
 91
        4
280
     0
281
     0
  0
CLASS
  1
MATERIAL
  2
AcDbMaterial
  3
ObjectDBX Classes
 90
     1153
 91
        4
280
     0
281
     0
  0
CLASS
  1
SCALE
  2
AcDbScale
  3
ObjectDBX Classes
 90
     1153
 91
        4
280
     0
281
     0
  0
CLASS
  1
TABLESTYLE
  2
AcDbTableStyle
  3
ObjectDBX Classes
 90
     4095
 91
        4
280
     0
281
     0
  0
CLASS
  1
MLEADERSTYLE
  2
AcDbMLeaderStyle
  3
ACDB_MLEADERSTYLE_CLASS
 90
     4095
 91
        4
280
     0
281
     0
  0
CLASS
  1
SUN
  2
AcDbSun
  3
SCENEOE
 90
     1153
 91
        4
280
     0
281
     0
  0
CLASS
  1
DICTIONARYVAR
  2
AcDbDictionaryVar
  3
ObjectDBX Classes
 90
        0
 91
        4
280
     0
281
     0
  0
CLASS
  1
CELLSTYLEMAP
  2
AcDbCellStyleMap
  3
ObjectDBX Classes
 90
     1152
 91
        4
280
     0
281
     0
  0
ENDSEC
  0
SECTION
  2
TABLES
  0
TABLE
  2
VPORT
  5
8
330
0
100
AcDbSymbolTable
 70
     1
  0
VPORT
  5
29
330
8
100
AcDbSymbolTableRecord
100
AcDbViewportTableRecord
  2
*Active
 70
     0
 10
0.0
 20
0.0
 11
1.0
 21
1.0
 12
0.0
 22
0.9499999999999993
 13
0.0
 23
0.0
 14
0.5
 24
0.5
 15
0.5
 25
0.5
 16
0.0
 26
0.0
 36
1.0
 17
0.0
 27
0.0
 37
0.0
 40
10.9905
 41
0.8816705336426912
 42
50.0
 43
0.0
 44
0.0
 50
0.0
 51
0.0
 71
     0
 72
   100
 73
     1
 74
     3
 75
     0
 76
     0
 77
     0
 78
     0
281
     0
 65
     1
110
0.0
120
0.0
130
0.0
111
1.0
121
0.0
131
0.0
112
0.0
122
1.0
132
0.0
 79
     0
146
0.0
348
2F
 60
     3
 61
     5
292
     1
282
     1
141
0.0
142
0.0
 63
   250
361
6D
  0
ENDTAB
  0
TABLE
  2
LTYPE
  5
5
330
0
100
AcDbSymbolTable
 70
     3
  0
LTYPE
  5
14
330
5
100
AcDbSymbolTableRecord
100
AcDbLinetypeTableRecord
  2
ByBlock
 70
     0
  3

 72
    65
 73
     0
 40
0.0
  0
LTYPE
  5
15
330
5
100
AcDbSymbolTableRecord
100
AcDbLinetypeTableRecord
  2
ByLayer
 70
     0
  3

 72
    65
 73
     0
 40
0.0
  0
LTYPE
  5
16
330
5
100
AcDbSymbolTableRecord
100
AcDbLinetypeTableRecord
  2
Continuous
 70
     0
  3
Solid line
 72
    65
 73
     0
 40
0.0
  0
LTYPE
  5
AA
330
5
100
AcDbSymbolTableRecord
100
AcDbLinetypeTableRecord
  2
Dashed
 70
     0
  3

 72
    65
 73
     2
 40
2.0
 49
1.0
 74
     0
 49
-1.0
 74
     0
  0
LTYPE
  5
13A
330
5
100
AcDbSymbolTableRecord
100
AcDbLinetypeTableRecord
  2
Center
 70
     0
  3

 72
    65
 73
     4
 40
1.5
 49
0.45
 74
     0
 49
-0.5
 74
     0
 49
0.05
 74
     0
 49
-0.5
 74
     0
  0
ENDTAB
  0
TABLE
  2
LAYER
  5
2
330
0
100
AcDbSymbolTable
 70
     7
  0
LAYER
  5
10
330
2
100
AcDbSymbolTableRecord
100
AcDbLayerTableRecord
  2
0
 70
     0
 62
     7
  6
Continuous
370
    -3
390
F
347
46
348
0
  0
LAYER
  5
72
330
2
100
AcDbSymbolTableRecord
100
AcDbLayerTableRecord
  2
AM_6
 70
     0
 62
    -2
  6
Continuous
370
    35
390
F
347
46
348
0
  0
LAYER
  5
AB
330
2
100
AcDbSymbolTableRecord
100
AcDbLayerTableRecord
  2
AM_9
 70
     0
 62
     6
  6
Dashed
370
    25
390
F
347
46
348
0
  0
LAYER
  5
BC
330
2
100
AcDbSymbolTableRecord
100
AcDbLayerTableRecord
  2
AM_5
 70
     0
 62
     3
  6
Continuous
370
    25
390
F
347
46
348
0
  0
LAYER
  5
C1
330
2
100
AcDbSymbolTableRecord
100
AcDbLayerTableRecord
  2
AM_4
 70
     0
 62
     7
  6
Continuous
370
    50
390
F
347
46
348
0
  0
LAYER
  5
13B
330
2
100
AcDbSymbolTableRecord
100
AcDbLayerTableRecord
  2
AM_7
 70
     0
 62
     7
  6
Center
370
    25
390
F
347
46
348
0
  0
LAYER
  5
1DE
330
2
100
AcDbSymbolTableRecord
100
AcDbLayerTableRecord
  2
ConnectionPoints
 70
     0
 62
     7
  6
Continuous
370
    50
390
F
347
46
348
0
  0
ENDTAB
  0
TABLE
  2
STYLE
  5
3
330
0
100
AcDbSymbolTable
 70
     1
  0
STYLE
  5
11
330
3
100
AcDbSymbolTableRecord
100
AcDbTextStyleTableRecord
  2
Standard
 70
     0
 40
0.0
 41
1.0
 50
0.0
 71
     0
 42
0.2
  3
txt
  4

  0
ENDTAB
  0
TABLE
  2
VIEW
  5
6
330
0
100
AcDbSymbolTable
 70
     0
  0
ENDTAB
  0
TABLE
  2
UCS
  5
7
330
0
100
AcDbSymbolTable
 70
     0
  0
ENDTAB
  0
TABLE
  2
APPID
  5
9
330
0
100
AcDbSymbolTable
 70
     1
  0
APPID
  5
12
330
9
100
AcDbSymbolTableRecord
100
AcDbRegAppTableRecord
  2
ACAD
 70
     0
  0
ENDTAB
  0
TABLE
  2
DIMSTYLE
  5
A
330
0
100
AcDbSymbolTable
 70
     1
100
AcDbDimStyleTable
  0
DIMSTYLE
105
27
330
A
100
AcDbSymbolTableRecord
100
AcDbDimStyleTableRecord
  2
Standard
 70
     0
178
     0
340
11
  0
ENDTAB
  0
TABLE
  2
BLOCK_RECORD
  5
1
330
0
100
AcDbSymbolTable
 70
     6
  0
BLOCK_RECORD
  5
1F
330
1
100
AcDbSymbolTableRecord
100
AcDbBlockTableRecord
  2
*Model_Space
340
22
 70
     0
280
     1
281
     0
  0
BLOCK_RECORD
  5
1B
330
1
100
AcDbSymbolTableRecord
100
AcDbBlockTableRecord
  2
*Paper_Space
340
1E
 70
     0
280
     1
281
     0
  0
BLOCK_RECORD
  5
23
330
1
100
AcDbSymbolTableRecord
100
AcDbBlockTableRecord
  2
*Paper_Space0
340
26
 70
     0
280
     1
281
     0
  0
BLOCK_RECORD
  5
6E
330
1
100
AcDbSymbolTableRecord
100
AcDbBlockTableRecord
  2
1_023228_0
340
0
102
{BLKREFS
331
6F
102
}
 70
     0
280
     1
281
     0
  0
BLOCK_RECORD
  5
95
330
1
100
AcDbSymbolTableRecord
100
AcDbBlockTableRecord
  2
2_3C_0_in_023228_0
340
0
102
{BLKREFS
331
96
102
}
 70
     0
280
     1
281
     0
  0
BLOCK_RECORD
  5
C5
330
1
100
AcDbSymbolTableRecord
100
AcDbBlockTableRecord
  2
3_405020c_Inch_0_in_023228_0
340
0
102
{BLKREFS
331
C6
102
}
 70
     0
280
     1
281
     0
  0
BLOCK_RECORD
  5
FC
330
1
100
AcDbSymbolTableRecord
100
AcDbBlockTableRecord
  2
4_S1U_K_300R_0_in_023228_0
340
0
102
{BLKREFS
331
FD
102
}
 70
     0
280
     1
281
     0
  0
BLOCK_RECORD
  5
142
330
1
100
AcDbSymbolTableRecord
100
AcDbBlockTableRecord
  2
5_F4B_K_300R_0_in_023228_0
340
0
102
{BLKREFS
331
143
102
}
 70
     0
280
     1
281
     0
  0
ENDTAB
  0
ENDSEC
  0
SECTION
  2
BLOCKS
  0
BLOCK
  5
20
330
1F
100
AcDbEntity
  8
0
100
AcDbBlockBegin
  2
*Model_Space
 70
     0
 10
0.0
 20
0.0
 30
0.0
  3
*Model_Space
  1

  0
ENDBLK
  5
21
330
1F
100
AcDbEntity
  8
0
100
AcDbBlockEnd
  0
BLOCK
  5
1C
330
1B
100
AcDbEntity
 67
     1
  8
0
100
AcDbBlockBegin
  2
*Paper_Space
 70
     0
 10
0.0
 20
0.0
 30
0.0
  3
*Paper_Space
  1

  0
ENDBLK
  5
1D
330
1B
100
AcDbEntity
 67
     1
  8
0
100
AcDbBlockEnd
  0
BLOCK
  5
24
330
23
100
AcDbEntity
  8
0
100
AcDbBlockBegin
  2
*Paper_Space0
 70
     0
 10
0.0
 20
0.0
 30
0.0
  3
*Paper_Space0
  1

  0
ENDBLK
  5
25
330
23
100
AcDbEntity
  8
0
100
AcDbBlockEnd
  0
BLOCK
  5
70
330
6E
100
AcDbEntity
  8
0
100
AcDbBlockBegin
  2
1_023228_0
 70
     2
 10
0.0
 20
0.0
 30
0.0
  3
1_023228_0
  1

  0
ATTDEF
  5
73
330
6E
100
AcDbEntity
  8
AM_6
100
AcDbText
 10
9.75
 20
6.3375
 30
0.0
 40
0.5
  1
Flange Bearing -  Non-Expansion - Inch
100
AcDbAttributeDefinition
  3

  2
NN
 70
     8
280
     0
  0
ATTDEF
  5
74
330
6E
100
AcDbEntity
  8
AM_6
100
AcDbText
 10
9.75
 20
5.8375
 30
0.0
 40
0.5
  1
Type K
100
AcDbAttributeDefinition
  3

  2
NT
 70
     8
280
     0
  0
ATTDEF
  5
75
330
6E
100
AcDbEntity
  8
AM_6
100
AcDbText
 10
9.75
 20
5.3375
 30
0.0
 40
0.5
  1
023228
100
AcDbAttributeDefinition
  3

  2
NB
 70
     8
280
     0
  0
ATTDEF
  5
76
330
6E
100
AcDbEntity
  8
AM_6
100
AcDbText
 10
9.75
 20
4.8375
 30
0.0
 40
0.5
  1
$PN.
100
AcDbAttributeDefinition
  3

  2
NBSYN
 70
     8
280
     0
  0
ATTDEF
  5
77
330
6E
100
AcDbEntity
  8
AM_6
100
AcDbText
 10
9.75
 20
4.3375
 30
0.0
 40
0.5
  1
023228
100
AcDbAttributeDefinition
  3

  2
LINA
 70
     8
280
     0
  0
ATTDEF
  5
78
330
6E
100
AcDbEntity
  8
AM_6
100
AcDbText
 10
9.75
 20
3.8375
 30
0.0
 40
0.5
  1
3
100
AcDbAttributeDefinition
  3

  2
SS
 70
     8
280
     0
  0
ATTDEF
  5
79
330
6E
100
AcDbEntity
  8
AM_6
100
AcDbText
 10
9.75
 20
3.3375
 30
0.0
 40
0.5
  1
023228
100
AcDbAttributeDefinition
  3

  2
PN
 70
     8
280
     0
  0
ATTDEF
  5
7A
330
6E
100
AcDbEntity
  8
AM_6
100
AcDbText
 10
9.75
 20
2.8375
 30
0.0
 40
0.5
  1
F4B-K-300R
100
AcDbAttributeDefinition
  3

  2
PNA
 70
     8
280
     0
  0
ATTDEF
  5
7B
330
6E
100
AcDbEntity
  8
AM_6
100
AcDbText
 10
9.75
 20
2.3375
 30
0.0
 40
0.5
  1
24
100
AcDbAttributeDefinition
  3

  2
WEIGHT
 70
     8
280
     0
  0
ATTDEF
  5
7C
330
6E
100
AcDbEntity
  8
AM_6
100
AcDbText
 10
9.75
 20
1.8375
 30
0.0
 40
0.5
  1
4
100
AcDbAttributeDefinition
  3

  2
A
 70
     8
280
     0
  0
ATTDEF
  5
7D
330
6E
100
AcDbEntity
  8
AM_6
100
AcDbText
 10
9.75
 20
1.3375
 30
0.0
 40
0.5
  1
8-7/8
100
AcDbAttributeDefinition
  3

  2
B
 70
     8
280
     0
  0
ATTDEF
  5
7E
330
6E
100
AcDbEntity
  8
AM_6
100
AcDbText
 10
9.75
 20
0.8375000000000004
 30
0.0
 40
0.5
  1
3-11/32
100
AcDbAttributeDefinition
  3

  2
C
 70
     8
280
     0
  0
ATTDEF
  5
7F
330
6E
100
AcDbEntity
  8
AM_6
100
AcDbText
 10
9.75
 20
0.3375000000000004
 30
0.0
 40
0.5
  1
6-57/64
100
AcDbAttributeDefinition
  3

  2
D
 70
     8
280
     0
  0
ATTDEF
  5
80
330
6E
100
AcDbEntity
  8
AM_6
100
AcDbText
 10
9.75
 20
-0.1624999999999996
 30
0.0
 40
0.5
  1
1/4
100
AcDbAttributeDefinition
  3

  2
E
 70
     8
280
     0
  0
ATTDEF
  5
81
330
6E
100
AcDbEntity
  8
AM_6
100
AcDbText
 10
9.75
 20
-0.6624999999999996
 30
0.0
 40
0.5
  1
3/4
100
AcDbAttributeDefinition
  3

  2
F
 70
     8
280
     0
  0
ATTDEF
  5
82
330
6E
100
AcDbEntity
  8
AM_6
100
AcDbText
 10
9.75
 20
-1.1625
 30
0.0
 40
0.5
  1
9-1/2
100
AcDbAttributeDefinition
  3

  2
G
 70
     8
280
     0
  0
ATTDEF
  5
83
330
6E
100
AcDbEntity
  8
AM_6
100
AcDbText
 10
9.75
 20
-1.6625
 30
0.0
 40
0.5
  1
11/16
100
AcDbAttributeDefinition
  3

  2
H
 70
     8
280
     0
  0
ATTDEF
  5
84
330
6E
100
AcDbEntity
  8
AM_6
100
AcDbText
 10
9.75
 20
-2.1625
 30
0.0
 40
0.5
  1
6-57/64
100
AcDbAttributeDefinition
  3

  2
J
 70
     8
280
     0
  0
ATTDEF
  5
85
330
6E
100
AcDbEntity
  8
AM_6
100
AcDbText
 10
9.75
 20
-2.6625
 30
0.0
 40
0.5
  1
4-23/32
100
AcDbAttributeDefinition
  3

  2
L
 70
     8
280
     0
  0
ATTDEF
  5
86
330
6E
100
AcDbEntity
  8
AM_6
100
AcDbText
 10
9.75
 20
-3.1625
 30
0.0
 40
0.5
  1
61200
100
AcDbAttributeDefinition
  3

  2
CS
 70
     8
280
     0
  0
ATTDEF
  5
87
330
6E
100
AcDbEntity
  8
AM_6
100
AcDbText
 10
9.75
 20
-3.6625
 30
0.0
 40
0.5
  1
9600
100
AcDbAttributeDefinition
  3

  2
CD
 70
     8
280
     0
  0
ATTDEF
  5
88
330
6E
100
AcDbEntity
  8
AM_6
100
AcDbText
 10
9.75
 20
-4.1625
 30
0.0
 40
0.5
  1
24
100
AcDbAttributeDefinition
  3

  2
RN
 70
     8
280
     0
  0
ATTDEF
  5
89
330
6E
100
AcDbEntity
  8
AM_6
100
AcDbText
 10
9.75
 20
-4.6625
 30
0.0
 40
0.5
  1
.41
100
AcDbAttributeDefinition
  3

  2
RM
 70
     8
280
     0
  0
ATTDEF
  5
8A
330
6E
100
AcDbEntity
  8
AM_6
100
AcDbText
 10
9.75
 20
-5.1625
 30
0.0
 40
0.5
  1
3.900
100
AcDbAttributeDefinition
  3

  2
PDI
 70
     8
280
     0
  0
ATTDEF
  5
8B
330
6E
100
AcDbEntity
  8
AM_6
100
AcDbText
 10
9.75
 20
-5.6625
 30
0.0
 40
0.5
  1
.004-0.12
100
AcDbAttributeDefinition
  3

  2
EP
 70
     8
280
     0
  0
ATTDEF
  5
8C
330
6E
100
AcDbEntity
  8
AM_6
100
AcDbText
 10
9.75
 20
-6.1625
 30
0.0
 40
0.5
  1
1/2-13*7/8
100
AcDbAttributeDefinition
  3

  2
SC
 70
     8
280
     0
  0
ATTDEF
  5
8D
330
6E
100
AcDbEntity
  8
AM_6
100
AcDbText
 10
9.75
 20
-6.6625
 30
0.0
 40
0.5
  1
620
100
AcDbAttributeDefinition
  3

  2
TC
 70
     8
280
     0
  0
ATTDEF
  5
8E
330
6E
100
AcDbEntity
  8
AM_6
100
AcDbText
 10
9.75
 20
-7.1625
 30
0.0
 40
0.5
  1
C.I. ASTM A48 CLASS 30
100
AcDbAttributeDefinition
  3

  2
MH
 70
     8
280
     0
  0
ATTDEF
  5
8F
330
6E
100
AcDbEntity
  8
AM_6
100
AcDbText
 10
9.75
 20
-7.6625
 30
0.0
 40
0.5
  1
4118 CASE CARB.
100
AcDbAttributeDefinition
  3

  2
MC
 70
     8
280
     0
  0
ATTDEF
  5
90
330
6E
100
AcDbEntity
  8
AM_6
100
AcDbText
 10
9.75
 20
-8.1625
 30
0.0
 40
0.5
  1
4118 CASE CARB.
100
AcDbAttributeDefinition
  3

  2
MCU
 70
     8
280
     0
  0
ATTDEF
  5
91
330
6E
100
AcDbEntity
  8
AM_6
100
AcDbText
 10
9.75
 20
-8.6625
 30
0.0
 40
0.5
  1
STEEL
100
AcDbAttributeDefinition
  3

  2
MR
 70
     8
280
     0
  0
ATTDEF
  5
92
330
6E
100
AcDbEntity
  8
AM_6
100
AcDbText
 10
9.75
 20
-9.1625
 30
0.0
 40
0.5
  1
4118 CASE CARB.
100
AcDbAttributeDefinition
  3

  2
MRO
 70
     8
280
     0
  0
ATTDEF
  5
93
330
6E
100
AcDbEntity
  8
AM_6
100
AcDbText
 10
9.75
 20
-9.6625
 30
0.0
 40
0.5
  1
3.77
100
AcDbAttributeDefinition
  3

  2
SM
 70
     8
280
     0
  0
ATTDEF
  5
94
330
6E
100
AcDbEntity
  8
AM_6
100
AcDbText
 10
9.75
 20
-10.1625
 30
0.0
 40
0.5
  1
baldor
100
AcDbAttributeDefinition
  3

  2
COMPANY
 70
     8
280
     0
  0
INSERT
  5
96
330
6E
100
AcDbEntity
  8
0
100
AcDbBlockReference
  2
2_3C_0_in_023228_0
 10
0.0
 20
0.0
 30
0.0
  0
INSERT
  5
C6
330
6E
100
AcDbEntity
  8
0
100
AcDbBlockReference
  2
3_405020c_Inch_0_in_023228_0
 10
0.0
 20
0.0
 30
0.0
  0
INSERT
  5
FD
330
6E
100
AcDbEntity
  8
0
100
AcDbBlockReference
  2
4_S1U_K_300R_0_in_023228_0
 10
0.0
 20
0.0
 30
0.0
  0
INSERT
  5
143
330
6E
100
AcDbEntity
  8
0
100
AcDbBlockReference
  2
5_F4B_K_300R_0_in_023228_0
 10
0.0
 20
0.0
 30
0.0
  0
ENDBLK
  5
71
330
6E
100
AcDbEntity
  8
0
100
AcDbBlockEnd
  0
BLOCK
  5
97
330
95
100
AcDbEntity
  8
0
100
AcDbBlockBegin
  2
2_3C_0_in_023228_0
 70
     2
 10
0.0
 20
0.0
 30
0.0
  3
2_3C_0_in_023228_0
  1

  0
ATTDEF
  5
99
330
95
100
AcDbEntity
  8
AM_6
100
AcDbText
 10
7.359375
 20
2.359375
 30
0.0
 40
0.5
  1
E-Type Collar -Inch
100
AcDbAttributeDefinition
  3

  2
NN
 70
     8
280
     0
  0
ATTDEF
  5
9A
330
95
100
AcDbEntity
  8
AM_6
100
AcDbText
 10
7.359375
 20
1.859375
 30
0.0
 40
0.5
  1
E-Type Bearings
100
AcDbAttributeDefinition
  3

  2
NT
 70
     8
280
     0
  0
ATTDEF
  5
9B
330
95
100
AcDbEntity
  8
AM_6
100
AcDbText
 10
7.359375
 20
1.359375
 30
0.0
 40
0.5
  1
3C
100
AcDbAttributeDefinition
  3

  2
NB
 70
     8
280
     0
  0
ATTDEF
  5
9C
330
95
100
AcDbEntity
  8
AM_6
100
AcDbText
 10
7.359375
 20
0.859375
 30
0.0
 40
0.5
  1
$BORE.C
100
AcDbAttributeDefinition
  3

  2
NBSYN
 70
     8
280
     0
  0
ATTDEF
  5
9D
330
95
100
AcDbEntity
  8
AM_6
100
AcDbText
 10
7.359375
 20
0.359375
 30
0.0
 40
0.5
  1
3C
100
AcDbAttributeDefinition
  3

  2
LINA
 70
     8
280
     0
  0
ATTDEF
  5
9E
330
95
100
AcDbEntity
  8
AM_6
100
AcDbText
 10
7.359375
 20
-0.140625
 30
0.0
 40
0.5
  1
3
100
AcDbAttributeDefinition
  3

  2
BORE
 70
     8
280
     0
  0
ATTDEF
  5
9F
330
95
100
AcDbEntity
  8
AM_6
100
AcDbText
 10
7.359375
 20
-0.640625
 30
0.0
 40
0.5
  1
4.71875
100
AcDbAttributeDefinition
  3

  2
L
 70
     8
280
     0
  0
ATTDEF
  5
A0
330
95
100
AcDbEntity
  8
AM_6
100
AcDbText
 10
7.359375
 20
-1.140625
 30
0.0
 40
0.5
  1
4.50
100
AcDbAttributeDefinition
  3

  2
A
 70
     8
280
     0
  0
ATTDEF
  5
A1
330
95
100
AcDbEntity
  8
AM_6
100
AcDbText
 10
7.359375
 20
-1.640625
 30
0.0
 40
0.5
  1
1.94
100
AcDbAttributeDefinition
  3

  2
B
 70
     8
280
     0
  0
ATTDEF
  5
A2
330
95
100
AcDbEntity
  8
AM_6
100
AcDbText
 10
7.359375
 20
-2.140625
 30
0.0
 40
0.5
  1
3.47
100
AcDbAttributeDefinition
  3

  2
C
 70
     8
280
     0
  0
ATTDEF
  5
A3
330
95
100
AcDbEntity
  8
AM_6
100
AcDbText
 10
7.359375
 20
-2.640625
 30
0.0
 40
0.5
  1
4.78
100
AcDbAttributeDefinition
  3

  2
D
 70
     8
280
     0
  0
ATTDEF
  5
A4
330
95
100
AcDbEntity
  8
AM_6
100
AcDbText
 10
7.359375
 20
-3.140625
 30
0.0
 40
0.5
  1
0.54
100
AcDbAttributeDefinition
  3

  2
E
 70
     8
280
     0
  0
ATTDEF
  5
A5
330
95
100
AcDbEntity
  8
AM_6
100
AcDbText
 10
7.359375
 20
-3.640625
 30
0.0
 40
0.5
  1
0.44
100
AcDbAttributeDefinition
  3

  2
F
 70
     8
280
     0
  0
ATTDEF
  5
A6
330
95
100
AcDbEntity
  8
AM_6
100
AcDbText
 10
7.359375
 20
-4.140625
 30
0.0
 40
0.5
  1
1/2-13
100
AcDbAttributeDefinition
  3

  2
CS
 70
     8
280
     0
  0
ATTDEF
  5
A7
330
95
100
AcDbEntity
  8
AM_6
100
AcDbText
 10
7.359375
 20
-4.640625
 30
0.0
 40
0.5
  1
0.5000
100
AcDbAttributeDefinition
  3

  2
NDM
 70
     8
280
     0
  0
ATTDEF
  5
A8
330
95
100
AcDbEntity
  8
AM_6
100
AcDbText
 10
7.359375
 20
-5.140625
 30
0.0
 40
0.5
  1
0.4170
100
AcDbAttributeDefinition
  3

  2
KDM
 70
     8
280
     0
  0
ATTDEF
  5
A9
330
95
100
AcDbEntity
  8
AM_6
100
AcDbText
 10
7.359375
 20
-5.640625
 30
0.0
 40
0.5
  1
baldor
100
AcDbAttributeDefinition
  3

  2
COMPANY
 70
     8
280
     0
  0
LINE
  5
AC
330
95
100
AcDbEntity
  8
AM_9
100
AcDbLine
 10
1.66803398510445
 20
0.5479282319011708
 30
0.0
 11
2.188624730543194
 21
0.7906836832638764
 31
0.0
  0
LINE
  5
AD
330
95
100
AcDbEntity
  8
AM_9
100
AcDbLine
 10
2.012519700875845
 20
1.168342138122048
 30
0.0
 11
1.491928955437101
 21
0.925586686759343
 31
0.0
  0
LINE
  5
AE
330
95
100
AcDbEntity
  8
AM_9
100
AcDbLine
 10
0.20835
 20
1.743316666666667
 30
0.0
 11
0.20835
 21
2.317725
 31
0.0
  0
LINE
  5
AF
330
95
100
AcDbEntity
  8
AM_9
100
AcDbLine
 10
-0.20835
 20
2.317725
 30
0.0
 11
-0.20835
 21
1.743316666666667
 31
0.0
  0
LINE
  5
B0
330
95
100
AcDbEntity
  8
AM_9
100
AcDbLine
 10
1.491928955437101
 20
0.925586686759343
 30
0.0
 11
1.66803398510445
 21
0.547928231901171
 31
0.0
  0
LINE
  5
B1
330
95
100
AcDbEntity
  8
AM_9
100
AcDbLine
 10
1.491928955437101
 20
0.925586686759343
 30
0.0
 11
1.461818353301705
 21
0.9365460496724592
 31
0.0
  0
LINE
  5
B2
330
95
100
AcDbEntity
  8
AM_9
100
AcDbLine
 10
1.656716799087247
 20
0.516834518867137
 30
0.0
 11
1.66803398510445
 21
0.547928231901171
 31
0.0
  0
LINE
  5
B3
330
95
100
AcDbEntity
  8
AM_9
100
AcDbLine
 10
-0.20835
 20
1.743316666666667
 30
0.0
 11
0.20835
 21
1.743316666666667
 31
0.0
  0
LINE
  5
B4
330
95
100
AcDbEntity
  8
AM_9
100
AcDbLine
 10
-0.20835
 20
1.743316666666667
 30
0.0
 11
-0.2305787418886129
 21
1.721087924778054
 31
0.0
  0
LINE
  5
B5
330
95
100
AcDbEntity
  8
AM_9
100
AcDbLine
 10
0.2312753676542376
 20
1.720391299012429
 30
0.0
 11
0.20835
 21
1.743316666666667
 31
0.0
  0
LINE
  5
B6
330
95
100
AcDbEntity
  8
AM_9
100
AcDbLine
 10
2.012519700875845
 20
1.168342138122048
 30
0.0
 11
2.188624730543194
 21
0.7906836832638764
 31
0.0
  0
LINE
  5
B7
330
95
100
AcDbEntity
  8
AM_9
100
AcDbLine
 10
2.188624730543194
 20
0.7906836832638764
 30
0.0
 11
2.227489525446763
 21
0.7765380547581164
 31
0.0
  0
LINE
  5
B8
330
95
100
AcDbEntity
  8
AM_9
100
AcDbLine
 10
2.026839774127536
 20
1.207686216026007
 30
0.0
 11
2.012519700875845
 21
1.168342138122048
 31
0.0
  0
LINE
  5
B9
330
95
100
AcDbEntity
  8
AM_9
100
AcDbLine
 10
-0.20835
 20
2.317725
 30
0.0
 11
0.20835
 21
2.317725
 31
0.0
  0
LINE
  5
BA
330
95
100
AcDbEntity
  8
AM_9
100
AcDbLine
 10
0.20835
 20
2.317725
 30
0.0
 11
0.2375853484398958
 21
2.346960348439896
 31
0.0
  0
LINE
  5
BB
330
95
100
AcDbEntity
  8
AM_9
100
AcDbLine
 10
-0.2376400445699611
 20
2.347015044569961
 30
0.0
 11
-0.20835
 21
2.317725
 31
0.0
  0
LINE
  5
BD
330
95
100
AcDbEntity
  8
AM_5
100
AcDbLine
 10
-0.25
 20
1.716893997892706
 30
0.0
 11
-0.25
 21
1.701666666666667
 31
0.0
  0
LINE
  5
BE
330
95
100
AcDbEntity
  8
AM_5
100
AcDbLine
 10
0.25
 20
1.716893997892706
 30
0.0
 11
0.25
 21
1.701666666666667
 31
0.0
  0
LINE
  5
BF
330
95
100
AcDbEntity
  8
AM_5
100
AcDbLine
 10
1.661688965241821
 20
0.4990138102232935
 30
0.0
 11
1.647888316375874
 21
0.4925784619695944
 31
0.0
  0
LINE
  5
C0
330
95
100
AcDbEntity
  8
AM_5
100
AcDbLine
 10
1.45037983437147
 20
0.9521677037416182
 30
0.0
 11
1.436579185505524
 21
0.9457323554879193
 31
0.0
  0
CIRCLE
  5
C2
330
95
100
AcDbEntity
  8
AM_4
100
AcDbCircle
 10
0.0
 20
0.0
 30
0.0
 40
1.735
  0
CIRCLE
  5
C3
330
95
100
AcDbEntity
  8
AM_4
100
AcDbCircle
 10
0.0
 20
0.0
 30
0.0
 40
2.212708333333333
  0
CIRCLE
  5
C4
330
95
100
AcDbEntity
  8
AM_4
100
AcDbCircle
 10
-0.0000000000000002
 20
-0.0000000000000002
 30
0.0
 40
2.359375
  0
ENDBLK
  5
98
330
95
100
AcDbEntity
  8
0
100
AcDbBlockEnd
  0
BLOCK
  5
C7
330
C5
100
AcDbEntity
  8
0
100
AcDbBlockBegin
  2
3_405020c_Inch_0_in_023228_0
 70
     2
 10
0.0
 20
0.0
 30
0.0
  3
3_405020c_Inch_0_in_023228_0
  1

  0
ATTDEF
  5
C9
330
C5
100
AcDbEntity
  8
AM_6
100
AcDbText
 10
5.14065
 20
4.16925
 30
0.0
 40
0.5
  1
405020C -Inch
100
AcDbAttributeDefinition
  3

  2
NN
 70
     8
280
     0
  0
ATTDEF
  5
CA
330
C5
100
AcDbEntity
  8
AM_6
100
AcDbText
 10
5.14065
 20
3.66925
 30
0.0
 40
0.5
  1
Grease fitting
100
AcDbAttributeDefinition
  3

  2
NT
 70
     8
280
     0
  0
ATTDEF
  5
CB
330
C5
100
AcDbEntity
  8
AM_6
100
AcDbText
 10
5.14065
 20
3.16925
 30
0.0
 40
0.5
  1
405020c-Inch
100
AcDbAttributeDefinition
  3

  2
NB
 70
     8
280
     0
  0
ATTDEF
  5
CC
330
C5
100
AcDbEntity
  8
AM_6
100
AcDbText
 10
5.14065
 20
2.66925
 30
0.0
 40
0.5
  1
$MN.-Inch
100
AcDbAttributeDefinition
  3

  2
NBSYN
 70
     8
280
     0
  0
ATTDEF
  5
CD
330
C5
100
AcDbEntity
  8
AM_6
100
AcDbText
 10
5.14065
 20
2.16925
 30
0.0
 40
0.5
  1
405020c
100
AcDbAttributeDefinition
  3

  2
LINA
 70
     8
280
     0
  0
ATTDEF
  5
CE
330
C5
100
AcDbEntity
  8
AM_6
100
AcDbText
 10
5.14065
 20
1.66925
 30
0.0
 40
0.5
  1
405020c
100
AcDbAttributeDefinition
  3

  2
MN
 70
     8
280
     0
  0
ATTDEF
  5
CF
330
C5
100
AcDbEntity
  8
AM_6
100
AcDbText
 10
5.14065
 20
1.16925
 30
0.0
 40
0.5
  1
0.230
100
AcDbAttributeDefinition
  3

  2
NDR
 70
     8
280
     0
  0
ATTDEF
  5
D0
330
C5
100
AcDbEntity
  8
AM_6
100
AcDbText
 10
5.14065
 20
0.6692499999999999
 30
0.0
 40
0.5
  1
0.210
100
AcDbAttributeDefinition
  3

  2
KDR
 70
     8
280
     0
  0
ATTDEF
  5
D1
330
C5
100
AcDbEntity
  8
AM_6
100
AcDbText
 10
5.14065
 20
0.1692499999999999
 30
0.0
 40
0.5
  1
0.157
100
AcDbAttributeDefinition
  3

  2
BZE
 70
     8
280
     0
  0
ATTDEF
  5
D2
330
C5
100
AcDbEntity
  8
AM_6
100
AcDbText
 10
5.14065
 20
-0.3307500000000001
 30
0.0
 40
0.5
  1
9/32
100
AcDbAttributeDefinition
  3

  2
WAF
 70
     8
280
     0
  0
ATTDEF
  5
D3
330
C5
100
AcDbEntity
  8
AM_6
100
AcDbText
 10
5.14065
 20
-0.8307500000000001
 30
0.0
 40
0.5
  1
0.2813
100
AcDbAttributeDefinition
  3

  2
WAF1
 70
     8
280
     0
  0
ATTDEF
  5
D4
330
C5
100
AcDbEntity
  8
AM_6
100
AcDbText
 10
5.14065
 20
-1.33075
 30
0.0
 40
0.5
  1
0.545
100
AcDbAttributeDefinition
  3

  2
BL
 70
     8
280
     0
  0
ATTDEF
  5
D5
330
C5
100
AcDbEntity
  8
AM_6
100
AcDbText
 10
5.14065
 20
-1.83075
 30
0.0
 40
0.5
  1
0.200
100
AcDbAttributeDefinition
  3

  2
TL
 70
     8
280
     0
  0
ATTDEF
  5
D6
330
C5
100
AcDbEntity
  8
AM_6
100
AcDbText
 10
5.14065
 20
-2.33075
 30
0.0
 40
0.5
  1
baldor
100
AcDbAttributeDefinition
  3

  2
COMPANY
 70
     8
280
     0
  0
LINE
  5
D7
330
C5
100
AcDbEntity
  8
AM_9
100
AcDbLine
 10
0.080806429716728
 20
4.16925
 30
0.0
 11
-0.080806429716728
 21
4.16925
 31
0.0
  0
ARC
  5
D8
330
C5
100
AcDbEntity
  8
AM_9
100
AcDbCircle
 10
-0.0808064297167265
 20
4.144249999999998
 30
0.0
 40
0.0250000000000021
100
AcDbArc
 50
90.0
 51
156.999999999997
  0
ARC
  5
D9
330
C5
100
AcDbEntity
  8
AM_9
100
AcDbCircle
 10
0.0808064297167265
 20
4.144249999999998
 30
0.0
 40
0.0250000000000022
100
AcDbArc
 50
23.00000000000301
 51
90.0
  0
ARC
  5
DA
330
C5
100
AcDbEntity
  8
AM_9
100
AcDbCircle
 10
-0.144684789639098
 20
3.957592555146223
 30
0.0
 40
0.0499999999999994
100
AcDbArc
 50
314.9999999999995
 51
25.00000000000012
  0
ARC
  5
DB
330
C5
100
AcDbEntity
  8
AM_9
100
AcDbCircle
 10
0.144684789639098
 20
3.957592555146223
 30
0.0
 40
0.0499999999999992
100
AcDbArc
 50
154.9999999999999
 51
225.0000000000005
  0
LINE
  5
DC
330
C5
100
AcDbEntity
  8
AM_9
100
AcDbLine
 10
0.1000886227036577
 20
3.62425
 30
0.0
 11
0.1104162595939891
 21
3.634577636890332
 31
0.0
  0
LINE
  5
DD
330
C5
100
AcDbEntity
  8
AM_9
100
AcDbLine
 10
-0.1104162595939891
 20
3.634577636890332
 30
0.0
 11
-0.1000886227036577
 21
3.62425
 31
0.0
  0
LINE
  5
DE
330
C5
100
AcDbEntity
  8
AM_9
100
AcDbLine
 10
0.1000886227036577
 20
3.62425
 30
0.0
 11
-0.1000886227036577
 21
3.62425
 31
0.0
  0
LINE
  5
DF
330
C5
100
AcDbEntity
  8
AM_9
100
AcDbLine
 10
0.1104162595939891
 20
3.634577636890332
 30
0.0
 11
0.1163438171532771
 21
3.82425
 31
0.0
  0
LINE
  5
E0
330
C5
100
AcDbEntity
  8
AM_9
100
AcDbLine
 10
-0.1163438171532771
 20
3.82425
 30
0.0
 11
-0.1104162595939891
 21
3.634577636890332
 31
0.0
  0
LINE
  5
E1
330
C5
100
AcDbEntity
  8
AM_9
100
AcDbLine
 10
0.1104162595939891
 20
3.634577636890332
 30
0.0
 11
-0.1104162595939891
 21
3.634577636890332
 31
0.0
  0
LINE
  5
E2
330
C5
100
AcDbEntity
  8
AM_9
100
AcDbLine
 10
0.14065
 20
3.830080207530646
 30
0.0
 11
0.14065
 21
3.890916666666667
 31
0.0
  0
LINE
  5
E3
330
C5
100
AcDbEntity
  8
AM_9
100
AcDbLine
 10
-0.14065
 20
3.890916666666667
 30
0.0
 11
-0.14065
 21
3.830080207530646
 31
0.0
  0
LINE
  5
E4
330
C5
100
AcDbEntity
  8
AM_9
100
AcDbLine
 10
0.0993694002872663
 20
3.978723468233258
 30
0.0
 11
0.1312419113468905
 21
4.047074288774639
 31
0.0
  0
LINE
  5
E5
330
C5
100
AcDbEntity
  8
AM_9
100
AcDbLine
 10
-0.1312419113468905
 20
4.047074288774639
 30
0.0
 11
-0.0993694002872663
 21
3.978723468233258
 31
0.0
  0
LINE
  5
E6
330
C5
100
AcDbEntity
  8
AM_9
100
AcDbLine
 10
0.0993694002872663
 20
3.978723468233258
 30
0.0
 11
-0.0993694002872663
 21
3.978723468233258
 31
0.0
  0
LINE
  5
E7
330
C5
100
AcDbEntity
  8
AM_9
100
AcDbLine
 10
-0.1038190510530391
 20
4.154018278212232
 30
0.0
 11
-0.13195176466768
 21
4.087741758286138
 31
0.0
  0
LINE
  5
E8
330
C5
100
AcDbEntity
  8
AM_9
100
AcDbLine
 10
0.13195176466768
 20
4.087741758286138
 30
0.0
 11
0.1038190510530391
 21
4.154018278212232
 31
0.0
  0
LINE
  5
E9
330
C5
100
AcDbEntity
  8
AM_9
100
AcDbLine
 10
0.1038190510530391
 20
4.154018278212232
 30
0.0
 11
-0.1038190510530391
 21
4.154018278212232
 31
0.0
  0
ARC
  5
EA
330
C5
100
AcDbEntity
  8
AM_9
100
AcDbCircle
 10
-0.0859265219950563
 20
4.068205201861675
 30
0.0
 40
0.0500000000000015
100
AcDbArc
 50
157.0000000000011
 51
204.9999999999999
  0
ARC
  5
EB
330
C5
100
AcDbEntity
  8
AM_9
100
AcDbCircle
 10
0.0859265219950563
 20
4.068205201861675
 30
0.0
 40
0.0500000000000018
100
AcDbArc
 50
335.0000000000001
 51
22.99999999999892
  0
LINE
  5
EC
330
C5
100
AcDbEntity
  8
AM_9
100
AcDbLine
 10
0.13195176466768
 20
4.087741758286138
 30
0.0
 11
-0.13195176466768
 21
4.087741758286138
 31
0.0
  0
LINE
  5
ED
330
C5
100
AcDbEntity
  8
AM_9
100
AcDbLine
 10
0.1312419113468905
 20
4.047074288774639
 30
0.0
 11
-0.1312419113468905
 21
4.047074288774639
 31
0.0
  0
LINE
  5
EE
330
C5
100
AcDbEntity
  8
AM_9
100
AcDbLine
 10
0.14065
 20
3.890916666666667
 30
0.0
 11
-0.14065
 21
3.890916666666667
 31
0.0
  0
LINE
  5
EF
330
C5
100
AcDbEntity
  8
AM_9
100
AcDbLine
 10
-0.1093294505797714
 20
3.922237216086895
 30
0.0
 11
-0.14065
 21
3.890916666666667
 31
0.0
  0
LINE
  5
F0
330
C5
100
AcDbEntity
  8
AM_9
100
AcDbLine
 10
0.14065
 20
3.890916666666667
 30
0.0
 11
0.1093294505797714
 21
3.922237216086895
 31
0.0
  0
LINE
  5
F1
330
C5
100
AcDbEntity
  8
AM_9
100
AcDbLine
 10
0.1093294505797714
 20
3.922237216086895
 30
0.0
 11
-0.1093294505797714
 21
3.922237216086895
 31
0.0
  0
LWPOLYLINE
  5
F2
330
C5
100
AcDbEntity
  8
AM_9
100
AcDbPolyline
 90
        3
 70
     0
 43
0.0
 10
0.070325
 20
3.890916666666667
 10
0.1054875
 20
3.889377791204198
 10
0.14065
 20
3.885086459136021
  0
LWPOLYLINE
  5
F3
330
C5
100
AcDbEntity
  8
AM_9
100
AcDbPolyline
 90
        3
 70
     0
 43
0.0
 10
0.0
 20
3.885086459136021
 10
0.0350043999316989
 20
3.889364196110488
 10
0.070325
 20
3.890916666666667
  0
LINE
  5
F4
330
C5
100
AcDbEntity
  8
AM_9
100
AcDbLine
 10
0.0
 20
3.885086459136021
 30
0.0
 11
0.0
 21
3.830080207530646
 31
0.0
  0
LWPOLYLINE
  5
F5
330
C5
100
AcDbEntity
  8
AM_9
100
AcDbPolyline
 90
        3
 70
     0
 43
0.0
 10
-0.070325
 20
3.890916666666667
 10
-0.0351625
 20
3.889377791204198
 10
0.0
 20
3.885086459136021
  0
LWPOLYLINE
  5
F6
330
C5
100
AcDbEntity
  8
AM_9
100
AcDbPolyline
 90
        3
 70
     0
 43
0.0
 10
-0.14065
 20
3.885086459136021
 10
-0.1056456000683011
 20
3.889364196110488
 10
-0.070325
 20
3.890916666666667
  0
LINE
  5
F7
330
C5
100
AcDbEntity
  8
AM_5
100
AcDbLine
 10
0.1057663861878746
 20
3.80592935215437
 30
0.0
 11
0.1000886227036577
 21
3.62425
 31
0.0
  0
LINE
  5
F8
330
C5
100
AcDbEntity
  8
AM_5
100
AcDbLine
 10
0.1163438171532771
 20
3.82425
 30
0.0
 11
0.1057663861878746
 21
3.80592935215437
 31
0.0
  0
LINE
  5
F9
330
C5
100
AcDbEntity
  8
AM_5
100
AcDbLine
 10
-0.1157712682966699
 20
3.80592935215437
 30
0.0
 11
0.11577126829667
 21
3.80592935215437
 31
0.0
  0
LINE
  5
FA
330
C5
100
AcDbEntity
  8
AM_5
100
AcDbLine
 10
-0.1057663861878746
 20
3.80592935215437
 30
0.0
 11
-0.1000886227036577
 21
3.62425
 31
0.0
  0
LINE
  5
FB
330
C5
100
AcDbEntity
  8
AM_5
100
AcDbLine
 10
-0.1163438171532771
 20
3.82425
 30
0.0
 11
-0.1057663861878746
 21
3.80592935215437
 31
0.0
  0
ENDBLK
  5
C8
330
C5
100
AcDbEntity
  8
0
100
AcDbBlockEnd
  0
BLOCK
  5
FE
330
FC
100
AcDbEntity
  8
0
100
AcDbBlockBegin
  2
4_S1U_K_300R_0_in_023228_0
 70
     2
 10
0.0
 20
0.0
 30
0.0
  3
4_S1U_K_300R_0_in_023228_0
  1

  0
ATTDEF
  5
100
330
FC
100
AcDbEntity
  8
AM_6
100
AcDbText
 10
8.030483966195167
 20
3.824250000000001
 30
0.0
 40
0.5
  1
Type K Units - Inch
100
AcDbAttributeDefinition
  3

  2
NN
 70
     8
280
     0
  0
ATTDEF
  5
101
330
FC
100
AcDbEntity
  8
AM_6
100
AcDbText
 10
8.030483966195167
 20
3.324250000000001
 30
0.0
 40
0.5
  1
Type K
100
AcDbAttributeDefinition
  3

  2
NT
 70
     8
280
     0
  0
ATTDEF
  5
102
330
FC
100
AcDbEntity
  8
AM_6
100
AcDbText
 10
8.030483966195167
 20
2.824250000000001
 30
0.0
 40
0.5
  1
S1U-K-300R
100
AcDbAttributeDefinition
  3

  2
NB
 70
     8
280
     0
  0
ATTDEF
  5
103
330
FC
100
AcDbEntity
  8
AM_6
100
AcDbText
 10
8.030483966195167
 20
2.324250000000001
 30
0.0
 40
0.5
  1
$PN.
100
AcDbAttributeDefinition
  3

  2
NBSYN
 70
     8
280
     0
  0
ATTDEF
  5
104
330
FC
100
AcDbEntity
  8
AM_6
100
AcDbText
 10
8.030483966195167
 20
1.824250000000001
 30
0.0
 40
0.5
  1
S1U-K-300R
100
AcDbAttributeDefinition
  3

  2
LINA
 70
     8
280
     0
  0
ATTDEF
  5
105
330
FC
100
AcDbEntity
  8
AM_6
100
AcDbText
 10
8.030483966195167
 20
1.324250000000001
 30
0.0
 40
0.5
  1
3
100
AcDbAttributeDefinition
  3

  2
SS
 70
     8
280
     0
  0
ATTDEF
  5
106
330
FC
100
AcDbEntity
  8
AM_6
100
AcDbText
 10
8.030483966195167
 20
0.8242500000000006
 30
0.0
 40
0.5
  1
3.000000
100
AcDbAttributeDefinition
  3

  2
SS1
 70
     8
280
     0
  0
ATTDEF
  5
107
330
FC
100
AcDbEntity
  8
AM_6
100
AcDbText
 10
8.030483966195167
 20
0.3242500000000006
 30
0.0
 40
0.5
  1
S1U-K-300R
100
AcDbAttributeDefinition
  3

  2
PN
 70
     8
280
     0
  0
ATTDEF
  5
108
330
FC
100
AcDbEntity
  8
AM_6
100
AcDbText
 10
8.030483966195167
 20
-0.1757499999999994
 30
0.0
 40
0.5
  1
S1U-K-300R
100
AcDbAttributeDefinition
  3

  2
PNA
 70
     8
280
     0
  0
ATTDEF
  5
109
330
FC
100
AcDbEntity
  8
AM_6
100
AcDbText
 10
8.030483966195167
 20
-0.6757499999999994
 30
0.0
 40
0.5
  1
15
100
AcDbAttributeDefinition
  3

  2
WEIGHT
 70
     8
280
     0
  0
ATTDEF
  5
10A
330
FC
100
AcDbEntity
  8
AM_6
100
AcDbText
 10
8.030483966195167
 20
-1.175749999999999
 30
0.0
 40
0.5
  1
3-3/4
100
AcDbAttributeDefinition
  3

  2
A
 70
     8
280
     0
  0
ATTDEF
  5
10B
330
FC
100
AcDbEntity
  8
AM_6
100
AcDbText
 10
8.030483966195167
 20
-1.675749999999999
 30
0.0
 40
0.5
  1
3.750000
100
AcDbAttributeDefinition
  3

  2
A1
 70
     8
280
     0
  0
ATTDEF
  5
10C
330
FC
100
AcDbEntity
  8
AM_6
100
AcDbText
 10
8.030483966195167
 20
-2.175749999999999
 30
0.0
 40
0.5
  1
3
100
AcDbAttributeDefinition
  3

  2
B
 70
     8
280
     0
  0
ATTDEF
  5
10D
330
FC
100
AcDbEntity
  8
AM_6
100
AcDbText
 10
8.030483966195167
 20
-2.675749999999999
 30
0.0
 40
0.5
  1
3.000000
100
AcDbAttributeDefinition
  3

  2
B1
 70
     8
280
     0
  0
ATTDEF
  5
10E
330
FC
100
AcDbEntity
  8
AM_6
100
AcDbText
 10
8.030483966195167
 20
-3.175749999999999
 30
0.0
 40
0.5
  1
1-7/8
100
AcDbAttributeDefinition
  3

  2
C
 70
     8
280
     0
  0
ATTDEF
  5
10F
330
FC
100
AcDbEntity
  8
AM_6
100
AcDbText
 10
8.030483966195167
 20
-3.675749999999999
 30
0.0
 40
0.5
  1
1.875000
100
AcDbAttributeDefinition
  3

  2
C1
 70
     8
280
     0
  0
ATTDEF
  5
110
330
FC
100
AcDbEntity
  8
AM_6
100
AcDbText
 10
8.030483966195167
 20
-4.175749999999999
 30
0.0
 40
0.5
  1
5-7/8
100
AcDbAttributeDefinition
  3

  2
D
 70
     8
280
     0
  0
ATTDEF
  5
111
330
FC
100
AcDbEntity
  8
AM_6
100
AcDbText
 10
8.030483966195167
 20
-4.675749999999999
 30
0.0
 40
0.5
  1
5.875000
100
AcDbAttributeDefinition
  3

  2
D1
 70
     8
280
     0
  0
ATTDEF
  5
112
330
FC
100
AcDbEntity
  8
AM_6
100
AcDbText
 10
8.030483966195167
 20
-5.175749999999999
 30
0.0
 40
0.5
  1
0.450
100
AcDbAttributeDefinition
  3

  2
E
 70
     8
280
     0
  0
ATTDEF
  5
113
330
FC
100
AcDbEntity
  8
AM_6
100
AcDbText
 10
8.030483966195167
 20
-5.675749999999999
 30
0.0
 40
0.5
  1
5.563
100
AcDbAttributeDefinition
  3

  2
EM
 70
     8
280
     0
  0
ATTDEF
  5
114
330
FC
100
AcDbEntity
  8
AM_6
100
AcDbText
 10
8.030483966195167
 20
-6.175749999999999
 30
0.0
 40
0.5
  1
5.630
100
AcDbAttributeDefinition
  3

  2
EC
 70
     8
280
     0
  0
ATTDEF
  5
115
330
FC
100
AcDbEntity
  8
AM_6
100
AcDbText
 10
8.030483966195167
 20
-6.675749999999999
 30
0.0
 40
0.5
  1
11/16
100
AcDbAttributeDefinition
  3

  2
H
 70
     8
280
     0
  0
ATTDEF
  5
116
330
FC
100
AcDbEntity
  8
AM_6
100
AcDbText
 10
8.030483966195167
 20
-7.175749999999999
 30
0.0
 40
0.5
  1
0.687500
100
AcDbAttributeDefinition
  3

  2
H1
 70
     8
280
     0
  0
ATTDEF
  5
117
330
FC
100
AcDbEntity
  8
AM_6
100
AcDbText
 10
8.030483966195167
 20
-7.675749999999999
 30
0.0
 40
0.5
  1
3-7/8
100
AcDbAttributeDefinition
  3

  2
J
 70
     8
280
     0
  0
ATTDEF
  5
118
330
FC
100
AcDbEntity
  8
AM_6
100
AcDbText
 10
8.030483966195167
 20
-8.175749999999999
 30
0.0
 40
0.5
  1
3.875000
100
AcDbAttributeDefinition
  3

  2
J1
 70
     8
280
     0
  0
ATTDEF
  5
119
330
FC
100
AcDbEntity
  8
AM_6
100
AcDbText
 10
8.030483966195167
 20
-8.675749999999999
 30
0.0
 40
0.5
  1
6.061
100
AcDbAttributeDefinition
  3

  2
K
 70
     8
280
     0
  0
ATTDEF
  5
11A
330
FC
100
AcDbEntity
  8
AM_6
100
AcDbText
 10
8.030483966195167
 20
-9.175749999999999
 30
0.0
 40
0.5
  1
4-23/32
100
AcDbAttributeDefinition
  3

  2
L
 70
     8
280
     0
  0
ATTDEF
  5
11B
330
FC
100
AcDbEntity
  8
AM_6
100
AcDbText
 10
8.030483966195167
 20
-9.675749999999999
 30
0.0
 40
0.5
  1
4.718750
100
AcDbAttributeDefinition
  3

  2
L1
 70
     8
280
     0
  0
ATTDEF
  5
11C
330
FC
100
AcDbEntity
  8
AM_6
100
AcDbText
 10
8.030483966195167
 20
-10.17575
 30
0.0
 40
0.5
  1
3-13/16
100
AcDbAttributeDefinition
  3

  2
M
 70
     8
280
     0
  0
ATTDEF
  5
11D
330
FC
100
AcDbEntity
  8
AM_6
100
AcDbText
 10
8.030483966195167
 20
-10.67575
 30
0.0
 40
0.5
  1
3.812500
100
AcDbAttributeDefinition
  3

  2
M1
 70
     8
280
     0
  0
ATTDEF
  5
11E
330
FC
100
AcDbEntity
  8
AM_6
100
AcDbText
 10
8.030483966195167
 20
-11.17575
 30
0.0
 40
0.5
  1
1-7/16
100
AcDbAttributeDefinition
  3

  2
R
 70
     8
280
     0
  0
ATTDEF
  5
11F
330
FC
100
AcDbEntity
  8
AM_6
100
AcDbText
 10
8.030483966195167
 20
-11.67575
 30
0.0
 40
0.5
  1
1.437500
100
AcDbAttributeDefinition
  3

  2
R1
 70
     8
280
     0
  0
ATTDEF
  5
120
330
FC
100
AcDbEntity
  8
AM_6
100
AcDbText
 10
8.030483966195167
 20
-12.17575
 30
0.0
 40
0.5
  1
2-1/4
100
AcDbAttributeDefinition
  3

  2
S
 70
     8
280
     0
  0
ATTDEF
  5
121
330
FC
100
AcDbEntity
  8
AM_6
100
AcDbText
 10
8.030483966195167
 20
-12.67575
 30
0.0
 40
0.5
  1
2.250000
100
AcDbAttributeDefinition
  3

  2
S1
 70
     8
280
     0
  0
ATTDEF
  5
122
330
FC
100
AcDbEntity
  8
AM_6
100
AcDbText
 10
8.030483966195167
 20
-13.17575
 30
0.0
 40
0.5
  1
3.4700
100
AcDbAttributeDefinition
  3

  2
CC
 70
     8
280
     0
  0
ATTDEF
  5
123
330
FC
100
AcDbEntity
  8
AM_6
100
AcDbText
 10
8.030483966195167
 20
-13.67575
 30
0.0
 40
0.5
  1
baldor
100
AcDbAttributeDefinition
  3

  2
COMPANY
 70
     8
280
     0
  0
CIRCLE
  5
124
330
FC
100
AcDbEntity
  8
AM_9
100
AcDbCircle
 10
-0.0000000000000001
 20
-0.0000000000000001
 30
0.0
 40
2.519055721520307
  0
CIRCLE
  5
125
330
FC
100
AcDbEntity
  8
AM_9
100
AcDbCircle
 10
0.0
 20
0.0
 30
0.0
 40
2.7525
  0
CIRCLE
  5
126
330
FC
100
AcDbEntity
  8
AM_9
100
AcDbCircle
 10
0.0
 20
0.0
 30
0.0
 40
2.815
  0
CIRCLE
  5
127
330
FC
100
AcDbEntity
  8
AM_9
100
AcDbCircle
 10
0.0
 20
-0.0000000000000001
 30
0.0
 40
1.966145833333334
  0
LINE
  5
128
330
FC
100
AcDbEntity
  8
AM_9
100
AcDbLine
 10
0.305316369154144
 20
3.82425
 30
0.0
 11
-0.305316369154144
 21
3.82425
 31
0.0
  0
ARC
  5
129
330
FC
100
AcDbEntity
  8
AM_9
100
AcDbCircle
 10
-0.3053163691541436
 20
3.77925
 30
0.0
 40
0.0449999999999999
100
AcDbArc
 50
90.0
 51
171.0000000000003
  0
ARC
  5
12A
330
FC
100
AcDbEntity
  8
AM_9
100
AcDbCircle
 10
0.3053163691541436
 20
3.77925
 30
0.0
 40
0.0450000000000003
100
AcDbArc
 50
8.999999999999659
 51
90.0
  0
LINE
  5
12B
330
FC
100
AcDbEntity
  8
AM_9
100
AcDbLine
 10
-0.3497623444809251
 20
3.78628955092681
 30
0.0
 11
-0.4792084547230921
 21
2.968998976316536
 31
0.0
  0
LINE
  5
12C
330
FC
100
AcDbEntity
  8
AM_9
100
AcDbLine
 10
0.4792125684557588
 20
2.968973003230681
 30
0.0
 11
0.3497623444809251
 21
3.78628955092681
 31
0.0
  0
LWPOLYLINE
  5
12D
330
FC
100
AcDbEntity
  8
AM_9
100
AcDbPolyline
 90
        7
 70
     0
 43
0.0
 10
0.4792442488222792
 20
2.968772977801855
 10
0.4745166371915699
 20
2.976290272915663
 10
0.4558222296415225
 20
2.986676974966175
 10
0.4246433331673941
 20
2.996204479220582
 10
0.3800351281469426
 20
3.005150883259021
 10
0.3260472044355937
 20
3.012725205495828
 10
0.2843696713196893
 20
3.017128220489507
  0
LWPOLYLINE
  5
12E
330
FC
100
AcDbEntity
  8
AM_9
100
AcDbPolyline
 90
        6
 70
     0
 43
0.0
 10
-0.4792439766165657
 20
2.968774699293018
 10
-0.4790298057455067
 20
2.965243656837839
 10
-0.4689759554421906
 20
2.954603882422029
 10
-0.4458273584714653
 20
2.944558349009294
 10
-0.408890761732786
 20
2.93485317164027
 10
-0.3455762286851688
 20
2.924064892490442
  0
LINE
  5
12F
330
FC
100
AcDbEntity
  8
AM_9
100
AcDbLine
 10
0.3497623444809251
 20
3.78628955092681
 30
0.0
 11
-0.3497623444809251
 21
3.78628955092681
 31
0.0
  0
CIRCLE
  5
130
330
FC
100
AcDbEntity
  8
AM_9
100
AcDbCircle
 10
0.0
 20
0.0
 30
0.0
 40
2.977838813636493
  0
LWPOLYLINE
  5
131
330
FC
100
AcDbEntity
  8
AM_9
100
AcDbPolyline
 90
       16
 70
     0
 43
0.0
 10
-0.3455762286851688
 20
2.924064892490442
 10
-0.286122202423557
 20
2.917151599038837
 10
-0.2166966828460503
 20
2.911467566880064
 10
-0.1430810562125308
 20
2.907503387053875
 10
-0.0631429364485616
 20
2.905159223180659
 10
0.0158553344596761
 20
2.904639769971146
 10
0.0966812859285232
 20
2.905911974937936
 10
0.1723365725610797
 20
2.908855071019913
 10
0.2452191132900336
 20
2.913544422655492
 10
0.3094908242999172
 20
2.919600088391761
 10
0.366752881999197
 20
2.92716504139084
 10
0.4126336893640518
 20
2.935669952721104
 10
0.4479891204950611
 20
2.945287453607289
 10
0.4700767595057833
 20
2.955302025368526
 10
0.4791887710682377
 20
2.965911594395271
 10
0.4792442488222792
 20
2.968772977801855
  0
CIRCLE
  5
132
330
FC
100
AcDbEntity
  8
AM_9
100
AcDbCircle
 10
0.0
 20
0.0
 30
0.0
 40
2.731533269063366
  0
ARC
  5
133
330
FC
100
AcDbEntity
  8
AM_9
100
AcDbCircle
 10
-0.0000000000000003
 20
0.0000000000000072
 30
0.0
 40
3.030499999999992
100
AcDbArc
 50
95.37573801646872
 51
84.63331818373311
  0
LWPOLYLINE
  5
134
330
FC
100
AcDbEntity
  8
AM_9
100
AcDbPolyline
 90
       10
 70
     0
 43
0.0
 10
0.2843696713196893
 20
3.017128220489507
 10
0.2608580388961237
 20
3.019201544891548
 10
0.1906031296252923
 20
3.023997017960033
 10
0.1127054504752112
 20
3.027313138377065
 10
0.0343992102271893
 20
3.028863006841151
 10
-0.047177450495554
 20
3.028724420375525
 10
-0.1248348698525193
 20
3.026918958279505
 10
-0.2011357955402612
 20
3.023397118595169
 10
-0.2698078006402997
 20
3.018443508724136
 10
-0.2846331647874573
 20
3.017103445242844
  0
LWPOLYLINE
  5
135
330
FC
100
AcDbEntity
  8
AM_9
100
AcDbPolyline
 90
        7
 70
     0
 43
0.0
 10
-0.2846331647874573
 20
3.017103445242844
 10
-0.3327249712108592
 20
3.011918486196589
 10
-0.3849964488152731
 20
3.004309568546799
 10
-0.4277364120238347
 20
2.995432567446204
 10
-0.4576559669278706
 20
2.98593475551826
 10
-0.4752368920439938
 20
2.975612122307247
 10
-0.4792439766165657
 20
2.968774699293018
  0
LINE
  5
136
330
FC
100
AcDbEntity
  8
AM_9
100
AcDbLine
 10
-0.225
 20
1.720360144711334
 30
0.0
 11
-0.225
 21
1.483449728074473
 31
0.0
  0
LINE
  5
137
330
FC
100
AcDbEntity
  8
AM_9
100
AcDbLine
 10
0.225
 20
1.483065630208537
 30
0.0
 11
0.225
 21
1.720714109832895
 31
0.0
  0
LINE
  5
138
330
FC
100
AcDbEntity
  8
AM_9
100
AcDbLine
 10
1.464408340234006
 20
0.9311248554837284
 30
0.0
 11
1.24938042007631
 21
0.830855689597053
 31
0.0
  0
LINE
  5
139
330
FC
100
AcDbEntity
  8
AM_9
100
AcDbLine
 10
1.439169835458022
 20
0.4228358838931842
 30
0.0
 11
1.654254624420443
 21
0.5231315681390125
 31
0.0
  0
LINE
  5
13C
330
FC
100
AcDbEntity
  8
AM_7
100
AcDbLine
 10
-0.1069159967519798
 20
-0.0498557480647231
 30
0.0
 11
2.245235931791576
 21
1.046970709359186
 31
0.0
  0
CIRCLE
  5
13D
330
FC
100
AcDbEntity
  8
AM_4
100
AcDbCircle
 10
0.0
 20
0.0
 30
0.0
 40
2.419871794871795
  0
CIRCLE
  5
13E
330
FC
100
AcDbEntity
  8
AM_4
100
AcDbCircle
 10
0.0
 20
0.0
 30
0.0
 40
2.452933103754632
  0
CIRCLE
  5
13F
330
FC
100
AcDbEntity
  8
AM_4
100
AcDbCircle
 10
0.0
 20
0.0
 30
0.0
 40
2.718999999999999
  0
CIRCLE
  5
140
330
FC
100
AcDbEntity
  8
AM_4
100
AcDbCircle
 10
0.0
 20
0.0
 30
0.0
 40
1.735
  0
CIRCLE
  5
141
330
FC
100
AcDbEntity
  8
AM_4
100
AcDbCircle
 10
0.0
 20
0.0
 30
0.0
 40
1.5
  0
ENDBLK
  5
FF
330
FC
100
AcDbEntity
  8
0
100
AcDbBlockEnd
  0
BLOCK
  5
144
330
142
100
AcDbEntity
  8
0
100
AcDbBlockBegin
  2
5_F4B_K_300R_0_in_023228_0
 70
     2
 10
0.0
 20
0.0
 30
0.0
  3
5_F4B_K_300R_0_in_023228_0
  1

  0
ATTDEF
  5
146
330
142
100
AcDbEntity
  8
AM_6
100
AcDbText
 10
9.75
 20
6.3375
 30
0.0
 40
0.5
  1
Flange Bearing -Body -  Non-Expansion - Inch
100
AcDbAttributeDefinition
  3

  2
NN
 70
     8
280
     0
  0
ATTDEF
  5
147
330
142
100
AcDbEntity
  8
AM_6
100
AcDbText
 10
9.75
 20
5.8375
 30
0.0
 40
0.5
  1
Type K
100
AcDbAttributeDefinition
  3

  2
NT
 70
     8
280
     0
  0
ATTDEF
  5
148
330
142
100
AcDbEntity
  8
AM_6
100
AcDbText
 10
9.75
 20
5.3375
 30
0.0
 40
0.5
  1
F4B-K-300R
100
AcDbAttributeDefinition
  3

  2
NB
 70
     8
280
     0
  0
ATTDEF
  5
149
330
142
100
AcDbEntity
  8
AM_6
100
AcDbText
 10
9.75
 20
4.8375
 30
0.0
 40
0.5
  1
$PN.
100
AcDbAttributeDefinition
  3

  2
NBSYN
 70
     8
280
     0
  0
ATTDEF
  5
14A
330
142
100
AcDbEntity
  8
AM_6
100
AcDbText
 10
9.75
 20
4.3375
 30
0.0
 40
0.5
  1
F4B-K-300R
100
AcDbAttributeDefinition
  3

  2
LINA
 70
     8
280
     0
  0
ATTDEF
  5
14B
330
142
100
AcDbEntity
  8
AM_6
100
AcDbText
 10
9.75
 20
3.8375
 30
0.0
 40
0.5
  1
3
100
AcDbAttributeDefinition
  3

  2
SS
 70
     8
280
     0
  0
ATTDEF
  5
14C
330
142
100
AcDbEntity
  8
AM_6
100
AcDbText
 10
9.75
 20
3.3375
 30
0.0
 40
0.5
  1
3.000000
100
AcDbAttributeDefinition
  3

  2
SS1
 70
     8
280
     0
  0
ATTDEF
  5
14D
330
142
100
AcDbEntity
  8
AM_6
100
AcDbText
 10
9.75
 20
2.8375
 30
0.0
 40
0.5
  1
F4B-K-300R
100
AcDbAttributeDefinition
  3

  2
PN
 70
     8
280
     0
  0
ATTDEF
  5
14E
330
142
100
AcDbEntity
  8
AM_6
100
AcDbText
 10
9.75
 20
2.3375
 30
0.0
 40
0.5
  1
F4B-K-300R
100
AcDbAttributeDefinition
  3

  2
PNA
 70
     8
280
     0
  0
ATTDEF
  5
14F
330
142
100
AcDbEntity
  8
AM_6
100
AcDbText
 10
9.75
 20
1.8375
 30
0.0
 40
0.5
  1
24
100
AcDbAttributeDefinition
  3

  2
WEIGHT
 70
     8
280
     0
  0
ATTDEF
  5
150
330
142
100
AcDbEntity
  8
AM_6
100
AcDbText
 10
9.75
 20
1.3375
 30
0.0
 40
0.5
  1
5.563000
100
AcDbAttributeDefinition
  3

  2
BOD
 70
     8
280
     0
  0
ATTDEF
  5
151
330
142
100
AcDbEntity
  8
AM_6
100
AcDbText
 10
9.75
 20
0.8375000000000004
 30
0.0
 40
0.5
  1
4
100
AcDbAttributeDefinition
  3

  2
A
 70
     8
280
     0
  0
ATTDEF
  5
152
330
142
100
AcDbEntity
  8
AM_6
100
AcDbText
 10
9.75
 20
0.3375000000000004
 30
0.0
 40
0.5
  1
4.000000
100
AcDbAttributeDefinition
  3

  2
A1
 70
     8
280
     0
  0
ATTDEF
  5
153
330
142
100
AcDbEntity
  8
AM_6
100
AcDbText
 10
9.75
 20
-0.1624999999999996
 30
0.0
 40
0.5
  1
8-7/8
100
AcDbAttributeDefinition
  3

  2
B
 70
     8
280
     0
  0
ATTDEF
  5
154
330
142
100
AcDbEntity
  8
AM_6
100
AcDbText
 10
9.75
 20
-0.6624999999999996
 30
0.0
 40
0.5
  1
8.875000
100
AcDbAttributeDefinition
  3

  2
B1
 70
     8
280
     0
  0
ATTDEF
  5
155
330
142
100
AcDbEntity
  8
AM_6
100
AcDbText
 10
9.75
 20
-1.1625
 30
0.0
 40
0.5
  1
3-11/32
100
AcDbAttributeDefinition
  3

  2
C
 70
     8
280
     0
  0
ATTDEF
  5
156
330
142
100
AcDbEntity
  8
AM_6
100
AcDbText
 10
9.75
 20
-1.6625
 30
0.0
 40
0.5
  1
3.343750
100
AcDbAttributeDefinition
  3

  2
C1
 70
     8
280
     0
  0
ATTDEF
  5
157
330
142
100
AcDbEntity
  8
AM_6
100
AcDbText
 10
9.75
 20
-2.1625
 30
0.0
 40
0.5
  1
6-57/64
100
AcDbAttributeDefinition
  3

  2
D
 70
     8
280
     0
  0
ATTDEF
  5
158
330
142
100
AcDbEntity
  8
AM_6
100
AcDbText
 10
9.75
 20
-2.6625
 30
0.0
 40
0.5
  1
6.890625
100
AcDbAttributeDefinition
  3

  2
D1
 70
     8
280
     0
  0
ATTDEF
  5
159
330
142
100
AcDbEntity
  8
AM_6
100
AcDbText
 10
9.75
 20
-3.1625
 30
0.0
 40
0.5
  1
1/4
100
AcDbAttributeDefinition
  3

  2
E
 70
     8
280
     0
  0
ATTDEF
  5
15A
330
142
100
AcDbEntity
  8
AM_6
100
AcDbText
 10
9.75
 20
-3.6625
 30
0.0
 40
0.5
  1
0.250000
100
AcDbAttributeDefinition
  3

  2
E1
 70
     8
280
     0
  0
ATTDEF
  5
15B
330
142
100
AcDbEntity
  8
AM_6
100
AcDbText
 10
9.75
 20
-4.1625
 30
0.0
 40
0.5
  1
3/4
100
AcDbAttributeDefinition
  3

  2
F
 70
     8
280
     0
  0
ATTDEF
  5
15C
330
142
100
AcDbEntity
  8
AM_6
100
AcDbText
 10
9.75
 20
-4.6625
 30
0.0
 40
0.5
  1
0.750000
100
AcDbAttributeDefinition
  3

  2
F1
 70
     8
280
     0
  0
ATTDEF
  5
15D
330
142
100
AcDbEntity
  8
AM_6
100
AcDbText
 10
9.75
 20
-5.1625
 30
0.0
 40
0.5
  1
9-1/2
100
AcDbAttributeDefinition
  3

  2
G
 70
     8
280
     0
  0
ATTDEF
  5
15E
330
142
100
AcDbEntity
  8
AM_6
100
AcDbText
 10
9.75
 20
-5.6625
 30
0.0
 40
0.5
  1
9.500000
100
AcDbAttributeDefinition
  3

  2
G1
 70
     8
280
     0
  0
ATTDEF
  5
15F
330
142
100
AcDbEntity
  8
AM_6
100
AcDbText
 10
9.75
 20
-6.1625
 30
0.0
 40
0.5
  1
11/16
100
AcDbAttributeDefinition
  3

  2
H
 70
     8
280
     0
  0
ATTDEF
  5
160
330
142
100
AcDbEntity
  8
AM_6
100
AcDbText
 10
9.75
 20
-6.6625
 30
0.0
 40
0.5
  1
0.687500
100
AcDbAttributeDefinition
  3

  2
H1
 70
     8
280
     0
  0
ATTDEF
  5
161
330
142
100
AcDbEntity
  8
AM_6
100
AcDbText
 10
9.75
 20
-7.1625
 30
0.0
 40
0.5
  1
6-57/64
100
AcDbAttributeDefinition
  3

  2
J
 70
     8
280
     0
  0
ATTDEF
  5
162
330
142
100
AcDbEntity
  8
AM_6
100
AcDbText
 10
9.75
 20
-7.6625
 30
0.0
 40
0.5
  1
6.890625
100
AcDbAttributeDefinition
  3

  2
J1
 70
     8
280
     0
  0
ATTDEF
  5
163
330
142
100
AcDbEntity
  8
AM_6
100
AcDbText
 10
9.75
 20
-8.1625
 30
0.0
 40
0.5
  1
4-23/32
100
AcDbAttributeDefinition
  3

  2
L
 70
     8
280
     0
  0
ATTDEF
  5
164
330
142
100
AcDbEntity
  8
AM_6
100
AcDbText
 10
9.75
 20
-8.6625
 30
0.0
 40
0.5
  1
4.718750
100
AcDbAttributeDefinition
  3

  2
L1
 70
     8
280
     0
  0
ATTDEF
  5
165
330
142
100
AcDbEntity
  8
AM_6
100
AcDbText
 10
9.75
 20
-9.1625
 30
0.0
 40
0.5
  1
5/16
100
AcDbAttributeDefinition
  3

  2
EXP
 70
     8
280
     0
  0
ATTDEF
  5
166
330
142
100
AcDbEntity
  8
AM_6
100
AcDbText
 10
9.75
 20
-9.6625
 30
0.0
 40
0.5
  1
0.312500
100
AcDbAttributeDefinition
  3

  2
EXP1
 70
     8
280
     0
  0
ATTDEF
  5
167
330
142
100
AcDbEntity
  8
AM_6
100
AcDbText
 10
9.75
 20
-10.1625
 30
0.0
 40
0.5
  1
f4b_flange_ne_i_templ.prj
100
AcDbAttributeDefinition
  3

  2
PPATH
 70
     8
280
     0
  0
ATTDEF
  5
168
330
142
100
AcDbEntity
  8
AM_6
100
AcDbText
 10
9.75
 20
-10.6625
 30
0.0
 40
0.5
  1
baldor
100
AcDbAttributeDefinition
  3

  2
COMPANY
 70
     8
280
     0
  0
LINE
  5
169
330
142
100
AcDbEntity
  8
AM_9
100
AcDbLine
 10
3.268053573926013
 20
-1.15391603394476
 30
0.0
 11
3.340252919148361
 21
-1.27896896814307
 31
0.0
  0
ARC
  5
16A
330
142
100
AcDbEntity
  8
AM_9
100
AcDbCircle
 10
-0.0000000000000009
 20
-0.0000000000000008
 30
0.0
 40
3.465789430338404
100
AcDbArc
 50
340.5523987178541
 51
19.44760128214594
  0
LINE
  5
16B
330
142
100
AcDbEntity
  8
AM_9
100
AcDbLine
 10
3.339738693029384
 20
1.278078302378422
 30
0.0
 11
3.268053573926013
 21
1.153916033944759
 31
0.0
  0
LINE
  5
16C
330
142
100
AcDbEntity
  8
AM_9
100
AcDbLine
 10
-1.153916033944759
 20
-3.268053573926013
 30
0.0
 11
-1.27896896814307
 21
-3.34025291914836
 31
0.0
  0
ARC
  5
16D
330
142
100
AcDbEntity
  8
AM_9
100
AcDbCircle
 10
-0.0000000000000004
 20
-0.0000000000000027
 30
0.0
 40
3.4657894303384
100
AcDbArc
 50
250.5523987178541
 51
289.4476012821459
  0
LINE
  5
16E
330
142
100
AcDbEntity
  8
AM_9
100
AcDbLine
 10
1.278078302378421
 20
-3.339738693029384
 30
0.0
 11
1.153916033944757
 21
-3.268053573926013
 31
0.0
  0
LINE
  5
16F
330
142
100
AcDbEntity
  8
AM_9
100
AcDbLine
 10
-3.268053573926013
 20
1.153916033944759
 30
0.0
 11
-3.34025291914836
 21
1.278968968143069
 31
0.0
  0
ARC
  5
170
330
142
100
AcDbEntity
  8
AM_9
100
AcDbCircle
 10
-0.0000000000000027
 20
-0.0000000000000001
 30
0.0
 40
3.4657894303384
100
AcDbArc
 50
160.5523987178541
 51
199.4476012821459
  0
ARC
  5
171
330
142
100
AcDbEntity
  8
AM_9
100
AcDbCircle
 10
0.000000000000012
 20
0.0
 30
0.0
 40
3.615789430338415
100
AcDbArc
 50
168.0285897756155
 51
191.9714102243845
  0
LINE
  5
172
330
142
100
AcDbEntity
  8
AM_9
100
AcDbLine
 10
-3.339738693029384
 20
-1.278078302378422
 30
0.0
 11
-3.268053573926013
 21
-1.153916033944758
 31
0.0
  0
LINE
  5
173
330
142
100
AcDbEntity
  8
AM_9
100
AcDbLine
 10
1.153916033944759
 20
3.268053573926013
 30
0.0
 11
1.27896896814307
 21
3.34025291914836
 31
0.0
  0
ARC
  5
174
330
142
100
AcDbEntity
  8
AM_9
100
AcDbCircle
 10
0.0000000000000004
 20
0.0000000000000013
 30
0.0
 40
3.465789430338401
100
AcDbArc
 50
70.55239871785405
 51
109.447601282146
  0
LINE
  5
175
330
142
100
AcDbEntity
  8
AM_9
100
AcDbLine
 10
-1.278078302378422
 20
3.339738693029384
 30
0.0
 11
-1.153916033944759
 21
3.268053573926013
 31
0.0
  0
LINE
  5
176
330
142
100
AcDbEntity
  8
AM_9
100
AcDbLine
 10
-1.281012151421812
 20
3.341432551564347
 30
0.0
 11
-1.96875
 21
3.738498183572857
 31
0.0
  0
LINE
  5
177
330
142
100
AcDbEntity
  8
AM_9
100
AcDbLine
 10
1.96875
 20
3.738498183572856
 30
0.0
 11
1.281012151421813
 21
3.341432551564346
 31
0.0
  0
LINE
  5
178
330
142
100
AcDbEntity
  8
AM_9
100
AcDbLine
 10
-0.8359375
 20
4.109879032258065
 30
0.0
 11
-0.8359375
 21
2.653850755905541
 31
0.0
  0
LINE
  5
179
330
142
100
AcDbEntity
  8
AM_9
100
AcDbLine
 10
0.8359375
 20
2.653739086256016
 30
0.0
 11
0.8359375
 21
4.109879032258065
 31
0.0
  0
ARC
  5
17A
330
142
100
AcDbEntity
  8
AM_9
100
AcDbCircle
 10
0.0000000000000053
 20
-0.0000000000000187
 30
0.0
 40
3.615424037877396
100
AcDbArc
 50
68.56413402645059
 51
111.4472297828189
  0
ARC
  5
17B
330
142
100
AcDbEntity
  8
AM_9
100
AcDbCircle
 10
-0.0000000000000084
 20
0.0000000000000244
 30
0.0
 40
3.578570053630917
100
AcDbArc
 50
110.9754320407252
 51
123.3772981641049
  0
ARC
  5
17C
330
142
100
AcDbEntity
  8
AM_9
100
AcDbCircle
 10
-0.00000000000002
 20
0.0
 30
0.0
 40
3.615424037877397
100
AcDbArc
 50
348.0273619641262
 51
11.97263803587377
  0
ARC
  5
17D
330
142
100
AcDbEntity
  8
AM_9
100
AcDbCircle
 10
0.0000000000000391
 20
0.0000000000000684
 30
0.0
 40
3.578570053630863
100
AcDbArc
 50
56.62270183589514
 51
69.02456795927502
  0
LWPOLYLINE
  5
17E
330
142
100
AcDbEntity
  8
AM_9
100
AcDbPolyline
 90
        8
 70
     0
 43
0.0
 10
-1.96875
 20
2.913867088433127
 10
-1.964656910507406
 20
2.921068785788905
 10
-1.952886173236143
 20
2.933198135953685
 10
-1.934221522480999
 20
2.949460788342494
 10
-1.909574108881696
 20
2.969030194230907
 10
-1.876432471387657
 20
2.993513602501092
 10
-1.838081982875717
 20
3.020110938773464
 10
-1.796875
 20
3.047077622555623
  0
LWPOLYLINE
  5
17F
330
142
100
AcDbEntity
  8
AM_9
100
AcDbPolyline
 90
        5
 70
     0
 43
0.0
 10
-1.796874999999999
 20
3.047077622555623
 10
-1.523694839141197
 20
3.204675569753738
 10
-1.237807437488965
 20
3.337884000830012
 10
-0.9413885707934102
 20
3.445689119190507
 10
-0.9374999999999993
 20
3.446911842900333
  0
LWPOLYLINE
  5
180
330
142
100
AcDbEntity
  8
AM_9
100
AcDbPolyline
 90
        4
 70
     0
 43
0.0
 10
-0.9375000000000002
 20
3.446911842900334
 10
-0.8342921670895248
 20
3.476835046257571
 10
-0.7205445283224012
 20
3.504436841157588
 10
-0.5937500000000004
 20
3.528969334840439
  0
ARC
  5
181
330
142
100
AcDbEntity
  8
AM_9
100
AcDbCircle
 10
-0.0000000000000016
 20
-0.000000000000032
 30
0.0
 40
3.578570053630974
100
AcDbArc
 50
80.44941968918118
 51
99.55058031081877
  0
LWPOLYLINE
  5
182
330
142
100
AcDbEntity
  8
AM_9
100
AcDbPolyline
 90
        4
 70
     0
 43
0.0
 10
0.59375
 20
3.528969334840438
 10
0.7090543279324651
 20
3.506926340222975
 10
0.8234853984146496
 20
3.479693116109153
 10
0.9375000000000006
 20
3.446911842900334
  0
LWPOLYLINE
  5
183
330
142
100
AcDbEntity
  8
AM_9
100
AcDbPolyline
 90
        5
 70
     0
 43
0.0
 10
0.9375000000000016
 20
3.446911842900335
 10
1.234040318228978
 20
3.339440706670986
 10
1.52007784146685
 20
3.206554410254441
 10
1.793435651447597
 20
3.04926429860537
 10
1.796875000000001
 20
3.047077622555625
  0
LWPOLYLINE
  5
184
330
142
100
AcDbEntity
  8
AM_9
100
AcDbPolyline
 90
        7
 70
     0
 43
0.0
 10
1.796875
 20
3.047077622555622
 10
1.846760575092443
 20
3.014230618474946
 10
1.891435228742824
 20
2.982637001522452
 10
1.926959179209335
 20
2.955393082692551
 10
1.953482420205229
 20
2.932640307598417
 10
1.964729403317439
 20
2.920998322368753
 10
1.96875
 20
2.913867088433127
  0
ARC
  5
185
330
142
100
AcDbEntity
  8
AM_9
100
AcDbCircle
 10
-0.0000000000000062
 20
-0.0000000000000009
 30
0.0
 40
3.554532712025354
100
AcDbArc
 50
167.8191443466409
 51
192.1808556533591
  0
ARC
  5
186
330
142
100
AcDbEntity
  8
AM_9
100
AcDbCircle
 10
0.0000000000000053
 20
-0.0000000000000011
 30
0.0
 40
3.554532712025355
100
AcDbArc
 50
347.8191443466409
 51
12.18085565335919
  0
LINE
  5
187
330
142
100
AcDbEntity
  8
AM_7
100
AcDbLine
 10
-3.8390625
 20
-3.4453125
 30
0.0
 11
-3.0515625
 21
-3.4453125
 31
0.0
  0
LINE
  5
188
330
142
100
AcDbEntity
  8
AM_7
100
AcDbLine
 10
-3.4453125
 20
-3.8390625
 30
0.0
 11
-3.4453125
 21
-3.0515625
 31
0.0
  0
LINE
  5
189
330
142
100
AcDbEntity
  8
AM_7
100
AcDbLine
 10
-3.8390625
 20
3.4453125
 30
0.0
 11
-3.0515625
 21
3.4453125
 31
0.0
  0
LINE
  5
18A
330
142
100
AcDbEntity
  8
AM_7
100
AcDbLine
 10
-3.4453125
 20
3.0515625
 30
0.0
 11
-3.4453125
 21
3.8390625
 31
0.0
  0
LINE
  5
18B
330
142
100
AcDbEntity
  8
AM_7
100
AcDbLine
 10
3.0515625
 20
3.4453125
 30
0.0
 11
3.8390625
 21
3.4453125
 31
0.0
  0
LINE
  5
18C
330
142
100
AcDbEntity
  8
AM_7
100
AcDbLine
 10
3.4453125
 20
3.0515625
 30
0.0
 11
3.4453125
 21
3.8390625
 31
0.0
  0
LINE
  5
18D
330
142
100
AcDbEntity
  8
AM_7
100
AcDbLine
 10
3.0515625
 20
-3.4453125
 30
0.0
 11
3.8390625
 21
-3.4453125
 31
0.0
  0
LINE
  5
18E
330
142
100
AcDbEntity
  8
AM_7
100
AcDbLine
 10
3.4453125
 20
-3.8390625
 30
0.0
 11
3.4453125
 21
-3.0515625
 31
0.0
  0
LINE
  5
18F
330
142
100
AcDbEntity
  8
AM_7
100
AcDbLine
 10
-3.567590913300912
 20
0.0
 30
0.0
 11
3.567590913300912
 21
0.0
 31
0.0
  0
LINE
  5
190
330
142
100
AcDbEntity
  8
AM_7
100
AcDbLine
 10
0.0
 20
-3.567590913300912
 30
0.0
 11
0.0
 21
6.3375
 31
0.0
  0
ARC
  5
191
330
142
100
AcDbEntity
  8
AM_4
100
AcDbCircle
 10
-0.0000000000000409
 20
-0.0000000000000129
 30
0.0
 40
3.615789430338446
100
AcDbArc
 50
11.9714102243846
 51
21.43819878838375
  0
ARC
  5
192
330
142
100
AcDbEntity
  8
AM_4
100
AcDbCircle
 10
-0.0000000000000884
 20
0.0000000000000271
 30
0.0
 40
3.615789430338495
100
AcDbArc
 50
338.5640489303301
 51
348.0285897756153
  0
ARC
  5
193
330
142
100
AcDbEntity
  8
AM_4
100
AcDbCircle
 10
-0.0000000000000002
 20
-0.0000000000000018
 30
0.0
 40
3.615789430338402
100
AcDbArc
 50
248.5632491301014
 51
291.4380330512215
  0
LINE
  5
194
330
142
100
AcDbEntity
  8
AM_4
100
AcDbLine
 10
-2.949218750000002
 20
-4.304572080317373
 30
0.0
 11
-1.281012151421813
 21
-3.341432551564346
 31
0.0
  0
LINE
  5
195
330
142
100
AcDbEntity
  8
AM_4
100
AcDbLine
 10
-3.341432551564347
 20
-1.281012151421812
 30
0.0
 11
-4.304572080317373
 21
-2.94921875
 31
0.0
  0
ARC
  5
196
330
142
100
AcDbEntity
  8
AM_4
100
AcDbCircle
 10
-3.445312500000001
 20
-3.4453125
 30
0.0
 40
0.9921875000000001
100
AcDbArc
 50
150.0
 51
300.0
  0
CIRCLE
  5
197
330
142
100
AcDbEntity
  8
AM_4
100
AcDbCircle
 10
-3.4453125
 20
-3.4453125
 30
0.0
 40
0.3749999999999999
  0
ARC
  5
198
330
142
100
AcDbEntity
  8
AM_4
100
AcDbCircle
 10
-3.4453125
 20
3.445312500000001
 30
0.0
 40
0.9921875
100
AcDbArc
 50
59.99999999999988
 51
210.0000000000001
  0
LINE
  5
199
330
142
100
AcDbEntity
  8
AM_4
100
AcDbLine
 10
-4.304572080317372
 20
2.94921875
 30
0.0
 11
-3.341432551564346
 21
1.281012151421813
 31
0.0
  0
LINE
  5
19A
330
142
100
AcDbEntity
  8
AM_4
100
AcDbLine
 10
-1.96875
 20
3.738498183572857
 30
0.0
 11
-2.949218749999998
 21
4.304572080317373
 31
0.0
  0
CIRCLE
  5
19B
330
142
100
AcDbEntity
  8
AM_4
100
AcDbCircle
 10
-3.4453125
 20
3.4453125
 30
0.0
 40
0.3749999999999999
  0
LINE
  5
19C
330
142
100
AcDbEntity
  8
AM_4
100
AcDbLine
 10
3.341432551564346
 20
1.281012151421813
 30
0.0
 11
4.304572080317373
 21
2.94921875
 31
0.0
  0
LINE
  5
19D
330
142
100
AcDbEntity
  8
AM_4
100
AcDbLine
 10
2.94921875
 20
4.304572080317372
 30
0.0
 11
1.96875
 21
3.738498183572856
 31
0.0
  0
ARC
  5
19E
330
142
100
AcDbEntity
  8
AM_4
100
AcDbCircle
 10
3.445312499999999
 20
3.445312499999998
 30
0.0
 40
0.9921875
100
AcDbArc
 50
330.0000000000002
 51
119.9999999999999
  0
CIRCLE
  5
19F
330
142
100
AcDbEntity
  8
AM_4
100
AcDbCircle
 10
3.4453125
 20
3.4453125
 30
0.0
 40
0.3749999999999999
  0
LINE
  5
1A0
330
142
100
AcDbEntity
  8
AM_4
100
AcDbLine
 10
4.304572080317372
 20
-2.94921875
 30
0.0
 11
3.341432551564346
 21
-1.281012151421814
 31
0.0
  0
LINE
  5
1A1
330
142
100
AcDbEntity
  8
AM_4
100
AcDbLine
 10
1.281012151421812
 20
-3.341432551564347
 30
0.0
 11
2.949218749999999
 21
-4.304572080317373
 31
0.0
  0
ARC
  5
1A2
330
142
100
AcDbEntity
  8
AM_4
100
AcDbCircle
 10
3.445312500000001
 20
-3.445312500000003
 30
0.0
 40
0.9921874999999992
100
AcDbArc
 50
239.9999999999998
 51
30.00000000000016
  0
CIRCLE
  5
1A3
330
142
100
AcDbEntity
  8
AM_4
100
AcDbCircle
 10
3.4453125
 20
-3.4453125
 30
0.0
 40
0.3749999999999999
  0
LINE
  5
1A4
330
142
100
AcDbEntity
  8
AM_4
100
AcDbLine
 10
1.048783625504724
 20
4.309879032258065
 30
0.0
 11
1.383158625504724
 21
4.309879032258065
 31
0.0
  0
LINE
  5
1A5
330
142
100
AcDbEntity
  8
AM_4
100
AcDbLine
 10
1.048783625504724
 20
4.309879032258065
 30
0.0
 11
1.048783625504724
 21
4.209879032258065
 31
0.0
  0
LINE
  5
1A6
330
142
100
AcDbEntity
  8
AM_4
100
AcDbLine
 10
1.383158625504724
 20
4.309879032258065
 30
0.0
 11
1.383158625504724
 21
4.209879032258065
 31
0.0
  0
LINE
  5
1A7
330
142
100
AcDbEntity
  8
AM_4
100
AcDbLine
 10
1.215971125504724
 20
4.309879032258065
 30
0.0
 11
1.215971125504724
 21
4.209879032258065
 31
0.0
  0
LINE
  5
1A8
330
142
100
AcDbEntity
  8
AM_4
100
AcDbLine
 10
-1.383158625504724
 20
4.309879032258065
 30
0.0
 11
-1.048783625504724
 21
4.309879032258065
 31
0.0
  0
LINE
  5
1A9
330
142
100
AcDbEntity
  8
AM_4
100
AcDbLine
 10
-1.383158625504724
 20
4.309879032258065
 30
0.0
 11
-1.383158625504724
 21
4.209879032258065
 31
0.0
  0
LINE
  5
1AA
330
142
100
AcDbEntity
  8
AM_4
100
AcDbLine
 10
-1.048783625504724
 20
4.309879032258065
 30
0.0
 11
-1.048783625504724
 21
4.209879032258065
 31
0.0
  0
LINE
  5
1AB
330
142
100
AcDbEntity
  8
AM_4
100
AcDbLine
 10
-1.215971125504724
 20
4.309879032258065
 30
0.0
 11
-1.215971125504724
 21
4.209879032258065
 31
0.0
  0
LINE
  5
1AC
330
142
100
AcDbEntity
  8
AM_4
100
AcDbLine
 10
-1.492109960490129
 20
4.209879032258065
 30
0.0
 11
1.49210996049013
 21
4.209879032258065
 31
0.0
  0
LINE
  5
1AD
330
142
100
AcDbEntity
  8
AM_4
100
AcDbLine
 10
1.49210996049013
 20
4.109879032258065
 30
0.0
 11
1.49210996049013
 21
4.209879032258065
 31
0.0
  0
LINE
  5
1AE
330
142
100
AcDbEntity
  8
AM_4
100
AcDbLine
 10
-1.492109960490129
 20
4.209879032258065
 30
0.0
 11
-1.492109960490129
 21
4.109879032258065
 31
0.0
  0
LINE
  5
1AF
330
142
100
AcDbEntity
  8
AM_4
100
AcDbLine
 10
-1.96875
 20
2.868133680322118
 30
0.0
 11
-1.96875
 21
4.109879032258065
 31
0.0
  0
LINE
  5
1B0
330
142
100
AcDbEntity
  8
AM_4
100
AcDbLine
 10
1.96875
 20
2.868133680322118
 30
0.0
 11
1.96875
 21
4.109879032258065
 31
0.0
  0
LINE
  5
1B1
330
142
100
AcDbEntity
  8
AM_4
100
AcDbLine
 10
-4.435733204574817
 20
1.125
 30
0.0
 11
-3.685733204574817
 21
1.125
 31
0.0
  0
LINE
  5
1B2
330
142
100
AcDbEntity
  8
AM_4
100
AcDbLine
 10
-3.685733204574817
 20
1.125
 30
0.0
 11
-3.685733204574817
 21
0.7499999999999999
 31
0.0
  0
LINE
  5
1B3
330
142
100
AcDbEntity
  8
AM_4
100
AcDbLine
 10
4.435733204574817
 20
1.125
 30
0.0
 11
4.435733204574817
 21
0.7499999999999999
 31
0.0
  0
LINE
  5
1B4
330
142
100
AcDbEntity
  8
AM_4
100
AcDbLine
 10
3.685733204574817
 20
1.125
 30
0.0
 11
4.435733204574817
 21
1.125
 31
0.0
  0
LINE
  5
1B5
330
142
100
AcDbEntity
  8
AM_4
100
AcDbLine
 10
4.060733204574817
 20
1.125
 30
0.0
 11
4.060733204574817
 21
0.7499999999999999
 31
0.0
  0
LINE
  5
1B6
330
142
100
AcDbEntity
  8
AM_4
100
AcDbLine
 10
3.685733204574817
 20
1.125
 30
0.0
 11
3.685733204574817
 21
0.7499999999999999
 31
0.0
  0
LINE
  5
1B7
330
142
100
AcDbEntity
  8
AM_4
100
AcDbLine
 10
-4.060733204574817
 20
1.125
 30
0.0
 11
-4.060733204574817
 21
0.7499999999999999
 31
0.0
  0
LINE
  5
1B8
330
142
100
AcDbEntity
  8
AM_4
100
AcDbLine
 10
-4.435733204574817
 20
1.125
 30
0.0
 11
-4.435733204574817
 21
0.7499999999999999
 31
0.0
  0
LINE
  5
1B9
330
142
100
AcDbEntity
  8
AM_4
100
AcDbLine
 10
-1.394173790449381
 20
4.209879032258065
 30
0.0
 11
-1.394173790449381
 21
4.109879032258065
 31
0.0
  0
LINE
  5
1BA
330
142
100
AcDbEntity
  8
AM_4
100
AcDbLine
 10
1.394173790449381
 20
4.209879032258065
 30
0.0
 11
1.394173790449381
 21
4.109879032258065
 31
0.0
  0
LINE
  5
1BB
330
142
100
AcDbEntity
  8
AM_4
100
AcDbLine
 10
1.796875
 20
2.95448882956994
 30
0.0
 11
1.796875
 21
4.109879032258065
 31
0.0
  0
LINE
  5
1BC
330
142
100
AcDbEntity
  8
AM_4
100
AcDbLine
 10
-1.796875
 20
2.954488829569941
 30
0.0
 11
-1.796875
 21
4.109879032258065
 31
0.0
  0
LINE
  5
1BD
330
142
100
AcDbEntity
  8
AM_4
100
AcDbLine
 10
0.8153063102043172
 20
4.209879032258065
 30
0.0
 11
0.8153063102043172
 21
4.109879032258065
 31
0.0
  0
LINE
  5
1BE
330
142
100
AcDbEntity
  8
AM_4
100
AcDbLine
 10
-0.8153063102043169
 20
4.209879032258065
 30
0.0
 11
-0.8153063102043169
 21
4.109879032258065
 31
0.0
  0
LINE
  5
1BF
330
142
100
AcDbEntity
  8
AM_4
100
AcDbLine
 10
-4.75
 20
0.7499999999999999
 30
0.0
 11
-3.333535908240274
 21
0.7499999999999999
 31
0.0
  0
LINE
  5
1C0
330
142
100
AcDbEntity
  8
AM_4
100
AcDbLine
 10
-4.75
 20
-0.7499999999999999
 30
0.0
 11
-3.333535908240275
 21
-0.7499999999999999
 31
0.0
  0
LINE
  5
1C1
330
142
100
AcDbEntity
  8
AM_4
100
AcDbLine
 10
-4.75
 20
0.7499999999999999
 30
0.0
 11
-4.75
 21
-0.7499999999999999
 31
0.0
  0
LINE
  5
1C2
330
142
100
AcDbEntity
  8
AM_4
100
AcDbLine
 10
-4.062500000000001
 20
0.7499999999999999
 30
0.0
 11
-4.062500000000001
 21
-0.7499999999999999
 31
0.0
  0
LINE
  5
1C3
330
142
100
AcDbEntity
  8
AM_4
100
AcDbLine
 10
0.9375
 20
3.292432454981808
 30
0.0
 11
0.9375
 21
4.109879032258065
 31
0.0
  0
LINE
  5
1C4
330
142
100
AcDbEntity
  8
AM_4
100
AcDbLine
 10
3.333535908240275
 20
-0.7499999999999999
 30
0.0
 11
4.75
 21
-0.7499999999999999
 31
0.0
  0
LINE
  5
1C5
330
142
100
AcDbEntity
  8
AM_4
100
AcDbLine
 10
4.75
 20
0.7499999999999999
 30
0.0
 11
4.75
 21
-0.7499999999999999
 31
0.0
  0
LINE
  5
1C6
330
142
100
AcDbEntity
  8
AM_4
100
AcDbLine
 10
3.333535908240274
 20
0.7499999999999999
 30
0.0
 11
4.75
 21
0.7499999999999999
 31
0.0
  0
LINE
  5
1C7
330
142
100
AcDbEntity
  8
AM_4
100
AcDbLine
 10
1.96875
 20
4.109879032258065
 30
0.0
 11
-1.96875
 21
4.109879032258065
 31
0.0
  0
LINE
  5
1C8
330
142
100
AcDbEntity
  8
AM_4
100
AcDbLine
 10
-0.9375000000000002
 20
3.292432454981808
 30
0.0
 11
-0.9375000000000002
 21
4.109879032258065
 31
0.0
  0
LINE
  5
1C9
330
142
100
AcDbEntity
  8
AM_4
100
AcDbLine
 10
4.0625
 20
0.7499999999999999
 30
0.0
 11
4.0625
 21
-0.7499999999999999
 31
0.0
  0
LINE
  5
1CA
330
142
100
AcDbEntity
  8
AM_4
100
AcDbLine
 10
0.5937500000000004
 20
3.364880768916978
 30
0.0
 11
0.5937500000000004
 21
4.109879032258065
 31
0.0
  0
LINE
  5
1CB
330
142
100
AcDbEntity
  8
AM_4
100
AcDbLine
 10
-0.5937500000000044
 20
3.364880768916976
 30
0.0
 11
-0.5937500000000043
 21
4.109879032258065
 31
0.0
  0
ARC
  5
1CC
330
142
100
AcDbEntity
  8
AM_4
100
AcDbCircle
 10
-0.0000000000000027
 20
0.0000000000000022
 30
0.0
 40
3.578570053630938
100
AcDbArc
 50
123.3772981641048
 51
159.0245679592749
  0
ARC
  5
1CD
330
142
100
AcDbEntity
  8
AM_4
100
AcDbCircle
 10
0.0000000000002096
 20
-0.0000000000000622
 30
0.0
 40
3.615424037877595
100
AcDbArc
 50
158.5527702171814
 51
168.0273619641259
  0
ARC
  5
1CE
330
142
100
AcDbEntity
  8
AM_4
100
AcDbCircle
 10
0.0000000000001599
 20
0.0000000000000467
 30
0.0
 40
3.615424037877543
100
AcDbArc
 50
191.972638035874
 51
201.4472297828186
  0
ARC
  5
1CF
330
142
100
AcDbEntity
  8
AM_4
100
AcDbCircle
 10
0.000000000000004
 20
0.000000000000004
 30
0.0
 40
3.578570053630947
100
AcDbArc
 50
200.9754320407252
 51
249.0245679592748
  0
ARC
  5
1D0
330
142
100
AcDbEntity
  8
AM_4
100
AcDbCircle
 10
0.0000000000000016
 20
-0.0000000000000022
 30
0.0
 40
3.578570053630939
100
AcDbArc
 50
290.9754320407251
 51
339.0245679592749
  0
ARC
  5
1D1
330
142
100
AcDbEntity
  8
AM_4
100
AcDbCircle
 10
0.0000000000000013
 20
0.0000000000000022
 30
0.0
 40
3.578570053630939
100
AcDbArc
 50
20.97543204072517
 51
56.62270183589521
  0
ARC
  5
1D2
330
142
100
AcDbEntity
  8
AM_4
100
AcDbCircle
 10
0.0000000000000031
 20
-0.0000000000000195
 30
0.0
 40
3.416864301011593
100
AcDbArc
 50
79.99288696272372
 51
100.0071130372765
  0
LWPOLYLINE
  5
1D3
330
142
100
AcDbEntity
  8
AM_4
100
AcDbPolyline
 90
        4
 70
     0
 43
0.0
 10
-0.5937500000000044
 20
3.364880768916976
 10
-0.7097157866491564
 20
3.343048463417375
 10
-0.8252213682603501
 20
3.318608098832326
 10
-0.9375000000000002
 20
3.292432454981808
  0
LWPOLYLINE
  5
1D4
330
142
100
AcDbEntity
  8
AM_4
100
AcDbPolyline
 90
        5
 70
     0
 43
0.0
 10
-0.9374999999999991
 20
3.292432454981808
 10
-1.221642020259727
 20
3.210183901357978
 10
-1.497528511429717
 20
3.103503909882777
 10
-1.763059810727347
 20
2.973204379706472
 10
-1.796875
 20
2.95448882956994
  0
LWPOLYLINE
  5
1D5
330
142
100
AcDbEntity
  8
AM_4
100
AcDbPolyline
 90
        8
 70
     0
 43
0.0
 10
-1.796875
 20
2.954488829569941
 10
-1.843461031094181
 20
2.928313479762449
 10
-1.884955447710032
 20
2.905155826387107
 10
-1.920044378912968
 20
2.886169555345092
 10
-1.946755799194734
 20
2.872893795588705
 10
-1.961759155295998
 20
2.86710337245595
 10
-1.96844584384733
 20
2.867116232417452
 10
-1.96875
 20
2.868133680322118
  0
LWPOLYLINE
  5
1D6
330
142
100
AcDbEntity
  8
AM_4
100
AcDbPolyline
 90
        8
 70
     0
 43
0.0
 10
1.96875
 20
2.868133680322118
 10
1.965178983511057
 20
2.866416288373681
 10
1.954694899266483
 20
2.869503004467624
 10
1.937649090148715
 20
2.877203711775666
 10
1.914817521847231
 20
2.888922581702836
 10
1.885678405521574
 20
2.904756585488723
 10
1.852058850929442
 20
2.923492054139348
 10
1.796875
 20
2.95448882956994
  0
LWPOLYLINE
  5
1D7
330
142
100
AcDbEntity
  8
AM_4
100
AcDbPolyline
 90
        5
 70
     0
 43
0.0
 10
1.796875000000001
 20
2.954488829569941
 10
1.53284752233457
 20
3.087804363182801
 10
1.258196053797592
 20
3.19761984112459
 10
0.975010857903724
 20
3.283099501299771
 10
0.9375
 20
3.292432454981808
  0
LWPOLYLINE
  5
1D8
330
142
100
AcDbEntity
  8
AM_4
100
AcDbPolyline
 90
        4
 70
     0
 43
0.0
 10
0.9375
 20
3.292432454981808
 10
0.8326035410384285
 20
3.316957428680879
 10
0.7174972490234293
 20
3.341485556287184
 10
0.5937500000000004
 20
3.364880768916978
  0
ARC
  5
1D9
330
142
100
AcDbEntity
  8
AM_4
100
AcDbCircle
 10
0.0000000000000115
 20
-0.0000000000000028
 30
0.0
 40
3.416864301011585
100
AcDbArc
 50
167.3203621653564
 51
192.6796378346436
  0
ARC
  5
1DA
330
142
100
AcDbEntity
  8
AM_4
100
AcDbCircle
 10
-0.0000000000000138
 20
-0.0000000000000028
 30
0.0
 40
3.416864301011587
100
AcDbArc
 50
347.3203621653565
 51
12.67963783464364
  0
CIRCLE
  5
1DB
330
142
100
AcDbEntity
  8
AM_4
100
AcDbCircle
 10
0.0
 20
0.0
 30
0.0
 40
3.397705631715155
  0
CIRCLE
  5
1DC
330
142
100
AcDbEntity
  8
AM_4
100
AcDbCircle
 10
0.0
 20
0.0
 30
0.0
 40
3.322888327945666
  0
CIRCLE
  5
1DD
330
142
100
AcDbEntity
  8
AM_4
100
AcDbCircle
 10
0.0
 20
0.0
 30
0.0
 40
2.7815
  0
ENDBLK
  5
145
330
142
100
AcDbEntity
  8
0
100
AcDbBlockEnd
  0
ENDSEC
  0
SECTION
  2
ENTITIES
  0
INSERT
  5
6F
330
1F
100
AcDbEntity
  8
0
100
AcDbBlockReference
  2
1_023228_0
 10
0.0
 20
0.0
 30
0.0
  0
POINT
  5
1DF
330
1F
100
AcDbEntity
  8
ConnectionPoints
100
AcDbPoint
 10
0.0
 20
3.82425
 30
1.75
  0
POINT
  5
1E0
330
1F
100
AcDbEntity
  8
ConnectionPoints
100
AcDbPoint
 10
0.0
 20
3.82425
 30
1.75
  0
POINT
  5
1E1
330
1F
100
AcDbEntity
  8
ConnectionPoints
100
AcDbPoint
 10
0.0
 20
0.0
 30
1.75
  0
POINT
  5
1E2
330
1F
100
AcDbEntity
  8
ConnectionPoints
100
AcDbPoint
 10
0.0
 20
0.0
 30
4.0
  0
POINT
  5
1E3
330
1F
100
AcDbEntity
  8
ConnectionPoints
100
AcDbPoint
 10
0.0
 20
0.0
 30
-0.1259999999999999
  0
POINT
  5
1E4
330
1F
100
AcDbEntity
  8
ConnectionPoints
100
AcDbPoint
 10
0.0
 20
0.0
 30
4.0
  0
ENDSEC
  0
SECTION
  2
OBJECTS
  0
DICTIONARY
  5
C
330
0
100
AcDbDictionary
281
     1
  3
ACAD_DETAILVIEWSTYLE
350
1EC
  3
ACAD_GROUP
350
D
  3
ACAD_LAYOUT
350
1A
  3
ACAD_MATERIAL
350
43
  3
ACAD_MLEADERSTYLE
350
6B
  3
ACAD_MLINESTYLE
350
17
  3
ACAD_PLOTSETTINGS
350
19
  3
ACAD_PLOTSTYLENAME
350
E
  3
ACAD_SCALELIST
350
47
  3
ACAD_SECTIONVIEWSTYLE
350
1ED
  3
ACAD_TABLESTYLE
350
69
  3
ACAD_VISUALSTYLE
350
2A
  3
ACDB_RECOMPOSE_DATA
350
1E9
  3
AcDbVariableDictionary
350
1E5
  0
SUN
  5
6D
330
29
100
AcDbSun
 90
        1
290
     0
 63
     7
421
 16777215
 40
1.0
291
     1
 91
  2455826
 92
 54000000
292
     0
 70
     2
 71
   256
280
     1
  0
DICTIONARY
  5
1EC
102
{ACAD_REACTORS
330
C
102
}
330
C
100
AcDbDictionary
281
     1
  0
DICTIONARY
  5
D
102
{ACAD_REACTORS
330
C
102
}
330
C
100
AcDbDictionary
281
     1
  0
DICTIONARY
  5
1A
102
{ACAD_REACTORS
330
C
102
}
330
C
100
AcDbDictionary
281
     1
  3
Layout1
350
1E
  3
Layout2
350
26
  3
Model
350
22
  0
DICTIONARY
  5
43
102
{ACAD_REACTORS
330
C
102
}
330
C
100
AcDbDictionary
281
     1
  3
ByBlock
350
45
  3
ByLayer
350
44
  3
Global
350
46
  0
DICTIONARY
  5
6B
102
{ACAD_REACTORS
330
C
102
}
330
C
100
AcDbDictionary
281
     1
  3
Standard
350
6C
  0
DICTIONARY
  5
17
102
{ACAD_REACTORS
330
C
102
}
330
C
100
AcDbDictionary
281
     1
  3
Standard
350
18
  0
DICTIONARY
  5
19
102
{ACAD_REACTORS
330
C
102
}
330
C
100
AcDbDictionary
281
     1
  0
ACDBDICTIONARYWDFLT
  5
E
102
{ACAD_REACTORS
330
C
102
}
330
C
100
AcDbDictionary
281
     1
  3
Normal
350
F
100
AcDbDictionaryWithDefault
340
F
  0
DICTIONARY
  5
47
102
{ACAD_REACTORS
330
C
102
}
330
C
100
AcDbDictionary
281
     1
  3
A0
350
48
  3
A1
350
49
  3
A2
350
4A
  3
A3
350
4B
  3
A4
350
4C
  3
A5
350
4D
  3
A6
350
4E
  3
A7
350
4F
  3
A8
350
50
  3
A9
350
51
  3
B0
350
52
  3
B1
350
53
  3
B2
350
54
  3
B3
350
55
  3
B4
350
56
  3
B5
350
57
  3
B6
350
58
  3
B7
350
59
  3
B8
350
5A
  3
B9
350
5B
  3
C0
350
5C
  3
C1
350
5D
  3
C2
350
5E
  3
C3
350
5F
  3
C4
350
60
  3
C5
350
61
  3
C6
350
62
  3
C7
350
63
  3
C8
350
64
  3
C9
350
65
  3
D0
350
66
  3
D1
350
67
  3
D2
350
68
  0
DICTIONARY
  5
1ED
102
{ACAD_REACTORS
330
C
102
}
330
C
100
AcDbDictionary
281
     1
  0
DICTIONARY
  5
69
102
{ACAD_REACTORS
330
C
102
}
330
C
100
AcDbDictionary
281
     1
  3
Standard
350
6A
  0
DICTIONARY
  5
2A
102
{ACAD_REACTORS
330
C
102
}
330
C
100
AcDbDictionary
281
     1
  3
2dWireframe
350
2F
  3
Basic
350
32
  3
Brighten
350
36
  3
ColorChange
350
3A
  3
Conceptual
350
34
  3
Dim
350
35
  3
EdgeColorOff
350
3D
  3
Facepattern
350
39
  3
Flat
350
2B
  3
FlatWithEdges
350
2C
  3
Gouraud
350
2D
  3
GouraudWithEdges
350
2E
  3
Hidden
350
31
  3
JitterOff
350
3B
  3
Linepattern
350
38
  3
OverhangOff
350
3C
  3
Realistic
350
33
  3
Shaded
350
42
  3
Shaded with edges
350
41
  3
Shades of Gray
350
3E
  3
Sketchy
350
3F
  3
Thicken
350
37
  3
Wireframe
350
30
  3
X-Ray
350
40
  0
XRECORD
  5
1E9
102
{ACAD_REACTORS
330
C
102
}
330
C
100
AcDbXrecord
280
     1
 90
        1
330
6A
  0
DICTIONARY
  5
1E5
102
{ACAD_REACTORS
330
C
102
}
330
C
100
AcDbDictionary
281
     1
  3
CANNOSCALE
350
1E6
  3
CMLEADERSTYLE
350
1EB
  3
CTABLESTYLE
350
1EA
  0
LAYOUT
  5
1E
102
{ACAD_REACTORS
330
1A
102
}
330
1A
100
AcDbPlotSettings
  1

  2
none_device
  4

  6

 40
0.0
 41
0.0
 42
0.0
 43
0.0
 44
0.0
 45
0.0
 46
0.0
 47
0.0
 48
0.0
 49
0.0
140
0.0
141
0.0
142
1.0
143
1.0
 70
   688
 72
     0
 73
     0
 74
     5
  7

 75
    16
 76
     0
 77
     2
 78
   300
147
1.0
148
0.0
149
0.0
100
AcDbLayout
  1
Layout1
 70
     1
 71
     1
 10
0.0
 20
0.0
 11
12.0
 21
9.0
 12
0.0
 22
0.0
 32
0.0
 14
1.000000000000000E+20
 24
1.000000000000000E+20
 34
1.000000000000000E+20
 15
-1.000000000000000E+20
 25
-1.000000000000000E+20
 35
-1.000000000000000E+20
146
0.0
 13
0.0
 23
0.0
 33
0.0
 16
1.0
 26
0.0
 36
0.0
 17
0.0
 27
1.0
 37
0.0
 76
     0
330
1B
  0
LAYOUT
  5
26
102
{ACAD_REACTORS
330
1A
102
}
330
1A
100
AcDbPlotSettings
  1

  2
none_device
  4

  6

 40
0.0
 41
0.0
 42
0.0
 43
0.0
 44
0.0
 45
0.0
 46
0.0
 47
0.0
 48
0.0
 49
0.0
140
0.0
141
0.0
142
1.0
143
1.0
 70
   688
 72
     0
 73
     0
 74
     5
  7

 75
    16
 76
     0
 77
     2
 78
   300
147
1.0
148
0.0
149
0.0
100
AcDbLayout
  1
Layout2
 70
     1
 71
     2
 10
0.0
 20
0.0
 11
0.0
 21
0.0
 12
0.0
 22
0.0
 32
0.0
 14
0.0
 24
0.0
 34
0.0
 15
0.0
 25
0.0
 35
0.0
146
0.0
 13
0.0
 23
0.0
 33
0.0
 16
1.0
 26
0.0
 36
0.0
 17
0.0
 27
1.0
 37
0.0
 76
     0
330
23
  0
LAYOUT
  5
22
102
{ACAD_REACTORS
330
1A
102
}
330
1A
100
AcDbPlotSettings
  1

  2
none_device
  4
Letter_(8.50_x_11.00_Inches)
  6

 40
6.35
 41
6.35
 42
6.35000508
 43
6.35000508
 44
215.9
 45
279.4
 46
0.0
 47
0.0
 48
0.0
 49
0.0
140
0.0
141
0.0
142
1.0
143
1.0
 70
  1712
 72
     0
 73
     0
 74
     0
  7

 75
     0
 76
     0
 77
     2
 78
   300
147
1.0
148
0.0
149
0.0
100
AcDbLayout
  1
Model
 70
     1
 71
     0
 10
0.0
 20
0.0
 11
12.0
 21
9.0
 12
0.0
 22
0.0
 32
0.0
 14
1.000000000000000E+20
 24
1.000000000000000E+20
 34
1.000000000000000E+20
 15
-1.000000000000000E+20
 25
-1.000000000000000E+20
 35
-1.000000000000000E+20
146
0.0
 13
0.0
 23
0.0
 33
0.0
 16
1.0
 26
0.0
 36
0.0
 17
0.0
 27
1.0
 37
0.0
 76
     0
330
1F
331
29
  0
MATERIAL
  5
45
102
{ACAD_REACTORS
330
43
102
}
330
43
100
AcDbMaterial
  1
ByBlock
 72
     1
 94
      127
  0
MATERIAL
  5
44
102
{ACAD_REACTORS
330
43
102
}
330
43
100
AcDbMaterial
  1
ByLayer
 72
     1
 94
      127
  0
MATERIAL
  5
46
102
{ACAD_REACTORS
330
43
102
}
330
43
100
AcDbMaterial
  1
Global
 72
     1
 94
      127
  0
MLEADERSTYLE
  5
6C
102
{ACAD_REACTORS
330
6B
102
}
330
6B
100
AcDbMLeaderStyle
179
     2
170
     2
171
     1
172
     0
 90
        2
 40
0.0
 41
0.0
173
     1
 91
-1056964608
340
14
 92
       -2
290
     1
 42
0.09
291
     1
 43
0.36
  3
Standard
341
0
 44
0.18
300

342
11
174
     1
178
     6
175
     1
176
     0
 93
-1056964608
 45
0.18
292
     0
297
     0
 46
0.18
343
0
 94
-1056964608
 47
1.0
 49
1.0
140
1.0
293
     1
141
0.0
294
     1
177
     0
142
1.0
295
     0
296
     0
143
0.125
271
     0
272
     9
273
     9
298
     0
  0
MLINESTYLE
  5
18
102
{ACAD_REACTORS
330
17
102
}
330
17
100
AcDbMlineStyle
  2
Standard
 70
     0
  3

 62
   256
 51
90.0
 52
90.0
 71
     2
 49
0.5
 62
   256
  6
BYLAYER
 49
-0.5
 62
   256
  6
BYLAYER
  0
ACDBPLACEHOLDER
  5
F
102
{ACAD_REACTORS
330
E
102
}
330
E
  0
SCALE
  5
48
102
{ACAD_REACTORS
330
47
102
}
330
47
100
AcDbScale
 70
     0
300
1:1
140
1.0
141
1.0
290
     1
  0
SCALE
  5
49
102
{ACAD_REACTORS
330
47
102
}
330
47
100
AcDbScale
 70
     0
300
1:2
140
1.0
141
2.0
290
     0
  0
SCALE
  5
4A
102
{ACAD_REACTORS
330
47
102
}
330
47
100
AcDbScale
 70
     0
300
1:4
140
1.0
141
4.0
290
     0
  0
SCALE
  5
4B
102
{ACAD_REACTORS
330
47
102
}
330
47
100
AcDbScale
 70
     0
300
1:5
140
1.0
141
5.0
290
     0
  0
SCALE
  5
4C
102
{ACAD_REACTORS
330
47
102
}
330
47
100
AcDbScale
 70
     0
300
1:8
140
1.0
141
8.0
290
     0
  0
SCALE
  5
4D
102
{ACAD_REACTORS
330
47
102
}
330
47
100
AcDbScale
 70
     0
300
1:10
140
1.0
141
10.0
290
     0
  0
SCALE
  5
4E
102
{ACAD_REACTORS
330
47
102
}
330
47
100
AcDbScale
 70
     0
300
1:16
140
1.0
141
16.0
290
     0
  0
SCALE
  5
4F
102
{ACAD_REACTORS
330
47
102
}
330
47
100
AcDbScale
 70
     0
300
1:20
140
1.0
141
20.0
290
     0
  0
SCALE
  5
50
102
{ACAD_REACTORS
330
47
102
}
330
47
100
AcDbScale
 70
     0
300
1:30
140
1.0
141
30.0
290
     0
  0
SCALE
  5
51
102
{ACAD_REACTORS
330
47
102
}
330
47
100
AcDbScale
 70
     0
300
1:40
140
1.0
141
40.0
290
     0
  0
SCALE
  5
52
102
{ACAD_REACTORS
330
47
102
}
330
47
100
AcDbScale
 70
     0
300
1:50
140
1.0
141
50.0
290
     0
  0
SCALE
  5
53
102
{ACAD_REACTORS
330
47
102
}
330
47
100
AcDbScale
 70
     0
300
1:100
140
1.0
141
100.0
290
     0
  0
SCALE
  5
54
102
{ACAD_REACTORS
330
47
102
}
330
47
100
AcDbScale
 70
     0
300
2:1
140
2.0
141
1.0
290
     0
  0
SCALE
  5
55
102
{ACAD_REACTORS
330
47
102
}
330
47
100
AcDbScale
 70
     0
300
4:1
140
4.0
141
1.0
290
     0
  0
SCALE
  5
56
102
{ACAD_REACTORS
330
47
102
}
330
47
100
AcDbScale
 70
     0
300
8:1
140
8.0
141
1.0
290
     0
  0
SCALE
  5
57
102
{ACAD_REACTORS
330
47
102
}
330
47
100
AcDbScale
 70
     0
300
10:1
140
10.0
141
1.0
290
     0
  0
SCALE
  5
58
102
{ACAD_REACTORS
330
47
102
}
330
47
100
AcDbScale
 70
     0
300
100:1
140
100.0
141
1.0
290
     0
  0
SCALE
  5
59
102
{ACAD_REACTORS
330
47
102
}
330
47
100
AcDbScale
 70
     0
300
1/128" = 1'-0"
140
0.0078125
141
12.0
290
     0
  0
SCALE
  5
5A
102
{ACAD_REACTORS
330
47
102
}
330
47
100
AcDbScale
 70
     0
300
1/64" = 1'-0"
140
0.015625
141
12.0
290
     0
  0
SCALE
  5
5B
102
{ACAD_REACTORS
330
47
102
}
330
47
100
AcDbScale
 70
     0
300
1/32" = 1'-0"
140
0.03125
141
12.0
290
     0
  0
SCALE
  5
5C
102
{ACAD_REACTORS
330
47
102
}
330
47
100
AcDbScale
 70
     0
300
1/16" = 1'-0"
140
0.0625
141
12.0
290
     0
  0
SCALE
  5
5D
102
{ACAD_REACTORS
330
47
102
}
330
47
100
AcDbScale
 70
     0
300
3/32" = 1'-0"
140
0.09375
141
12.0
290
     0
  0
SCALE
  5
5E
102
{ACAD_REACTORS
330
47
102
}
330
47
100
AcDbScale
 70
     0
300
1/8" = 1'-0"
140
0.125
141
12.0
290
     0
  0
SCALE
  5
5F
102
{ACAD_REACTORS
330
47
102
}
330
47
100
AcDbScale
 70
     0
300
3/16" = 1'-0"
140
0.1875
141
12.0
290
     0
  0
SCALE
  5
60
102
{ACAD_REACTORS
330
47
102
}
330
47
100
AcDbScale
 70
     0
300
1/4" = 1'-0"
140
0.25
141
12.0
290
     0
  0
SCALE
  5
61
102
{ACAD_REACTORS
330
47
102
}
330
47
100
AcDbScale
 70
     0
300
3/8" = 1'-0"
140
0.375
141
12.0
290
     0
  0
SCALE
  5
62
102
{ACAD_REACTORS
330
47
102
}
330
47
100
AcDbScale
 70
     0
300
1/2" = 1'-0"
140
0.5
141
12.0
290
     0
  0
SCALE
  5
63
102
{ACAD_REACTORS
330
47
102
}
330
47
100
AcDbScale
 70
     0
300
3/4" = 1'-0"
140
0.75
141
12.0
290
     0
  0
SCALE
  5
64
102
{ACAD_REACTORS
330
47
102
}
330
47
100
AcDbScale
 70
     0
300
1" = 1'-0"
140
1.0
141
12.0
290
     0
  0
SCALE
  5
65
102
{ACAD_REACTORS
330
47
102
}
330
47
100
AcDbScale
 70
     0
300
1-1/2" = 1'-0"
140
1.5
141
12.0
290
     0
  0
SCALE
  5
66
102
{ACAD_REACTORS
330
47
102
}
330
47
100
AcDbScale
 70
     0
300
3" = 1'-0"
140
3.0
141
12.0
290
     0
  0
SCALE
  5
67
102
{ACAD_REACTORS
330
47
102
}
330
47
100
AcDbScale
 70
     0
300
6" = 1'-0"
140
6.0
141
12.0
290
     0
  0
SCALE
  5
68
102
{ACAD_REACTORS
330
47
102
}
330
47
100
AcDbScale
 70
     0
300
1'-0" = 1'-0"
140
12.0
141
12.0
290
     0
  0
TABLESTYLE
  5
6A
102
{ACAD_REACTORS
330
69
102
}
102
{ACAD_XDICTIONARY
360
1E7
102
}
330
69
100
AcDbTableStyle
  3
Standard
 70
     0
 71
     0
 40
0.06
 41
0.06
280
     0
281
     0
  7
Standard
140
0.18
170
     2
 62
     0
 63
   257
283
     0
 90
        4
 91
        0
  1

274
    -2
284
     1
 64
     0
275
    -2
285
     1
 65
     0
276
    -2
286
     1
 66
     0
277
    -2
287
     1
 67
     0
278
    -2
288
     1
 68
     0
279
    -2
289
     1
 69
     0
  7
Standard
140
0.25
170
     5
 62
     0
 63
   257
283
     0
 90
        4
 91
        0
  1

274
    -2
284
     1
 64
     0
275
    -2
285
     1
 65
     0
276
    -2
286
     1
 66
     0
277
    -2
287
     1
 67
     0
278
    -2
288
     1
 68
     0
279
    -2
289
     1
 69
     0
  7
Standard
140
0.18
170
     5
 62
     0
 63
   257
283
     0
 90
        4
 91
        0
  1

274
    -2
284
     1
 64
     0
275
    -2
285
     1
 65
     0
276
    -2
286
     1
 66
     0
277
    -2
287
     1
 67
     0
278
    -2
288
     1
 68
     0
279
    -2
289
     1
 69
     0
  0
VISUALSTYLE
  5
2F
102
{ACAD_REACTORS
330
2A
102
}
330
2A
100
AcDbVisualStyle
  2
2dWireframe
 70
     4
177
     3
291
     0
 70
    58
 90
        0
176
     1
 90
        2
176
     1
 90
        0
176
     1
 90
        0
176
     1
 40
0.6
176
     1
 40
30.0
176
     1
 62
     7
420
 16777215
176
     1
 90
        1
176
     1
 90
        4
176
     1
 62
     7
176
     1
 62
   257
176
     1
 90
        1
176
     1
 90
        1
176
     1
 40
1.0
176
     1
 90
        0
176
     1
 62
   257
176
     1
 40
1.0
176
     1
 90
        1
176
     1
 90
        6
176
     1
 90
        2
176
     1
 62
     7
176
     1
 90
        5
176
     1
 90
        0
176
     1
 90
        0
176
     1
290
     0
176
     1
 90
        1
176
     1
 40
0.0
176
     1
 90
        0
176
     1
290
     1
176
     1
290
     1
176
     1
290
     0
176
     1
290
     0
176
     1
290
     0
176
     1
290
     0
176
     1
290
     0
176
     1
290
     0
176
     1
290
     0
176
     1
 90
       50
176
     1
 40
0.0
176
     1
 40
1.0
176
     1
 90
        0
176
     1
 62
    18
420
        0
176
     1
 90
       50
176
     1
 90
        3
176
     1
 62
     5
420
      255
176
     1
290
     0
176
     1
 90
       50
176
     1
 90
       50
176
     1
 90
       50
176
     1
290
     0
176
     1
 90
       50
176
     1
 62
   256
176
     0
 40
1.0
176
     0
 90
        2
176
     1
  1
strokes_ogs.tif
176
     1
290
     0
176
     1
 40
1.0
176
     1
 40
1.0
176
     1
  0
VISUALSTYLE
  5
32
102
{ACAD_REACTORS
330
2A
102
}
330
2A
100
AcDbVisualStyle
  2
Basic
 70
     7
177
     3
291
     1
 70
    58
 90
        1
176
     1
 90
        0
176
     1
 90
        1
176
     1
 90
        0
176
     1
 40
0.6
176
     1
 40
30.0
176
     1
 62
     7
420
 16777215
176
     1
 90
        0
176
     1
 90
        4
176
     1
 62
     7
176
     1
 62
   257
176
     1
 90
        1
176
     1
 90
        1
176
     1
 40
1.0
176
     1
 90
        8
176
     1
 62
     7
176
     1
 40
1.0
176
     1
 90
        1
176
     1
 90
        6
176
     1
 90
        2
176
     1
 62
     7
176
     1
 90
        5
176
     1
 90
        0
176
     1
 90
        0
176
     1
290
     0
176
     1
 90
        1
176
     1
 40
0.0
176
     1
 90
        0
176
     1
290
     0
176
     1
290
     1
176
     1
290
     1
176
     1
290
     0
176
     1
290
     0
176
     1
290
     0
176
     1
290
     0
176
     1
290
     0
176
     1
290
     0
176
     1
 90
       50
176
     1
 40
0.0
176
     1
 40
1.0
176
     1
 90
        0
176
     1
 62
    18
420
        0
176
     1
 90
       50
176
     1
 90
        3
176
     1
 62
     5
420
      255
176
     1
290
     0
176
     1
 90
       50
176
     1
 90
       50
176
     1
 90
       50
176
     1
290
     0
176
     1
 90
       50
176
     1
 62
   256
176
     0
 40
1.0
176
     0
 90
        2
176
     1
  1
strokes_ogs.tif
176
     1
290
     0
176
     1
 40
1.0
176
     1
 40
1.0
176
     1
  0
VISUALSTYLE
  5
36
102
{ACAD_REACTORS
330
2A
102
}
330
2A
100
AcDbVisualStyle
  2
Brighten
 70
    12
177
     3
291
     1
 70
    58
 90
        2
176
     1
 90
        2
176
     1
 90
        0
176
     1
 90
        0
176
     1
 40
0.6
176
     1
 40
30.0
176
     1
 62
     7
420
 16777215
176
     1
 90
        1
176
     1
 90
        4
176
     1
 62
     7
176
     1
 62
   257
176
     1
 90
        1
176
     1
 90
        1
176
     1
 40
1.0
176
     1
 90
        8
176
     1
 62
     7
176
     1
 40
1.0
176
     1
 90
        1
176
     1
 90
        6
176
     1
 90
        2
176
     1
 62
     7
176
     1
 90
        5
176
     1
 90
        0
176
     1
 90
        0
176
     1
290
     0
176
     1
 90
        1
176
     1
 40
50.0
176
     1
 90
        0
176
     1
290
     0
176
     1
290
     1
176
     1
290
     1
176
     1
290
     0
176
     1
290
     0
176
     1
290
     0
176
     1
290
     0
176
     1
290
     0
176
     1
290
     0
176
     1
 90
       50
176
     1
 40
0.0
176
     1
 40
1.0
176
     1
 90
        0
176
     1
 62
    18
420
        0
176
     1
 90
       50
176
     1
 90
        3
176
     1
 62
     5
420
      255
176
     1
290
     0
176
     1
 90
       50
176
     1
 90
       50
176
     1
 90
       50
176
     1
290
     0
176
     1
 90
       50
176
     1
 62
   256
176
     0
 40
1.0
176
     0
 90
        2
176
     1
  1
strokes_ogs.tif
176
     1
290
     0
176
     1
 40
1.0
176
     1
 40
1.0
176
     1
  0
VISUALSTYLE
  5
3A
102
{ACAD_REACTORS
330
2A
102
}
330
2A
100
AcDbVisualStyle
  2
ColorChange
 70
    16
177
     3
291
     1
 70
    58
 90
        2
176
     1
 90
        2
176
     1
 90
        3
176
     1
 90
        0
176
     1
 40
0.6
176
     1
 40
30.0
176
     1
 62
     8
420
  8421504
176
     1
 90
        1
176
     1
 90
        4
176
     1
 62
     7
176
     1
 62
   257
176
     1
 90
        1
176
     1
 90
        1
176
     1
 40
1.0
176
     1
 90
        8
176
     1
 62
     8
420
  8421504
176
     1
 40
1.0
176
     1
 90
        1
176
     1
 90
        6
176
     1
 90
        2
176
     1
 62
     7
176
     1
 90
        5
176
     1
 90
        0
176
     1
 90
        0
176
     1
290
     0
176
     1
 90
        1
176
     1
 40
0.0
176
     1
 90
        0
176
     1
290
     0
176
     1
290
     1
176
     1
290
     1
176
     1
290
     0
176
     1
290
     0
176
     1
290
     0
176
     1
290
     0
176
     1
290
     0
176
     1
290
     0
176
     1
 90
       50
176
     1
 40
0.0
176
     1
 40
1.0
176
     1
 90
        0
176
     1
 62
    18
420
        0
176
     1
 90
       50
176
     1
 90
        3
176
     1
 62
     5
420
      255
176
     1
290
     0
176
     1
 90
       50
176
     1
 90
       50
176
     1
 90
       50
176
     1
290
     0
176
     1
 90
       50
176
     1
 62
   256
176
     0
 40
1.0
176
     0
 90
        2
176
     1
  1
strokes_ogs.tif
176
     1
290
     0
176
     1
 40
1.0
176
     1
 40
1.0
176
     1
  0
VISUALSTYLE
  5
34
102
{ACAD_REACTORS
330
2A
102
}
330
2A
100
AcDbVisualStyle
  2
Conceptual
 70
     9
177
     3
291
     0
 70
    58
 90
        3
176
     1
 90
        2
176
     1
 90
        0
176
     1
 90
        0
176
     1
 40
0.6
176
     1
 40
30.0
176
     1
 62
     7
420
 16777215
176
     1
 90
        2
176
     1
 90
        2
176
     1
 62
     7
176
     1
 62
   257
176
     1
 90
        1
176
     1
 90
        1
176
     1
 40
179.0
176
     1
 90
        8
176
     1
 62
     7
176
     1
 40
1.0
176
     1
 90
        1
176
     1
 90
        6
176
     1
 90
        2
176
     1
 62
     7
176
     1
 90
        3
176
     1
 90
        0
176
     1
 90
        0
176
     1
290
     0
176
     1
 90
        1
176
     1
 40
0.0
176
     1
 90
        0
176
     1
290
     0
176
     1
290
     1
176
     1
290
     1
176
     1
290
     0
176
     1
290
     0
176
     1
290
     0
176
     1
290
     0
176
     1
290
     0
176
     1
290
     0
176
     1
 90
       50
176
     1
 40
0.0
176
     1
 40
1.0
176
     1
 90
        0
176
     1
 62
    18
420
        0
176
     1
 90
       50
176
     1
 90
        3
176
     1
 62
     5
420
      255
176
     1
290
     0
176
     1
 90
       50
176
     1
 90
       50
176
     1
 90
       50
176
     1
290
     0
176
     1
 90
       50
176
     1
 62
   256
176
     0
 40
1.0
176
     0
 90
        2
176
     1
  1
strokes_ogs.tif
176
     1
290
     0
176
     1
 40
1.0
176
     1
 40
1.0
176
     1
  0
VISUALSTYLE
  5
35
102
{ACAD_REACTORS
330
2A
102
}
330
2A
100
AcDbVisualStyle
  2
Dim
 70
    11
177
     3
291
     1
 70
    58
 90
        2
176
     1
 90
        2
176
     1
 90
        0
176
     1
 90
        0
176
     1
 40
0.6
176
     1
 40
30.0
176
     1
 62
     7
420
 16777215
176
     1
 90
        1
176
     1
 90
        4
176
     1
 62
     7
176
     1
 62
   257
176
     1
 90
        1
176
     1
 90
        1
176
     1
 40
1.0
176
     1
 90
        8
176
     1
 62
     7
176
     1
 40
1.0
176
     1
 90
        1
176
     1
 90
        6
176
     1
 90
        2
176
     1
 62
     7
176
     1
 90
        5
176
     1
 90
        0
176
     1
 90
        0
176
     1
290
     0
176
     1
 90
        1
176
     1
 40
-50.0
176
     1
 90
        0
176
     1
290
     0
176
     1
290
     1
176
     1
290
     1
176
     1
290
     0
176
     1
290
     0
176
     1
290
     0
176
     1
290
     0
176
     1
290
     0
176
     1
290
     0
176
     1
 90
       50
176
     1
 40
0.0
176
     1
 40
1.0
176
     1
 90
        0
176
     1
 62
    18
420
        0
176
     1
 90
       50
176
     1
 90
        3
176
     1
 62
     5
420
      255
176
     1
290
     0
176
     1
 90
       50
176
     1
 90
       50
176
     1
 90
       50
176
     1
290
     0
176
     1
 90
       50
176
     1
 62
   256
176
     0
 40
1.0
176
     0
 90
        2
176
     1
  1
strokes_ogs.tif
176
     1
290
     0
176
     1
 40
1.0
176
     1
 40
1.0
176
     1
  0
VISUALSTYLE
  5
3D
102
{ACAD_REACTORS
330
2A
102
}
330
2A
100
AcDbVisualStyle
  2
EdgeColorOff
 70
    22
177
     3
291
     1
 70
    58
 90
        2
176
     0
 90
        2
176
     0
 90
        0
176
     0
 90
        0
176
     0
 40
0.6
176
     0
 40
30.0
176
     0
 62
     7
420
 16777215
176
     0
 90
        1
176
     0
 90
        4
176
     0
 62
     7
176
     0
 62
   257
176
     0
 90
        1
176
     0
 90
        1
176
     0
 40
1.0
176
     0
 90
        8
176
     2
 62
     7
176
     0
 40
1.0
176
     0
 90
        1
176
     0
 90
        6
176
     0
 90
        2
176
     0
 62
     7
176
     0
 90
        5
176
     0
 90
        0
176
     0
 90
        0
176
     0
290
     0
176
     0
 90
        1
176
     0
 40
0.0
176
     0
 90
        0
176
     0
290
     0
176
     0
290
     1
176
     0
290
     1
176
     0
290
     0
176
     0
290
     0
176
     0
290
     0
176
     0
290
     0
176
     0
290
     0
176
     0
290
     0
176
     0
 90
       50
176
     0
 40
0.0
176
     0
 40
1.0
176
     0
 90
        0
176
     0
 62
    18
420
        0
176
     0
 90
       50
176
     0
 90
        3
176
     0
 62
     5
420
      255
176
     0
290
     0
176
     0
 90
       50
176
     0
 90
       50
176
     0
 90
       50
176
     0
290
     0
176
     0
 90
       50
176
     0
 62
   256
176
     0
 40
1.0
176
     0
 90
        2
176
     0
  1
strokes_ogs.tif
176
     0
290
     0
176
     0
 40
1.0
176
     0
 40
1.0
176
     0
  0
VISUALSTYLE
  5
39
102
{ACAD_REACTORS
330
2A
102
}
330
2A
100
AcDbVisualStyle
  2
Facepattern
 70
    15
177
     3
291
     1
 70
    58
 90
        2
176
     1
 90
        2
176
     1
 90
        0
176
     1
 90
        0
176
     1
 40
0.6
176
     1
 40
30.0
176
     1
 62
     7
420
 16777215
176
     1
 90
        1
176
     1
 90
        4
176
     1
 62
     7
176
     1
 62
   257
176
     1
 90
        1
176
     1
 90
        1
176
     1
 40
1.0
176
     1
 90
        8
176
     1
 62
     7
176
     1
 40
1.0
176
     1
 90
        1
176
     1
 90
        6
176
     1
 90
        2
176
     1
 62
     7
176
     1
 90
        5
176
     1
 90
        0
176
     1
 90
        0
176
     1
290
     0
176
     1
 90
        1
176
     1
 40
0.0
176
     1
 90
        0
176
     1
290
     0
176
     1
290
     1
176
     1
290
     1
176
     1
290
     0
176
     1
290
     0
176
     1
290
     0
176
     1
290
     0
176
     1
290
     0
176
     1
290
     0
176
     1
 90
       50
176
     1
 40
0.0
176
     1
 40
1.0
176
     1
 90
        0
176
     1
 62
    18
420
        0
176
     1
 90
       50
176
     1
 90
        3
176
     1
 62
     5
420
      255
176
     1
290
     0
176
     1
 90
       50
176
     1
 90
       50
176
     1
 90
       50
176
     1
290
     0
176
     1
 90
       50
176
     1
 62
   256
176
     0
 40
1.0
176
     0
 90
        2
176
     1
  1
strokes_ogs.tif
176
     1
290
     0
176
     1
 40
1.0
176
     1
 40
1.0
176
     1
  0
VISUALSTYLE
  5
2B
102
{ACAD_REACTORS
330
2A
102
}
330
2A
100
AcDbVisualStyle
  2
Flat
 70
     0
177
     3
291
     1
 70
    58
 90
        2
176
     1
 90
        1
176
     1
 90
        1
176
     1
 90
        2
176
     1
 40
0.6
176
     1
 40
30.0
176
     1
 62
     7
420
 16777215
176
     1
 90
        0
176
     1
 90
        0
176
     1
 62
     7
176
     1
 62
   257
176
     1
 90
        1
176
     1
 90
        1
176
     1
 40
1.0
176
     1
 90
        8
176
     1
 62
     7
176
     1
 40
1.0
176
     1
 90
        1
176
     1
 90
        6
176
     1
 90
        2
176
     1
 62
     7
176
     1
 90
        5
176
     1
 90
        0
176
     1
 90
        0
176
     1
290
     0
176
     1
 90
       13
176
     1
 40
0.0
176
     1
 90
        0
176
     1
290
     0
176
     1
290
     1
176
     1
290
     1
176
     1
290
     0
176
     1
290
     0
176
     1
290
     0
176
     1
290
     0
176
     1
290
     0
176
     1
290
     0
176
     1
 90
       50
176
     1
 40
0.0
176
     1
 40
1.0
176
     1
 90
        0
176
     1
 62
    18
420
        0
176
     1
 90
       50
176
     1
 90
        3
176
     1
 62
     5
420
      255
176
     1
290
     0
176
     1
 90
       50
176
     1
 90
       50
176
     1
 90
       50
176
     1
290
     0
176
     1
 90
       50
176
     1
 62
   256
176
     0
 40
1.0
176
     0
 90
        2
176
     1
  1
strokes_ogs.tif
176
     1
290
     0
176
     1
 40
1.0
176
     1
 40
1.0
176
     1
  0
VISUALSTYLE
  5
2C
102
{ACAD_REACTORS
330
2A
102
}
330
2A
100
AcDbVisualStyle
  2
FlatWithEdges
 70
     1
177
     3
291
     1
 70
    58
 90
        2
176
     1
 90
        1
176
     1
 90
        1
176
     1
 90
        2
176
     1
 40
0.6
176
     1
 40
30.0
176
     1
 62
     7
420
 16777215
176
     1
 90
        1
176
     1
 90
        0
176
     1
 62
     7
176
     1
 62
   257
176
     1
 90
        1
176
     1
 90
        1
176
     1
 40
1.0
176
     1
 90
        0
176
     1
 62
   257
176
     1
 40
1.0
176
     1
 90
        1
176
     1
 90
        6
176
     1
 90
        2
176
     1
 62
     7
176
     1
 90
        5
176
     1
 90
        0
176
     1
 90
        0
176
     1
290
     0
176
     1
 90
       13
176
     1
 40
0.0
176
     1
 90
        0
176
     1
290
     0
176
     1
290
     1
176
     1
290
     1
176
     1
290
     0
176
     1
290
     0
176
     1
290
     0
176
     1
290
     0
176
     1
290
     0
176
     1
290
     0
176
     1
 90
       50
176
     1
 40
0.0
176
     1
 40
1.0
176
     1
 90
        0
176
     1
 62
    18
420
        0
176
     1
 90
       50
176
     1
 90
        3
176
     1
 62
     5
420
      255
176
     1
290
     0
176
     1
 90
       50
176
     1
 90
       50
176
     1
 90
       50
176
     1
290
     0
176
     1
 90
       50
176
     1
 62
   256
176
     0
 40
1.0
176
     0
 90
        2
176
     1
  1
strokes_ogs.tif
176
     1
290
     0
176
     1
 40
1.0
176
     1
 40
1.0
176
     1
  0
VISUALSTYLE
  5
2D
102
{ACAD_REACTORS
330
2A
102
}
330
2A
100
AcDbVisualStyle
  2
Gouraud
 70
     2
177
     3
291
     1
 70
    58
 90
        2
176
     1
 90
        2
176
     1
 90
        1
176
     1
 90
        2
176
     1
 40
0.6
176
     1
 40
30.0
176
     1
 62
     7
420
 16777215
176
     1
 90
        0
176
     1
 90
        0
176
     1
 62
     7
176
     1
 62
   257
176
     1
 90
        1
176
     1
 90
        1
176
     1
 40
1.0
176
     1
 90
        0
176
     1
 62
     7
176
     1
 40
1.0
176
     1
 90
        1
176
     1
 90
        6
176
     1
 90
        2
176
     1
 62
     7
176
     1
 90
        5
176
     1
 90
        0
176
     1
 90
        0
176
     1
290
     0
176
     1
 90
       13
176
     1
 40
0.0
176
     1
 90
        0
176
     1
290
     0
176
     1
290
     1
176
     1
290
     1
176
     1
290
     0
176
     1
290
     0
176
     1
290
     0
176
     1
290
     0
176
     1
290
     0
176
     1
290
     0
176
     1
 90
       50
176
     1
 40
0.0
176
     1
 40
1.0
176
     1
 90
        0
176
     1
 62
    18
420
        0
176
     1
 90
       50
176
     1
 90
        3
176
     1
 62
     5
420
      255
176
     1
290
     0
176
     1
 90
       50
176
     1
 90
       50
176
     1
 90
       50
176
     1
290
     0
176
     1
 90
       50
176
     1
 62
   256
176
     0
 40
1.0
176
     0
 90
        2
176
     1
  1
strokes_ogs.tif
176
     1
290
     0
176
     1
 40
1.0
176
     1
 40
1.0
176
     1
  0
VISUALSTYLE
  5
2E
102
{ACAD_REACTORS
330
2A
102
}
330
2A
100
AcDbVisualStyle
  2
GouraudWithEdges
 70
     3
177
     3
291
     1
 70
    58
 90
        2
176
     1
 90
        2
176
     1
 90
        1
176
     1
 90
        2
176
     1
 40
0.6
176
     1
 40
30.0
176
     1
 62
     7
420
 16777215
176
     1
 90
        1
176
     1
 90
        0
176
     1
 62
     7
176
     1
 62
   257
176
     1
 90
        1
176
     1
 90
        1
176
     1
 40
1.0
176
     1
 90
        0
176
     1
 62
   257
176
     1
 40
1.0
176
     1
 90
        1
176
     1
 90
        6
176
     1
 90
        2
176
     1
 62
     7
176
     1
 90
        5
176
     1
 90
        0
176
     1
 90
        0
176
     1
290
     0
176
     1
 90
       13
176
     1
 40
0.0
176
     1
 90
        0
176
     1
290
     0
176
     1
290
     1
176
     1
290
     1
176
     1
290
     0
176
     1
290
     0
176
     1
290
     0
176
     1
290
     0
176
     1
290
     0
176
     1
290
     0
176
     1
 90
       50
176
     1
 40
0.0
176
     1
 40
1.0
176
     1
 90
        0
176
     1
 62
    18
420
        0
176
     1
 90
       50
176
     1
 90
        3
176
     1
 62
     5
420
      255
176
     1
290
     0
176
     1
 90
       50
176
     1
 90
       50
176
     1
 90
       50
176
     1
290
     0
176
     1
 90
       50
176
     1
 62
   256
176
     0
 40
1.0
176
     0
 90
        2
176
     1
  1
strokes_ogs.tif
176
     1
290
     0
176
     1
 40
1.0
176
     1
 40
1.0
176
     1
  0
VISUALSTYLE
  5
31
102
{ACAD_REACTORS
330
2A
102
}
330
2A
100
AcDbVisualStyle
  2
Hidden
 70
     6
177
     3
291
     0
 70
    58
 90
        1
176
     1
 90
        2
176
     1
 90
        2
176
     1
 90
        0
176
     1
 40
0.6
176
     1
 40
30.0
176
     1
 62
     7
420
 16777215
176
     1
 90
        2
176
     1
 90
        2
176
     1
 62
     7
176
     1
 62
   257
176
     1
 90
        2
176
     1
 90
        1
176
     1
 40
40.0
176
     1
 90
        0
176
     1
 62
   257
176
     1
 40
1.0
176
     1
 90
        1
176
     1
 90
        6
176
     1
 90
        2
176
     1
 62
     7
176
     1
 90
        3
176
     1
 90
        0
176
     1
 90
        0
176
     1
290
     0
176
     1
 90
        1
176
     1
 40
0.0
176
     1
 90
        0
176
     1
290
     0
176
     1
290
     1
176
     1
290
     1
176
     1
290
     0
176
     1
290
     0
176
     1
290
     0
176
     1
290
     0
176
     1
290
     0
176
     1
290
     0
176
     1
 90
       50
176
     1
 40
0.0
176
     1
 40
1.0
176
     1
 90
        0
176
     1
 62
    18
420
        0
176
     1
 90
       50
176
     1
 90
        3
176
     1
 62
     5
420
      255
176
     1
290
     0
176
     1
 90
       50
176
     1
 90
       50
176
     1
 90
       50
176
     1
290
     0
176
     1
 90
       50
176
     1
 62
   256
176
     0
 40
1.0
176
     0
 90
        2
176
     1
  1
strokes_ogs.tif
176
     1
290
     0
176
     1
 40
1.0
176
     1
 40
1.0
176
     1
  0
VISUALSTYLE
  5
3B
102
{ACAD_REACTORS
330
2A
102
}
330
2A
100
AcDbVisualStyle
  2
JitterOff
 70
    20
177
     3
291
     1
 70
    58
 90
        2
176
     0
 90
        2
176
     0
 90
        0
176
     0
 90
        0
176
     0
 40
0.6
176
     0
 40
30.0
176
     0
 62
     7
420
 16777215
176
     0
 90
        1
176
     0
 90
        4
176
     0
 62
     7
176
     0
 62
   257
176
     0
 90
        1
176
     0
 90
        1
176
     0
 40
1.0
176
     0
 90
       10
176
     2
 62
     7
176
     0
 40
1.0
176
     0
 90
        1
176
     0
 90
        6
176
     0
 90
        2
176
     0
 62
     7
176
     0
 90
        5
176
     0
 90
        0
176
     0
 90
        0
176
     0
290
     0
176
     0
 90
        1
176
     0
 40
0.0
176
     0
 90
        0
176
     0
290
     0
176
     0
290
     1
176
     0
290
     1
176
     0
290
     0
176
     0
290
     0
176
     0
290
     0
176
     0
290
     0
176
     0
290
     0
176
     0
290
     0
176
     0
 90
       50
176
     0
 40
0.0
176
     0
 40
1.0
176
     0
 90
        0
176
     0
 62
    18
420
        0
176
     0
 90
       50
176
     0
 90
        3
176
     0
 62
     5
420
      255
176
     0
290
     0
176
     0
 90
       50
176
     0
 90
       50
176
     0
 90
       50
176
     0
290
     0
176
     0
 90
       50
176
     0
 62
   256
176
     0
 40
1.0
176
     0
 90
        2
176
     0
  1
strokes_ogs.tif
176
     0
290
     0
176
     0
 40
1.0
176
     0
 40
1.0
176
     0
  0
VISUALSTYLE
  5
38
102
{ACAD_REACTORS
330
2A
102
}
330
2A
100
AcDbVisualStyle
  2
Linepattern
 70
    14
177
     3
291
     1
 70
    58
 90
        2
176
     1
 90
        2
176
     1
 90
        0
176
     1
 90
        0
176
     1
 40
0.6
176
     1
 40
30.0
176
     1
 62
     7
420
 16777215
176
     1
 90
        1
176
     1
 90
        4
176
     1
 62
     7
176
     1
 62
   257
176
     1
 90
        7
176
     1
 90
        7
176
     1
 40
1.0
176
     1
 90
        8
176
     1
 62
     7
176
     1
 40
1.0
176
     1
 90
        1
176
     1
 90
        6
176
     1
 90
        2
176
     1
 62
     7
176
     1
 90
        5
176
     1
 90
        0
176
     1
 90
        0
176
     1
290
     0
176
     1
 90
        1
176
     1
 40
0.0
176
     1
 90
        0
176
     1
290
     0
176
     1
290
     1
176
     1
290
     1
176
     1
290
     0
176
     1
290
     0
176
     1
290
     0
176
     1
290
     0
176
     1
290
     0
176
     1
290
     0
176
     1
 90
       50
176
     1
 40
0.0
176
     1
 40
1.0
176
     1
 90
        0
176
     1
 62
    18
420
        0
176
     1
 90
       50
176
     1
 90
        3
176
     1
 62
     5
420
      255
176
     1
290
     0
176
     1
 90
       50
176
     1
 90
       50
176
     1
 90
       50
176
     1
290
     0
176
     1
 90
       50
176
     1
 62
   256
176
     0
 40
1.0
176
     0
 90
        2
176
     1
  1
strokes_ogs.tif
176
     1
290
     0
176
     1
 40
1.0
176
     1
 40
1.0
176
     1
  0
VISUALSTYLE
  5
3C
102
{ACAD_REACTORS
330
2A
102
}
330
2A
100
AcDbVisualStyle
  2
OverhangOff
 70
    21
177
     3
291
     1
 70
    58
 90
        2
176
     0
 90
        2
176
     0
 90
        0
176
     0
 90
        0
176
     0
 40
0.6
176
     0
 40
30.0
176
     0
 62
     7
420
 16777215
176
     0
 90
        1
176
     0
 90
        4
176
     0
 62
     7
176
     0
 62
   257
176
     0
 90
        1
176
     0
 90
        1
176
     0
 40
1.0
176
     0
 90
        9
176
     2
 62
     7
176
     0
 40
1.0
176
     0
 90
        1
176
     0
 90
        6
176
     0
 90
        2
176
     0
 62
     7
176
     0
 90
        5
176
     0
 90
        0
176
     0
 90
        0
176
     0
290
     0
176
     0
 90
        1
176
     0
 40
0.0
176
     0
 90
        0
176
     0
290
     0
176
     0
290
     1
176
     0
290
     1
176
     0
290
     0
176
     0
290
     0
176
     0
290
     0
176
     0
290
     0
176
     0
290
     0
176
     0
290
     0
176
     0
 90
       50
176
     0
 40
0.0
176
     0
 40
1.0
176
     0
 90
        0
176
     0
 62
    18
420
        0
176
     0
 90
       50
176
     0
 90
        3
176
     0
 62
     5
420
      255
176
     0
290
     0
176
     0
 90
       50
176
     0
 90
       50
176
     0
 90
       50
176
     0
290
     0
176
     0
 90
       50
176
     0
 62
   256
176
     0
 40
1.0
176
     0
 90
        2
176
     0
  1
strokes_ogs.tif
176
     0
290
     0
176
     0
 40
1.0
176
     0
 40
1.0
176
     0
  0
VISUALSTYLE
  5
33
102
{ACAD_REACTORS
330
2A
102
}
330
2A
100
AcDbVisualStyle
  2
Realistic
 70
     8
177
     3
291
     0
 70
    58
 90
        2
176
     1
 90
        3
176
     1
 90
        0
176
     1
 90
        2
176
     1
 40
0.6
176
     1
 40
30.0
176
     1
 62
     7
420
 16777215
176
     1
 90
        0
176
     1
 90
        0
176
     1
 62
     7
176
     1
 62
   257
176
     1
 90
        1
176
     1
 90
        1
176
     1
 40
1.0
176
     1
 90
        8
176
     1
 62
   257
176
     1
 40
1.0
176
     1
 90
        1
176
     1
 90
        6
176
     1
 90
        2
176
     1
 62
     7
176
     1
 90
        3
176
     1
 90
        0
176
     1
 90
        0
176
     1
290
     0
176
     1
 90
       13
176
     1
 40
0.0
176
     1
 90
        0
176
     1
290
     0
176
     1
290
     1
176
     1
290
     1
176
     1
290
     0
176
     1
290
     0
176
     1
290
     0
176
     1
290
     0
176
     1
290
     0
176
     1
290
     0
176
     1
 90
       50
176
     1
 40
0.0
176
     1
 40
1.0
176
     1
 90
        0
176
     1
 62
    18
420
        0
176
     1
 90
       50
176
     1
 90
        3
176
     1
 62
     5
420
      255
176
     1
290
     0
176
     1
 90
       50
176
     1
 90
       50
176
     1
 90
       50
176
     1
290
     0
176
     1
 90
       50
176
     1
 62
   256
176
     0
 40
1.0
176
     0
 90
        2
176
     1
  1
strokes_ogs.tif
176
     1
290
     0
176
     1
 40
1.0
176
     1
 40
1.0
176
     1
  0
VISUALSTYLE
  5
42
102
{ACAD_REACTORS
330
2A
102
}
330
2A
100
AcDbVisualStyle
  2
Shaded
 70
    27
177
     3
291
     0
 70
    58
 90
        2
176
     1
 90
        2
176
     1
 90
        1
176
     1
 90
        2
176
     1
 40
0.6
176
     1
 40
30.0
176
     1
 62
     7
420
 16777215
176
     1
 90
        0
176
     1
 90
        4
176
     1
 62
     7
176
     1
 62
   257
176
     1
 90
        1
176
     1
 90
        1
176
     1
 40
1.0
176
     1
 90
        8
176
     1
 62
   257
176
     1
 40
1.0
176
     1
 90
        1
176
     1
 90
        6
176
     1
 90
        2
176
     1
 62
     8
420
  7895160
176
     1
 90
        3
176
     1
 90
        0
176
     1
 90
        0
176
     1
290
     0
176
     1
 90
        5
176
     1
 40
0.0
176
     1
 90
        0
176
     1
290
     0
176
     1
290
     1
176
     1
290
     1
176
     1
290
     0
176
     1
290
     0
176
     1
290
     0
176
     1
290
     0
176
     1
290
     0
176
     1
290
     0
176
     1
 90
       50
176
     1
 40
0.0
176
     1
 40
1.0
176
     1
 90
        0
176
     1
 62
    18
420
        0
176
     1
 90
       50
176
     1
 90
        3
176
     1
 62
     5
420
      255
176
     1
290
     0
176
     1
 90
       50
176
     1
 90
       50
176
     1
 90
       50
176
     1
290
     0
176
     1
 90
       50
176
     1
 62
   256
176
     0
 40
1.0
176
     0
 90
        2
176
     1
  1
strokes_ogs.tif
176
     1
290
     0
176
     1
 40
1.0
176
     1
 40
1.0
176
     1
  0
VISUALSTYLE
  5
41
102
{ACAD_REACTORS
330
2A
102
}
330
2A
100
AcDbVisualStyle
  2
Shaded with edges
 70
    26
177
     3
291
     0
 70
    58
 90
        2
176
     1
 90
        2
176
     1
 90
        1
176
     1
 90
        2
176
     1
 40
0.6
176
     1
 40
30.0
176
     1
 62
     7
420
 16777215
176
     1
 90
        1
176
     1
 90
       10
176
     1
 62
     7
176
     1
 62
   257
176
     1
 90
        2
176
     1
 90
        1
176
     1
 40
1.0
176
     1
 90
        8
176
     1
 62
   257
176
     1
 40
1.0
176
     1
 90
        1
176
     1
 90
        6
176
     1
 90
        2
176
     1
 62
     7
176
     1
 90
        3
176
     1
 90
        0
176
     1
 90
        0
176
     1
290
     0
176
     1
 90
        5
176
     1
 40
0.0
176
     1
 90
        0
176
     1
290
     0
176
     1
290
     1
176
     1
290
     1
176
     1
290
     0
176
     1
290
     0
176
     1
290
     0
176
     1
290
     0
176
     1
290
     0
176
     1
290
     0
176
     1
 90
       50
176
     1
 40
0.0
176
     1
 40
1.0
176
     1
 90
        0
176
     1
 62
    18
420
        0
176
     1
 90
       50
176
     1
 90
        3
176
     1
 62
     5
420
      255
176
     1
290
     0
176
     1
 90
       50
176
     1
 90
       50
176
     1
 90
       50
176
     1
290
     0
176
     1
 90
       50
176
     1
 62
   256
176
     0
 40
1.0
176
     0
 90
        2
176
     1
  1
strokes_ogs.tif
176
     1
290
     0
176
     1
 40
1.0
176
     1
 40
1.0
176
     1
  0
VISUALSTYLE
  5
3E
102
{ACAD_REACTORS
330
2A
102
}
330
2A
100
AcDbVisualStyle
  2
Shades of Gray
 70
    23
177
     3
291
     0
 70
    58
 90
        2
176
     1
 90
        2
176
     1
 90
        3
176
     1
 90
        0
176
     1
 40
0.6
176
     1
 40
30.0
176
     1
 62
     7
420
 16777215
176
     1
 90
        2
176
     1
 90
        2
176
     1
 62
     7
176
     1
 62
     7
176
     1
 90
        1
176
     1
 90
        1
176
     1
 40
40.0
176
     1
 90
        8
176
     1
 62
     7
176
     1
 40
1.0
176
     1
 90
        1
176
     1
 90
        6
176
     1
 90
        2
176
     1
 62
     7
176
     1
 90
        3
176
     1
 90
        0
176
     1
 90
        0
176
     1
290
     0
176
     1
 90
        1
176
     1
 40
0.0
176
     1
 90
        0
176
     1
290
     0
176
     1
290
     1
176
     1
290
     1
176
     1
290
     0
176
     1
290
     0
176
     1
290
     0
176
     1
290
     0
176
     1
290
     0
176
     1
290
     0
176
     1
 90
       50
176
     1
 40
0.0
176
     1
 40
1.0
176
     1
 90
        0
176
     1
 62
    18
420
        0
176
     1
 90
       50
176
     1
 90
        3
176
     1
 62
     5
420
      255
176
     1
290
     0
176
     1
 90
       50
176
     1
 90
       50
176
     1
 90
       50
176
     1
290
     0
176
     1
 90
       50
176
     1
 62
   256
176
     0
 40
1.0
176
     0
 90
        2
176
     1
  1
strokes_ogs.tif
176
     1
290
     0
176
     1
 40
1.0
176
     1
 40
1.0
176
     1
  0
VISUALSTYLE
  5
3F
102
{ACAD_REACTORS
330
2A
102
}
330
2A
100
AcDbVisualStyle
  2
Sketchy
 70
    24
177
     3
291
     0
 70
    58
 90
        1
176
     1
 90
        2
176
     1
 90
        2
176
     1
 90
        0
176
     1
 40
0.6
176
     1
 40
30.0
176
     1
 62
     7
420
 16777215
176
     1
 90
        2
176
     1
 90
        2
176
     1
 62
     7
176
     1
 62
     7
176
     1
 90
        1
176
     1
 90
        1
176
     1
 40
40.0
176
     1
 90
       11
176
     1
 62
     7
176
     1
 40
1.0
176
     1
 90
        1
176
     1
 90
        6
176
     1
 90
        2
176
     1
 62
     7
176
     1
 90
        6
176
     1
 90
        0
176
     1
 90
        0
176
     1
290
     0
176
     1
 90
        1
176
     1
 40
0.0
176
     1
 90
        0
176
     1
290
     0
176
     1
290
     1
176
     1
290
     1
176
     1
290
     0
176
     1
290
     0
176
     1
290
     0
176
     1
290
     0
176
     1
290
     0
176
     1
290
     0
176
     1
 90
       50
176
     1
 40
0.0
176
     1
 40
1.0
176
     1
 90
        0
176
     1
 62
    18
420
        0
176
     1
 90
       50
176
     1
 90
        3
176
     1
 62
     5
420
      255
176
     1
290
     0
176
     1
 90
       50
176
     1
 90
       50
176
     1
 90
       50
176
     1
290
     0
176
     1
 90
       50
176
     1
 62
   256
176
     0
 40
1.0
176
     0
 90
        2
176
     1
  1
strokes_ogs.tif
176
     1
290
     0
176
     1
 40
1.0
176
     1
 40
1.0
176
     1
  0
VISUALSTYLE
  5
37
102
{ACAD_REACTORS
330
2A
102
}
330
2A
100
AcDbVisualStyle
  2
Thicken
 70
    13
177
     3
291
     1
 70
    58
 90
        2
176
     1
 90
        2
176
     1
 90
        0
176
     1
 90
        0
176
     1
 40
0.6
176
     1
 40
30.0
176
     1
 62
     7
420
 16777215
176
     1
 90
        1
176
     1
 90
        4
176
     1
 62
     7
176
     1
 62
   257
176
     1
 90
        1
176
     1
 90
        1
176
     1
 40
1.0
176
     1
 90
       12
176
     1
 62
     7
176
     1
 40
1.0
176
     1
 90
        1
176
     1
 90
        6
176
     1
 90
        2
176
     1
 62
     7
176
     1
 90
        5
176
     1
 90
        0
176
     1
 90
        0
176
     1
290
     0
176
     1
 90
        1
176
     1
 40
0.0
176
     1
 90
        0
176
     1
290
     0
176
     1
290
     1
176
     1
290
     1
176
     1
290
     0
176
     1
290
     0
176
     1
290
     0
176
     1
290
     0
176
     1
290
     0
176
     1
290
     0
176
     1
 90
       50
176
     1
 40
0.0
176
     1
 40
1.0
176
     1
 90
        0
176
     1
 62
    18
420
        0
176
     1
 90
       50
176
     1
 90
        3
176
     1
 62
     5
420
      255
176
     1
290
     0
176
     1
 90
       50
176
     1
 90
       50
176
     1
 90
       50
176
     1
290
     0
176
     1
 90
       50
176
     1
 62
   256
176
     0
 40
1.0
176
     0
 90
        2
176
     1
  1
strokes_ogs.tif
176
     1
290
     0
176
     1
 40
1.0
176
     1
 40
1.0
176
     1
  0
VISUALSTYLE
  5
30
102
{ACAD_REACTORS
330
2A
102
}
330
2A
100
AcDbVisualStyle
  2
Wireframe
 70
     5
177
     3
291
     0
 70
    58
 90
        0
176
     1
 90
        2
176
     1
 90
        0
176
     1
 90
        0
176
     1
 40
0.6
176
     1
 40
30.0
176
     1
 62
     7
420
 16777215
176
     1
 90
        1
176
     1
 90
        4
176
     1
 62
     7
176
     1
 62
   257
176
     1
 90
        1
176
     1
 90
        1
176
     1
 40
1.0
176
     1
 90
        0
176
     1
 62
   257
176
     1
 40
1.0
176
     1
 90
        1
176
     1
 90
        6
176
     1
 90
        2
176
     1
 62
     7
176
     1
 90
        3
176
     1
 90
        0
176
     1
 90
        0
176
     1
290
     0
176
     1
 90
        1
176
     1
 40
0.0
176
     1
 90
        0
176
     1
290
     0
176
     1
290
     1
176
     1
290
     1
176
     1
290
     0
176
     1
290
     0
176
     1
290
     0
176
     1
290
     0
176
     1
290
     0
176
     1
290
     0
176
     1
 90
       50
176
     1
 40
0.0
176
     1
 40
1.0
176
     1
 90
        0
176
     1
 62
    18
420
        0
176
     1
 90
       50
176
     1
 90
        3
176
     1
 62
     5
420
      255
176
     1
290
     0
176
     1
 90
       50
176
     1
 90
       50
176
     1
 90
       50
176
     1
290
     0
176
     1
 90
       50
176
     1
 62
   256
176
     0
 40
1.0
176
     0
 90
        2
176
     1
  1
strokes_ogs.tif
176
     1
290
     0
176
     1
 40
1.0
176
     1
 40
1.0
176
     1
  0
VISUALSTYLE
  5
40
102
{ACAD_REACTORS
330
2A
102
}
330
2A
100
AcDbVisualStyle
  2
X-Ray
 70
    25
177
     3
291
     0
 70
    58
 90
        2
176
     1
 90
        2
176
     1
 90
        1
176
     1
 90
        1
176
     1
 40
0.5
176
     1
 40
30.0
176
     1
 62
     7
420
 16777215
176
     1
 90
        1
176
     1
 90
        0
176
     1
 62
     7
176
     1
 62
   257
176
     1
 90
        1
176
     1
 90
        1
176
     1
 40
1.0
176
     1
 90
        8
176
     1
 62
     7
176
     1
 40
1.0
176
     1
 90
        1
176
     1
 90
        6
176
     1
 90
        2
176
     1
 62
     7
176
     1
 90
        3
176
     1
 90
        0
176
     1
 90
        0
176
     1
290
     0
176
     1
 90
       13
176
     1
 40
0.0
176
     1
 90
        0
176
     1
290
     0
176
     1
290
     1
176
     1
290
     1
176
     1
290
     0
176
     1
290
     0
176
     1
290
     0
176
     1
290
     0
176
     1
290
     0
176
     1
290
     0
176
     1
 90
       50
176
     1
 40
0.0
176
     1
 40
1.0
176
     1
 90
        0
176
     1
 62
    18
420
        0
176
     1
 90
       50
176
     1
 90
        3
176
     1
 62
     5
420
      255
176
     1
290
     0
176
     1
 90
       50
176
     1
 90
       50
176
     1
 90
       50
176
     1
290
     0
176
     1
 90
       50
176
     1
 62
   256
176
     0
 40
1.0
176
     0
 90
        2
176
     1
  1
strokes_ogs.tif
176
     1
290
     0
176
     1
 40
1.0
176
     1
 40
1.0
176
     1
  0
DICTIONARYVAR
  5
1E6
102
{ACAD_REACTORS
330
1E5
102
}
330
1E5
100
DictionaryVariables
280
     0
  1
1:1
  0
DICTIONARYVAR
  5
1EB
102
{ACAD_REACTORS
330
1E5
102
}
330
1E5
100
DictionaryVariables
280
     0
  1
Standard
  0
DICTIONARYVAR
  5
1EA
102
{ACAD_REACTORS
330
1E5
102
}
330
1E5
100
DictionaryVariables
280
     0
  1
Standard
  0
DICTIONARY
  5
1E7
330
6A
100
AcDbDictionary
280
     1
281
     1
  3
ACAD_ROUNDTRIP_2008_TABLESTYLE_CELLSTYLEMAP
360
1E8
  0
CELLSTYLEMAP
  5
1E8
102
{ACAD_REACTORS
330
1E7
102
}
330
1E7
100
AcDbCellStyleMap
 90
        3
300
CELLSTYLE
  1
TABLEFORMAT_BEGIN
 90
        5
170
     1
 91
        0
 92
    32768
 62
   257
 93
        1
300
CONTENTFORMAT
  1
CONTENTFORMAT_BEGIN
 90
        0
 91
        0
 92
        4
 93
        0
300

 40
0.0
140
1.0
 94
        5
 62
     0
340
11
144
0.25
309
CONTENTFORMAT_END
171
     1
301
MARGIN
  1
CELLMARGIN_BEGIN
 40
0.06
 40
0.06
 40
0.06
 40
0.06
 40
0.06
 40
0.06
309
CELLMARGIN_END
 94
        6
 95
        1
302
GRIDFORMAT
  1
GRIDFORMAT_BEGIN
 90
        0
 91
        1
 62
     0
 92
       -2
340
14
 93
        0
 40
0.045
309
GRIDFORMAT_END
 95
        2
302
GRIDFORMAT
  1
GRIDFORMAT_BEGIN
 90
        0
 91
        1
 62
     0
 92
       -2
340
14
 93
        0
 40
0.045
309
GRIDFORMAT_END
 95
        4
302
GRIDFORMAT
  1
GRIDFORMAT_BEGIN
 90
        0
 91
        1
 62
     0
 92
       -2
340
14
 93
        0
 40
0.045
309
GRIDFORMAT_END
 95
        8
302
GRIDFORMAT
  1
GRIDFORMAT_BEGIN
 90
        0
 91
        1
 62
     0
 92
       -2
340
14
 93
        0
 40
0.045
309
GRIDFORMAT_END
 95
       16
302
GRIDFORMAT
  1
GRIDFORMAT_BEGIN
 90
        0
 91
        1
 62
     0
 92
       -2
340
14
 93
        0
 40
0.045
309
GRIDFORMAT_END
 95
       32
302
GRIDFORMAT
  1
GRIDFORMAT_BEGIN
 90
        0
 91
        1
 62
     0
 92
       -2
340
14
 93
        0
 40
0.045
309
GRIDFORMAT_END
309
TABLEFORMAT_END
  1
CELLSTYLE_BEGIN
 90
        1
 91
        1
300
_TITLE
309
CELLSTYLE_END
300
CELLSTYLE
  1
TABLEFORMAT_BEGIN
 90
        5
170
     1
 91
        0
 92
        0
 62
   257
 93
        1
300
CONTENTFORMAT
  1
CONTENTFORMAT_BEGIN
 90
        0
 91
        0
 92
        4
 93
        0
300

 40
0.0
140
1.0
 94
        5
 62
     0
340
11
144
0.18
309
CONTENTFORMAT_END
171
     1
301
MARGIN
  1
CELLMARGIN_BEGIN
 40
0.06
 40
0.06
 40
0.06
 40
0.06
 40
0.06
 40
0.06
309
CELLMARGIN_END
 94
        6
 95
        1
302
GRIDFORMAT
  1
GRIDFORMAT_BEGIN
 90
        0
 91
        1
 62
     0
 92
       -2
340
14
 93
        0
 40
0.045
309
GRIDFORMAT_END
 95
        2
302
GRIDFORMAT
  1
GRIDFORMAT_BEGIN
 90
        0
 91
        1
 62
     0
 92
       -2
340
14
 93
        0
 40
0.045
309
GRIDFORMAT_END
 95
        4
302
GRIDFORMAT
  1
GRIDFORMAT_BEGIN
 90
        0
 91
        1
 62
     0
 92
       -2
340
14
 93
        0
 40
0.045
309
GRIDFORMAT_END
 95
        8
302
GRIDFORMAT
  1
GRIDFORMAT_BEGIN
 90
        0
 91
        1
 62
     0
 92
       -2
340
14
 93
        0
 40
0.045
309
GRIDFORMAT_END
 95
       16
302
GRIDFORMAT
  1
GRIDFORMAT_BEGIN
 90
        0
 91
        1
 62
     0
 92
       -2
340
14
 93
        0
 40
0.045
309
GRIDFORMAT_END
 95
       32
302
GRIDFORMAT
  1
GRIDFORMAT_BEGIN
 90
        0
 91
        1
 62
     0
 92
       -2
340
14
 93
        0
 40
0.045
309
GRIDFORMAT_END
309
TABLEFORMAT_END
  1
CELLSTYLE_BEGIN
 90
        2
 91
        1
300
_HEADER
309
CELLSTYLE_END
300
CELLSTYLE
  1
TABLEFORMAT_BEGIN
 90
        5
170
     1
 91
        0
 92
        0
 62
   257
 93
        1
300
CONTENTFORMAT
  1
CONTENTFORMAT_BEGIN
 90
        0
 91
        0
 92
        4
 93
        0
300

 40
0.0
140
1.0
 94
        2
 62
     0
340
11
144
0.18
309
CONTENTFORMAT_END
171
     1
301
MARGIN
  1
CELLMARGIN_BEGIN
 40
0.06
 40
0.06
 40
0.06
 40
0.06
 40
0.06
 40
0.06
309
CELLMARGIN_END
 94
        6
 95
        1
302
GRIDFORMAT
  1
GRIDFORMAT_BEGIN
 90
        0
 91
        1
 62
     0
 92
       -2
340
14
 93
        0
 40
0.045
309
GRIDFORMAT_END
 95
        2
302
GRIDFORMAT
  1
GRIDFORMAT_BEGIN
 90
        0
 91
        1
 62
     0
 92
       -2
340
14
 93
        0
 40
0.045
309
GRIDFORMAT_END
 95
        4
302
GRIDFORMAT
  1
GRIDFORMAT_BEGIN
 90
        0
 91
        1
 62
     0
 92
       -2
340
14
 93
        0
 40
0.045
309
GRIDFORMAT_END
 95
        8
302
GRIDFORMAT
  1
GRIDFORMAT_BEGIN
 90
        0
 91
        1
 62
     0
 92
       -2
340
14
 93
        0
 40
0.045
309
GRIDFORMAT_END
 95
       16
302
GRIDFORMAT
  1
GRIDFORMAT_BEGIN
 90
        0
 91
        1
 62
     0
 92
       -2
340
14
 93
        0
 40
0.045
309
GRIDFORMAT_END
 95
       32
302
GRIDFORMAT
  1
GRIDFORMAT_BEGIN
 90
        0
 91
        1
 62
     0
 92
       -2
340
14
 93
        0
 40
0.045
309
GRIDFORMAT_END
309
TABLEFORMAT_END
  1
CELLSTYLE_BEGIN
 90
        3
 91
        2
300
_DATA
309
CELLSTYLE_END
  0
ENDSEC
  0
EOF