0
SECTION
  2
HEADER
  9
$ACADVER
  1
AC1027
  9
$ACADMAINTVER
 70
     8
  9
$DWGCODEPAGE
  3
ANSI_1252
  9
$REQUIREDVERSIONS
160
                 0
  9
$COMMENTS
  1
File was created by Cadenas
  9
$CUSTOMPROPERTYTAG
  1
NN
  9
$CUSTOMPROPERTY
  1
Flange Bearing -  Non-Expansion - Inch
  9
$CUSTOMPROPERTYTAG
  1
NT
  9
$CUSTOMPROPERTY
  1
Type K
  9
$CUSTOMPROPERTYTAG
  1
NB
  9
$CUSTOMPROPERTY
  1
023224
  9
$CUSTOMPROPERTYTAG
  1
NBSYN
  9
$CUSTOMPROPERTY
  1
$PN.
  9
$CUSTOMPROPERTYTAG
  1
LINA
  9
$CUSTOMPROPERTY
  1
023224
  9
$CUSTOMPROPERTYTAG
  1
SS
  9
$CUSTOMPROPERTY
  1
2-1/2
  9
$CUSTOMPROPERTYTAG
  1
PN
  9
$CUSTOMPROPERTY
  1
023224
  9
$CUSTOMPROPERTYTAG
  1
PNA
  9
$CUSTOMPROPERTY
  1
F4B-K-208R
  9
$CUSTOMPROPERTYTAG
  1
WEIGHT
  9
$CUSTOMPROPERTY
  1
20
  9
$CUSTOMPROPERTYTAG
  1
A
  9
$CUSTOMPROPERTY
  1
3-9/16
  9
$CUSTOMPROPERTYTAG
  1
B
  9
$CUSTOMPROPERTY
  1
7-5/8
  9
$CUSTOMPROPERTYTAG
  1
C
  9
$CUSTOMPROPERTY
  1
2-59/64
  9
$CUSTOMPROPERTYTAG
  1
D
  9
$CUSTOMPROPERTY
  1
6
  9
$CUSTOMPROPERTYTAG
  1
E
  9
$CUSTOMPROPERTY
  1
1/4
  9
$CUSTOMPROPERTYTAG
  1
F
  9
$CUSTOMPROPERTY
  1
5/8
  9
$CUSTOMPROPERTYTAG
  1
G
  9
$CUSTOMPROPERTY
  1
8-9/16
  9
$CUSTOMPROPERTYTAG
  1
H
  9
$CUSTOMPROPERTY
  1
5/8
  9
$CUSTOMPROPERTYTAG
  1
J
  9
$CUSTOMPROPERTY
  1
6
  9
$CUSTOMPROPERTYTAG
  1
L
  9
$CUSTOMPROPERTY
  1
4-1/16
  9
$CUSTOMPROPERTYTAG
  1
CS
  9
$CUSTOMPROPERTY
  1
54000
  9
$CUSTOMPROPERTYTAG
  1
CD
  9
$CUSTOMPROPERTY
  1
9090
  9
$CUSTOMPROPERTYTAG
  1
RN
  9
$CUSTOMPROPERTY
  1
21
  9
$CUSTOMPROPERTYTAG
  1
RM
  9
$CUSTOMPROPERTY
  1
.41
  9
$CUSTOMPROPERTYTAG
  1
PDI
  9
$CUSTOMPROPERTY
  1
3.337
  9
$CUSTOMPROPERTYTAG
  1
EP
  9
$CUSTOMPROPERTY
  1
.004-0.12
  9
$CUSTOMPROPERTYTAG
  1
SC
  9
$CUSTOMPROPERTY
  1
3/8-16*3/4
  9
$CUSTOMPROPERTYTAG
  1
TC
  9
$CUSTOMPROPERTY
  1
290
  9
$CUSTOMPROPERTYTAG
  1
MH
  9
$CUSTOMPROPERTY
  1
C.I. ASTM A48 CLASS 30
  9
$CUSTOMPROPERTYTAG
  1
MC
  9
$CUSTOMPROPERTY
  1
4118 CASE CARB.
  9
$CUSTOMPROPERTYTAG
  1
MCU
  9
$CUSTOMPROPERTY
  1
4118 CASE CARB.
  9
$CUSTOMPROPERTYTAG
  1
MR
  9
$CUSTOMPROPERTY
  1
STEEL
  9
$CUSTOMPROPERTYTAG
  1
MRO
  9
$CUSTOMPROPERTY
  1
4118 CASE CARB.
  9
$CUSTOMPROPERTYTAG
  1
SM
  9
$CUSTOMPROPERTY
  1
4.25
  9
$CUSTOMPROPERTYTAG
  1
COMPANY
  9
$CUSTOMPROPERTY
  1
baldor
  9
$INSBASE
 10
0.0
 20
0.0
 30
0.0
  9
$EXTMIN
 10
1.000000000000000E+20
 20
1.000000000000000E+20
 30
1.000000000000000E+20
  9
$EXTMAX
 10
-1.000000000000000E+20
 20
-1.000000000000000E+20
 30
-1.000000000000000E+20
  9
$LIMMIN
 10
0.0
 20
0.0
  9
$LIMMAX
 10
12.0
 20
9.0
  9
$ORTHOMODE
 70
     0
  9
$REGENMODE
 70
     1
  9
$FILLMODE
 70
     1
  9
$QTEXTMODE
 70
     0
  9
$MIRRTEXT
 70
     1
  9
$LTSCALE
 40
1.0
  9
$ATTMODE
 70
     1
  9
$TEXTSIZE
 40
0.2
  9
$TRACEWID
 40
0.05
  9
$TEXTSTYLE
  7
Standard
  9
$CLAYER
  8
0
  9
$CELTYPE
  6
ByLayer
  9
$CECOLOR
 62
   256
  9
$CELTSCALE
 40
1.0
  9
$DISPSILH
 70
     0
  9
$DIMSCALE
 40
1.0
  9
$DIMASZ
 40
0.18
  9
$DIMEXO
 40
0.0625
  9
$DIMDLI
 40
0.38
  9
$DIMRND
 40
0.0
  9
$DIMDLE
 40
0.0
  9
$DIMEXE
 40
0.18
  9
$DIMTP
 40
0.0
  9
$DIMTM
 40
0.0
  9
$DIMTXT
 40
0.18
  9
$DIMCEN
 40
0.09
  9
$DIMTSZ
 40
0.0
  9
$DIMTOL
 70
     0
  9
$DIMLIM
 70
     0
  9
$DIMTIH
 70
     1
  9
$DIMTOH
 70
     1
  9
$DIMSE1
 70
     0
  9
$DIMSE2
 70
     0
  9
$DIMTAD
 70
     0
  9
$DIMZIN
 70
     0
  9
$DIMBLK
  1

  9
$DIMASO
 70
     1
  9
$DIMSHO
 70
     1
  9
$DIMPOST
  1

  9
$DIMAPOST
  1

  9
$DIMALT
 70
     0
  9
$DIMALTD
 70
     2
  9
$DIMALTF
 40
25.4
  9
$DIMLFAC
 40
1.0
  9
$DIMTOFL
 70
     0
  9
$DIMTVP
 40
0.0
  9
$DIMTIX
 70
     0
  9
$DIMSOXD
 70
     0
  9
$DIMSAH
 70
     0
  9
$DIMBLK1
  1

  9
$DIMBLK2
  1

  9
$DIMSTYLE
  2
Standard
  9
$DIMCLRD
 70
     0
  9
$DIMCLRE
 70
     0
  9
$DIMCLRT
 70
     0
  9
$DIMTFAC
 40
1.0
  9
$DIMGAP
 40
0.09
  9
$DIMJUST
 70
     0
  9
$DIMSD1
 70
     0
  9
$DIMSD2
 70
     0
  9
$DIMTOLJ
 70
     1
  9
$DIMTZIN
 70
     0
  9
$DIMALTZ
 70
     0
  9
$DIMALTTZ
 70
     0
  9
$DIMUPT
 70
     0
  9
$DIMDEC
 70
     4
  9
$DIMTDEC
 70
     4
  9
$DIMALTU
 70
     2
  9
$DIMALTTD
 70
     2
  9
$DIMTXSTY
  7
Standard
  9
$DIMAUNIT
 70
     0
  9
$DIMADEC
 70
     0
  9
$DIMALTRND
 40
0.0
  9
$DIMAZIN
 70
     0
  9
$DIMDSEP
 70
    46
  9
$DIMATFIT
 70
     3
  9
$DIMFRAC
 70
     0
  9
$DIMLDRBLK
  1

  9
$DIMLUNIT
 70
     2
  9
$DIMLWD
 70
    -2
  9
$DIMLWE
 70
    -2
  9
$DIMTMOVE
 70
     0
  9
$DIMFXL
 40
1.0
  9
$DIMFXLON
 70
     0
  9
$DIMJOGANG
 40
0.7853981633974483
  9
$DIMTFILL
 70
     0
  9
$DIMTFILLCLR
 70
     0
  9
$DIMARCSYM
 70
     0
  9
$DIMLTYPE
  6

  9
$DIMLTEX1
  6

  9
$DIMLTEX2
  6

  9
$DIMTXTDIRECTION
 70
     0
  9
$LUNITS
 70
     2
  9
$LUPREC
 70
     4
  9
$SKETCHINC
 40
0.1
  9
$FILLETRAD
 40
0.5
  9
$AUNITS
 70
     0
  9
$AUPREC
 70
     0
  9
$MENU
  1
.
  9
$ELEVATION
 40
0.0
  9
$PELEVATION
 40
0.0
  9
$THICKNESS
 40
0.0
  9
$LIMCHECK
 70
     0
  9
$CHAMFERA
 40
0.0
  9
$CHAMFERB
 40
0.0
  9
$CHAMFERC
 40
0.0
  9
$CHAMFERD
 40
0.0
  9
$SKPOLY
 70
     0
  9
$TDCREATE
 40
2458169.005519965
  9
$TDUCREATE
 40
2458168.963853299
  9
$TDUPDATE
 40
2458169.005520139
  9
$TDUUPDATE
 40
2458168.963853472
  9
$TDINDWG
 40
0.0000000116
  9
$TDUSRTIMER
 40
0.0000000116
  9
$USRTIMER
 70
     1
  9
$ANGBASE
 50
0.0
  9
$ANGDIR
 70
     0
  9
$PDMODE
 70
     0
  9
$PDSIZE
 40
0.0
  9
$PLINEWID
 40
0.0
  9
$SPLFRAME
 70
     0
  9
$SPLINETYPE
 70
     6
  9
$SPLINESEGS
 70
     8
  9
$HANDSEED
  5
1EC
  9
$SURFTAB1
 70
     6
  9
$SURFTAB2
 70
     6
  9
$SURFTYPE
 70
     6
  9
$SURFU
 70
     6
  9
$SURFV
 70
     6
  9
$UCSBASE
  2

  9
$UCSNAME
  2

  9
$UCSORG
 10
0.0
 20
0.0
 30
0.0
  9
$UCSXDIR
 10
1.0
 20
0.0
 30
0.0
  9
$UCSYDIR
 10
0.0
 20
1.0
 30
0.0
  9
$UCSORTHOREF
  2

  9
$UCSORTHOVIEW
 70
     0
  9
$UCSORGTOP
 10
0.0
 20
0.0
 30
0.0
  9
$UCSORGBOTTOM
 10
0.0
 20
0.0
 30
0.0
  9
$UCSORGLEFT
 10
0.0
 20
0.0
 30
0.0
  9
$UCSORGRIGHT
 10
0.0
 20
0.0
 30
0.0
  9
$UCSORGFRONT
 10
0.0
 20
0.0
 30
0.0
  9
$UCSORGBACK
 10
0.0
 20
0.0
 30
0.0
  9
$PUCSBASE
  2

  9
$PUCSNAME
  2

  9
$PUCSORG
 10
0.0
 20
0.0
 30
0.0
  9
$PUCSXDIR
 10
1.0
 20
0.0
 30
0.0
  9
$PUCSYDIR
 10
0.0
 20
1.0
 30
0.0
  9
$PUCSORTHOREF
  2

  9
$PUCSORTHOVIEW
 70
     0
  9
$PUCSORGTOP
 10
0.0
 20
0.0
 30
0.0
  9
$PUCSORGBOTTOM
 10
0.0
 20
0.0
 30
0.0
  9
$PUCSORGLEFT
 10
0.0
 20
0.0
 30
0.0
  9
$PUCSORGRIGHT
 10
0.0
 20
0.0
 30
0.0
  9
$PUCSORGFRONT
 10
0.0
 20
0.0
 30
0.0
  9
$PUCSORGBACK
 10
0.0
 20
0.0
 30
0.0
  9
$USERI1
 70
     0
  9
$USERI2
 70
     0
  9
$USERI3
 70
     0
  9
$USERI4
 70
     0
  9
$USERI5
 70
     0
  9
$USERR1
 40
0.0
  9
$USERR2
 40
0.0
  9
$USERR3
 40
0.0
  9
$USERR4
 40
0.0
  9
$USERR5
 40
0.0
  9
$WORLDVIEW
 70
     1
  9
$SHADEDGE
 70
     3
  9
$SHADEDIF
 70
    70
  9
$TILEMODE
 70
     1
  9
$MAXACTVP
 70
    64
  9
$PINSBASE
 10
0.0
 20
0.0
 30
0.0
  9
$PLIMCHECK
 70
     0
  9
$PEXTMIN
 10
1.000000000000000E+20
 20
1.000000000000000E+20
 30
1.000000000000000E+20
  9
$PEXTMAX
 10
-1.000000000000000E+20
 20
-1.000000000000000E+20
 30
-1.000000000000000E+20
  9
$PLIMMIN
 10
0.0
 20
0.0
  9
$PLIMMAX
 10
12.0
 20
9.0
  9
$UNITMODE
 70
     0
  9
$VISRETAIN
 70
     1
  9
$PLINEGEN
 70
     0
  9
$PSLTSCALE
 70
     1
  9
$TREEDEPTH
 70
  3020
  9
$CMLSTYLE
  2
Standard
  9
$CMLJUST
 70
     0
  9
$CMLSCALE
 40
1.0
  9
$PROXYGRAPHICS
 70
     1
  9
$MEASUREMENT
 70
     0
  9
$CELWEIGHT
370
    -1
  9
$ENDCAPS
280
     0
  9
$JOINSTYLE
280
     0
  9
$LWDISPLAY
290
     0
  9
$INSUNITS
 70
     1
  9
$HYPERLINKBASE
  1

  9
$STYLESHEET
  1

  9
$XEDIT
290
     1
  9
$CEPSNTYPE
380
     0
  9
$PSTYLEMODE
290
     1
  9
$FINGERPRINTGUID
  2
{EC33A673-B498-4BBC-9C91-5C702812920C}
  9
$VERSIONGUID
  2
{FAEB1C32-E019-11D5-929B-00C0DF256EC4}
  9
$EXTNAMES
290
     1
  9
$PSVPSCALE
 40
0.0
  9
$OLESTARTUP
290
     0
  9
$SORTENTS
280
   127
  9
$INDEXCTL
280
     0
  9
$HIDETEXT
280
     1
  9
$XCLIPFRAME
280
     2
  9
$HALOGAP
280
     0
  9
$OBSCOLOR
 70
   257
  9
$OBSLTYPE
280
     0
  9
$INTERSECTIONDISPLAY
280
     0
  9
$INTERSECTIONCOLOR
 70
   257
  9
$DIMASSOC
280
     2
  9
$PROJECTNAME
  1

  9
$CAMERADISPLAY
290
     0
  9
$LENSLENGTH
 40
50.0
  9
$CAMERAHEIGHT
 40
0.0
  9
$STEPSPERSEC
 40
2.0
  9
$STEPSIZE
 40
6.0
  9
$3DDWFPREC
 40
2.0
  9
$PSOLWIDTH
 40
0.25
  9
$PSOLHEIGHT
 40
4.0
  9
$LOFTANG1
 40
1.570796326794897
  9
$LOFTANG2
 40
1.570796326794897
  9
$LOFTMAG1
 40
0.0
  9
$LOFTMAG2
 40
0.0
  9
$LOFTPARAM
 70
     7
  9
$LOFTNORMALS
280
     1
  9
$LATITUDE
 40
37.795
  9
$LONGITUDE
 40
-122.394
  9
$NORTHDIRECTION
 40
0.0
  9
$TIMEZONE
 70
 -8000
  9
$LIGHTGLYPHDISPLAY
280
     1
  9
$TILEMODELIGHTSYNCH
280
     1
  9
$CMATERIAL
347
44
  9
$SOLIDHIST
280
     0
  9
$SHOWHIST
280
     1
  9
$DWFFRAME
280
     2
  9
$DGNFRAME
280
     2
  9
$REALWORLDSCALE
290
     1
  9
$INTERFERECOLOR
 62
   256
  9
$CSHADOW
280
     0
  9
$SHADOWPLANELOCATION
 40
0.0
  0
ENDSEC
  0
SECTION
  2
CLASSES
  0
CLASS
  1
ACDBDICTIONARYWDFLT
  2
AcDbDictionaryWithDefault
  3
ObjectDBX Classes
 90
        0
 91
        4
280
     0
281
     0
  0
CLASS
  1
VISUALSTYLE
  2
AcDbVisualStyle
  3
ObjectDBX Classes
 90
     4095
 91
        4
280
     0
281
     0
  0
CLASS
  1
MATERIAL
  2
AcDbMaterial
  3
ObjectDBX Classes
 90
     1153
 91
        4
280
     0
281
     0
  0
CLASS
  1
SCALE
  2
AcDbScale
  3
ObjectDBX Classes
 90
     1153
 91
        4
280
     0
281
     0
  0
CLASS
  1
TABLESTYLE
  2
AcDbTableStyle
  3
ObjectDBX Classes
 90
     4095
 91
        4
280
     0
281
     0
  0
CLASS
  1
MLEADERSTYLE
  2
AcDbMLeaderStyle
  3
ACDB_MLEADERSTYLE_CLASS
 90
     4095
 91
        4
280
     0
281
     0
  0
CLASS
  1
SUN
  2
AcDbSun
  3
SCENEOE
 90
     1153
 91
        4
280
     0
281
     0
  0
CLASS
  1
DICTIONARYVAR
  2
AcDbDictionaryVar
  3
ObjectDBX Classes
 90
        0
 91
        4
280
     0
281
     0
  0
CLASS
  1
CELLSTYLEMAP
  2
AcDbCellStyleMap
  3
ObjectDBX Classes
 90
     1152
 91
        4
280
     0
281
     0
  0
ENDSEC
  0
SECTION
  2
TABLES
  0
TABLE
  2
VPORT
  5
8
330
0
100
AcDbSymbolTable
 70
     1
  0
VPORT
  5
29
330
8
100
AcDbSymbolTableRecord
100
AcDbViewportTableRecord
  2
*Active
 70
     0
 10
0.0
 20
0.0
 11
1.0
 21
1.0
 12
0.0
 22
-1.78515625
 13
0.0
 23
0.0
 14
0.5
 24
0.5
 15
0.5
 25
0.5
 16
0.0
 26
0.0
 36
1.0
 17
0.0
 27
0.0
 37
0.0
 40
3.970031249999999
 41
2.199919710959455
 42
50.0
 43
0.0
 44
0.0
 50
0.0
 51
0.0
 71
     0
 72
   100
 73
     1
 74
     3
 75
     0
 76
     0
 77
     0
 78
     0
281
     0
 65
     1
110
0.0
120
0.0
130
0.0
111
1.0
121
0.0
131
0.0
112
0.0
122
1.0
132
0.0
 79
     0
146
0.0
348
2F
 60
     3
 61
     5
292
     1
282
     1
141
0.0
142
0.0
 63
   250
361
6D
  0
ENDTAB
  0
TABLE
  2
LTYPE
  5
5
330
0
100
AcDbSymbolTable
 70
     3
  0
LTYPE
  5
14
330
5
100
AcDbSymbolTableRecord
100
AcDbLinetypeTableRecord
  2
ByBlock
 70
     0
  3

 72
    65
 73
     0
 40
0.0
  0
LTYPE
  5
15
330
5
100
AcDbSymbolTableRecord
100
AcDbLinetypeTableRecord
  2
ByLayer
 70
     0
  3

 72
    65
 73
     0
 40
0.0
  0
LTYPE
  5
16
330
5
100
AcDbSymbolTableRecord
100
AcDbLinetypeTableRecord
  2
Continuous
 70
     0
  3
Solid line
 72
    65
 73
     0
 40
0.0
  0
LTYPE
  5
AA
330
5
100
AcDbSymbolTableRecord
100
AcDbLinetypeTableRecord
  2
Dashed
 70
     0
  3

 72
    65
 73
     2
 40
2.0
 49
1.0
 74
     0
 49
-1.0
 74
     0
  0
LTYPE
  5
BC
330
5
100
AcDbSymbolTableRecord
100
AcDbLinetypeTableRecord
  2
Center
 70
     0
  3

 72
    65
 73
     4
 40
1.5
 49
0.45
 74
     0
 49
-0.5
 74
     0
 49
0.05
 74
     0
 49
-0.5
 74
     0
  0
ENDTAB
  0
TABLE
  2
LAYER
  5
2
330
0
100
AcDbSymbolTable
 70
     7
  0
LAYER
  5
10
330
2
100
AcDbSymbolTableRecord
100
AcDbLayerTableRecord
  2
0
 70
     0
 62
     7
  6
Continuous
370
    -3
390
F
347
46
348
0
  0
LAYER
  5
72
330
2
100
AcDbSymbolTableRecord
100
AcDbLayerTableRecord
  2
AM_6
 70
     0
 62
    -2
  6
Continuous
370
    35
390
F
347
46
348
0
  0
LAYER
  5
AB
330
2
100
AcDbSymbolTableRecord
100
AcDbLayerTableRecord
  2
AM_9
 70
     0
 62
     6
  6
Dashed
370
    25
390
F
347
46
348
0
  0
LAYER
  5
BD
330
2
100
AcDbSymbolTableRecord
100
AcDbLayerTableRecord
  2
AM_7
 70
     0
 62
     7
  6
Center
370
    25
390
F
347
46
348
0
  0
LAYER
  5
BF
330
2
100
AcDbSymbolTableRecord
100
AcDbLayerTableRecord
  2
AM_4
 70
     0
 62
     7
  6
Continuous
370
    50
390
F
347
46
348
0
  0
LAYER
  5
CD
330
2
100
AcDbSymbolTableRecord
100
AcDbLayerTableRecord
  2
AM_5
 70
     0
 62
     3
  6
Continuous
370
    25
390
F
347
46
348
0
  0
LAYER
  5
1DC
330
2
100
AcDbSymbolTableRecord
100
AcDbLayerTableRecord
  2
ConnectionPoints
 70
     0
 62
     7
  6
Continuous
370
    50
390
F
347
46
348
0
  0
ENDTAB
  0
TABLE
  2
STYLE
  5
3
330
0
100
AcDbSymbolTable
 70
     1
  0
STYLE
  5
11
330
3
100
AcDbSymbolTableRecord
100
AcDbTextStyleTableRecord
  2
Standard
 70
     0
 40
0.0
 41
1.0
 50
0.0
 71
     0
 42
0.2
  3
txt
  4

  0
ENDTAB
  0
TABLE
  2
VIEW
  5
6
330
0
100
AcDbSymbolTable
 70
     0
  0
ENDTAB
  0
TABLE
  2
UCS
  5
7
330
0
100
AcDbSymbolTable
 70
     0
  0
ENDTAB
  0
TABLE
  2
APPID
  5
9
330
0
100
AcDbSymbolTable
 70
     1
  0
APPID
  5
12
330
9
100
AcDbSymbolTableRecord
100
AcDbRegAppTableRecord
  2
ACAD
 70
     0
  0
ENDTAB
  0
TABLE
  2
DIMSTYLE
  5
A
330
0
100
AcDbSymbolTable
 70
     1
100
AcDbDimStyleTable
  0
DIMSTYLE
105
27
330
A
100
AcDbSymbolTableRecord
100
AcDbDimStyleTableRecord
  2
Standard
 70
     0
178
     0
340
11
  0
ENDTAB
  0
TABLE
  2
BLOCK_RECORD
  5
1
330
0
100
AcDbSymbolTable
 70
     6
  0
BLOCK_RECORD
  5
1F
330
1
100
AcDbSymbolTableRecord
100
AcDbBlockTableRecord
  2
*Model_Space
340
22
 70
     0
280
     1
281
     0
  0
BLOCK_RECORD
  5
1B
330
1
100
AcDbSymbolTableRecord
100
AcDbBlockTableRecord
  2
*Paper_Space
340
1E
 70
     0
280
     1
281
     0
  0
BLOCK_RECORD
  5
23
330
1
100
AcDbSymbolTableRecord
100
AcDbBlockTableRecord
  2
*Paper_Space0
340
26
 70
     0
280
     1
281
     0
  0
BLOCK_RECORD
  5
6E
330
1
100
AcDbSymbolTableRecord
100
AcDbBlockTableRecord
  2
1_023224_4
340
0
102
{BLKREFS
331
6F
102
}
 70
     0
280
     1
281
     0
  0
BLOCK_RECORD
  5
95
330
1
100
AcDbSymbolTableRecord
100
AcDbBlockTableRecord
  2
2_2_1_2C_0_in_023224_4
340
0
102
{BLKREFS
331
96
102
}
 70
     0
280
     1
281
     0
  0
BLOCK_RECORD
  5
CF
330
1
100
AcDbSymbolTableRecord
100
AcDbBlockTableRecord
  2
3_405020c_Inch_0_in_023224_4
340
0
102
{BLKREFS
331
D0
102
}
 70
     0
280
     1
281
     0
  0
BLOCK_RECORD
  5
F1
330
1
100
AcDbSymbolTableRecord
100
AcDbBlockTableRecord
  2
4_S1U_K_208R_0_in_023224_4
340
0
102
{BLKREFS
331
F2
102
}
 70
     0
280
     1
281
     0
  0
BLOCK_RECORD
  5
14B
330
1
100
AcDbSymbolTableRecord
100
AcDbBlockTableRecord
  2
5_F4B_K_208R_0_in_023224_4
340
0
102
{BLKREFS
331
14C
102
}
 70
     0
280
     1
281
     0
  0
ENDTAB
  0
ENDSEC
  0
SECTION
  2
BLOCKS
  0
BLOCK
  5
20
330
1F
100
AcDbEntity
  8
0
100
AcDbBlockBegin
  2
*Model_Space
 70
     0
 10
0.0
 20
0.0
 30
0.0
  3
*Model_Space
  1

  0
ENDBLK
  5
21
330
1F
100
AcDbEntity
  8
0
100
AcDbBlockEnd
  0
BLOCK
  5
1C
330
1B
100
AcDbEntity
 67
     1
  8
0
100
AcDbBlockBegin
  2
*Paper_Space
 70
     0
 10
0.0
 20
0.0
 30
0.0
  3
*Paper_Space
  1

  0
ENDBLK
  5
1D
330
1B
100
AcDbEntity
 67
     1
  8
0
100
AcDbBlockEnd
  0
BLOCK
  5
24
330
23
100
AcDbEntity
  8
0
100
AcDbBlockBegin
  2
*Paper_Space0
 70
     0
 10
0.0
 20
0.0
 30
0.0
  3
*Paper_Space0
  1

  0
ENDBLK
  5
25
330
23
100
AcDbEntity
  8
0
100
AcDbBlockEnd
  0
BLOCK
  5
70
330
6E
100
AcDbEntity
  8
0
100
AcDbBlockBegin
  2
1_023224_4
 70
     2
 10
0.0
 20
0.0
 30
0.0
  3
1_023224_4
  1

  0
ATTDEF
  5
73
330
6E
100
AcDbEntity
  8
AM_6
100
AcDbText
 10
9.28125
 20
0.1609374999999999
 30
0.0
 40
0.5
  1
Flange Bearing -  Non-Expansion - Inch
100
AcDbAttributeDefinition
  3

  2
NN
 70
     8
280
     0
  0
ATTDEF
  5
74
330
6E
100
AcDbEntity
  8
AM_6
100
AcDbText
 10
9.28125
 20
-0.3390625000000001
 30
0.0
 40
0.5
  1
Type K
100
AcDbAttributeDefinition
  3

  2
NT
 70
     8
280
     0
  0
ATTDEF
  5
75
330
6E
100
AcDbEntity
  8
AM_6
100
AcDbText
 10
9.28125
 20
-0.8390625
 30
0.0
 40
0.5
  1
023224
100
AcDbAttributeDefinition
  3

  2
NB
 70
     8
280
     0
  0
ATTDEF
  5
76
330
6E
100
AcDbEntity
  8
AM_6
100
AcDbText
 10
9.28125
 20
-1.3390625
 30
0.0
 40
0.5
  1
$PN.
100
AcDbAttributeDefinition
  3

  2
NBSYN
 70
     8
280
     0
  0
ATTDEF
  5
77
330
6E
100
AcDbEntity
  8
AM_6
100
AcDbText
 10
9.28125
 20
-1.8390625
 30
0.0
 40
0.5
  1
023224
100
AcDbAttributeDefinition
  3

  2
LINA
 70
     8
280
     0
  0
ATTDEF
  5
78
330
6E
100
AcDbEntity
  8
AM_6
100
AcDbText
 10
9.28125
 20
-2.3390625
 30
0.0
 40
0.5
  1
2-1/2
100
AcDbAttributeDefinition
  3

  2
SS
 70
     8
280
     0
  0
ATTDEF
  5
79
330
6E
100
AcDbEntity
  8
AM_6
100
AcDbText
 10
9.28125
 20
-2.8390625
 30
0.0
 40
0.5
  1
023224
100
AcDbAttributeDefinition
  3

  2
PN
 70
     8
280
     0
  0
ATTDEF
  5
7A
330
6E
100
AcDbEntity
  8
AM_6
100
AcDbText
 10
9.28125
 20
-3.3390625
 30
0.0
 40
0.5
  1
F4B-K-208R
100
AcDbAttributeDefinition
  3

  2
PNA
 70
     8
280
     0
  0
ATTDEF
  5
7B
330
6E
100
AcDbEntity
  8
AM_6
100
AcDbText
 10
9.28125
 20
-3.8390625
 30
0.0
 40
0.5
  1
20
100
AcDbAttributeDefinition
  3

  2
WEIGHT
 70
     8
280
     0
  0
ATTDEF
  5
7C
330
6E
100
AcDbEntity
  8
AM_6
100
AcDbText
 10
9.28125
 20
-4.3390625
 30
0.0
 40
0.5
  1
3-9/16
100
AcDbAttributeDefinition
  3

  2
A
 70
     8
280
     0
  0
ATTDEF
  5
7D
330
6E
100
AcDbEntity
  8
AM_6
100
AcDbText
 10
9.28125
 20
-4.8390625
 30
0.0
 40
0.5
  1
7-5/8
100
AcDbAttributeDefinition
  3

  2
B
 70
     8
280
     0
  0
ATTDEF
  5
7E
330
6E
100
AcDbEntity
  8
AM_6
100
AcDbText
 10
9.28125
 20
-5.3390625
 30
0.0
 40
0.5
  1
2-59/64
100
AcDbAttributeDefinition
  3

  2
C
 70
     8
280
     0
  0
ATTDEF
  5
7F
330
6E
100
AcDbEntity
  8
AM_6
100
AcDbText
 10
9.28125
 20
-5.8390625
 30
0.0
 40
0.5
  1
6
100
AcDbAttributeDefinition
  3

  2
D
 70
     8
280
     0
  0
ATTDEF
  5
80
330
6E
100
AcDbEntity
  8
AM_6
100
AcDbText
 10
9.28125
 20
-6.3390625
 30
0.0
 40
0.5
  1
1/4
100
AcDbAttributeDefinition
  3

  2
E
 70
     8
280
     0
  0
ATTDEF
  5
81
330
6E
100
AcDbEntity
  8
AM_6
100
AcDbText
 10
9.28125
 20
-6.8390625
 30
0.0
 40
0.5
  1
5/8
100
AcDbAttributeDefinition
  3

  2
F
 70
     8
280
     0
  0
ATTDEF
  5
82
330
6E
100
AcDbEntity
  8
AM_6
100
AcDbText
 10
9.28125
 20
-7.3390625
 30
0.0
 40
0.5
  1
8-9/16
100
AcDbAttributeDefinition
  3

  2
G
 70
     8
280
     0
  0
ATTDEF
  5
83
330
6E
100
AcDbEntity
  8
AM_6
100
AcDbText
 10
9.28125
 20
-7.8390625
 30
0.0
 40
0.5
  1
5/8
100
AcDbAttributeDefinition
  3

  2
H
 70
     8
280
     0
  0
ATTDEF
  5
84
330
6E
100
AcDbEntity
  8
AM_6
100
AcDbText
 10
9.28125
 20
-8.3390625
 30
0.0
 40
0.5
  1
6
100
AcDbAttributeDefinition
  3

  2
J
 70
     8
280
     0
  0
ATTDEF
  5
85
330
6E
100
AcDbEntity
  8
AM_6
100
AcDbText
 10
9.28125
 20
-8.8390625
 30
0.0
 40
0.5
  1
4-1/16
100
AcDbAttributeDefinition
  3

  2
L
 70
     8
280
     0
  0
ATTDEF
  5
86
330
6E
100
AcDbEntity
  8
AM_6
100
AcDbText
 10
9.28125
 20
-9.3390625
 30
0.0
 40
0.5
  1
54000
100
AcDbAttributeDefinition
  3

  2
CS
 70
     8
280
     0
  0
ATTDEF
  5
87
330
6E
100
AcDbEntity
  8
AM_6
100
AcDbText
 10
9.28125
 20
-9.8390625
 30
0.0
 40
0.5
  1
9090
100
AcDbAttributeDefinition
  3

  2
CD
 70
     8
280
     0
  0
ATTDEF
  5
88
330
6E
100
AcDbEntity
  8
AM_6
100
AcDbText
 10
9.28125
 20
-10.3390625
 30
0.0
 40
0.5
  1
21
100
AcDbAttributeDefinition
  3

  2
RN
 70
     8
280
     0
  0
ATTDEF
  5
89
330
6E
100
AcDbEntity
  8
AM_6
100
AcDbText
 10
9.28125
 20
-10.8390625
 30
0.0
 40
0.5
  1
.41
100
AcDbAttributeDefinition
  3

  2
RM
 70
     8
280
     0
  0
ATTDEF
  5
8A
330
6E
100
AcDbEntity
  8
AM_6
100
AcDbText
 10
9.28125
 20
-11.3390625
 30
0.0
 40
0.5
  1
3.337
100
AcDbAttributeDefinition
  3

  2
PDI
 70
     8
280
     0
  0
ATTDEF
  5
8B
330
6E
100
AcDbEntity
  8
AM_6
100
AcDbText
 10
9.28125
 20
-11.8390625
 30
0.0
 40
0.5
  1
.004-0.12
100
AcDbAttributeDefinition
  3

  2
EP
 70
     8
280
     0
  0
ATTDEF
  5
8C
330
6E
100
AcDbEntity
  8
AM_6
100
AcDbText
 10
9.28125
 20
-12.3390625
 30
0.0
 40
0.5
  1
3/8-16*3/4
100
AcDbAttributeDefinition
  3

  2
SC
 70
     8
280
     0
  0
ATTDEF
  5
8D
330
6E
100
AcDbEntity
  8
AM_6
100
AcDbText
 10
9.28125
 20
-12.8390625
 30
0.0
 40
0.5
  1
290
100
AcDbAttributeDefinition
  3

  2
TC
 70
     8
280
     0
  0
ATTDEF
  5
8E
330
6E
100
AcDbEntity
  8
AM_6
100
AcDbText
 10
9.28125
 20
-13.3390625
 30
0.0
 40
0.5
  1
C.I. ASTM A48 CLASS 30
100
AcDbAttributeDefinition
  3

  2
MH
 70
     8
280
     0
  0
ATTDEF
  5
8F
330
6E
100
AcDbEntity
  8
AM_6
100
AcDbText
 10
9.28125
 20
-13.8390625
 30
0.0
 40
0.5
  1
4118 CASE CARB.
100
AcDbAttributeDefinition
  3

  2
MC
 70
     8
280
     0
  0
ATTDEF
  5
90
330
6E
100
AcDbEntity
  8
AM_6
100
AcDbText
 10
9.28125
 20
-14.3390625
 30
0.0
 40
0.5
  1
4118 CASE CARB.
100
AcDbAttributeDefinition
  3

  2
MCU
 70
     8
280
     0
  0
ATTDEF
  5
91
330
6E
100
AcDbEntity
  8
AM_6
100
AcDbText
 10
9.28125
 20
-14.8390625
 30
0.0
 40
0.5
  1
STEEL
100
AcDbAttributeDefinition
  3

  2
MR
 70
     8
280
     0
  0
ATTDEF
  5
92
330
6E
100
AcDbEntity
  8
AM_6
100
AcDbText
 10
9.28125
 20
-15.3390625
 30
0.0
 40
0.5
  1
4118 CASE CARB.
100
AcDbAttributeDefinition
  3

  2
MRO
 70
     8
280
     0
  0
ATTDEF
  5
93
330
6E
100
AcDbEntity
  8
AM_6
100
AcDbText
 10
9.28125
 20
-15.8390625
 30
0.0
 40
0.5
  1
4.25
100
AcDbAttributeDefinition
  3

  2
SM
 70
     8
280
     0
  0
ATTDEF
  5
94
330
6E
100
AcDbEntity
  8
AM_6
100
AcDbText
 10
9.28125
 20
-16.3390625
 30
0.0
 40
0.5
  1
baldor
100
AcDbAttributeDefinition
  3

  2
COMPANY
 70
     8
280
     0
  0
INSERT
  5
96
330
6E
100
AcDbEntity
  8
0
100
AcDbBlockReference
  2
2_2_1_2C_0_in_023224_4
 10
0.0
 20
0.0
 30
0.0
  0
INSERT
  5
D0
330
6E
100
AcDbEntity
  8
0
100
AcDbBlockReference
  2
3_405020c_Inch_0_in_023224_4
 10
0.0
 20
0.0
 30
0.0
  0
INSERT
  5
F2
330
6E
100
AcDbEntity
  8
0
100
AcDbBlockReference
  2
4_S1U_K_208R_0_in_023224_4
 10
0.0
 20
0.0
 30
0.0
  0
INSERT
  5
14C
330
6E
100
AcDbEntity
  8
0
100
AcDbBlockReference
  2
5_F4B_K_208R_0_in_023224_4
 10
0.0
 20
0.0
 30
0.0
  0
ENDBLK
  5
71
330
6E
100
AcDbEntity
  8
0
100
AcDbBlockEnd
  0
BLOCK
  5
97
330
95
100
AcDbEntity
  8
0
100
AcDbBlockBegin
  2
2_2_1_2C_0_in_023224_4
 70
     2
 10
0.0
 20
0.0
 30
0.0
  3
2_2_1_2C_0_in_023224_4
  1

  0
ATTDEF
  5
99
330
95
100
AcDbEntity
  8
AM_6
100
AcDbText
 10
7.03125
 20
-2.942499999999999
 30
0.0
 40
0.5
  1
E-Type Collar -Inch
100
AcDbAttributeDefinition
  3

  2
NN
 70
     8
280
     0
  0
ATTDEF
  5
9A
330
95
100
AcDbEntity
  8
AM_6
100
AcDbText
 10
7.03125
 20
-3.442499999999999
 30
0.0
 40
0.5
  1
E-Type Bearings
100
AcDbAttributeDefinition
  3

  2
NT
 70
     8
280
     0
  0
ATTDEF
  5
9B
330
95
100
AcDbEntity
  8
AM_6
100
AcDbText
 10
7.03125
 20
-3.942499999999999
 30
0.0
 40
0.5
  1
2-1/2C
100
AcDbAttributeDefinition
  3

  2
NB
 70
     8
280
     0
  0
ATTDEF
  5
9C
330
95
100
AcDbEntity
  8
AM_6
100
AcDbText
 10
7.03125
 20
-4.442499999999999
 30
0.0
 40
0.5
  1
$BORE.C
100
AcDbAttributeDefinition
  3

  2
NBSYN
 70
     8
280
     0
  0
ATTDEF
  5
9D
330
95
100
AcDbEntity
  8
AM_6
100
AcDbText
 10
7.03125
 20
-4.942499999999999
 30
0.0
 40
0.5
  1
2-1/2C
100
AcDbAttributeDefinition
  3

  2
LINA
 70
     8
280
     0
  0
ATTDEF
  5
9E
330
95
100
AcDbEntity
  8
AM_6
100
AcDbText
 10
7.03125
 20
-5.442499999999999
 30
0.0
 40
0.5
  1
2-1/2
100
AcDbAttributeDefinition
  3

  2
BORE
 70
     8
280
     0
  0
ATTDEF
  5
9F
330
95
100
AcDbEntity
  8
AM_6
100
AcDbText
 10
7.03125
 20
-5.942499999999999
 30
0.0
 40
0.5
  1
4.06250
100
AcDbAttributeDefinition
  3

  2
L
 70
     8
280
     0
  0
ATTDEF
  5
A0
330
95
100
AcDbEntity
  8
AM_6
100
AcDbText
 10
7.03125
 20
-6.442499999999999
 30
0.0
 40
0.5
  1
4.00
100
AcDbAttributeDefinition
  3

  2
A
 70
     8
280
     0
  0
ATTDEF
  5
A1
330
95
100
AcDbEntity
  8
AM_6
100
AcDbText
 10
7.03125
 20
-6.942499999999999
 30
0.0
 40
0.5
  1
1.70
100
AcDbAttributeDefinition
  3

  2
B
 70
     8
280
     0
  0
ATTDEF
  5
A2
330
95
100
AcDbEntity
  8
AM_6
100
AcDbText
 10
7.03125
 20
-7.442499999999999
 30
0.0
 40
0.5
  1
2.94
100
AcDbAttributeDefinition
  3

  2
C
 70
     8
280
     0
  0
ATTDEF
  5
A3
330
95
100
AcDbEntity
  8
AM_6
100
AcDbText
 10
7.03125
 20
-7.942499999999999
 30
0.0
 40
0.5
  1
4.12
100
AcDbAttributeDefinition
  3

  2
D
 70
     8
280
     0
  0
ATTDEF
  5
A4
330
95
100
AcDbEntity
  8
AM_6
100
AcDbText
 10
7.03125
 20
-8.442499999999999
 30
0.0
 40
0.5
  1
0.41
100
AcDbAttributeDefinition
  3

  2
E
 70
     8
280
     0
  0
ATTDEF
  5
A5
330
95
100
AcDbEntity
  8
AM_6
100
AcDbText
 10
7.03125
 20
-8.942499999999999
 30
0.0
 40
0.5
  1
0.31
100
AcDbAttributeDefinition
  3

  2
F
 70
     8
280
     0
  0
ATTDEF
  5
A6
330
95
100
AcDbEntity
  8
AM_6
100
AcDbText
 10
7.03125
 20
-9.442499999999999
 30
0.0
 40
0.5
  1
3/8-16
100
AcDbAttributeDefinition
  3

  2
CS
 70
     8
280
     0
  0
ATTDEF
  5
A7
330
95
100
AcDbEntity
  8
AM_6
100
AcDbText
 10
7.03125
 20
-9.942499999999999
 30
0.0
 40
0.5
  1
0.3750
100
AcDbAttributeDefinition
  3

  2
NDM
 70
     8
280
     0
  0
ATTDEF
  5
A8
330
95
100
AcDbEntity
  8
AM_6
100
AcDbText
 10
7.03125
 20
-10.4425
 30
0.0
 40
0.5
  1
0.3070
100
AcDbAttributeDefinition
  3

  2
KDM
 70
     8
280
     0
  0
ATTDEF
  5
A9
330
95
100
AcDbEntity
  8
AM_6
100
AcDbText
 10
7.03125
 20
-10.9425
 30
0.0
 40
0.5
  1
baldor
100
AcDbAttributeDefinition
  3

  2
COMPANY
 70
     8
280
     0
  0
LINE
  5
AC
330
95
100
AcDbEntity
  8
AM_9
100
AcDbLine
 10
1.370573096629555
 20
-3.11657773546782
 30
0.0
 11
1.362943640073036
 21
-3.107061616648713
 31
0.0
  0
LINE
  5
AD
330
95
100
AcDbEntity
  8
AM_9
100
AcDbLine
 10
1.363002366930393
 20
-3.397865134129884
 30
0.0
 11
1.370573096629555
 21
-3.38842226453218
 31
0.0
  0
LWPOLYLINE
  5
AE
330
95
100
AcDbEntity
  8
AM_9
100
AcDbPolyline
 90
       26
 70
     0
 43
0.0
 10
1.362870758955027
 20
-3.106970713784019
 10
1.361722345582696
 20
-3.105577262917381
 10
1.351034063993259
 20
-3.095895802571749
 10
1.339378458226266
 20
-3.090795237646095
 10
1.326614256010011
 20
-3.090497315861997
 10
1.313458235211241
 20
-3.095179019343002
 10
1.300212399266798
 20
-3.104902011676164
 10
1.287467625967342
 20
-3.119374026234256
 10
1.275952008629166
 20
-3.137961621957355
 10
1.265957458711346
 20
-3.160369816854495
 10
1.258363344261785
 20
-3.184775405848487
 10
1.253046103606412
 20
-3.21142174398531
 10
1.250467930555332
 20
-3.237672826139211
 10
1.25031793696678
 20
-3.264377379624312
 10
1.252504891835033
 20
-3.289620896206091
 10
1.256814525415928
 20
-3.313836015025139
 10
1.263126712121886
 20
-3.336574159602232
 10
1.271086964458086
 20
-3.357091196266355
 10
1.280883691376679
 20
-3.375755087034343
 10
1.291736354734563
 20
-3.391099152053088
 10
1.30397260176277
 20
-3.403378021810584
 10
1.316527776949461
 20
-3.411354740441031
 10
1.329523629178863
 20
-3.414870073700271
 10
1.342050610996702
 20
-3.413476259825302
 10
1.353939848551234
 20
-3.406998321371627
 10
1.362874446005801
 20
-3.398024688122726
  0
LWPOLYLINE
  5
AF
330
95
100
AcDbEntity
  8
AM_9
100
AcDbPolyline
 90
       12
 70
     0
 43
0.0
 10
1.368294241808712
 20
-3.390329779347363
 10
1.374063062848139
 20
-3.379688425922101
 10
1.381919814639623
 20
-3.359553118707598
 10
1.387927446125511
 20
-3.336618876585749
 10
1.3923335231575
 20
-3.310872362384885
 10
1.394923028277636
 20
-3.284823361674165
 10
1.395996704930882
 20
-3.257753692110982
 10
1.395582298384876
 20
-3.231975178627994
 10
1.393800834805258
 20
-3.206782242319744
 10
1.390694314034126
 20
-3.183082022152444
 10
1.38631075514024
 20
-3.161229825610207
 10
1.376953389882087
 20
-3.131789438370362
  0
LWPOLYLINE
  5
B0
330
95
100
AcDbEntity
  8
AM_9
100
AcDbPolyline
 90
        3
 70
     0
 43
0.0
 10
1.362874446005801
 20
-3.398024688122726
 10
1.364719250926726
 20
-3.395620512588065
 10
1.368294241808712
 20
-3.390329779347363
  0
LINE
  5
B1
330
95
100
AcDbEntity
  8
AM_9
100
AcDbLine
 10
1.34029327085915
 20
-3.40615
 30
0.0
 11
1.810259173827005
 21
-3.40615
 31
0.0
  0
LINE
  5
B2
330
95
100
AcDbEntity
  8
AM_9
100
AcDbLine
 10
1.810259173827005
 20
-3.09885
 30
0.0
 11
1.34029327085915
 21
-3.09885
 31
0.0
  0
ELLIPSE
  5
B3
330
95
100
AcDbEntity
  8
AM_9
100
AcDbEllipse
 10
1.810259173827004
 20
-3.252500000000001
 30
0.0
 11
-2.822504710334835E-17
 21
-0.1536499999999985
 31
0.0
210
0.0
220
0.0
230
1.0
 40
0.4226182617406974
 41
3.47083687562124
 42
5.964214453772946
  0
LINE
  5
B4
330
95
100
AcDbEntity
  8
AM_9
100
AcDbLine
 10
1.779979348056599
 20
-3.38842226453218
 30
0.0
 11
1.802459817752674
 21
-3.416461852824269
 31
0.0
  0
LINE
  5
B5
330
95
100
AcDbEntity
  8
AM_9
100
AcDbLine
 10
1.802597943379028
 20
-3.088365864934839
 30
0.0
 11
1.779979348056599
 21
-3.11657773546782
 31
0.0
  0
LWPOLYLINE
  5
B6
330
95
100
AcDbEntity
  8
AM_9
100
AcDbPolyline
 90
       39
 70
     0
 43
0.0
 10
-0.1203997891174559
 20
-3.136139819734366
 10
-0.1372296735781099
 20
-3.154002292455359
 10
-0.1515019595327723
 20
-3.174661958540253
 10
-0.1631682951265879
 20
-3.199423525823132
 10
-0.1704843477765815
 20
-3.226740172729329
 10
-0.1726772085485035
 20
-3.252509687192519
 10
-0.1703441373534054
 20
-3.279065268728921
 10
-0.1639532413147669
 20
-3.303397011353681
 10
-0.153398690079932
 20
-3.326983942158416
 10
-0.1392226520825704
 20
-3.348491999372009
 10
-0.1213664561682598
 20
-3.367967316343778
 10
-0.1000066657426069
 20
-3.384875933542748
 10
-0.075607946107076
 20
-3.398533645202895
 10
-0.0485346204402687
 20
-3.408422265681339
 10
-0.0194379493571086
 20
-3.413962694819541
 10
0.010382953140129
 20
-3.414704694987161
 10
0.0407534256545697
 20
-3.410390339424635
 10
0.0693814756037808
 20
-3.401253413306858
 10
0.0968140168912338
 20
-3.386964619652971
 10
0.1202208485808603
 20
-3.369023936179177
 10
0.1407203522010082
 20
-3.346540770599332
 10
0.1556576988351689
 20
-3.322722462372668
 10
0.1664282947795951
 20
-3.295731656816433
 10
0.1716792036591166
 20
-3.26990785885086
 10
0.1723629232003229
 20
-3.242721677539698
 10
0.1686660074888896
 20
-3.217751116569448
 10
0.1606637967266609
 20
-3.193061129721632
 10
0.1489786988876099
 20
-3.170471313926026
 10
0.1334463894552753
 20
-3.149505878699983
 10
0.1143411119970392
 20
-3.130846267382885
 10
0.0919564811328839
 20
-3.115043745800934
 10
0.0664994555385473
 20
-3.102581910056273
 10
0.0386345759420243
 20
-3.094136785972304
 10
0.0093066036627583
 20
-3.090237211153408
 10
-0.0210966932899491
 20
-3.091222583874341
 10
-0.050569237637768
 20
-3.097153510283507
 10
-0.0794294786535839
 20
-3.108278789329425
 10
-0.1007080854076407
 20
-3.120596508212432
 10
-0.1203997891174559
 20
-3.136139819734366
  0
LWPOLYLINE
  5
B7
330
95
100
AcDbEntity
  8
AM_9
100
AcDbPolyline
 90
        3
 70
     0
 43
0.0
 10
1.369870284827358
 20
-3.117294478681647
 10
1.369812117787199
 20
-3.117205728926732
 10
1.362870758955027
 20
-3.106970713784019
  0
LINE
  5
B8
330
95
100
AcDbEntity
  8
AM_9
100
AcDbLine
 10
1.376953389882087
 20
-3.131789438370362
 30
0.0
 11
1.369870284827358
 21
-3.117294478681647
 31
0.0
  0
LINE
  5
B9
330
95
100
AcDbEntity
  8
AM_9
100
AcDbLine
 10
1.47
 20
-3.5625
 30
0.0
 11
1.47
 21
-2.942499999999999
 31
0.0
  0
LINE
  5
BA
330
95
100
AcDbEntity
  8
AM_9
100
AcDbLine
 10
-1.47
 20
-2.942499999999999
 30
0.0
 11
-1.47
 21
-3.5625
 31
0.0
  0
ELLIPSE
  5
BB
330
95
100
AcDbEntity
  8
AM_9
100
AcDbEllipse
 10
1.34029327085915
 20
-3.252499999999999
 30
0.0
 11
-2.822504710334884E-17
 21
-0.1536500000000012
 31
0.0
210
0.0
220
0.0
230
1.0
 40
0.4226182617406987
 41
0.0
 42
6.283185307179586
  0
LINE
  5
BE
330
95
100
AcDbEntity
  8
AM_7
100
AcDbLine
 10
-0.1613325
 20
-3.2525
 30
0.0
 11
0.1613325
 21
-3.2525
 31
0.0
  0
ELLIPSE
  5
C0
330
95
100
AcDbEntity
  8
AM_4
100
AcDbEllipse
 10
1.810259173827005
 20
-3.2525
 30
0.0
 11
-2.822504710334859E-17
 21
-0.1536499999999998
 31
0.0
210
0.0
220
0.0
230
1.0
 40
0.4226182617407009
 41
5.964214453772938
 42
9.754022182800838
  0
LWPOLYLINE
  5
C1
330
95
100
AcDbEntity
  8
AM_4
100
AcDbPolyline
 90
       15
 70
     0
 43
0.0
 10
1.802667808376442
 20
-3.416721274760351
 10
1.797666409885437
 20
-3.409989732026093
 10
1.786806986054667
 20
-3.391504317200677
 10
1.777292084543533
 20
-3.369566043113323
 10
1.769156066844676
 20
-3.343672056482903
 10
1.763073842876829
 20
-3.315433056551788
 10
1.759179044164696
 20
-3.284410891950673
 10
1.75785094021359
 20
-3.252526945247891
 10
1.759233086603205
 20
-3.219956111866257
 10
1.763291504257725
 20
-3.188302672949686
 10
1.76992291719397
 20
-3.158477436697594
 10
1.778839084917835
 20
-3.131383334006796
 10
1.789487825006163
 20
-3.108390720485193
 10
1.801610646351019
 20
-3.089619115011542
 10
1.802671871123749
 20
-3.088273656566973
  0
LWPOLYLINE
  5
C2
330
95
100
AcDbEntity
  8
AM_4
100
AcDbPolyline
 90
        8
 70
     0
 43
0.0
 10
1.802671871123749
 20
-3.088273656566973
 10
1.814227513381392
 20
-3.076275085782116
 10
1.82733886885887
 20
-3.067940523298933
 10
1.839935961991675
 20
-3.065036631114293
 10
1.852184268010817
 20
-3.067134957275815
 10
1.86350411931482
 20
-3.074045326578185
 10
1.873893304784371
 20
-3.085449818905222
 10
1.887014651317992
 20
-3.109570705270465
  0
CIRCLE
  5
C3
330
95
100
AcDbEntity
  8
AM_4
100
AcDbCircle
 10
0.0
 20
-3.2525
 30
0.0
 40
0.15365
  0
LINE
  5
C4
330
95
100
AcDbEntity
  8
AM_4
100
AcDbLine
 10
-1.927916666666667
 20
-3.5625
 30
0.0
 11
1.927916666653792
 21
-3.5625
 31
0.0
  0
ARC
  5
C5
330
95
100
AcDbEntity
  8
AM_4
100
AcDbCircle
 10
1.927916666666665
 20
-3.459166666666665
 30
0.0
 40
0.1033333333333348
100
AcDbArc
 50
270.0
 51
0.0
  0
ARC
  5
C6
330
95
100
AcDbEntity
  8
AM_4
100
AcDbCircle
 10
-1.927916666666665
 20
-3.459166666666665
 30
0.0
 40
0.1033333333333346
100
AcDbArc
 50
180.0
 51
270.0
  0
LINE
  5
C7
330
95
100
AcDbEntity
  8
AM_4
100
AcDbLine
 10
-2.03125
 20
-3.459166666666666
 30
0.0
 11
2.03125
 21
-3.459166666666666
 31
0.0
  0
LWPOLYLINE
  5
C8
330
95
100
AcDbEntity
  8
AM_4
100
AcDbPolyline
 90
       39
 70
     0
 43
0.0
 10
-0.1295672609967952
 20
-3.122752264142809
 10
-0.1099674871199902
 20
-3.104327149903503
 10
-0.0873191595039918
 20
-3.088698283976797
 10
-0.0601136960051178
 20
-3.075837203180141
 10
-0.0301638020553841
 20
-3.067669120628458
 10
-0.0013179010444531
 20
-3.065005059238462
 10
0.0284305359368665
 20
-3.06736929297898
 10
0.0559989826088774
 20
-3.074366795369221
 10
0.082762273561879
 20
-3.086136036420325
 10
0.1069355111822404
 20
-3.101925463588468
 10
0.1288116649832947
 20
-3.121934434832375
 10
0.1473887528126832
 20
-3.145478565855643
 10
0.1623233500196552
 20
-3.172415778195619
 10
0.1728568736360702
 20
-3.201825310202632
 10
0.1786145498976475
 20
-3.233411222254347
 10
0.1791163026833939
 20
-3.265498300078744
 10
0.1741433002515942
 20
-3.298126909860949
 10
0.1639982505278063
 20
-3.328776361523807
 10
0.1483329199821384
 20
-3.358090139331721
 10
0.1287622758477004
 20
-3.383118678455015
 10
0.1043921278349535
 20
-3.405009445242505
 10
0.0783636795888751
 20
-3.421173086421112
 10
0.0489898099924172
 20
-3.432874684485277
 10
0.0202778723639901
 20
-3.438798446041333
 10
-0.0099298765264778
 20
-3.439712569883759
 10
-0.0381552079961663
 20
-3.435710707418949
 10
-0.0660950973848305
 20
-3.426814332177368
 10
-0.0915775702846385
 20
-3.413743718571203
 10
-0.1152222506188437
 20
-3.396250826504633
 10
-0.135851918614775
 20
-3.375038461047462
 10
-0.1532536310803199
 20
-3.350131956711834
 10
-0.1666193779775132
 20
-3.322314879758542
 10
-0.17553706284074
 20
-3.291884049422908
 10
-0.1793958786732864
 20
-3.260234896910504
 10
-0.1779409728618023
 20
-3.227482529195974
 10
-0.1711610207365659
 20
-3.195902547964574
 10
-0.1587953401032176
 20
-3.165048637863365
 10
-0.1457731833775861
 20
-3.14309339081973
 10
-0.1295672610612273
 20
-3.122752264102548
  0
LINE
  5
C9
330
95
100
AcDbEntity
  8
AM_4
100
AcDbLine
 10
-2.03125
 20
-2.942499999999999
 30
0.0
 11
2.03125
 21
-2.942499999999999
 31
0.0
  0
LWPOLYLINE
  5
CA
330
95
100
AcDbEntity
  8
AM_4
100
AcDbPolyline
 90
       19
 70
     0
 43
0.0
 10
1.887014651317992
 20
-3.109570705270465
 10
1.893986413770786
 20
-3.129172137683652
 10
1.899710319952293
 20
-3.151347159619536
 10
1.904670274286224
 20
-3.179240961797478
 10
1.90793220942022
 20
-3.209055141894785
 10
1.909492391333913
 20
-3.241013000457021
 10
1.909232699005737
 20
-3.273285716259739
 10
1.907089767313368
 20
-3.305454677460486
 10
1.903075617493279
 20
-3.33611408782087
 10
1.897224641635173
 20
-3.364160044583945
 10
1.889577750228797
 20
-3.388943637532696
 10
1.880473785063584
 20
-3.409063918051434
 10
1.869883648384874
 20
-3.424620635656467
 10
1.858531271037803
 20
-3.434616596303496
 10
1.846277948433218
 20
-3.439528004913196
 10
1.833936344974624
 20
-3.439193637668492
 10
1.821429128373169
 20
-3.43398251129042
 10
1.809251931031054
 20
-3.424123849402899
 10
1.802667808376442
 20
-3.416721274760351
  0
LINE
  5
CB
330
95
100
AcDbEntity
  8
AM_4
100
AcDbLine
 10
2.03125
 20
-3.459166666666666
 30
0.0
 11
2.03125
 21
-2.942499999999999
 31
0.0
  0
LINE
  5
CC
330
95
100
AcDbEntity
  8
AM_4
100
AcDbLine
 10
-2.03125
 20
-2.942499999999999
 30
0.0
 11
-2.03125
 21
-3.459166666666666
 31
0.0
  0
CIRCLE
  5
CE
330
95
100
AcDbEntity
  8
AM_5
100
AcDbCircle
 10
0.0000000000000003
 20
-3.2525
 30
0.0
 40
0.1874999999999998
  0
ENDBLK
  5
98
330
95
100
AcDbEntity
  8
0
100
AcDbBlockEnd
  0
BLOCK
  5
D1
330
CF
100
AcDbEntity
  8
0
100
AcDbBlockBegin
  2
3_405020c_Inch_0_in_023224_4
 70
     2
 10
0.0
 20
0.0
 30
0.0
  3
3_405020c_Inch_0_in_023224_4
  1

  0
ATTDEF
  5
D3
330
CF
100
AcDbEntity
  8
AM_6
100
AcDbText
 10
5.14065
 20
-1.400091369276958
 30
0.0
 40
0.5
  1
405020C -Inch
100
AcDbAttributeDefinition
  3

  2
NN
 70
     8
280
     0
  0
ATTDEF
  5
D4
330
CF
100
AcDbEntity
  8
AM_6
100
AcDbText
 10
5.14065
 20
-1.900091369276958
 30
0.0
 40
0.5
  1
Grease fitting
100
AcDbAttributeDefinition
  3

  2
NT
 70
     8
280
     0
  0
ATTDEF
  5
D5
330
CF
100
AcDbEntity
  8
AM_6
100
AcDbText
 10
5.14065
 20
-2.400091369276958
 30
0.0
 40
0.5
  1
405020c-Inch
100
AcDbAttributeDefinition
  3

  2
NB
 70
     8
280
     0
  0
ATTDEF
  5
D6
330
CF
100
AcDbEntity
  8
AM_6
100
AcDbText
 10
5.14065
 20
-2.900091369276958
 30
0.0
 40
0.5
  1
$MN.-Inch
100
AcDbAttributeDefinition
  3

  2
NBSYN
 70
     8
280
     0
  0
ATTDEF
  5
D7
330
CF
100
AcDbEntity
  8
AM_6
100
AcDbText
 10
5.14065
 20
-3.400091369276958
 30
0.0
 40
0.5
  1
405020c
100
AcDbAttributeDefinition
  3

  2
LINA
 70
     8
280
     0
  0
ATTDEF
  5
D8
330
CF
100
AcDbEntity
  8
AM_6
100
AcDbText
 10
5.14065
 20
-3.900091369276958
 30
0.0
 40
0.5
  1
405020c
100
AcDbAttributeDefinition
  3

  2
MN
 70
     8
280
     0
  0
ATTDEF
  5
D9
330
CF
100
AcDbEntity
  8
AM_6
100
AcDbText
 10
5.14065
 20
-4.400091369276958
 30
0.0
 40
0.5
  1
0.230
100
AcDbAttributeDefinition
  3

  2
NDR
 70
     8
280
     0
  0
ATTDEF
  5
DA
330
CF
100
AcDbEntity
  8
AM_6
100
AcDbText
 10
5.14065
 20
-4.900091369276958
 30
0.0
 40
0.5
  1
0.210
100
AcDbAttributeDefinition
  3

  2
KDR
 70
     8
280
     0
  0
ATTDEF
  5
DB
330
CF
100
AcDbEntity
  8
AM_6
100
AcDbText
 10
5.14065
 20
-5.400091369276958
 30
0.0
 40
0.5
  1
0.157
100
AcDbAttributeDefinition
  3

  2
BZE
 70
     8
280
     0
  0
ATTDEF
  5
DC
330
CF
100
AcDbEntity
  8
AM_6
100
AcDbText
 10
5.14065
 20
-5.900091369276958
 30
0.0
 40
0.5
  1
9/32
100
AcDbAttributeDefinition
  3

  2
WAF
 70
     8
280
     0
  0
ATTDEF
  5
DD
330
CF
100
AcDbEntity
  8
AM_6
100
AcDbText
 10
5.14065
 20
-6.400091369276958
 30
0.0
 40
0.5
  1
0.2813
100
AcDbAttributeDefinition
  3

  2
WAF1
 70
     8
280
     0
  0
ATTDEF
  5
DE
330
CF
100
AcDbEntity
  8
AM_6
100
AcDbText
 10
5.14065
 20
-6.900091369276958
 30
0.0
 40
0.5
  1
0.545
100
AcDbAttributeDefinition
  3

  2
BL
 70
     8
280
     0
  0
ATTDEF
  5
DF
330
CF
100
AcDbEntity
  8
AM_6
100
AcDbText
 10
5.14065
 20
-7.400091369276958
 30
0.0
 40
0.5
  1
0.200
100
AcDbAttributeDefinition
  3

  2
TL
 70
     8
280
     0
  0
ATTDEF
  5
E0
330
CF
100
AcDbEntity
  8
AM_6
100
AcDbText
 10
5.14065
 20
-7.900091369276958
 30
0.0
 40
0.5
  1
baldor
100
AcDbAttributeDefinition
  3

  2
COMPANY
 70
     8
280
     0
  0
CIRCLE
  5
E1
330
CF
100
AcDbEntity
  8
AM_9
100
AcDbCircle
 10
0.0
 20
-1.5625
 30
0.0
 40
0.1000886227036577
  0
CIRCLE
  5
E2
330
CF
100
AcDbEntity
  8
AM_9
100
AcDbCircle
 10
0.0
 20
-1.5625
 30
0.0
 40
0.1104162595939891
  0
CIRCLE
  5
E3
330
CF
100
AcDbEntity
  8
AM_9
100
AcDbCircle
 10
0.0
 20
-1.5625
 30
0.0
 40
0.1163438171532771
  0
LINE
  5
E4
330
CF
100
AcDbEntity
  8
AM_9
100
AcDbLine
 10
-0.14065
 20
-1.643704315361521
 30
0.0
 11
0.0
 21
-1.724908630723041
 31
0.0
  0
LINE
  5
E5
330
CF
100
AcDbEntity
  8
AM_9
100
AcDbLine
 10
0.0
 20
-1.724908630723041
 30
0.0
 11
0.14065
 21
-1.643704315361521
 31
0.0
  0
LINE
  5
E6
330
CF
100
AcDbEntity
  8
AM_9
100
AcDbLine
 10
0.0
 20
-1.400091369276958
 30
0.0
 11
-0.14065
 21
-1.481295684638479
 31
0.0
  0
LINE
  5
E7
330
CF
100
AcDbEntity
  8
AM_9
100
AcDbLine
 10
0.14065
 20
-1.481295684638479
 30
0.0
 11
0.0
 21
-1.400091369276958
 31
0.0
  0
LINE
  5
E8
330
CF
100
AcDbEntity
  8
AM_9
100
AcDbLine
 10
-0.14065
 20
-1.481295684638479
 30
0.0
 11
-0.14065
 21
-1.643704315361521
 31
0.0
  0
LINE
  5
E9
330
CF
100
AcDbEntity
  8
AM_9
100
AcDbLine
 10
0.14065
 20
-1.643704315361521
 30
0.0
 11
0.14065
 21
-1.481295684638479
 31
0.0
  0
CIRCLE
  5
EA
330
CF
100
AcDbEntity
  8
AM_9
100
AcDbCircle
 10
0.0
 20
-1.5625
 30
0.0
 40
0.1093294505797714
  0
CIRCLE
  5
EB
330
CF
100
AcDbEntity
  8
AM_9
100
AcDbCircle
 10
0.0
 20
-1.5625
 30
0.0
 40
0.0946847896390988
  0
CIRCLE
  5
EC
330
CF
100
AcDbEntity
  8
AM_9
100
AcDbCircle
 10
0.0
 20
-1.5625
 30
0.0
 40
0.135926521995058
  0
CIRCLE
  5
ED
330
CF
100
AcDbEntity
  8
AM_9
100
AcDbCircle
 10
0.0
 20
-1.5625
 30
0.0
 40
0.13195176466768
  0
CIRCLE
  5
EE
330
CF
100
AcDbEntity
  8
AM_9
100
AcDbCircle
 10
0.0
 20
-1.5625
 30
0.0
 40
0.1038190510530391
  0
CIRCLE
  5
EF
330
CF
100
AcDbEntity
  8
AM_9
100
AcDbCircle
 10
0.0
 20
-1.5625
 30
0.0
 40
0.080806429716728
  0
CIRCLE
  5
F0
330
CF
100
AcDbEntity
  8
AM_9
100
AcDbCircle
 10
-0.0000000000000006
 20
-1.5625
 30
0.0
 40
0.1406500000000006
  0
ENDBLK
  5
D2
330
CF
100
AcDbEntity
  8
0
100
AcDbBlockEnd
  0
BLOCK
  5
F3
330
F1
100
AcDbEntity
  8
0
100
AcDbBlockBegin
  2
4_S1U_K_208R_0_in_023224_4
 70
     2
 10
0.0
 20
0.0
 30
0.0
  3
4_S1U_K_208R_0_in_023224_4
  1

  0
ATTDEF
  5
F5
330
F1
100
AcDbEntity
  8
AM_6
100
AcDbText
 10
7.592973863457749
 20
0.1609374999999999
 30
0.0
 40
0.5
  1
Type K Units - Inch
100
AcDbAttributeDefinition
  3

  2
NN
 70
     8
280
     0
  0
ATTDEF
  5
F6
330
F1
100
AcDbEntity
  8
AM_6
100
AcDbText
 10
7.592973863457749
 20
-0.3390625000000001
 30
0.0
 40
0.5
  1
Type K
100
AcDbAttributeDefinition
  3

  2
NT
 70
     8
280
     0
  0
ATTDEF
  5
F7
330
F1
100
AcDbEntity
  8
AM_6
100
AcDbText
 10
7.592973863457749
 20
-0.8390625
 30
0.0
 40
0.5
  1
S1U-K-208R
100
AcDbAttributeDefinition
  3

  2
NB
 70
     8
280
     0
  0
ATTDEF
  5
F8
330
F1
100
AcDbEntity
  8
AM_6
100
AcDbText
 10
7.592973863457749
 20
-1.3390625
 30
0.0
 40
0.5
  1
$PN.
100
AcDbAttributeDefinition
  3

  2
NBSYN
 70
     8
280
     0
  0
ATTDEF
  5
F9
330
F1
100
AcDbEntity
  8
AM_6
100
AcDbText
 10
7.592973863457749
 20
-1.8390625
 30
0.0
 40
0.5
  1
S1U-K-208R
100
AcDbAttributeDefinition
  3

  2
LINA
 70
     8
280
     0
  0
ATTDEF
  5
FA
330
F1
100
AcDbEntity
  8
AM_6
100
AcDbText
 10
7.592973863457749
 20
-2.3390625
 30
0.0
 40
0.5
  1
2-1/2
100
AcDbAttributeDefinition
  3

  2
SS
 70
     8
280
     0
  0
ATTDEF
  5
FB
330
F1
100
AcDbEntity
  8
AM_6
100
AcDbText
 10
7.592973863457749
 20
-2.8390625
 30
0.0
 40
0.5
  1
2.500000
100
AcDbAttributeDefinition
  3

  2
SS1
 70
     8
280
     0
  0
ATTDEF
  5
FC
330
F1
100
AcDbEntity
  8
AM_6
100
AcDbText
 10
7.592973863457749
 20
-3.3390625
 30
0.0
 40
0.5
  1
S1U-K-208R
100
AcDbAttributeDefinition
  3

  2
PN
 70
     8
280
     0
  0
ATTDEF
  5
FD
330
F1
100
AcDbEntity
  8
AM_6
100
AcDbText
 10
7.592973863457749
 20
-3.8390625
 30
0.0
 40
0.5
  1
S1U-K-208R
100
AcDbAttributeDefinition
  3

  2
PNA
 70
     8
280
     0
  0
ATTDEF
  5
FE
330
F1
100
AcDbEntity
  8
AM_6
100
AcDbText
 10
7.592973863457749
 20
-4.3390625
 30
0.0
 40
0.5
  1
11
100
AcDbAttributeDefinition
  3

  2
WEIGHT
 70
     8
280
     0
  0
ATTDEF
  5
FF
330
F1
100
AcDbEntity
  8
AM_6
100
AcDbText
 10
7.592973863457749
 20
-4.8390625
 30
0.0
 40
0.5
  1
3-3/8
100
AcDbAttributeDefinition
  3

  2
A
 70
     8
280
     0
  0
ATTDEF
  5
100
330
F1
100
AcDbEntity
  8
AM_6
100
AcDbText
 10
7.592973863457749
 20
-5.3390625
 30
0.0
 40
0.5
  1
3.375000
100
AcDbAttributeDefinition
  3

  2
A1
 70
     8
280
     0
  0
ATTDEF
  5
101
330
F1
100
AcDbEntity
  8
AM_6
100
AcDbText
 10
7.592973863457749
 20
-5.8390625
 30
0.0
 40
0.5
  1
2-3/4
100
AcDbAttributeDefinition
  3

  2
B
 70
     8
280
     0
  0
ATTDEF
  5
102
330
F1
100
AcDbEntity
  8
AM_6
100
AcDbText
 10
7.592973863457749
 20
-6.3390625
 30
0.0
 40
0.5
  1
2.750000
100
AcDbAttributeDefinition
  3

  2
B1
 70
     8
280
     0
  0
ATTDEF
  5
103
330
F1
100
AcDbEntity
  8
AM_6
100
AcDbText
 10
7.592973863457749
 20
-6.8390625
 30
0.0
 40
0.5
  1
1-7/16
100
AcDbAttributeDefinition
  3

  2
C
 70
     8
280
     0
  0
ATTDEF
  5
104
330
F1
100
AcDbEntity
  8
AM_6
100
AcDbText
 10
7.592973863457749
 20
-7.3390625
 30
0.0
 40
0.5
  1
1.437500
100
AcDbAttributeDefinition
  3

  2
C1
 70
     8
280
     0
  0
ATTDEF
  5
105
330
F1
100
AcDbEntity
  8
AM_6
100
AcDbText
 10
7.592973863457749
 20
-7.8390625
 30
0.0
 40
0.5
  1
5
100
AcDbAttributeDefinition
  3

  2
D
 70
     8
280
     0
  0
ATTDEF
  5
106
330
F1
100
AcDbEntity
  8
AM_6
100
AcDbText
 10
7.592973863457749
 20
-8.3390625
 30
0.0
 40
0.5
  1
5.000000
100
AcDbAttributeDefinition
  3

  2
D1
 70
     8
280
     0
  0
ATTDEF
  5
107
330
F1
100
AcDbEntity
  8
AM_6
100
AcDbText
 10
7.592973863457749
 20
-8.8390625
 30
0.0
 40
0.5
  1
0.450
100
AcDbAttributeDefinition
  3

  2
E
 70
     8
280
     0
  0
ATTDEF
  5
108
330
F1
100
AcDbEntity
  8
AM_6
100
AcDbText
 10
7.592973863457749
 20
-9.3390625
 30
0.0
 40
0.5
  1
4.812
100
AcDbAttributeDefinition
  3

  2
EM
 70
     8
280
     0
  0
ATTDEF
  5
109
330
F1
100
AcDbEntity
  8
AM_6
100
AcDbText
 10
7.592973863457749
 20
-9.8390625
 30
0.0
 40
0.5
  1
4.870
100
AcDbAttributeDefinition
  3

  2
EC
 70
     8
280
     0
  0
ATTDEF
  5
10A
330
F1
100
AcDbEntity
  8
AM_6
100
AcDbText
 10
7.592973863457749
 20
-10.3390625
 30
0.0
 40
0.5
  1
11/16
100
AcDbAttributeDefinition
  3

  2
H
 70
     8
280
     0
  0
ATTDEF
  5
10B
330
F1
100
AcDbEntity
  8
AM_6
100
AcDbText
 10
7.592973863457749
 20
-10.8390625
 30
0.0
 40
0.5
  1
0.687500
100
AcDbAttributeDefinition
  3

  2
H1
 70
     8
280
     0
  0
ATTDEF
  5
10C
330
F1
100
AcDbEntity
  8
AM_6
100
AcDbText
 10
7.592973863457749
 20
-11.3390625
 30
0.0
 40
0.5
  1
3-7/16
100
AcDbAttributeDefinition
  3

  2
J
 70
     8
280
     0
  0
ATTDEF
  5
10D
330
F1
100
AcDbEntity
  8
AM_6
100
AcDbText
 10
7.592973863457749
 20
-11.8390625
 30
0.0
 40
0.5
  1
3.437500
100
AcDbAttributeDefinition
  3

  2
J1
 70
     8
280
     0
  0
ATTDEF
  5
10E
330
F1
100
AcDbEntity
  8
AM_6
100
AcDbText
 10
7.592973863457749
 20
-12.3390625
 30
0.0
 40
0.5
  1
5.186
100
AcDbAttributeDefinition
  3

  2
K
 70
     8
280
     0
  0
ATTDEF
  5
10F
330
F1
100
AcDbEntity
  8
AM_6
100
AcDbText
 10
7.592973863457749
 20
-12.8390625
 30
0.0
 40
0.5
  1
4-1/16
100
AcDbAttributeDefinition
  3

  2
L
 70
     8
280
     0
  0
ATTDEF
  5
110
330
F1
100
AcDbEntity
  8
AM_6
100
AcDbText
 10
7.592973863457749
 20
-13.3390625
 30
0.0
 40
0.5
  1
4.062500
100
AcDbAttributeDefinition
  3

  2
L1
 70
     8
280
     0
  0
ATTDEF
  5
111
330
F1
100
AcDbEntity
  8
AM_6
100
AcDbText
 10
7.592973863457749
 20
-13.8390625
 30
0.0
 40
0.5
  1
3-3/8
100
AcDbAttributeDefinition
  3

  2
M
 70
     8
280
     0
  0
ATTDEF
  5
112
330
F1
100
AcDbEntity
  8
AM_6
100
AcDbText
 10
7.592973863457749
 20
-14.3390625
 30
0.0
 40
0.5
  1
3.375000
100
AcDbAttributeDefinition
  3

  2
M1
 70
     8
280
     0
  0
ATTDEF
  5
113
330
F1
100
AcDbEntity
  8
AM_6
100
AcDbText
 10
7.592973863457749
 20
-14.8390625
 30
0.0
 40
0.5
  1
1-5/16
100
AcDbAttributeDefinition
  3

  2
R
 70
     8
280
     0
  0
ATTDEF
  5
114
330
F1
100
AcDbEntity
  8
AM_6
100
AcDbText
 10
7.592973863457749
 20
-15.3390625
 30
0.0
 40
0.5
  1
1.312500
100
AcDbAttributeDefinition
  3

  2
R1
 70
     8
280
     0
  0
ATTDEF
  5
115
330
F1
100
AcDbEntity
  8
AM_6
100
AcDbText
 10
7.592973863457749
 20
-15.8390625
 30
0.0
 40
0.5
  1
2
100
AcDbAttributeDefinition
  3

  2
S
 70
     8
280
     0
  0
ATTDEF
  5
116
330
F1
100
AcDbEntity
  8
AM_6
100
AcDbText
 10
7.592973863457749
 20
-16.3390625
 30
0.0
 40
0.5
  1
2.000000
100
AcDbAttributeDefinition
  3

  2
S1
 70
     8
280
     0
  0
ATTDEF
  5
117
330
F1
100
AcDbEntity
  8
AM_6
100
AcDbText
 10
7.592973863457749
 20
-16.8390625
 30
0.0
 40
0.5
  1
2.9400
100
AcDbAttributeDefinition
  3

  2
CC
 70
     8
280
     0
  0
ATTDEF
  5
118
330
F1
100
AcDbEntity
  8
AM_6
100
AcDbText
 10
7.592973863457749
 20
-17.3390625
 30
0.0
 40
0.5
  1
baldor
100
AcDbAttributeDefinition
  3

  2
COMPANY
 70
     8
280
     0
  0
LINE
  5
119
330
F1
100
AcDbEntity
  8
AM_9
100
AcDbLine
 10
1.332168993559423
 20
-2.978125
 30
0.0
 11
1.132761256863819
 21
-2.978125
 31
0.0
  0
LINE
  5
11A
330
F1
100
AcDbEntity
  8
AM_9
100
AcDbLine
 10
1.132844904896332
 20
-3.428125
 30
0.0
 11
1.332253379499204
 21
-3.428125
 31
0.0
  0
LWPOLYLINE
  5
11B
330
F1
100
AcDbEntity
  8
AM_9
100
AcDbPolyline
 90
       21
 70
     0
 43
0.0
 10
1.132892122654564
 20
-2.978125000679295
 10
1.122395708297066
 20
-2.979442360779949
 10
1.10601268519693
 20
-2.986397088482468
 10
1.089022355001168
 20
-2.999580395160047
 10
1.072896875974256
 20
-3.017997999671189
 10
1.057480304843951
 20
-3.042103070897026
 10
1.044091650622955
 20
-3.070349961007438
 10
1.032840674700479
 20
-3.103259773403446
 10
1.024900217820547
 20
-3.138135919822127
 10
1.020257938587261
 20
-3.175978847838416
 10
1.019419497232256
 20
-3.213006038044095
 10
1.022291681185682
 20
-3.250827135809954
 10
1.028501914322624
 20
-3.28598424641866
 10
1.038076227980645
 20
-3.319785256317163
 10
1.050165639038711
 20
-3.349782037439254
 10
1.064774570185223
 20
-3.376464599022528
 10
1.080656509266491
 20
-3.397882032556565
 10
1.09786358898295
 20
-3.41428845103606
 10
1.114658326029185
 20
-3.424238411994533
 10
1.131490321844335
 20
-3.428100942616513
 10
1.132877716120133
 20
-3.428124999387276
  0
LWPOLYLINE
  5
11C
330
F1
100
AcDbEntity
  8
AM_9
100
AcDbPolyline
 90
       11
 70
     0
 43
0.0
 10
1.132877716120133
 20
-3.428124999387276
 10
1.146651110874479
 20
-3.425611241665948
 10
1.160862546643763
 20
-3.416806718435207
 10
1.173031644072066
 20
-3.402462467635503
 10
1.183715084864148
 20
-3.382183922311385
 10
1.192370525201936
 20
-3.357275655414173
 10
1.19935359726081
 20
-3.327257986297536
 10
1.204368826019326
 20
-3.294330806526731
 10
1.207725265149935
 20
-3.257734677645345
 10
1.209028414402815
 20
-3.230855297312057
 10
1.209469994719038
 20
-3.203125
  0
LWPOLYLINE
  5
11D
330
F1
100
AcDbEntity
  8
AM_9
100
AcDbPolyline
 90
       21
 70
     0
 43
0.0
 10
1.332280425764191
 20
-2.978125000792101
 10
1.321605828371182
 20
-2.979494938334052
 10
1.305078596792861
 20
-2.986735322076849
 10
1.288558164235157
 20
-2.999926614334786
 10
1.272577373930992
 20
-3.018851501083844
 10
1.25781838937982
 20
-3.042863310085881
 10
1.244791593031224
 20
-3.071680528869705
 10
1.234210854063266
 20
-3.104225723227607
 10
1.226616217622361
 20
-3.139669480671373
 10
1.222344564175669
 20
-3.176943265077936
 10
1.22166578988732
 20
-3.214602170258956
 10
1.22449212821945
 20
-3.251934708218235
 10
1.230697492346811
 20
-3.287679113837281
 10
1.239928389716477
 20
-3.321068794387064
 10
1.251896129944307
 20
-3.351374878747083
 10
1.265961408819512
 20
-3.377546150606233
 10
1.281685726000943
 20
-3.398964684746084
 10
1.29829552076199
 20
-3.414842527642626
 10
1.315088461679002
 20
-3.424605324572955
 10
1.331546205208389
 20
-3.428118454045467
 10
1.332267990408999
 20
-3.428124999752896
  0
LWPOLYLINE
  5
11E
330
F1
100
AcDbEntity
  8
AM_9
100
AcDbPolyline
 90
       11
 70
     0
 43
0.0
 10
1.332267990408999
 20
-3.428124999752896
 10
1.346977340101736
 20
-3.425245300500551
 10
1.36117338008377
 20
-3.41623003936377
 10
1.373795975309698
 20
-3.401269763277078
 10
1.38469657625631
 20
-3.380866624851176
 10
1.393825340640424
 20
-3.355246103718792
 10
1.401060414455072
 20
-3.325355751056134
 10
1.40641500686514
 20
-3.291773009570275
 10
1.409896715120298
 20
-3.255640091462117
 10
1.411221226791845
 20
-3.229569106773435
 10
1.411663000291464
 20
-3.203125
  0
LWPOLYLINE
  5
11F
330
F1
100
AcDbEntity
  8
AM_9
100
AcDbPolyline
 90
       11
 70
     0
 43
0.0
 10
1.209469994719038
 20
-3.203125
 10
1.208684441214806
 20
-3.166230162811735
 10
1.206215844094774
 20
-3.12933532562347
 10
1.202154741950511
 20
-3.09555242830955
 10
1.196194872175191
 20
-3.063875215315746
 10
1.188509390615108
 20
-3.036626442767039
 10
1.178663619478292
 20
-3.013358609134572
 10
1.167140379773901
 20
-2.995901310930644
 10
1.153435462522834
 20
-2.983945372185131
 10
1.138736954598386
 20
-2.978561979416535
 10
1.132892122654564
 20
-2.978125000679295
  0
LINE
  5
120
330
F1
100
AcDbEntity
  8
AM_9
100
AcDbLine
 10
1.25
 20
-3.5625
 30
0.0
 11
1.25
 21
-0.1875000000000001
 31
0.0
  0
LINE
  5
121
330
F1
100
AcDbEntity
  8
AM_9
100
AcDbLine
 10
-1.25
 20
-0.1875000000000001
 30
0.0
 11
-1.25
 21
-3.5625
 31
0.0
  0
LWPOLYLINE
  5
122
330
F1
100
AcDbEntity
  8
AM_9
100
AcDbPolyline
 90
       18
 70
     0
 43
0.0
 10
-0.1156086076809072
 20
-3.396152588261582
 10
-0.1179542311678519
 20
-3.394728234183562
 10
-0.147873196215854
 20
-3.372708365460494
 10
-0.1744278889276371
 20
-3.345251392919288
 10
-0.1955919971630473
 20
-3.314339974916917
 10
-0.2117191895477779
 20
-3.279282631116206
 10
-0.2214066300159253
 20
-3.243176269455426
 10
-0.2249935490101203
 20
-3.204828791017291
 10
-0.2222266862393065
 20
-3.167907107912358
 10
-0.2131050849158293
 20
-3.130936200432358
 10
-0.1984160181549894
 20
-3.097030307675083
 10
-0.1777514661843433
 20
-3.065177849723829
 10
-0.1525398885258077
 20
-3.037726746053551
 10
-0.1222377334817212
 20
-3.014225723894315
 10
-0.0891746170739706
 20
-2.996550830100395
 10
-0.0525234671224038
 20
-2.984341350241976
 10
-0.0266362248220265
 20
-2.979707204094592
 10
0.0
 20
-2.978125
  0
LWPOLYLINE
  5
123
330
F1
100
AcDbEntity
  8
AM_9
100
AcDbPolyline
 90
        8
 70
     0
 43
0.0
 10
0.1151719607774024
 20
-3.396413435894878
 10
0.09890459094039
 20
-3.405221219387979
 10
0.0640049089764826
 20
-3.418829361631637
 10
0.0261936521548437
 20
-3.426595115645898
 10
-0.0109231018240024
 20
-3.427859701028885
 10
-0.0488019647604784
 20
-3.422768730244041
 10
-0.0840743484074916
 20
-3.411826950014502
 10
-0.1156086076809072
 20
-3.396152588261582
  0
LWPOLYLINE
  5
124
330
F1
100
AcDbEntity
  8
AM_9
100
AcDbPolyline
 90
       17
 70
     0
 43
0.0
 10
0.0
 20
-2.978125
 10
0.0369932419598543
 20
-2.981186945468337
 10
0.0739864839197085
 20
-2.990637352836221
 10
0.1078640126507492
 20
-3.005665245176697
 10
0.1396246950447094
 20
-3.026688199604867
 10
0.1668400678378655
 20
-3.052163442761555
 10
0.1900561943692817
 20
-3.082693928503207
 10
0.2074150543678841
 20
-3.115924109972617
 10
0.2192747127036526
 20
-3.152690880906567
 10
0.2245913371685608
 20
-3.189570249215207
 10
0.2236288271679632
 20
-3.22792717045908
 10
0.2165555500072639
 20
-3.264188031050312
 10
0.2032018166572187
 20
-3.299737740915503
 10
0.1845995418964546
 20
-3.331764065340273
 10
0.1602723111601946
 20
-3.361042023386872
 10
0.1319071735871669
 20
-3.385403626164027
 10
0.1151719607774024
 20
-3.396413435894878
  0
LWPOLYLINE
  5
125
330
F1
100
AcDbEntity
  8
AM_9
100
AcDbPolyline
 90
       11
 70
     0
 43
0.0
 10
1.411663000291464
 20
-3.203125
 10
1.410766794067182
 20
-3.165602930393002
 10
1.408082134342357
 20
-3.129144544348153
 10
1.403568592389931
 20
-3.094815324805055
 10
1.397209554970385
 20
-3.063511895014007
 10
1.388892354298864
 20
-3.035948769908365
 10
1.378692267460942
 20
-3.013072421236693
 10
1.366584227800011
 20
-2.995519458579425
 10
1.352805383577443
 20
-2.983851990123347
 10
1.337712930802429
 20
-2.978524992847263
 10
1.332280425764191
 20
-2.978125000792101
  0
LINE
  5
126
330
F1
100
AcDbEntity
  8
AM_9
100
AcDbLine
 10
1.47
 20
-2.9375
 30
0.0
 11
1.47
 21
-2.84375
 31
0.0
  0
LINE
  5
127
330
F1
100
AcDbEntity
  8
AM_9
100
AcDbLine
 10
1.47
 20
-3.5625
 30
0.0
 11
1.47
 21
-2.942499999999999
 31
0.0
  0
LINE
  5
128
330
F1
100
AcDbEntity
  8
AM_9
100
AcDbLine
 10
-1.47
 20
-2.942499999999999
 30
0.0
 11
-1.47
 21
-3.5625
 31
0.0
  0
LINE
  5
129
330
F1
100
AcDbEntity
  8
AM_9
100
AcDbLine
 10
-1.47
 20
-2.84375
 30
0.0
 11
-1.47
 21
-2.9375
 31
0.0
  0
LINE
  5
12A
330
F1
100
AcDbEntity
  8
AM_9
100
AcDbLine
 10
-1.692708333333333
 20
-0.1875000000000001
 30
0.0
 11
-1.692708333333333
 21
-0.59375
 31
0.0
  0
LINE
  5
12B
330
F1
100
AcDbEntity
  8
AM_9
100
AcDbLine
 10
1.692708333333333
 20
-0.59375
 30
0.0
 11
1.692708333333333
 21
-0.1875000000000001
 31
0.0
  0
LINE
  5
12C
330
F1
100
AcDbEntity
  8
AM_9
100
AcDbLine
 10
-2.083333333333333
 20
-2.84375
 30
0.0
 11
2.083333333333333
 21
-2.84375
 31
0.0
  0
LINE
  5
12D
330
F1
100
AcDbEntity
  8
AM_9
100
AcDbLine
 10
-2.083333333333333
 20
-2.84375
 30
0.0
 11
-2.099863987774752
 21
-2.9375
 31
0.0
  0
LINE
  5
12E
330
F1
100
AcDbEntity
  8
AM_9
100
AcDbLine
 10
2.099863987774752
 20
-2.9375
 30
0.0
 11
2.083333333333333
 21
-2.84375
 31
0.0
  0
LINE
  5
12F
330
F1
100
AcDbEntity
  8
AM_9
100
AcDbLine
 10
2.083333333333333
 20
-0.59375
 30
0.0
 11
2.154966169246147
 21
-0.1875000000000001
 31
0.0
  0
LINE
  5
130
330
F1
100
AcDbEntity
  8
AM_9
100
AcDbLine
 10
-2.154966169246147
 20
-0.1875000000000001
 30
0.0
 11
-2.083333333333333
 21
-0.59375
 31
0.0
  0
LINE
  5
131
330
F1
100
AcDbEntity
  8
AM_9
100
AcDbLine
 10
2.083333333333333
 20
-0.59375
 30
0.0
 11
-2.083333333333333
 21
-0.59375
 31
0.0
  0
LINE
  5
132
330
F1
100
AcDbEntity
  8
AM_9
100
AcDbLine
 10
2.406
 20
-2.88125
 30
0.0
 11
2.406
 21
-2.28125
 31
0.0
  0
LINE
  5
133
330
F1
100
AcDbEntity
  8
AM_9
100
AcDbLine
 10
-2.406
 20
-2.28125
 30
0.0
 11
-2.406
 21
-2.88125
 31
0.0
  0
LINE
  5
134
330
F1
100
AcDbEntity
  8
AM_9
100
AcDbLine
 10
-2.406
 20
-2.88125
 30
0.0
 11
2.406
 21
-2.88125
 31
0.0
  0
ARC
  5
135
330
F1
100
AcDbEntity
  8
AM_9
100
AcDbCircle
 10
2.349750000000001
 20
-2.881250000000001
 30
0.0
 40
0.0562499999999989
100
AcDbArc
 50
313.7617426926808
 51
0.0
  0
ARC
  5
136
330
F1
100
AcDbEntity
  8
AM_9
100
AcDbCircle
 10
-2.349750000000001
 20
-2.881250000000001
 30
0.0
 40
0.056249999999999
100
AcDbArc
 50
180.0
 51
226.2382573073193
  0
LINE
  5
137
330
F1
100
AcDbEntity
  8
AM_9
100
AcDbLine
 10
-2.37875
 20
-0.1875000000000001
 30
0.0
 11
2.378749999994347
 21
-0.1875000000000001
 31
0.0
  0
ARC
  5
138
330
F1
100
AcDbEntity
  8
AM_9
100
AcDbCircle
 10
2.378750000000001
 20
-0.2437499999999991
 30
0.0
 40
0.056249999999999
100
AcDbArc
 50
0.0
 51
90.0
  0
ARC
  5
139
330
F1
100
AcDbEntity
  8
AM_9
100
AcDbCircle
 10
-2.378750000000001
 20
-0.2437499999999991
 30
0.0
 40
0.056249999999999
100
AcDbArc
 50
90.0
 51
180.0
  0
LINE
  5
13A
330
F1
100
AcDbEntity
  8
AM_9
100
AcDbLine
 10
-2.435
 20
-0.8437500000000001
 30
0.0
 11
2.435
 21
-0.8437500000000001
 31
0.0
  0
LINE
  5
13B
330
F1
100
AcDbEntity
  8
AM_9
100
AcDbLine
 10
-2.435
 20
-0.2437499999999996
 30
0.0
 11
2.435
 21
-0.2437499999999996
 31
0.0
  0
LINE
  5
13C
330
F1
100
AcDbEntity
  8
AM_9
100
AcDbLine
 10
2.435
 20
-0.8437500000000001
 30
0.0
 11
2.435
 21
-0.2437499999999996
 31
0.0
  0
LINE
  5
13D
330
F1
100
AcDbEntity
  8
AM_9
100
AcDbLine
 10
-2.435
 20
-0.2437499999999996
 30
0.0
 11
-2.435
 21
-0.8437500000000001
 31
0.0
  0
LINE
  5
13E
330
F1
100
AcDbEntity
  8
AM_9
100
AcDbLine
 10
-2.560978316483761
 20
-2.28125
 30
0.0
 11
2.560978316483761
 21
-2.28125
 31
0.0
  0
ARC
  5
13F
330
F1
100
AcDbEntity
  8
AM_9
100
AcDbCircle
 10
-0.0000000000000808
 20
-1.87500000000001
 30
0.0
 40
2.593000000000079
100
AcDbArc
 50
350.9862314363045
 51
23.4348076441359
  0
ARC
  5
140
330
F1
100
AcDbEntity
  8
AM_9
100
AcDbCircle
 10
-0.0000000000000138
 20
-1.874999999999998
 30
0.0
 40
2.592999999999987
100
AcDbArc
 50
156.5651923558636
 51
189.0137685636961
  0
LWPOLYLINE
  5
141
330
F1
100
AcDbEntity
  8
AM_9
100
AcDbPolyline
 90
       75
 70
     0
 43
0.0
 10
-0.330057076116598
 20
-1.235199896363742
 10
-0.3027502547406856
 20
-1.209083744873389
 10
-0.2731554003943715
 20
-1.185134850145607
 10
-0.2409514641943409
 20
-1.163276642159252
 10
-0.2067308081701516
 20
-1.144089385977163
 10
-0.1722480089380055
 20
-1.128406527923875
 10
-0.1359141229584081
 20
-1.115419307185899
 10
-0.0986027199783831
 20
-1.105526634438126
 10
-0.0598728256217073
 20
-1.098718029524545
 10
-0.0223088777264512
 20
-1.095331797819462
 10
0.0160873302587873
 20
-1.095073733907175
 10
0.05436881782376
 20
-1.098026265390377
 10
0.0929498277962752
 20
-1.104317953026617
 10
0.1294348239442867
 20
-1.113455495244284
 10
0.1656575125648091
 20
-1.125794438677105
 10
0.2007102972797825
 20
-1.141100109117351
 10
0.2349379903579111
 20
-1.159621456234328
 10
0.2664529003162136
 20
-1.180250562165307
 10
0.296654109735324
 20
-1.203814744427257
 10
0.3247678052579939
 20
-1.229796252054583
 10
0.3510372054932007
 20
-1.25853916995245
 10
0.3741458398783571
 20
-1.288518754012999
 10
0.3950269338463613
 20
-1.320858429190255
 10
0.4131172462990693
 20
-1.354813120281106
 10
0.4285322169854173
 20
-1.390790170434281
 10
0.4405333564672128
 20
-1.4269338622302
 10
0.4496202562292863
 20
-1.464599005107621
 10
0.4555004519117336
 20
-1.502887213378855
 10
0.4581433842729019
 20
-1.542227763098944
 10
0.457468878276978
 20
-1.580480821422052
 10
0.4535073848882678
 20
-1.619225923830189
 10
0.4462768827218316
 20
-1.657504679893417
 10
0.4355975351047411
 20
-1.695717934414083
 10
0.4221924480929193
 20
-1.731597388118463
 10
0.4057067201763085
 20
-1.766487091232251
 10
0.3858771447812659
 20
-1.800600568049221
 10
0.3629930298256204
 20
-1.833135972724639
 10
0.3384425618989914
 20
-1.862399200439393
 10
0.3110110982861987
 20
-1.890003399615833
 10
0.2813204936573653
 20
-1.915201420404659
 10
0.2489690787808112
 20
-1.938192189920505
 10
0.2162443529834664
 20
-1.957500703025142
 10
0.1813789887013978
 20
-1.974310585282598
 10
0.1452040323386813
 20
-1.9881290444822
 10
0.107278834803674
 20
-1.999012336329973
 10
0.0702087282310199
 20
-2.006338941140517
 10
0.0319733837366304
 20
-2.010631074123602
 10
-0.0064905500270436
 20
-2.011705244678306
 10
-0.0456107851826138
 20
-2.009474862517889
 10
-0.0828954290054183
 20
-2.004188375206927
 10
-0.1202603556940629
 20
-1.995680671735468
 10
-0.1567735947786774
 20
-1.984089660536937
 10
-0.1928057450888542
 20
-1.969200814735626
 10
-0.2262864157347934
 20
-1.951961152076226
 10
-0.2587705236244062
 20
-1.93166336233995
 10
-0.289431556965446
 20
-1.90874272699918
 10
-0.318547683656478
 20
-1.882880678754914
 10
-0.3446024760377354
 20
-1.855511003671671
 10
-0.3686938928969133
 20
-1.825570245580973
 10
-0.3901850332233312
 20
-1.793740834459864
 10
-0.4092335362542175
 20
-1.759630825125247
 10
-0.424908348273063
 20
-1.72501959804317
 10
-0.4378547969817663
 20
-1.688604439371926
 10
-0.4476914684071477
 20
-1.651244958532725
 10
-0.454434898996684
 20
-1.61251435652904
 10
-0.457786634223977
 20
-1.574466334682491
 10
-0.4579327219329219
 20
-1.535595174257065
 10
-0.4547926949274795
 20
-1.496850026546679
 10
-0.4482333929973865
 20
-1.457816358240507
 10
-0.4387050211282367
 20
-1.420719041143862
 10
-0.4260113869553966
 20
-1.384285546244715
 10
-0.4099158610167241
 20
-1.348276553754786
 10
-0.3906213617485916
 20
-1.313515924446777
 10
-0.3626491358169055
 20
-1.272963854906668
 10
-0.3300570761165981
 20
-1.235199896363742
  0
CIRCLE
  5
142
330
F1
100
AcDbEntity
  8
AM_9
100
AcDbCircle
 10
0.0
 20
-1.5625
 30
0.0
 40
0.3053163691541441
  0
CIRCLE
  5
143
330
F1
100
AcDbEntity
  8
AM_9
100
AcDbCircle
 10
0.0
 20
-1.5625
 30
0.0
 40
0.3497623444809257
  0
LINE
  5
144
330
F1
100
AcDbEntity
  8
AM_7
100
AcDbLine
 10
-0.367250461704972
 20
-1.5625
 30
0.0
 11
0.367250461704972
 21
-1.5625
 31
0.0
  0
LINE
  5
145
330
F1
100
AcDbEntity
  8
AM_7
100
AcDbLine
 10
0.0
 20
-3.73125
 30
0.0
 11
0.0
 21
0.1609374999999999
 31
0.0
  0
LINE
  5
146
330
F1
100
AcDbEntity
  8
AM_4
100
AcDbLine
 10
1.47
 20
-2.942499999999999
 30
0.0
 11
1.47
 21
-2.9375
 31
0.0
  0
LINE
  5
147
330
F1
100
AcDbEntity
  8
AM_4
100
AcDbLine
 10
-1.47
 20
-2.9375
 30
0.0
 11
-1.47
 21
-2.942499999999999
 31
0.0
  0
LINE
  5
148
330
F1
100
AcDbEntity
  8
AM_4
100
AcDbLine
 10
-2.349750000000001
 20
-2.9375
 30
0.0
 11
2.349749999998711
 21
-2.9375
 31
0.0
  0
ARC
  5
149
330
F1
100
AcDbEntity
  8
AM_4
100
AcDbCircle
 10
2.349750000000001
 20
-2.88125
 30
0.0
 40
0.0562500000000004
100
AcDbArc
 50
270.0
 51
313.7617426926795
  0
ARC
  5
14A
330
F1
100
AcDbEntity
  8
AM_4
100
AcDbCircle
 10
-2.349750000000001
 20
-2.88125
 30
0.0
 40
0.0562500000000002
100
AcDbArc
 50
226.2382573073205
 51
270.0
  0
ENDBLK
  5
F4
330
F1
100
AcDbEntity
  8
0
100
AcDbBlockEnd
  0
BLOCK
  5
14D
330
14B
100
AcDbEntity
  8
0
100
AcDbBlockBegin
  2
5_F4B_K_208R_0_in_023224_4
 70
     2
 10
0.0
 20
0.0
 30
0.0
  3
5_F4B_K_208R_0_in_023224_4
  1

  0
ATTDEF
  5
14F
330
14B
100
AcDbEntity
  8
AM_6
100
AcDbText
 10
9.28125
 20
0.0312499999999998
 30
0.0
 40
0.5
  1
Flange Bearing -Body -  Non-Expansion - Inch
100
AcDbAttributeDefinition
  3

  2
NN
 70
     8
280
     0
  0
ATTDEF
  5
150
330
14B
100
AcDbEntity
  8
AM_6
100
AcDbText
 10
9.28125
 20
-0.4687500000000002
 30
0.0
 40
0.5
  1
Type K
100
AcDbAttributeDefinition
  3

  2
NT
 70
     8
280
     0
  0
ATTDEF
  5
151
330
14B
100
AcDbEntity
  8
AM_6
100
AcDbText
 10
9.28125
 20
-0.9687500000000002
 30
0.0
 40
0.5
  1
F4B-K-208R
100
AcDbAttributeDefinition
  3

  2
NB
 70
     8
280
     0
  0
ATTDEF
  5
152
330
14B
100
AcDbEntity
  8
AM_6
100
AcDbText
 10
9.28125
 20
-1.46875
 30
0.0
 40
0.5
  1
$PN.
100
AcDbAttributeDefinition
  3

  2
NBSYN
 70
     8
280
     0
  0
ATTDEF
  5
153
330
14B
100
AcDbEntity
  8
AM_6
100
AcDbText
 10
9.28125
 20
-1.96875
 30
0.0
 40
0.5
  1
F4B-K-208R
100
AcDbAttributeDefinition
  3

  2
LINA
 70
     8
280
     0
  0
ATTDEF
  5
154
330
14B
100
AcDbEntity
  8
AM_6
100
AcDbText
 10
9.28125
 20
-2.46875
 30
0.0
 40
0.5
  1
2-1/2
100
AcDbAttributeDefinition
  3

  2
SS
 70
     8
280
     0
  0
ATTDEF
  5
155
330
14B
100
AcDbEntity
  8
AM_6
100
AcDbText
 10
9.28125
 20
-2.96875
 30
0.0
 40
0.5
  1
2.500000
100
AcDbAttributeDefinition
  3

  2
SS1
 70
     8
280
     0
  0
ATTDEF
  5
156
330
14B
100
AcDbEntity
  8
AM_6
100
AcDbText
 10
9.28125
 20
-3.46875
 30
0.0
 40
0.5
  1
F4B-K-208R
100
AcDbAttributeDefinition
  3

  2
PN
 70
     8
280
     0
  0
ATTDEF
  5
157
330
14B
100
AcDbEntity
  8
AM_6
100
AcDbText
 10
9.28125
 20
-3.96875
 30
0.0
 40
0.5
  1
F4B-K-208R
100
AcDbAttributeDefinition
  3

  2
PNA
 70
     8
280
     0
  0
ATTDEF
  5
158
330
14B
100
AcDbEntity
  8
AM_6
100
AcDbText
 10
9.28125
 20
-4.46875
 30
0.0
 40
0.5
  1
20
100
AcDbAttributeDefinition
  3

  2
WEIGHT
 70
     8
280
     0
  0
ATTDEF
  5
159
330
14B
100
AcDbEntity
  8
AM_6
100
AcDbText
 10
9.28125
 20
-4.96875
 30
0.0
 40
0.5
  1
4.812000
100
AcDbAttributeDefinition
  3

  2
BOD
 70
     8
280
     0
  0
ATTDEF
  5
15A
330
14B
100
AcDbEntity
  8
AM_6
100
AcDbText
 10
9.28125
 20
-5.46875
 30
0.0
 40
0.5
  1
3-9/16
100
AcDbAttributeDefinition
  3

  2
A
 70
     8
280
     0
  0
ATTDEF
  5
15B
330
14B
100
AcDbEntity
  8
AM_6
100
AcDbText
 10
9.28125
 20
-5.96875
 30
0.0
 40
0.5
  1
3.562500
100
AcDbAttributeDefinition
  3

  2
A1
 70
     8
280
     0
  0
ATTDEF
  5
15C
330
14B
100
AcDbEntity
  8
AM_6
100
AcDbText
 10
9.28125
 20
-6.46875
 30
0.0
 40
0.5
  1
7-5/8
100
AcDbAttributeDefinition
  3

  2
B
 70
     8
280
     0
  0
ATTDEF
  5
15D
330
14B
100
AcDbEntity
  8
AM_6
100
AcDbText
 10
9.28125
 20
-6.96875
 30
0.0
 40
0.5
  1
7.625000
100
AcDbAttributeDefinition
  3

  2
B1
 70
     8
280
     0
  0
ATTDEF
  5
15E
330
14B
100
AcDbEntity
  8
AM_6
100
AcDbText
 10
9.28125
 20
-7.46875
 30
0.0
 40
0.5
  1
2-59/64
100
AcDbAttributeDefinition
  3

  2
C
 70
     8
280
     0
  0
ATTDEF
  5
15F
330
14B
100
AcDbEntity
  8
AM_6
100
AcDbText
 10
9.28125
 20
-7.96875
 30
0.0
 40
0.5
  1
2.921875
100
AcDbAttributeDefinition
  3

  2
C1
 70
     8
280
     0
  0
ATTDEF
  5
160
330
14B
100
AcDbEntity
  8
AM_6
100
AcDbText
 10
9.28125
 20
-8.46875
 30
0.0
 40
0.5
  1
6
100
AcDbAttributeDefinition
  3

  2
D
 70
     8
280
     0
  0
ATTDEF
  5
161
330
14B
100
AcDbEntity
  8
AM_6
100
AcDbText
 10
9.28125
 20
-8.96875
 30
0.0
 40
0.5
  1
6.000000
100
AcDbAttributeDefinition
  3

  2
D1
 70
     8
280
     0
  0
ATTDEF
  5
162
330
14B
100
AcDbEntity
  8
AM_6
100
AcDbText
 10
9.28125
 20
-9.46875
 30
0.0
 40
0.5
  1
1/4
100
AcDbAttributeDefinition
  3

  2
E
 70
     8
280
     0
  0
ATTDEF
  5
163
330
14B
100
AcDbEntity
  8
AM_6
100
AcDbText
 10
9.28125
 20
-9.96875
 30
0.0
 40
0.5
  1
0.250000
100
AcDbAttributeDefinition
  3

  2
E1
 70
     8
280
     0
  0
ATTDEF
  5
164
330
14B
100
AcDbEntity
  8
AM_6
100
AcDbText
 10
9.28125
 20
-10.46875
 30
0.0
 40
0.5
  1
5/8
100
AcDbAttributeDefinition
  3

  2
F
 70
     8
280
     0
  0
ATTDEF
  5
165
330
14B
100
AcDbEntity
  8
AM_6
100
AcDbText
 10
9.28125
 20
-10.96875
 30
0.0
 40
0.5
  1
0.625000
100
AcDbAttributeDefinition
  3

  2
F1
 70
     8
280
     0
  0
ATTDEF
  5
166
330
14B
100
AcDbEntity
  8
AM_6
100
AcDbText
 10
9.28125
 20
-11.46875
 30
0.0
 40
0.5
  1
8-9/16
100
AcDbAttributeDefinition
  3

  2
G
 70
     8
280
     0
  0
ATTDEF
  5
167
330
14B
100
AcDbEntity
  8
AM_6
100
AcDbText
 10
9.28125
 20
-11.96875
 30
0.0
 40
0.5
  1
8.562500
100
AcDbAttributeDefinition
  3

  2
G1
 70
     8
280
     0
  0
ATTDEF
  5
168
330
14B
100
AcDbEntity
  8
AM_6
100
AcDbText
 10
9.28125
 20
-12.46875
 30
0.0
 40
0.5
  1
5/8
100
AcDbAttributeDefinition
  3

  2
H
 70
     8
280
     0
  0
ATTDEF
  5
169
330
14B
100
AcDbEntity
  8
AM_6
100
AcDbText
 10
9.28125
 20
-12.96875
 30
0.0
 40
0.5
  1
0.625000
100
AcDbAttributeDefinition
  3

  2
H1
 70
     8
280
     0
  0
ATTDEF
  5
16A
330
14B
100
AcDbEntity
  8
AM_6
100
AcDbText
 10
9.28125
 20
-13.46875
 30
0.0
 40
0.5
  1
6
100
AcDbAttributeDefinition
  3

  2
J
 70
     8
280
     0
  0
ATTDEF
  5
16B
330
14B
100
AcDbEntity
  8
AM_6
100
AcDbText
 10
9.28125
 20
-13.96875
 30
0.0
 40
0.5
  1
6.000000
100
AcDbAttributeDefinition
  3

  2
J1
 70
     8
280
     0
  0
ATTDEF
  5
16C
330
14B
100
AcDbEntity
  8
AM_6
100
AcDbText
 10
9.28125
 20
-14.46875
 30
0.0
 40
0.5
  1
4-1/16
100
AcDbAttributeDefinition
  3

  2
L
 70
     8
280
     0
  0
ATTDEF
  5
16D
330
14B
100
AcDbEntity
  8
AM_6
100
AcDbText
 10
9.28125
 20
-14.96875
 30
0.0
 40
0.5
  1
4.062500
100
AcDbAttributeDefinition
  3

  2
L1
 70
     8
280
     0
  0
ATTDEF
  5
16E
330
14B
100
AcDbEntity
  8
AM_6
100
AcDbText
 10
9.28125
 20
-15.46875
 30
0.0
 40
0.5
  1
5/16
100
AcDbAttributeDefinition
  3

  2
EXP
 70
     8
280
     0
  0
ATTDEF
  5
16F
330
14B
100
AcDbEntity
  8
AM_6
100
AcDbText
 10
9.28125
 20
-15.96875
 30
0.0
 40
0.5
  1
0.312500
100
AcDbAttributeDefinition
  3

  2
EXP1
 70
     8
280
     0
  0
ATTDEF
  5
170
330
14B
100
AcDbEntity
  8
AM_6
100
AcDbText
 10
9.28125
 20
-16.46875
 30
0.0
 40
0.5
  1
f4b_flange_ne_i_templ.prj
100
AcDbAttributeDefinition
  3

  2
PPATH
 70
     8
280
     0
  0
ATTDEF
  5
171
330
14B
100
AcDbEntity
  8
AM_6
100
AcDbText
 10
9.28125
 20
-16.96875
 30
0.0
 40
0.5
  1
baldor
100
AcDbAttributeDefinition
  3

  2
COMPANY
 70
     8
280
     0
  0
LWPOLYLINE
  5
172
330
14B
100
AcDbEntity
  8
AM_9
100
AcDbPolyline
 90
       12
 70
     0
 43
0.0
 10
2.905909739866861
 20
-0.1337195592180156
 10
2.905898083396234
 20
-0.1161956516979836
 10
2.904372654705507
 20
-0.0989364433440858
 10
2.901407457204573
 20
-0.0824972932338375
 10
2.897176963197108
 20
-0.0671944128150751
 10
2.891569503351764
 20
-0.0526782245456585
 10
2.884989592476274
 20
-0.0398825173723493
 10
2.874215152867166
 20
-0.0246741890096137
 10
2.86233000055515
 20
-0.0131814647307218
 10
2.849558435931757
 20
-0.0052636597540699
 10
2.836357438556544
 20
-0.0009400618786359
 10
2.826503348010503
 20
0.0000000000000002
  0
ARC
  5
173
330
14B
100
AcDbEntity
  8
AM_9
100
AcDbCircle
 10
3.02384864808902
 20
-0.1249999999999999
 30
0.0
 40
0.1249999999999997
100
AcDbArc
 50
355.9999999999999
 51
90.0
  0
LWPOLYLINE
  5
174
330
14B
100
AcDbEntity
  8
AM_9
100
AcDbPolyline
 90
       11
 70
     0
 43
0.0
 10
-2.826503348010503
 20
0.0000000000000002
 10
-2.840976518967312
 20
-0.0020400774036065
 10
-2.855449689924122
 20
-0.0084160177391616
 10
-2.868163059325795
 20
-0.0182473092138303
 10
-2.880216648496596
 20
-0.0324382663169862
 10
-2.888540645074327
 20
-0.0463497403604988
 10
-2.895808343099855
 20
-0.0632124716965111
 10
-2.900529957589842
 20
-0.0788031143799352
 10
-2.90398658818548
 20
-0.0962091093593905
 10
-2.905820429563852
 20
-0.1144445487453118
 10
-2.905909739866861
 20
-0.1337195592180156
  0
ARC
  5
175
330
14B
100
AcDbEntity
  8
AM_9
100
AcDbCircle
 10
-3.02384864808902
 20
-0.1249999999999999
 30
0.0
 40
0.1250000000000001
100
AcDbArc
 50
90.0
 51
184.0
  0
LINE
  5
176
330
14B
100
AcDbEntity
  8
AM_9
100
AcDbLine
 10
2.406
 20
-2.921875
 30
0.0
 11
2.406
 21
0.0
 31
0.0
  0
LINE
  5
177
330
14B
100
AcDbEntity
  8
AM_9
100
AcDbLine
 10
-2.406
 20
0.0
 30
0.0
 11
-2.406
 21
-2.921875
 31
0.0
  0
LINE
  5
178
330
14B
100
AcDbEntity
  8
AM_9
100
AcDbLine
 10
-2.884229517709961
 20
-0.6249999999999999
 30
0.0
 11
-2.905909739866861
 21
-0.1337195592180156
 31
0.0
  0
LINE
  5
179
330
14B
100
AcDbEntity
  8
AM_9
100
AcDbLine
 10
2.905909739866861
 20
-0.1337195592180156
 30
0.0
 11
3.148544154371498
 21
-0.1337195592180157
 31
0.0
  0
LINE
  5
17A
330
14B
100
AcDbEntity
  8
AM_9
100
AcDbLine
 10
2.905909739866861
 20
-0.1337195592180156
 30
0.0
 11
2.884229517709961
 21
-0.6249999999999999
 31
0.0
  0
LINE
  5
17B
330
14B
100
AcDbEntity
  8
AM_9
100
AcDbLine
 10
3.114190479377412
 20
-0.625
 30
0.0
 11
3.148544154371498
 21
-0.1337195592180157
 31
0.0
  0
LINE
  5
17C
330
14B
100
AcDbEntity
  8
AM_9
100
AcDbLine
 10
-3.148544154371498
 20
-0.1337195592180157
 30
0.0
 11
-3.114190479377412
 21
-0.625
 31
0.0
  0
LINE
  5
17D
330
14B
100
AcDbEntity
  8
AM_9
100
AcDbLine
 10
-3.148544154371498
 20
-0.1337195592180157
 30
0.0
 11
-2.905909739866861
 21
-0.1337195592180156
 31
0.0
  0
LINE
  5
17E
330
14B
100
AcDbEntity
  8
AM_9
100
AcDbLine
 10
-2.6875
 20
-0.6249999999999999
 30
0.0
 11
-2.6875
 21
0.0000000000000002
 31
0.0
  0
LINE
  5
17F
330
14B
100
AcDbEntity
  8
AM_9
100
AcDbLine
 10
-3.3125
 20
0.0000000000000002
 30
0.0
 11
-3.3125
 21
-0.6249999999999999
 31
0.0
  0
LINE
  5
180
330
14B
100
AcDbEntity
  8
AM_9
100
AcDbLine
 10
3.3125
 20
-0.6249999999999999
 30
0.0
 11
3.3125
 21
0.0000000000000002
 31
0.0
  0
LINE
  5
181
330
14B
100
AcDbEntity
  8
AM_9
100
AcDbLine
 10
2.6875
 20
0.0000000000000002
 30
0.0
 11
2.6875
 21
-0.6249999999999999
 31
0.0
  0
LINE
  5
182
330
14B
100
AcDbEntity
  8
AM_9
100
AcDbLine
 10
0.1752343292563794
 20
-2.609375
 30
0.0
 11
-0.1752343292563792
 21
-2.609375
 31
0.0
  0
CIRCLE
  5
183
330
14B
100
AcDbEntity
  8
AM_9
100
AcDbCircle
 10
0.0
 20
-1.6171875
 30
0.0
 40
0.73046875
  0
LINE
  5
184
330
14B
100
AcDbEntity
  8
AM_9
100
AcDbLine
 10
0.175234329256379
 20
-0.6249999999999998
 30
0.0
 11
-0.1752343292563787
 21
-0.6249999999999998
 31
0.0
  0
LINE
  5
185
330
14B
100
AcDbEntity
  8
AM_9
100
AcDbLine
 10
3.703645640574856
 20
-0.6249999999999999
 30
0.0
 11
3.703645640574856
 21
0.0000000000000002
 31
0.0
  0
LINE
  5
186
330
14B
100
AcDbEntity
  8
AM_9
100
AcDbLine
 10
-3.703645640574855
 20
-0.6249999999999999
 30
0.0
 11
-3.703645640574855
 21
0.0000000000000002
 31
0.0
  0
LINE
  5
187
330
14B
100
AcDbEntity
  8
AM_7
100
AcDbLine
 10
-0.7669921875
 20
-1.6171875
 30
0.0
 11
0.7669921875
 21
-1.6171875
 31
0.0
  0
LINE
  5
188
330
14B
100
AcDbEntity
  8
AM_7
100
AcDbLine
 10
3.0
 20
0.0312499999999998
 30
0.0
 11
3.0
 21
-0.6562500000000001
 31
0.0
  0
LINE
  5
189
330
14B
100
AcDbEntity
  8
AM_7
100
AcDbLine
 10
-3.0
 20
0.0312499999999998
 30
0.0
 11
-3.0
 21
-0.6562500000000001
 31
0.0
  0
ARC
  5
18A
330
14B
100
AcDbEntity
  8
AM_4
100
AcDbCircle
 10
3.656249999999997
 20
-1.562500000000003
 30
0.0
 40
0.6250000000000031
100
AcDbArc
 50
0.0
 51
90.0
  0
LINE
  5
18B
330
14B
100
AcDbEntity
  8
AM_4
100
AcDbLine
 10
2.909047177840752
 20
-2.609375
 30
0.0
 11
3.65625
 21
-2.609375
 31
0.0
  0
LINE
  5
18C
330
14B
100
AcDbEntity
  8
AM_4
100
AcDbLine
 10
4.28125
 20
-1.984375
 30
0.0
 11
4.28125
 21
-1.5625
 31
0.0
  0
ARC
  5
18D
330
14B
100
AcDbEntity
  8
AM_4
100
AcDbCircle
 10
3.65625
 20
-1.984375
 30
0.0
 40
0.625
100
AcDbArc
 50
270.0
 51
0.0
  0
LINE
  5
18E
330
14B
100
AcDbEntity
  8
AM_4
100
AcDbLine
 10
3.65625
 20
-0.9375
 30
0.0
 11
3.028519683751492
 21
-0.9375
 31
0.0
  0
LINE
  5
18F
330
14B
100
AcDbEntity
  8
AM_4
100
AcDbLine
 10
-4.28125
 20
-1.562500000000001
 30
0.0
 11
-4.28125
 21
-1.984375
 31
0.0
  0
LINE
  5
190
330
14B
100
AcDbEntity
  8
AM_4
100
AcDbLine
 10
-3.028519683751492
 20
-0.9375
 30
0.0
 11
-3.65625
 21
-0.9375
 31
0.0
  0
ARC
  5
191
330
14B
100
AcDbEntity
  8
AM_4
100
AcDbCircle
 10
-3.656249999999999
 20
-1.562500000000001
 30
0.0
 40
0.6250000000000007
100
AcDbArc
 50
90.0
 51
180.0
  0
ARC
  5
192
330
14B
100
AcDbEntity
  8
AM_4
100
AcDbCircle
 10
-3.656249999999999
 20
-1.984374999999998
 30
0.0
 40
0.6250000000000013
100
AcDbArc
 50
180.0
 51
270.0
  0
LINE
  5
193
330
14B
100
AcDbEntity
  8
AM_4
100
AcDbLine
 10
-3.65625
 20
-2.609375
 30
0.0
 11
-2.909047177840752
 21
-2.609375
 31
0.0
  0
LINE
  5
194
330
14B
100
AcDbEntity
  8
AM_4
100
AcDbLine
 10
3.383420261027821
 20
-1.593015540878242
 30
0.0
 11
3.383420261027821
 21
-1.953859459121759
 31
0.0
  0
LINE
  5
195
330
14B
100
AcDbEntity
  8
AM_4
100
AcDbLine
 10
4.008420261027821
 20
-1.593015540878242
 30
0.0
 11
3.695920261027821
 21
-1.412593581756484
 31
0.0
  0
LINE
  5
196
330
14B
100
AcDbEntity
  8
AM_4
100
AcDbLine
 10
3.695920261027821
 20
-1.412593581756484
 30
0.0
 11
3.383420261027821
 21
-1.593015540878242
 31
0.0
  0
LINE
  5
197
330
14B
100
AcDbEntity
  8
AM_4
100
AcDbLine
 10
3.383420261027821
 20
-1.953859459121759
 30
0.0
 11
3.695920261027821
 21
-2.134281418243515
 31
0.0
  0
LINE
  5
198
330
14B
100
AcDbEntity
  8
AM_4
100
AcDbLine
 10
3.695920261027821
 20
-2.134281418243515
 30
0.0
 11
4.008420261027821
 21
-1.953859459121759
 31
0.0
  0
LINE
  5
199
330
14B
100
AcDbEntity
  8
AM_4
100
AcDbLine
 10
4.008420261027821
 20
-1.953859459121759
 30
0.0
 11
4.008420261027821
 21
-1.593015540878242
 31
0.0
  0
LINE
  5
19A
330
14B
100
AcDbEntity
  8
AM_4
100
AcDbLine
 10
-4.008420261027821
 20
-1.593015540878242
 30
0.0
 11
-4.008420261027821
 21
-1.953859459121758
 31
0.0
  0
LINE
  5
19B
330
14B
100
AcDbEntity
  8
AM_4
100
AcDbLine
 10
-4.008420261027821
 20
-1.953859459121758
 30
0.0
 11
-3.695920261027821
 21
-2.134281418243516
 31
0.0
  0
LINE
  5
19C
330
14B
100
AcDbEntity
  8
AM_4
100
AcDbLine
 10
-3.695920261027821
 20
-2.134281418243516
 30
0.0
 11
-3.383420261027821
 21
-1.953859459121758
 31
0.0
  0
LINE
  5
19D
330
14B
100
AcDbEntity
  8
AM_4
100
AcDbLine
 10
-3.383420261027821
 20
-1.953859459121758
 30
0.0
 11
-3.383420261027821
 21
-1.593015540878242
 31
0.0
  0
LINE
  5
19E
330
14B
100
AcDbEntity
  8
AM_4
100
AcDbLine
 10
-3.383420261027821
 20
-1.593015540878242
 30
0.0
 11
-3.695920261027821
 21
-1.412593581756484
 31
0.0
  0
LINE
  5
19F
330
14B
100
AcDbEntity
  8
AM_4
100
AcDbLine
 10
-3.695920261027821
 20
-1.412593581756484
 30
0.0
 11
-4.008420261027821
 21
-1.593015540878242
 31
0.0
  0
LINE
  5
1A0
330
14B
100
AcDbEntity
  8
AM_4
100
AcDbLine
 10
-2.895295140311057
 20
-2.921875
 30
0.0
 11
2.895295132586771
 21
-2.921875
 31
0.0
  0
ARC
  5
1A1
330
14B
100
AcDbEntity
  8
AM_4
100
AcDbCircle
 10
2.895295140311058
 20
-2.859375
 30
0.0
 40
0.0625
100
AcDbArc
 50
270.0
 51
356.0000000000003
  0
ARC
  5
1A2
330
14B
100
AcDbEntity
  8
AM_4
100
AcDbCircle
 10
-2.895295140311058
 20
-2.859375
 30
0.0
 40
0.0624999999999996
100
AcDbArc
 50
183.9999999999997
 51
270.0
  0
LINE
  5
1A3
330
14B
100
AcDbEntity
  8
AM_4
100
AcDbLine
 10
-3.028519683751492
 20
-0.9375
 30
0.0
 11
-2.909047177840752
 21
-2.609375
 31
0.0
  0
LINE
  5
1A4
330
14B
100
AcDbEntity
  8
AM_4
100
AcDbLine
 10
2.909047177840752
 20
-2.609375
 30
0.0
 11
3.028519683751492
 21
-0.9375
 31
0.0
  0
LINE
  5
1A5
330
14B
100
AcDbEntity
  8
AM_4
100
AcDbLine
 10
-2.957642893452296
 20
-2.863734779609008
 30
0.0
 11
2.957642893452296
 21
-2.863734779609008
 31
0.0
  0
LINE
  5
1A6
330
14B
100
AcDbEntity
  8
AM_4
100
AcDbLine
 10
2.957642893452296
 20
-2.863734779609008
 30
0.0
 11
2.975429461927008
 21
-2.609375
 31
0.0
  0
LINE
  5
1A7
330
14B
100
AcDbEntity
  8
AM_4
100
AcDbLine
 10
3.092338350645065
 20
-0.9375
 30
0.0
 11
3.114190479377412
 21
-0.625
 31
0.0
  0
LINE
  5
1A8
330
14B
100
AcDbEntity
  8
AM_4
100
AcDbLine
 10
-3.114190479377412
 20
-0.625
 30
0.0
 11
-3.092338350645065
 21
-0.9375
 31
0.0
  0
LINE
  5
1A9
330
14B
100
AcDbEntity
  8
AM_4
100
AcDbLine
 10
-2.975429461927008
 20
-2.609375
 30
0.0
 11
-2.957642893452296
 21
-2.863734779609008
 31
0.0
  0
LINE
  5
1AA
330
14B
100
AcDbEntity
  8
AM_4
100
AcDbLine
 10
-1.21203088895203
 20
-0.1337195592180155
 30
0.0
 11
1.212030888952031
 21
-0.1337195592180155
 31
0.0
  0
ARC
  5
1AB
330
14B
100
AcDbEntity
  8
AM_4
100
AcDbCircle
 10
-1.401785714285714
 20
-1.430421959121758
 30
0.0
 40
0.3125000000000003
100
AcDbArc
 50
120.0000000000001
 51
179.9999991462263
  0
ARC
  5
1AC
330
14B
100
AcDbEntity
  8
AM_4
100
AcDbCircle
 10
-1.401785714285714
 20
-1.803953040878242
 30
0.0
 40
0.3125
100
AcDbArc
 50
180.0
 51
240.0
  0
LINE
  5
1AD
330
14B
100
AcDbEntity
  8
AM_4
100
AcDbLine
 10
-0.1752343292563787
 20
-0.6249999999999998
 30
0.0
 11
-0.4642857142857145
 21
-0.6249999999999998
 31
0.0
  0
LINE
  5
1AE
330
14B
100
AcDbEntity
  8
AM_4
100
AcDbLine
 10
-1.558035714285714
 20
-1.159789020439121
 30
0.0
 11
-0.7767857142857147
 21
-0.7087341226347256
 31
0.0
  0
ARC
  5
1AF
330
14B
100
AcDbEntity
  8
AM_4
100
AcDbCircle
 10
-0.4642857142857142
 20
-1.250000000000002
 30
0.0
 40
0.625000000000002
100
AcDbArc
 50
90.0
 51
120.0
  0
LINE
  5
1B0
330
14B
100
AcDbEntity
  8
AM_4
100
AcDbLine
 10
-0.7767857142857149
 20
-2.525640877365274
 30
0.0
 11
-1.558035714285714
 21
-2.074585979560879
 31
0.0
  0
LINE
  5
1B1
330
14B
100
AcDbEntity
  8
AM_4
100
AcDbLine
 10
-1.714285714285714
 20
-1.803953040878241
 30
0.0
 11
-1.714285714285714
 21
-1.430421959121757
 31
0.0
  0
ARC
  5
1B2
330
14B
100
AcDbEntity
  8
AM_4
100
AcDbCircle
 10
-0.4642857142857121
 20
-1.984374999999991
 30
0.0
 40
0.6250000000000089
100
AcDbArc
 50
240.0000000000002
 51
270.0
  0
LINE
  5
1B3
330
14B
100
AcDbEntity
  8
AM_4
100
AcDbLine
 10
-0.1752343292563792
 20
-2.609375
 30
0.0
 11
-0.4642857142857162
 21
-2.609375
 31
0.0
  0
ARC
  5
1B4
330
14B
100
AcDbEntity
  8
AM_4
100
AcDbCircle
 10
0.4642857142857137
 20
-1.249999999999999
 30
0.0
 40
0.6249999999999993
100
AcDbArc
 50
59.99999999999991
 51
90.0
  0
ARC
  5
1B5
330
14B
100
AcDbEntity
  8
AM_4
100
AcDbCircle
 10
1.401785714285714
 20
-1.803953040878242
 30
0.0
 40
0.3125000000000001
100
AcDbArc
 50
300.0
 51
0.0
  0
ARC
  5
1B6
330
14B
100
AcDbEntity
  8
AM_4
100
AcDbCircle
 10
1.401785714285712
 20
-1.430421959121759
 30
0.0
 40
0.3125000000000022
100
AcDbArc
 50
0.0000008537736463
 51
59.99999999999982
  0
LINE
  5
1B7
330
14B
100
AcDbEntity
  8
AM_4
100
AcDbLine
 10
0.4642857142857139
 20
-0.6249999999999998
 30
0.0
 11
0.175234329256379
 21
-0.6249999999999998
 31
0.0
  0
LINE
  5
1B8
330
14B
100
AcDbEntity
  8
AM_4
100
AcDbLine
 10
1.558035714285714
 20
-2.074585979560879
 30
0.0
 11
0.7767857142857147
 21
-2.525640877365274
 31
0.0
  0
LINE
  5
1B9
330
14B
100
AcDbEntity
  8
AM_4
100
AcDbLine
 10
0.4642857142857148
 20
-2.609375
 30
0.0
 11
0.1752343292563794
 21
-2.609375
 31
0.0
  0
ARC
  5
1BA
330
14B
100
AcDbEntity
  8
AM_4
100
AcDbCircle
 10
0.4642857142857118
 20
-1.984374999999991
 30
0.0
 40
0.6250000000000093
100
AcDbArc
 50
270.0
 51
299.9999999999998
  0
LINE
  5
1BB
330
14B
100
AcDbEntity
  8
AM_4
100
AcDbLine
 10
1.714285714285714
 20
-1.430421959121758
 30
0.0
 11
1.714285714285714
 21
-1.803953040878242
 31
0.0
  0
LINE
  5
1BC
330
14B
100
AcDbEntity
  8
AM_4
100
AcDbLine
 10
0.7767857142857143
 20
-0.708734122634726
 30
0.0
 11
1.558035714285714
 21
-1.159789020439121
 31
0.0
  0
LINE
  5
1BD
330
14B
100
AcDbEntity
  8
AM_4
100
AcDbLine
 10
0.7124405607860146
 20
-2.329628060786015
 30
0.0
 11
1.218273358944086
 21
-1.823795262627944
 31
0.0
  0
LINE
  5
1BE
330
14B
100
AcDbEntity
  8
AM_4
100
AcDbLine
 10
-1.218273358944086
 20
-1.823795262627944
 30
0.0
 11
-0.7124405607860149
 21
-2.329628060786014
 31
0.0
  0
ARC
  5
1BF
330
14B
100
AcDbEntity
  8
AM_4
100
AcDbCircle
 10
0.0
 20
-1.617187499999999
 30
0.0
 40
1.007543103448275
100
AcDbArc
 50
44.99999999999996
 51
135.0
  0
LINE
  5
1C0
330
14B
100
AcDbEntity
  8
AM_4
100
AcDbLine
 10
1.218273358944086
 20
-1.410579737372055
 30
0.0
 11
0.712440560786015
 21
-0.9047469392139847
 31
0.0
  0
LINE
  5
1C1
330
14B
100
AcDbEntity
  8
AM_4
100
AcDbLine
 10
-0.7124405607860148
 20
-0.9047469392139846
 30
0.0
 11
-1.218273358944086
 21
-1.410579737372055
 31
0.0
  0
ARC
  5
1C2
330
14B
100
AcDbEntity
  8
AM_4
100
AcDbCircle
 10
0.0
 20
-1.617187500000001
 30
0.0
 40
1.007543103448274
100
AcDbArc
 50
224.9999999999999
 51
315.0000000000001
  0
ARC
  5
1C3
330
14B
100
AcDbEntity
  8
AM_4
100
AcDbCircle
 10
-1.011665596316141
 20
-1.6171875
 30
0.0
 40
0.2921875
100
AcDbArc
 50
134.9999999999999
 51
225.0
  0
ARC
  5
1C4
330
14B
100
AcDbEntity
  8
AM_4
100
AcDbCircle
 10
1.011665596316141
 20
-1.6171875
 30
0.0
 40
0.2921874999999998
100
AcDbArc
 50
314.9999999999999
 51
45.00000000000008
  0
LINE
  5
1C5
330
14B
100
AcDbEntity
  8
AM_4
100
AcDbLine
 10
3.812499999999999
 20
-0.6249999999999999
 30
0.0
 11
1.1744796426569
 21
-0.6249999999999999
 31
0.0
  0
LINE
  5
1C6
330
14B
100
AcDbEntity
  8
AM_4
100
AcDbLine
 10
1.1744796426569
 20
-0.6249999999999999
 30
0.0
 11
1.212030888952031
 21
-0.1337195592180155
 31
0.0
  0
LWPOLYLINE
  5
1C7
330
14B
100
AcDbEntity
  8
AM_4
100
AcDbPolyline
 90
       11
 70
     0
 43
0.0
 10
1.074494983811096
 20
0.0000000000000003
 10
1.099834815304261
 20
-0.0020895654494777
 10
1.124631518698747
 20
-0.0084160177391619
 10
1.146938381220436
 20
-0.0184151889823934
 10
1.167529149295225
 20
-0.0324382663169871
 10
1.182123504128563
 20
-0.0465635293583017
 10
1.194534756524167
 20
-0.0632124716965124
 10
1.20280315277078
 20
-0.0790392116839067
 10
1.208699892529219
 20
-0.0962091093593921
 10
1.211888693304265
 20
-0.1147862268042739
 10
1.212030888952031
 20
-0.1337195592180155
  0
LINE
  5
1C8
330
14B
100
AcDbEntity
  8
AM_4
100
AcDbLine
 10
-1.1744796426569
 20
-0.6249999999999999
 30
0.0
 11
-3.812499999999998
 21
-0.6249999999999999
 31
0.0
  0
LINE
  5
1C9
330
14B
100
AcDbEntity
  8
AM_4
100
AcDbLine
 10
-1.21203088895203
 20
-0.1337195592180155
 30
0.0
 11
-1.1744796426569
 21
-0.6249999999999999
 31
0.0
  0
LWPOLYLINE
  5
1CA
330
14B
100
AcDbEntity
  8
AM_4
100
AcDbPolyline
 90
       12
 70
     0
 43
0.0
 10
-1.21203088895203
 20
-0.1337195592180155
 10
-1.212044773748862
 20
-0.1164646374726185
 10
-1.209368579357006
 20
-0.0989364433440845
 10
-1.204321792097666
 20
-0.0826982912195007
 10
-1.196905276068867
 20
-0.067194412815074
 10
-1.187304763176805
 20
-0.0528137021915056
 10
-1.175796130769704
 20
-0.0398825173723483
 10
-1.157409547456045
 20
-0.0248502935316413
 10
-1.136548566283539
 20
-0.0131814647307208
 10
-1.11464672041987
 20
-0.0053192221534964
 10
-1.091562769299221
 20
-0.0009400618786356
 10
-1.074494983811095
 20
0.0000000000000003
  0
LINE
  5
1CB
330
14B
100
AcDbEntity
  8
AM_4
100
AcDbLine
 10
1.208647957800857
 20
-1.701534765889422
 30
0.0
 11
1.208647957800857
 21
-1.532840234110577
 31
0.0
  0
LINE
  5
1CC
330
14B
100
AcDbEntity
  8
AM_4
100
AcDbLine
 10
1.208647957800857
 20
-1.532840234110577
 30
0.0
 11
1.062554207800857
 21
-1.448492968221156
 31
0.0
  0
LINE
  5
1CD
330
14B
100
AcDbEntity
  8
AM_4
100
AcDbLine
 10
1.062554207800857
 20
-1.448492968221156
 30
0.0
 11
0.9164604578008569
 21
-1.532840234110577
 31
0.0
  0
LINE
  5
1CE
330
14B
100
AcDbEntity
  8
AM_4
100
AcDbLine
 10
0.9164604578008569
 20
-1.532840234110577
 30
0.0
 11
0.9164604578008569
 21
-1.701534765889422
 31
0.0
  0
LINE
  5
1CF
330
14B
100
AcDbEntity
  8
AM_4
100
AcDbLine
 10
1.062554207800857
 20
-1.785882031778843
 30
0.0
 11
1.208647957800857
 21
-1.701534765889422
 31
0.0
  0
LINE
  5
1D0
330
14B
100
AcDbEntity
  8
AM_4
100
AcDbLine
 10
0.9164604578008569
 20
-1.701534765889422
 30
0.0
 11
1.062554207800857
 21
-1.785882031778843
 31
0.0
  0
LINE
  5
1D1
330
14B
100
AcDbEntity
  8
AM_4
100
AcDbLine
 10
-1.062554207800857
 20
-1.785882031778844
 30
0.0
 11
-0.9164604578008564
 21
-1.701534765889422
 31
0.0
  0
LINE
  5
1D2
330
14B
100
AcDbEntity
  8
AM_4
100
AcDbLine
 10
-0.9164604578008564
 20
-1.701534765889422
 30
0.0
 11
-0.9164604578008564
 21
-1.532840234110578
 31
0.0
  0
LINE
  5
1D3
330
14B
100
AcDbEntity
  8
AM_4
100
AcDbLine
 10
-0.9164604578008564
 20
-1.532840234110578
 30
0.0
 11
-1.062554207800857
 21
-1.448492968221156
 31
0.0
  0
LINE
  5
1D4
330
14B
100
AcDbEntity
  8
AM_4
100
AcDbLine
 10
-1.208647957800856
 20
-1.701534765889422
 30
0.0
 11
-1.062554207800857
 21
-1.785882031778844
 31
0.0
  0
LINE
  5
1D5
330
14B
100
AcDbEntity
  8
AM_4
100
AcDbLine
 10
-1.062554207800857
 20
-1.448492968221156
 30
0.0
 11
-1.208647957800856
 21
-1.532840234110578
 31
0.0
  0
LINE
  5
1D6
330
14B
100
AcDbEntity
  8
AM_4
100
AcDbLine
 10
-1.208647957800856
 20
-1.532840234110578
 30
0.0
 11
-1.208647957800856
 21
-1.701534765889422
 31
0.0
  0
LINE
  5
1D7
330
14B
100
AcDbEntity
  8
AM_4
100
AcDbLine
 10
2.59375
 20
-0.6249999999999998
 30
0.0
 11
2.59375
 21
0.0000000000000002
 31
0.0
  0
LINE
  5
1D8
330
14B
100
AcDbEntity
  8
AM_4
100
AcDbLine
 10
3.812499999999999
 20
-0.6249999999999999
 30
0.0
 11
3.812499999999999
 21
0.0000000000000002
 31
0.0
  0
LINE
  5
1D9
330
14B
100
AcDbEntity
  8
AM_4
100
AcDbLine
 10
3.812499999999999
 20
0.0000000000000002
 30
0.0
 11
-3.812499999999998
 21
0.0000000000000002
 31
0.0
  0
LINE
  5
1DA
330
14B
100
AcDbEntity
  8
AM_4
100
AcDbLine
 10
-2.59375
 20
-0.6249999999999998
 30
0.0
 11
-2.59375
 21
0.0000000000000002
 31
0.0
  0
LINE
  5
1DB
330
14B
100
AcDbEntity
  8
AM_4
100
AcDbLine
 10
-3.812499999999998
 20
0.0000000000000002
 30
0.0
 11
-3.812499999999998
 21
-0.6249999999999999
 31
0.0
  0
ENDBLK
  5
14E
330
14B
100
AcDbEntity
  8
0
100
AcDbBlockEnd
  0
ENDSEC
  0
SECTION
  2
ENTITIES
  0
INSERT
  5
6F
330
1F
100
AcDbEntity
  8
0
100
AcDbBlockReference
  2
1_023224_4
 10
0.0
 20
0.0
 30
0.0
  0
POINT
  5
1DD
330
1F
100
AcDbEntity
  8
ConnectionPoints
100
AcDbPoint
 10
0.0
 20
-1.5625
 30
3.2555
  0
POINT
  5
1DE
330
1F
100
AcDbEntity
  8
ConnectionPoints
100
AcDbPoint
 10
0.0
 20
-1.5625
 30
3.2555
  0
POINT
  5
1DF
330
1F
100
AcDbEntity
  8
ConnectionPoints
100
AcDbPoint
 10
0.0
 20
-1.5625
 30
0.0000000000000001
  0
POINT
  5
1E0
330
1F
100
AcDbEntity
  8
ConnectionPoints
100
AcDbPoint
 10
0.0
 20
-3.5625
 30
0.0000000000000002
  0
POINT
  5
1E1
330
1F
100
AcDbEntity
  8
ConnectionPoints
100
AcDbPoint
 10
0.0
 20
0.1259999999999999
 30
0.0
  0
POINT
  5
1E2
330
1F
100
AcDbEntity
  8
ConnectionPoints
100
AcDbPoint
 10
0.0
 20
-3.5625
 30
0.0000000000000002
  0
ENDSEC
  0
SECTION
  2
OBJECTS
  0
DICTIONARY
  5
C
330
0
100
AcDbDictionary
281
     1
  3
ACAD_DETAILVIEWSTYLE
350
1EA
  3
ACAD_GROUP
350
D
  3
ACAD_LAYOUT
350
1A
  3
ACAD_MATERIAL
350
43
  3
ACAD_MLEADERSTYLE
350
6B
  3
ACAD_MLINESTYLE
350
17
  3
ACAD_PLOTSETTINGS
350
19
  3
ACAD_PLOTSTYLENAME
350
E
  3
ACAD_SCALELIST
350
47
  3
ACAD_SECTIONVIEWSTYLE
350
1EB
  3
ACAD_TABLESTYLE
350
69
  3
ACAD_VISUALSTYLE
350
2A
  3
ACDB_RECOMPOSE_DATA
350
1E7
  3
AcDbVariableDictionary
350
1E3
  0
SUN
  5
6D
330
29
100
AcDbSun
 90
        1
290
     0
 63
     7
421
 16777215
 40
1.0
291
     1
 91
  2455826
 92
 54000000
292
     0
 70
     2
 71
   256
280
     1
  0
DICTIONARY
  5
1EA
102
{ACAD_REACTORS
330
C
102
}
330
C
100
AcDbDictionary
281
     1
  0
DICTIONARY
  5
D
102
{ACAD_REACTORS
330
C
102
}
330
C
100
AcDbDictionary
281
     1
  0
DICTIONARY
  5
1A
102
{ACAD_REACTORS
330
C
102
}
330
C
100
AcDbDictionary
281
     1
  3
Layout1
350
1E
  3
Layout2
350
26
  3
Model
350
22
  0
DICTIONARY
  5
43
102
{ACAD_REACTORS
330
C
102
}
330
C
100
AcDbDictionary
281
     1
  3
ByBlock
350
45
  3
ByLayer
350
44
  3
Global
350
46
  0
DICTIONARY
  5
6B
102
{ACAD_REACTORS
330
C
102
}
330
C
100
AcDbDictionary
281
     1
  3
Standard
350
6C
  0
DICTIONARY
  5
17
102
{ACAD_REACTORS
330
C
102
}
330
C
100
AcDbDictionary
281
     1
  3
Standard
350
18
  0
DICTIONARY
  5
19
102
{ACAD_REACTORS
330
C
102
}
330
C
100
AcDbDictionary
281
     1
  0
ACDBDICTIONARYWDFLT
  5
E
102
{ACAD_REACTORS
330
C
102
}
330
C
100
AcDbDictionary
281
     1
  3
Normal
350
F
100
AcDbDictionaryWithDefault
340
F
  0
DICTIONARY
  5
47
102
{ACAD_REACTORS
330
C
102
}
330
C
100
AcDbDictionary
281
     1
  3
A0
350
48
  3
A1
350
49
  3
A2
350
4A
  3
A3
350
4B
  3
A4
350
4C
  3
A5
350
4D
  3
A6
350
4E
  3
A7
350
4F
  3
A8
350
50
  3
A9
350
51
  3
B0
350
52
  3
B1
350
53
  3
B2
350
54
  3
B3
350
55
  3
B4
350
56
  3
B5
350
57
  3
B6
350
58
  3
B7
350
59
  3
B8
350
5A
  3
B9
350
5B
  3
C0
350
5C
  3
C1
350
5D
  3
C2
350
5E
  3
C3
350
5F
  3
C4
350
60
  3
C5
350
61
  3
C6
350
62
  3
C7
350
63
  3
C8
350
64
  3
C9
350
65
  3
D0
350
66
  3
D1
350
67
  3
D2
350
68
  0
DICTIONARY
  5
1EB
102
{ACAD_REACTORS
330
C
102
}
330
C
100
AcDbDictionary
281
     1
  0
DICTIONARY
  5
69
102
{ACAD_REACTORS
330
C
102
}
330
C
100
AcDbDictionary
281
     1
  3
Standard
350
6A
  0
DICTIONARY
  5
2A
102
{ACAD_REACTORS
330
C
102
}
330
C
100
AcDbDictionary
281
     1
  3
2dWireframe
350
2F
  3
Basic
350
32
  3
Brighten
350
36
  3
ColorChange
350
3A
  3
Conceptual
350
34
  3
Dim
350
35
  3
EdgeColorOff
350
3D
  3
Facepattern
350
39
  3
Flat
350
2B
  3
FlatWithEdges
350
2C
  3
Gouraud
350
2D
  3
GouraudWithEdges
350
2E
  3
Hidden
350
31
  3
JitterOff
350
3B
  3
Linepattern
350
38
  3
OverhangOff
350
3C
  3
Realistic
350
33
  3
Shaded
350
42
  3
Shaded with edges
350
41
  3
Shades of Gray
350
3E
  3
Sketchy
350
3F
  3
Thicken
350
37
  3
Wireframe
350
30
  3
X-Ray
350
40
  0
XRECORD
  5
1E7
102
{ACAD_REACTORS
330
C
102
}
330
C
100
AcDbXrecord
280
     1
 90
        1
330
6A
  0
DICTIONARY
  5
1E3
102
{ACAD_REACTORS
330
C
102
}
330
C
100
AcDbDictionary
281
     1
  3
CANNOSCALE
350
1E4
  3
CMLEADERSTYLE
350
1E9
  3
CTABLESTYLE
350
1E8
  0
LAYOUT
  5
1E
102
{ACAD_REACTORS
330
1A
102
}
330
1A
100
AcDbPlotSettings
  1

  2
none_device
  4

  6

 40
0.0
 41
0.0
 42
0.0
 43
0.0
 44
0.0
 45
0.0
 46
0.0
 47
0.0
 48
0.0
 49
0.0
140
0.0
141
0.0
142
1.0
143
1.0
 70
   688
 72
     0
 73
     0
 74
     5
  7

 75
    16
 76
     0
 77
     2
 78
   300
147
1.0
148
0.0
149
0.0
100
AcDbLayout
  1
Layout1
 70
     1
 71
     1
 10
0.0
 20
0.0
 11
12.0
 21
9.0
 12
0.0
 22
0.0
 32
0.0
 14
1.000000000000000E+20
 24
1.000000000000000E+20
 34
1.000000000000000E+20
 15
-1.000000000000000E+20
 25
-1.000000000000000E+20
 35
-1.000000000000000E+20
146
0.0
 13
0.0
 23
0.0
 33
0.0
 16
1.0
 26
0.0
 36
0.0
 17
0.0
 27
1.0
 37
0.0
 76
     0
330
1B
  0
LAYOUT
  5
26
102
{ACAD_REACTORS
330
1A
102
}
330
1A
100
AcDbPlotSettings
  1

  2
none_device
  4

  6

 40
0.0
 41
0.0
 42
0.0
 43
0.0
 44
0.0
 45
0.0
 46
0.0
 47
0.0
 48
0.0
 49
0.0
140
0.0
141
0.0
142
1.0
143
1.0
 70
   688
 72
     0
 73
     0
 74
     5
  7

 75
    16
 76
     0
 77
     2
 78
   300
147
1.0
148
0.0
149
0.0
100
AcDbLayout
  1
Layout2
 70
     1
 71
     2
 10
0.0
 20
0.0
 11
0.0
 21
0.0
 12
0.0
 22
0.0
 32
0.0
 14
0.0
 24
0.0
 34
0.0
 15
0.0
 25
0.0
 35
0.0
146
0.0
 13
0.0
 23
0.0
 33
0.0
 16
1.0
 26
0.0
 36
0.0
 17
0.0
 27
1.0
 37
0.0
 76
     0
330
23
  0
LAYOUT
  5
22
102
{ACAD_REACTORS
330
1A
102
}
330
1A
100
AcDbPlotSettings
  1

  2
none_device
  4
Letter_(8.50_x_11.00_Inches)
  6

 40
6.35
 41
6.35
 42
6.35000508
 43
6.35000508
 44
215.9
 45
279.4
 46
0.0
 47
0.0
 48
0.0
 49
0.0
140
0.0
141
0.0
142
1.0
143
1.0
 70
  1712
 72
     0
 73
     0
 74
     0
  7

 75
     0
 76
     0
 77
     2
 78
   300
147
1.0
148
0.0
149
0.0
100
AcDbLayout
  1
Model
 70
     1
 71
     0
 10
0.0
 20
0.0
 11
12.0
 21
9.0
 12
0.0
 22
0.0
 32
0.0
 14
1.000000000000000E+20
 24
1.000000000000000E+20
 34
1.000000000000000E+20
 15
-1.000000000000000E+20
 25
-1.000000000000000E+20
 35
-1.000000000000000E+20
146
0.0
 13
0.0
 23
0.0
 33
0.0
 16
1.0
 26
0.0
 36
0.0
 17
0.0
 27
1.0
 37
0.0
 76
     0
330
1F
331
29
  0
MATERIAL
  5
45
102
{ACAD_REACTORS
330
43
102
}
330
43
100
AcDbMaterial
  1
ByBlock
 72
     1
 94
      127
  0
MATERIAL
  5
44
102
{ACAD_REACTORS
330
43
102
}
330
43
100
AcDbMaterial
  1
ByLayer
 72
     1
 94
      127
  0
MATERIAL
  5
46
102
{ACAD_REACTORS
330
43
102
}
330
43
100
AcDbMaterial
  1
Global
 72
     1
 94
      127
  0
MLEADERSTYLE
  5
6C
102
{ACAD_REACTORS
330
6B
102
}
330
6B
100
AcDbMLeaderStyle
179
     2
170
     2
171
     1
172
     0
 90
        2
 40
0.0
 41
0.0
173
     1
 91
-1056964608
340
14
 92
       -2
290
     1
 42
0.09
291
     1
 43
0.36
  3
Standard
341
0
 44
0.18
300

342
11
174
     1
178
     6
175
     1
176
     0
 93
-1056964608
 45
0.18
292
     0
297
     0
 46
0.18
343
0
 94
-1056964608
 47
1.0
 49
1.0
140
1.0
293
     1
141
0.0
294
     1
177
     0
142
1.0
295
     0
296
     0
143
0.125
271
     0
272
     9
273
     9
298
     0
  0
MLINESTYLE
  5
18
102
{ACAD_REACTORS
330
17
102
}
330
17
100
AcDbMlineStyle
  2
Standard
 70
     0
  3

 62
   256
 51
90.0
 52
90.0
 71
     2
 49
0.5
 62
   256
  6
BYLAYER
 49
-0.5
 62
   256
  6
BYLAYER
  0
ACDBPLACEHOLDER
  5
F
102
{ACAD_REACTORS
330
E
102
}
330
E
  0
SCALE
  5
48
102
{ACAD_REACTORS
330
47
102
}
330
47
100
AcDbScale
 70
     0
300
1:1
140
1.0
141
1.0
290
     1
  0
SCALE
  5
49
102
{ACAD_REACTORS
330
47
102
}
330
47
100
AcDbScale
 70
     0
300
1:2
140
1.0
141
2.0
290
     0
  0
SCALE
  5
4A
102
{ACAD_REACTORS
330
47
102
}
330
47
100
AcDbScale
 70
     0
300
1:4
140
1.0
141
4.0
290
     0
  0
SCALE
  5
4B
102
{ACAD_REACTORS
330
47
102
}
330
47
100
AcDbScale
 70
     0
300
1:5
140
1.0
141
5.0
290
     0
  0
SCALE
  5
4C
102
{ACAD_REACTORS
330
47
102
}
330
47
100
AcDbScale
 70
     0
300
1:8
140
1.0
141
8.0
290
     0
  0
SCALE
  5
4D
102
{ACAD_REACTORS
330
47
102
}
330
47
100
AcDbScale
 70
     0
300
1:10
140
1.0
141
10.0
290
     0
  0
SCALE
  5
4E
102
{ACAD_REACTORS
330
47
102
}
330
47
100
AcDbScale
 70
     0
300
1:16
140
1.0
141
16.0
290
     0
  0
SCALE
  5
4F
102
{ACAD_REACTORS
330
47
102
}
330
47
100
AcDbScale
 70
     0
300
1:20
140
1.0
141
20.0
290
     0
  0
SCALE
  5
50
102
{ACAD_REACTORS
330
47
102
}
330
47
100
AcDbScale
 70
     0
300
1:30
140
1.0
141
30.0
290
     0
  0
SCALE
  5
51
102
{ACAD_REACTORS
330
47
102
}
330
47
100
AcDbScale
 70
     0
300
1:40
140
1.0
141
40.0
290
     0
  0
SCALE
  5
52
102
{ACAD_REACTORS
330
47
102
}
330
47
100
AcDbScale
 70
     0
300
1:50
140
1.0
141
50.0
290
     0
  0
SCALE
  5
53
102
{ACAD_REACTORS
330
47
102
}
330
47
100
AcDbScale
 70
     0
300
1:100
140
1.0
141
100.0
290
     0
  0
SCALE
  5
54
102
{ACAD_REACTORS
330
47
102
}
330
47
100
AcDbScale
 70
     0
300
2:1
140
2.0
141
1.0
290
     0
  0
SCALE
  5
55
102
{ACAD_REACTORS
330
47
102
}
330
47
100
AcDbScale
 70
     0
300
4:1
140
4.0
141
1.0
290
     0
  0
SCALE
  5
56
102
{ACAD_REACTORS
330
47
102
}
330
47
100
AcDbScale
 70
     0
300
8:1
140
8.0
141
1.0
290
     0
  0
SCALE
  5
57
102
{ACAD_REACTORS
330
47
102
}
330
47
100
AcDbScale
 70
     0
300
10:1
140
10.0
141
1.0
290
     0
  0
SCALE
  5
58
102
{ACAD_REACTORS
330
47
102
}
330
47
100
AcDbScale
 70
     0
300
100:1
140
100.0
141
1.0
290
     0
  0
SCALE
  5
59
102
{ACAD_REACTORS
330
47
102
}
330
47
100
AcDbScale
 70
     0
300
1/128" = 1'-0"
140
0.0078125
141
12.0
290
     0
  0
SCALE
  5
5A
102
{ACAD_REACTORS
330
47
102
}
330
47
100
AcDbScale
 70
     0
300
1/64" = 1'-0"
140
0.015625
141
12.0
290
     0
  0
SCALE
  5
5B
102
{ACAD_REACTORS
330
47
102
}
330
47
100
AcDbScale
 70
     0
300
1/32" = 1'-0"
140
0.03125
141
12.0
290
     0
  0
SCALE
  5
5C
102
{ACAD_REACTORS
330
47
102
}
330
47
100
AcDbScale
 70
     0
300
1/16" = 1'-0"
140
0.0625
141
12.0
290
     0
  0
SCALE
  5
5D
102
{ACAD_REACTORS
330
47
102
}
330
47
100
AcDbScale
 70
     0
300
3/32" = 1'-0"
140
0.09375
141
12.0
290
     0
  0
SCALE
  5
5E
102
{ACAD_REACTORS
330
47
102
}
330
47
100
AcDbScale
 70
     0
300
1/8" = 1'-0"
140
0.125
141
12.0
290
     0
  0
SCALE
  5
5F
102
{ACAD_REACTORS
330
47
102
}
330
47
100
AcDbScale
 70
     0
300
3/16" = 1'-0"
140
0.1875
141
12.0
290
     0
  0
SCALE
  5
60
102
{ACAD_REACTORS
330
47
102
}
330
47
100
AcDbScale
 70
     0
300
1/4" = 1'-0"
140
0.25
141
12.0
290
     0
  0
SCALE
  5
61
102
{ACAD_REACTORS
330
47
102
}
330
47
100
AcDbScale
 70
     0
300
3/8" = 1'-0"
140
0.375
141
12.0
290
     0
  0
SCALE
  5
62
102
{ACAD_REACTORS
330
47
102
}
330
47
100
AcDbScale
 70
     0
300
1/2" = 1'-0"
140
0.5
141
12.0
290
     0
  0
SCALE
  5
63
102
{ACAD_REACTORS
330
47
102
}
330
47
100
AcDbScale
 70
     0
300
3/4" = 1'-0"
140
0.75
141
12.0
290
     0
  0
SCALE
  5
64
102
{ACAD_REACTORS
330
47
102
}
330
47
100
AcDbScale
 70
     0
300
1" = 1'-0"
140
1.0
141
12.0
290
     0
  0
SCALE
  5
65
102
{ACAD_REACTORS
330
47
102
}
330
47
100
AcDbScale
 70
     0
300
1-1/2" = 1'-0"
140
1.5
141
12.0
290
     0
  0
SCALE
  5
66
102
{ACAD_REACTORS
330
47
102
}
330
47
100
AcDbScale
 70
     0
300
3" = 1'-0"
140
3.0
141
12.0
290
     0
  0
SCALE
  5
67
102
{ACAD_REACTORS
330
47
102
}
330
47
100
AcDbScale
 70
     0
300
6" = 1'-0"
140
6.0
141
12.0
290
     0
  0
SCALE
  5
68
102
{ACAD_REACTORS
330
47
102
}
330
47
100
AcDbScale
 70
     0
300
1'-0" = 1'-0"
140
12.0
141
12.0
290
     0
  0
TABLESTYLE
  5
6A
102
{ACAD_REACTORS
330
69
102
}
102
{ACAD_XDICTIONARY
360
1E5
102
}
330
69
100
AcDbTableStyle
  3
Standard
 70
     0
 71
     0
 40
0.06
 41
0.06
280
     0
281
     0
  7
Standard
140
0.18
170
     2
 62
     0
 63
   257
283
     0
 90
        4
 91
        0
  1

274
    -2
284
     1
 64
     0
275
    -2
285
     1
 65
     0
276
    -2
286
     1
 66
     0
277
    -2
287
     1
 67
     0
278
    -2
288
     1
 68
     0
279
    -2
289
     1
 69
     0
  7
Standard
140
0.25
170
     5
 62
     0
 63
   257
283
     0
 90
        4
 91
        0
  1

274
    -2
284
     1
 64
     0
275
    -2
285
     1
 65
     0
276
    -2
286
     1
 66
     0
277
    -2
287
     1
 67
     0
278
    -2
288
     1
 68
     0
279
    -2
289
     1
 69
     0
  7
Standard
140
0.18
170
     5
 62
     0
 63
   257
283
     0
 90
        4
 91
        0
  1

274
    -2
284
     1
 64
     0
275
    -2
285
     1
 65
     0
276
    -2
286
     1
 66
     0
277
    -2
287
     1
 67
     0
278
    -2
288
     1
 68
     0
279
    -2
289
     1
 69
     0
  0
VISUALSTYLE
  5
2F
102
{ACAD_REACTORS
330
2A
102
}
330
2A
100
AcDbVisualStyle
  2
2dWireframe
 70
     4
177
     3
291
     0
 70
    58
 90
        0
176
     1
 90
        2
176
     1
 90
        0
176
     1
 90
        0
176
     1
 40
0.6
176
     1
 40
30.0
176
     1
 62
     7
420
 16777215
176
     1
 90
        1
176
     1
 90
        4
176
     1
 62
     7
176
     1
 62
   257
176
     1
 90
        1
176
     1
 90
        1
176
     1
 40
1.0
176
     1
 90
        0
176
     1
 62
   257
176
     1
 40
1.0
176
     1
 90
        1
176
     1
 90
        6
176
     1
 90
        2
176
     1
 62
     7
176
     1
 90
        5
176
     1
 90
        0
176
     1
 90
        0
176
     1
290
     0
176
     1
 90
        1
176
     1
 40
0.0
176
     1
 90
        0
176
     1
290
     1
176
     1
290
     1
176
     1
290
     0
176
     1
290
     0
176
     1
290
     0
176
     1
290
     0
176
     1
290
     0
176
     1
290
     0
176
     1
290
     0
176
     1
 90
       50
176
     1
 40
0.0
176
     1
 40
1.0
176
     1
 90
        0
176
     1
 62
    18
420
        0
176
     1
 90
       50
176
     1
 90
        3
176
     1
 62
     5
420
      255
176
     1
290
     0
176
     1
 90
       50
176
     1
 90
       50
176
     1
 90
       50
176
     1
290
     0
176
     1
 90
       50
176
     1
 62
   256
176
     0
 40
1.0
176
     0
 90
        2
176
     1
  1
strokes_ogs.tif
176
     1
290
     0
176
     1
 40
1.0
176
     1
 40
1.0
176
     1
  0
VISUALSTYLE
  5
32
102
{ACAD_REACTORS
330
2A
102
}
330
2A
100
AcDbVisualStyle
  2
Basic
 70
     7
177
     3
291
     1
 70
    58
 90
        1
176
     1
 90
        0
176
     1
 90
        1
176
     1
 90
        0
176
     1
 40
0.6
176
     1
 40
30.0
176
     1
 62
     7
420
 16777215
176
     1
 90
        0
176
     1
 90
        4
176
     1
 62
     7
176
     1
 62
   257
176
     1
 90
        1
176
     1
 90
        1
176
     1
 40
1.0
176
     1
 90
        8
176
     1
 62
     7
176
     1
 40
1.0
176
     1
 90
        1
176
     1
 90
        6
176
     1
 90
        2
176
     1
 62
     7
176
     1
 90
        5
176
     1
 90
        0
176
     1
 90
        0
176
     1
290
     0
176
     1
 90
        1
176
     1
 40
0.0
176
     1
 90
        0
176
     1
290
     0
176
     1
290
     1
176
     1
290
     1
176
     1
290
     0
176
     1
290
     0
176
     1
290
     0
176
     1
290
     0
176
     1
290
     0
176
     1
290
     0
176
     1
 90
       50
176
     1
 40
0.0
176
     1
 40
1.0
176
     1
 90
        0
176
     1
 62
    18
420
        0
176
     1
 90
       50
176
     1
 90
        3
176
     1
 62
     5
420
      255
176
     1
290
     0
176
     1
 90
       50
176
     1
 90
       50
176
     1
 90
       50
176
     1
290
     0
176
     1
 90
       50
176
     1
 62
   256
176
     0
 40
1.0
176
     0
 90
        2
176
     1
  1
strokes_ogs.tif
176
     1
290
     0
176
     1
 40
1.0
176
     1
 40
1.0
176
     1
  0
VISUALSTYLE
  5
36
102
{ACAD_REACTORS
330
2A
102
}
330
2A
100
AcDbVisualStyle
  2
Brighten
 70
    12
177
     3
291
     1
 70
    58
 90
        2
176
     1
 90
        2
176
     1
 90
        0
176
     1
 90
        0
176
     1
 40
0.6
176
     1
 40
30.0
176
     1
 62
     7
420
 16777215
176
     1
 90
        1
176
     1
 90
        4
176
     1
 62
     7
176
     1
 62
   257
176
     1
 90
        1
176
     1
 90
        1
176
     1
 40
1.0
176
     1
 90
        8
176
     1
 62
     7
176
     1
 40
1.0
176
     1
 90
        1
176
     1
 90
        6
176
     1
 90
        2
176
     1
 62
     7
176
     1
 90
        5
176
     1
 90
        0
176
     1
 90
        0
176
     1
290
     0
176
     1
 90
        1
176
     1
 40
50.0
176
     1
 90
        0
176
     1
290
     0
176
     1
290
     1
176
     1
290
     1
176
     1
290
     0
176
     1
290
     0
176
     1
290
     0
176
     1
290
     0
176
     1
290
     0
176
     1
290
     0
176
     1
 90
       50
176
     1
 40
0.0
176
     1
 40
1.0
176
     1
 90
        0
176
     1
 62
    18
420
        0
176
     1
 90
       50
176
     1
 90
        3
176
     1
 62
     5
420
      255
176
     1
290
     0
176
     1
 90
       50
176
     1
 90
       50
176
     1
 90
       50
176
     1
290
     0
176
     1
 90
       50
176
     1
 62
   256
176
     0
 40
1.0
176
     0
 90
        2
176
     1
  1
strokes_ogs.tif
176
     1
290
     0
176
     1
 40
1.0
176
     1
 40
1.0
176
     1
  0
VISUALSTYLE
  5
3A
102
{ACAD_REACTORS
330
2A
102
}
330
2A
100
AcDbVisualStyle
  2
ColorChange
 70
    16
177
     3
291
     1
 70
    58
 90
        2
176
     1
 90
        2
176
     1
 90
        3
176
     1
 90
        0
176
     1
 40
0.6
176
     1
 40
30.0
176
     1
 62
     8
420
  8421504
176
     1
 90
        1
176
     1
 90
        4
176
     1
 62
     7
176
     1
 62
   257
176
     1
 90
        1
176
     1
 90
        1
176
     1
 40
1.0
176
     1
 90
        8
176
     1
 62
     8
420
  8421504
176
     1
 40
1.0
176
     1
 90
        1
176
     1
 90
        6
176
     1
 90
        2
176
     1
 62
     7
176
     1
 90
        5
176
     1
 90
        0
176
     1
 90
        0
176
     1
290
     0
176
     1
 90
        1
176
     1
 40
0.0
176
     1
 90
        0
176
     1
290
     0
176
     1
290
     1
176
     1
290
     1
176
     1
290
     0
176
     1
290
     0
176
     1
290
     0
176
     1
290
     0
176
     1
290
     0
176
     1
290
     0
176
     1
 90
       50
176
     1
 40
0.0
176
     1
 40
1.0
176
     1
 90
        0
176
     1
 62
    18
420
        0
176
     1
 90
       50
176
     1
 90
        3
176
     1
 62
     5
420
      255
176
     1
290
     0
176
     1
 90
       50
176
     1
 90
       50
176
     1
 90
       50
176
     1
290
     0
176
     1
 90
       50
176
     1
 62
   256
176
     0
 40
1.0
176
     0
 90
        2
176
     1
  1
strokes_ogs.tif
176
     1
290
     0
176
     1
 40
1.0
176
     1
 40
1.0
176
     1
  0
VISUALSTYLE
  5
34
102
{ACAD_REACTORS
330
2A
102
}
330
2A
100
AcDbVisualStyle
  2
Conceptual
 70
     9
177
     3
291
     0
 70
    58
 90
        3
176
     1
 90
        2
176
     1
 90
        0
176
     1
 90
        0
176
     1
 40
0.6
176
     1
 40
30.0
176
     1
 62
     7
420
 16777215
176
     1
 90
        2
176
     1
 90
        2
176
     1
 62
     7
176
     1
 62
   257
176
     1
 90
        1
176
     1
 90
        1
176
     1
 40
179.0
176
     1
 90
        8
176
     1
 62
     7
176
     1
 40
1.0
176
     1
 90
        1
176
     1
 90
        6
176
     1
 90
        2
176
     1
 62
     7
176
     1
 90
        3
176
     1
 90
        0
176
     1
 90
        0
176
     1
290
     0
176
     1
 90
        1
176
     1
 40
0.0
176
     1
 90
        0
176
     1
290
     0
176
     1
290
     1
176
     1
290
     1
176
     1
290
     0
176
     1
290
     0
176
     1
290
     0
176
     1
290
     0
176
     1
290
     0
176
     1
290
     0
176
     1
 90
       50
176
     1
 40
0.0
176
     1
 40
1.0
176
     1
 90
        0
176
     1
 62
    18
420
        0
176
     1
 90
       50
176
     1
 90
        3
176
     1
 62
     5
420
      255
176
     1
290
     0
176
     1
 90
       50
176
     1
 90
       50
176
     1
 90
       50
176
     1
290
     0
176
     1
 90
       50
176
     1
 62
   256
176
     0
 40
1.0
176
     0
 90
        2
176
     1
  1
strokes_ogs.tif
176
     1
290
     0
176
     1
 40
1.0
176
     1
 40
1.0
176
     1
  0
VISUALSTYLE
  5
35
102
{ACAD_REACTORS
330
2A
102
}
330
2A
100
AcDbVisualStyle
  2
Dim
 70
    11
177
     3
291
     1
 70
    58
 90
        2
176
     1
 90
        2
176
     1
 90
        0
176
     1
 90
        0
176
     1
 40
0.6
176
     1
 40
30.0
176
     1
 62
     7
420
 16777215
176
     1
 90
        1
176
     1
 90
        4
176
     1
 62
     7
176
     1
 62
   257
176
     1
 90
        1
176
     1
 90
        1
176
     1
 40
1.0
176
     1
 90
        8
176
     1
 62
     7
176
     1
 40
1.0
176
     1
 90
        1
176
     1
 90
        6
176
     1
 90
        2
176
     1
 62
     7
176
     1
 90
        5
176
     1
 90
        0
176
     1
 90
        0
176
     1
290
     0
176
     1
 90
        1
176
     1
 40
-50.0
176
     1
 90
        0
176
     1
290
     0
176
     1
290
     1
176
     1
290
     1
176
     1
290
     0
176
     1
290
     0
176
     1
290
     0
176
     1
290
     0
176
     1
290
     0
176
     1
290
     0
176
     1
 90
       50
176
     1
 40
0.0
176
     1
 40
1.0
176
     1
 90
        0
176
     1
 62
    18
420
        0
176
     1
 90
       50
176
     1
 90
        3
176
     1
 62
     5
420
      255
176
     1
290
     0
176
     1
 90
       50
176
     1
 90
       50
176
     1
 90
       50
176
     1
290
     0
176
     1
 90
       50
176
     1
 62
   256
176
     0
 40
1.0
176
     0
 90
        2
176
     1
  1
strokes_ogs.tif
176
     1
290
     0
176
     1
 40
1.0
176
     1
 40
1.0
176
     1
  0
VISUALSTYLE
  5
3D
102
{ACAD_REACTORS
330
2A
102
}
330
2A
100
AcDbVisualStyle
  2
EdgeColorOff
 70
    22
177
     3
291
     1
 70
    58
 90
        2
176
     0
 90
        2
176
     0
 90
        0
176
     0
 90
        0
176
     0
 40
0.6
176
     0
 40
30.0
176
     0
 62
     7
420
 16777215
176
     0
 90
        1
176
     0
 90
        4
176
     0
 62
     7
176
     0
 62
   257
176
     0
 90
        1
176
     0
 90
        1
176
     0
 40
1.0
176
     0
 90
        8
176
     2
 62
     7
176
     0
 40
1.0
176
     0
 90
        1
176
     0
 90
        6
176
     0
 90
        2
176
     0
 62
     7
176
     0
 90
        5
176
     0
 90
        0
176
     0
 90
        0
176
     0
290
     0
176
     0
 90
        1
176
     0
 40
0.0
176
     0
 90
        0
176
     0
290
     0
176
     0
290
     1
176
     0
290
     1
176
     0
290
     0
176
     0
290
     0
176
     0
290
     0
176
     0
290
     0
176
     0
290
     0
176
     0
290
     0
176
     0
 90
       50
176
     0
 40
0.0
176
     0
 40
1.0
176
     0
 90
        0
176
     0
 62
    18
420
        0
176
     0
 90
       50
176
     0
 90
        3
176
     0
 62
     5
420
      255
176
     0
290
     0
176
     0
 90
       50
176
     0
 90
       50
176
     0
 90
       50
176
     0
290
     0
176
     0
 90
       50
176
     0
 62
   256
176
     0
 40
1.0
176
     0
 90
        2
176
     0
  1
strokes_ogs.tif
176
     0
290
     0
176
     0
 40
1.0
176
     0
 40
1.0
176
     0
  0
VISUALSTYLE
  5
39
102
{ACAD_REACTORS
330
2A
102
}
330
2A
100
AcDbVisualStyle
  2
Facepattern
 70
    15
177
     3
291
     1
 70
    58
 90
        2
176
     1
 90
        2
176
     1
 90
        0
176
     1
 90
        0
176
     1
 40
0.6
176
     1
 40
30.0
176
     1
 62
     7
420
 16777215
176
     1
 90
        1
176
     1
 90
        4
176
     1
 62
     7
176
     1
 62
   257
176
     1
 90
        1
176
     1
 90
        1
176
     1
 40
1.0
176
     1
 90
        8
176
     1
 62
     7
176
     1
 40
1.0
176
     1
 90
        1
176
     1
 90
        6
176
     1
 90
        2
176
     1
 62
     7
176
     1
 90
        5
176
     1
 90
        0
176
     1
 90
        0
176
     1
290
     0
176
     1
 90
        1
176
     1
 40
0.0
176
     1
 90
        0
176
     1
290
     0
176
     1
290
     1
176
     1
290
     1
176
     1
290
     0
176
     1
290
     0
176
     1
290
     0
176
     1
290
     0
176
     1
290
     0
176
     1
290
     0
176
     1
 90
       50
176
     1
 40
0.0
176
     1
 40
1.0
176
     1
 90
        0
176
     1
 62
    18
420
        0
176
     1
 90
       50
176
     1
 90
        3
176
     1
 62
     5
420
      255
176
     1
290
     0
176
     1
 90
       50
176
     1
 90
       50
176
     1
 90
       50
176
     1
290
     0
176
     1
 90
       50
176
     1
 62
   256
176
     0
 40
1.0
176
     0
 90
        2
176
     1
  1
strokes_ogs.tif
176
     1
290
     0
176
     1
 40
1.0
176
     1
 40
1.0
176
     1
  0
VISUALSTYLE
  5
2B
102
{ACAD_REACTORS
330
2A
102
}
330
2A
100
AcDbVisualStyle
  2
Flat
 70
     0
177
     3
291
     1
 70
    58
 90
        2
176
     1
 90
        1
176
     1
 90
        1
176
     1
 90
        2
176
     1
 40
0.6
176
     1
 40
30.0
176
     1
 62
     7
420
 16777215
176
     1
 90
        0
176
     1
 90
        0
176
     1
 62
     7
176
     1
 62
   257
176
     1
 90
        1
176
     1
 90
        1
176
     1
 40
1.0
176
     1
 90
        8
176
     1
 62
     7
176
     1
 40
1.0
176
     1
 90
        1
176
     1
 90
        6
176
     1
 90
        2
176
     1
 62
     7
176
     1
 90
        5
176
     1
 90
        0
176
     1
 90
        0
176
     1
290
     0
176
     1
 90
       13
176
     1
 40
0.0
176
     1
 90
        0
176
     1
290
     0
176
     1
290
     1
176
     1
290
     1
176
     1
290
     0
176
     1
290
     0
176
     1
290
     0
176
     1
290
     0
176
     1
290
     0
176
     1
290
     0
176
     1
 90
       50
176
     1
 40
0.0
176
     1
 40
1.0
176
     1
 90
        0
176
     1
 62
    18
420
        0
176
     1
 90
       50
176
     1
 90
        3
176
     1
 62
     5
420
      255
176
     1
290
     0
176
     1
 90
       50
176
     1
 90
       50
176
     1
 90
       50
176
     1
290
     0
176
     1
 90
       50
176
     1
 62
   256
176
     0
 40
1.0
176
     0
 90
        2
176
     1
  1
strokes_ogs.tif
176
     1
290
     0
176
     1
 40
1.0
176
     1
 40
1.0
176
     1
  0
VISUALSTYLE
  5
2C
102
{ACAD_REACTORS
330
2A
102
}
330
2A
100
AcDbVisualStyle
  2
FlatWithEdges
 70
     1
177
     3
291
     1
 70
    58
 90
        2
176
     1
 90
        1
176
     1
 90
        1
176
     1
 90
        2
176
     1
 40
0.6
176
     1
 40
30.0
176
     1
 62
     7
420
 16777215
176
     1
 90
        1
176
     1
 90
        0
176
     1
 62
     7
176
     1
 62
   257
176
     1
 90
        1
176
     1
 90
        1
176
     1
 40
1.0
176
     1
 90
        0
176
     1
 62
   257
176
     1
 40
1.0
176
     1
 90
        1
176
     1
 90
        6
176
     1
 90
        2
176
     1
 62
     7
176
     1
 90
        5
176
     1
 90
        0
176
     1
 90
        0
176
     1
290
     0
176
     1
 90
       13
176
     1
 40
0.0
176
     1
 90
        0
176
     1
290
     0
176
     1
290
     1
176
     1
290
     1
176
     1
290
     0
176
     1
290
     0
176
     1
290
     0
176
     1
290
     0
176
     1
290
     0
176
     1
290
     0
176
     1
 90
       50
176
     1
 40
0.0
176
     1
 40
1.0
176
     1
 90
        0
176
     1
 62
    18
420
        0
176
     1
 90
       50
176
     1
 90
        3
176
     1
 62
     5
420
      255
176
     1
290
     0
176
     1
 90
       50
176
     1
 90
       50
176
     1
 90
       50
176
     1
290
     0
176
     1
 90
       50
176
     1
 62
   256
176
     0
 40
1.0
176
     0
 90
        2
176
     1
  1
strokes_ogs.tif
176
     1
290
     0
176
     1
 40
1.0
176
     1
 40
1.0
176
     1
  0
VISUALSTYLE
  5
2D
102
{ACAD_REACTORS
330
2A
102
}
330
2A
100
AcDbVisualStyle
  2
Gouraud
 70
     2
177
     3
291
     1
 70
    58
 90
        2
176
     1
 90
        2
176
     1
 90
        1
176
     1
 90
        2
176
     1
 40
0.6
176
     1
 40
30.0
176
     1
 62
     7
420
 16777215
176
     1
 90
        0
176
     1
 90
        0
176
     1
 62
     7
176
     1
 62
   257
176
     1
 90
        1
176
     1
 90
        1
176
     1
 40
1.0
176
     1
 90
        0
176
     1
 62
     7
176
     1
 40
1.0
176
     1
 90
        1
176
     1
 90
        6
176
     1
 90
        2
176
     1
 62
     7
176
     1
 90
        5
176
     1
 90
        0
176
     1
 90
        0
176
     1
290
     0
176
     1
 90
       13
176
     1
 40
0.0
176
     1
 90
        0
176
     1
290
     0
176
     1
290
     1
176
     1
290
     1
176
     1
290
     0
176
     1
290
     0
176
     1
290
     0
176
     1
290
     0
176
     1
290
     0
176
     1
290
     0
176
     1
 90
       50
176
     1
 40
0.0
176
     1
 40
1.0
176
     1
 90
        0
176
     1
 62
    18
420
        0
176
     1
 90
       50
176
     1
 90
        3
176
     1
 62
     5
420
      255
176
     1
290
     0
176
     1
 90
       50
176
     1
 90
       50
176
     1
 90
       50
176
     1
290
     0
176
     1
 90
       50
176
     1
 62
   256
176
     0
 40
1.0
176
     0
 90
        2
176
     1
  1
strokes_ogs.tif
176
     1
290
     0
176
     1
 40
1.0
176
     1
 40
1.0
176
     1
  0
VISUALSTYLE
  5
2E
102
{ACAD_REACTORS
330
2A
102
}
330
2A
100
AcDbVisualStyle
  2
GouraudWithEdges
 70
     3
177
     3
291
     1
 70
    58
 90
        2
176
     1
 90
        2
176
     1
 90
        1
176
     1
 90
        2
176
     1
 40
0.6
176
     1
 40
30.0
176
     1
 62
     7
420
 16777215
176
     1
 90
        1
176
     1
 90
        0
176
     1
 62
     7
176
     1
 62
   257
176
     1
 90
        1
176
     1
 90
        1
176
     1
 40
1.0
176
     1
 90
        0
176
     1
 62
   257
176
     1
 40
1.0
176
     1
 90
        1
176
     1
 90
        6
176
     1
 90
        2
176
     1
 62
     7
176
     1
 90
        5
176
     1
 90
        0
176
     1
 90
        0
176
     1
290
     0
176
     1
 90
       13
176
     1
 40
0.0
176
     1
 90
        0
176
     1
290
     0
176
     1
290
     1
176
     1
290
     1
176
     1
290
     0
176
     1
290
     0
176
     1
290
     0
176
     1
290
     0
176
     1
290
     0
176
     1
290
     0
176
     1
 90
       50
176
     1
 40
0.0
176
     1
 40
1.0
176
     1
 90
        0
176
     1
 62
    18
420
        0
176
     1
 90
       50
176
     1
 90
        3
176
     1
 62
     5
420
      255
176
     1
290
     0
176
     1
 90
       50
176
     1
 90
       50
176
     1
 90
       50
176
     1
290
     0
176
     1
 90
       50
176
     1
 62
   256
176
     0
 40
1.0
176
     0
 90
        2
176
     1
  1
strokes_ogs.tif
176
     1
290
     0
176
     1
 40
1.0
176
     1
 40
1.0
176
     1
  0
VISUALSTYLE
  5
31
102
{ACAD_REACTORS
330
2A
102
}
330
2A
100
AcDbVisualStyle
  2
Hidden
 70
     6
177
     3
291
     0
 70
    58
 90
        1
176
     1
 90
        2
176
     1
 90
        2
176
     1
 90
        0
176
     1
 40
0.6
176
     1
 40
30.0
176
     1
 62
     7
420
 16777215
176
     1
 90
        2
176
     1
 90
        2
176
     1
 62
     7
176
     1
 62
   257
176
     1
 90
        2
176
     1
 90
        1
176
     1
 40
40.0
176
     1
 90
        0
176
     1
 62
   257
176
     1
 40
1.0
176
     1
 90
        1
176
     1
 90
        6
176
     1
 90
        2
176
     1
 62
     7
176
     1
 90
        3
176
     1
 90
        0
176
     1
 90
        0
176
     1
290
     0
176
     1
 90
        1
176
     1
 40
0.0
176
     1
 90
        0
176
     1
290
     0
176
     1
290
     1
176
     1
290
     1
176
     1
290
     0
176
     1
290
     0
176
     1
290
     0
176
     1
290
     0
176
     1
290
     0
176
     1
290
     0
176
     1
 90
       50
176
     1
 40
0.0
176
     1
 40
1.0
176
     1
 90
        0
176
     1
 62
    18
420
        0
176
     1
 90
       50
176
     1
 90
        3
176
     1
 62
     5
420
      255
176
     1
290
     0
176
     1
 90
       50
176
     1
 90
       50
176
     1
 90
       50
176
     1
290
     0
176
     1
 90
       50
176
     1
 62
   256
176
     0
 40
1.0
176
     0
 90
        2
176
     1
  1
strokes_ogs.tif
176
     1
290
     0
176
     1
 40
1.0
176
     1
 40
1.0
176
     1
  0
VISUALSTYLE
  5
3B
102
{ACAD_REACTORS
330
2A
102
}
330
2A
100
AcDbVisualStyle
  2
JitterOff
 70
    20
177
     3
291
     1
 70
    58
 90
        2
176
     0
 90
        2
176
     0
 90
        0
176
     0
 90
        0
176
     0
 40
0.6
176
     0
 40
30.0
176
     0
 62
     7
420
 16777215
176
     0
 90
        1
176
     0
 90
        4
176
     0
 62
     7
176
     0
 62
   257
176
     0
 90
        1
176
     0
 90
        1
176
     0
 40
1.0
176
     0
 90
       10
176
     2
 62
     7
176
     0
 40
1.0
176
     0
 90
        1
176
     0
 90
        6
176
     0
 90
        2
176
     0
 62
     7
176
     0
 90
        5
176
     0
 90
        0
176
     0
 90
        0
176
     0
290
     0
176
     0
 90
        1
176
     0
 40
0.0
176
     0
 90
        0
176
     0
290
     0
176
     0
290
     1
176
     0
290
     1
176
     0
290
     0
176
     0
290
     0
176
     0
290
     0
176
     0
290
     0
176
     0
290
     0
176
     0
290
     0
176
     0
 90
       50
176
     0
 40
0.0
176
     0
 40
1.0
176
     0
 90
        0
176
     0
 62
    18
420
        0
176
     0
 90
       50
176
     0
 90
        3
176
     0
 62
     5
420
      255
176
     0
290
     0
176
     0
 90
       50
176
     0
 90
       50
176
     0
 90
       50
176
     0
290
     0
176
     0
 90
       50
176
     0
 62
   256
176
     0
 40
1.0
176
     0
 90
        2
176
     0
  1
strokes_ogs.tif
176
     0
290
     0
176
     0
 40
1.0
176
     0
 40
1.0
176
     0
  0
VISUALSTYLE
  5
38
102
{ACAD_REACTORS
330
2A
102
}
330
2A
100
AcDbVisualStyle
  2
Linepattern
 70
    14
177
     3
291
     1
 70
    58
 90
        2
176
     1
 90
        2
176
     1
 90
        0
176
     1
 90
        0
176
     1
 40
0.6
176
     1
 40
30.0
176
     1
 62
     7
420
 16777215
176
     1
 90
        1
176
     1
 90
        4
176
     1
 62
     7
176
     1
 62
   257
176
     1
 90
        7
176
     1
 90
        7
176
     1
 40
1.0
176
     1
 90
        8
176
     1
 62
     7
176
     1
 40
1.0
176
     1
 90
        1
176
     1
 90
        6
176
     1
 90
        2
176
     1
 62
     7
176
     1
 90
        5
176
     1
 90
        0
176
     1
 90
        0
176
     1
290
     0
176
     1
 90
        1
176
     1
 40
0.0
176
     1
 90
        0
176
     1
290
     0
176
     1
290
     1
176
     1
290
     1
176
     1
290
     0
176
     1
290
     0
176
     1
290
     0
176
     1
290
     0
176
     1
290
     0
176
     1
290
     0
176
     1
 90
       50
176
     1
 40
0.0
176
     1
 40
1.0
176
     1
 90
        0
176
     1
 62
    18
420
        0
176
     1
 90
       50
176
     1
 90
        3
176
     1
 62
     5
420
      255
176
     1
290
     0
176
     1
 90
       50
176
     1
 90
       50
176
     1
 90
       50
176
     1
290
     0
176
     1
 90
       50
176
     1
 62
   256
176
     0
 40
1.0
176
     0
 90
        2
176
     1
  1
strokes_ogs.tif
176
     1
290
     0
176
     1
 40
1.0
176
     1
 40
1.0
176
     1
  0
VISUALSTYLE
  5
3C
102
{ACAD_REACTORS
330
2A
102
}
330
2A
100
AcDbVisualStyle
  2
OverhangOff
 70
    21
177
     3
291
     1
 70
    58
 90
        2
176
     0
 90
        2
176
     0
 90
        0
176
     0
 90
        0
176
     0
 40
0.6
176
     0
 40
30.0
176
     0
 62
     7
420
 16777215
176
     0
 90
        1
176
     0
 90
        4
176
     0
 62
     7
176
     0
 62
   257
176
     0
 90
        1
176
     0
 90
        1
176
     0
 40
1.0
176
     0
 90
        9
176
     2
 62
     7
176
     0
 40
1.0
176
     0
 90
        1
176
     0
 90
        6
176
     0
 90
        2
176
     0
 62
     7
176
     0
 90
        5
176
     0
 90
        0
176
     0
 90
        0
176
     0
290
     0
176
     0
 90
        1
176
     0
 40
0.0
176
     0
 90
        0
176
     0
290
     0
176
     0
290
     1
176
     0
290
     1
176
     0
290
     0
176
     0
290
     0
176
     0
290
     0
176
     0
290
     0
176
     0
290
     0
176
     0
290
     0
176
     0
 90
       50
176
     0
 40
0.0
176
     0
 40
1.0
176
     0
 90
        0
176
     0
 62
    18
420
        0
176
     0
 90
       50
176
     0
 90
        3
176
     0
 62
     5
420
      255
176
     0
290
     0
176
     0
 90
       50
176
     0
 90
       50
176
     0
 90
       50
176
     0
290
     0
176
     0
 90
       50
176
     0
 62
   256
176
     0
 40
1.0
176
     0
 90
        2
176
     0
  1
strokes_ogs.tif
176
     0
290
     0
176
     0
 40
1.0
176
     0
 40
1.0
176
     0
  0
VISUALSTYLE
  5
33
102
{ACAD_REACTORS
330
2A
102
}
330
2A
100
AcDbVisualStyle
  2
Realistic
 70
     8
177
     3
291
     0
 70
    58
 90
        2
176
     1
 90
        3
176
     1
 90
        0
176
     1
 90
        2
176
     1
 40
0.6
176
     1
 40
30.0
176
     1
 62
     7
420
 16777215
176
     1
 90
        0
176
     1
 90
        0
176
     1
 62
     7
176
     1
 62
   257
176
     1
 90
        1
176
     1
 90
        1
176
     1
 40
1.0
176
     1
 90
        8
176
     1
 62
   257
176
     1
 40
1.0
176
     1
 90
        1
176
     1
 90
        6
176
     1
 90
        2
176
     1
 62
     7
176
     1
 90
        3
176
     1
 90
        0
176
     1
 90
        0
176
     1
290
     0
176
     1
 90
       13
176
     1
 40
0.0
176
     1
 90
        0
176
     1
290
     0
176
     1
290
     1
176
     1
290
     1
176
     1
290
     0
176
     1
290
     0
176
     1
290
     0
176
     1
290
     0
176
     1
290
     0
176
     1
290
     0
176
     1
 90
       50
176
     1
 40
0.0
176
     1
 40
1.0
176
     1
 90
        0
176
     1
 62
    18
420
        0
176
     1
 90
       50
176
     1
 90
        3
176
     1
 62
     5
420
      255
176
     1
290
     0
176
     1
 90
       50
176
     1
 90
       50
176
     1
 90
       50
176
     1
290
     0
176
     1
 90
       50
176
     1
 62
   256
176
     0
 40
1.0
176
     0
 90
        2
176
     1
  1
strokes_ogs.tif
176
     1
290
     0
176
     1
 40
1.0
176
     1
 40
1.0
176
     1
  0
VISUALSTYLE
  5
42
102
{ACAD_REACTORS
330
2A
102
}
330
2A
100
AcDbVisualStyle
  2
Shaded
 70
    27
177
     3
291
     0
 70
    58
 90
        2
176
     1
 90
        2
176
     1
 90
        1
176
     1
 90
        2
176
     1
 40
0.6
176
     1
 40
30.0
176
     1
 62
     7
420
 16777215
176
     1
 90
        0
176
     1
 90
        4
176
     1
 62
     7
176
     1
 62
   257
176
     1
 90
        1
176
     1
 90
        1
176
     1
 40
1.0
176
     1
 90
        8
176
     1
 62
   257
176
     1
 40
1.0
176
     1
 90
        1
176
     1
 90
        6
176
     1
 90
        2
176
     1
 62
     8
420
  7895160
176
     1
 90
        3
176
     1
 90
        0
176
     1
 90
        0
176
     1
290
     0
176
     1
 90
        5
176
     1
 40
0.0
176
     1
 90
        0
176
     1
290
     0
176
     1
290
     1
176
     1
290
     1
176
     1
290
     0
176
     1
290
     0
176
     1
290
     0
176
     1
290
     0
176
     1
290
     0
176
     1
290
     0
176
     1
 90
       50
176
     1
 40
0.0
176
     1
 40
1.0
176
     1
 90
        0
176
     1
 62
    18
420
        0
176
     1
 90
       50
176
     1
 90
        3
176
     1
 62
     5
420
      255
176
     1
290
     0
176
     1
 90
       50
176
     1
 90
       50
176
     1
 90
       50
176
     1
290
     0
176
     1
 90
       50
176
     1
 62
   256
176
     0
 40
1.0
176
     0
 90
        2
176
     1
  1
strokes_ogs.tif
176
     1
290
     0
176
     1
 40
1.0
176
     1
 40
1.0
176
     1
  0
VISUALSTYLE
  5
41
102
{ACAD_REACTORS
330
2A
102
}
330
2A
100
AcDbVisualStyle
  2
Shaded with edges
 70
    26
177
     3
291
     0
 70
    58
 90
        2
176
     1
 90
        2
176
     1
 90
        1
176
     1
 90
        2
176
     1
 40
0.6
176
     1
 40
30.0
176
     1
 62
     7
420
 16777215
176
     1
 90
        1
176
     1
 90
       10
176
     1
 62
     7
176
     1
 62
   257
176
     1
 90
        2
176
     1
 90
        1
176
     1
 40
1.0
176
     1
 90
        8
176
     1
 62
   257
176
     1
 40
1.0
176
     1
 90
        1
176
     1
 90
        6
176
     1
 90
        2
176
     1
 62
     7
176
     1
 90
        3
176
     1
 90
        0
176
     1
 90
        0
176
     1
290
     0
176
     1
 90
        5
176
     1
 40
0.0
176
     1
 90
        0
176
     1
290
     0
176
     1
290
     1
176
     1
290
     1
176
     1
290
     0
176
     1
290
     0
176
     1
290
     0
176
     1
290
     0
176
     1
290
     0
176
     1
290
     0
176
     1
 90
       50
176
     1
 40
0.0
176
     1
 40
1.0
176
     1
 90
        0
176
     1
 62
    18
420
        0
176
     1
 90
       50
176
     1
 90
        3
176
     1
 62
     5
420
      255
176
     1
290
     0
176
     1
 90
       50
176
     1
 90
       50
176
     1
 90
       50
176
     1
290
     0
176
     1
 90
       50
176
     1
 62
   256
176
     0
 40
1.0
176
     0
 90
        2
176
     1
  1
strokes_ogs.tif
176
     1
290
     0
176
     1
 40
1.0
176
     1
 40
1.0
176
     1
  0
VISUALSTYLE
  5
3E
102
{ACAD_REACTORS
330
2A
102
}
330
2A
100
AcDbVisualStyle
  2
Shades of Gray
 70
    23
177
     3
291
     0
 70
    58
 90
        2
176
     1
 90
        2
176
     1
 90
        3
176
     1
 90
        0
176
     1
 40
0.6
176
     1
 40
30.0
176
     1
 62
     7
420
 16777215
176
     1
 90
        2
176
     1
 90
        2
176
     1
 62
     7
176
     1
 62
     7
176
     1
 90
        1
176
     1
 90
        1
176
     1
 40
40.0
176
     1
 90
        8
176
     1
 62
     7
176
     1
 40
1.0
176
     1
 90
        1
176
     1
 90
        6
176
     1
 90
        2
176
     1
 62
     7
176
     1
 90
        3
176
     1
 90
        0
176
     1
 90
        0
176
     1
290
     0
176
     1
 90
        1
176
     1
 40
0.0
176
     1
 90
        0
176
     1
290
     0
176
     1
290
     1
176
     1
290
     1
176
     1
290
     0
176
     1
290
     0
176
     1
290
     0
176
     1
290
     0
176
     1
290
     0
176
     1
290
     0
176
     1
 90
       50
176
     1
 40
0.0
176
     1
 40
1.0
176
     1
 90
        0
176
     1
 62
    18
420
        0
176
     1
 90
       50
176
     1
 90
        3
176
     1
 62
     5
420
      255
176
     1
290
     0
176
     1
 90
       50
176
     1
 90
       50
176
     1
 90
       50
176
     1
290
     0
176
     1
 90
       50
176
     1
 62
   256
176
     0
 40
1.0
176
     0
 90
        2
176
     1
  1
strokes_ogs.tif
176
     1
290
     0
176
     1
 40
1.0
176
     1
 40
1.0
176
     1
  0
VISUALSTYLE
  5
3F
102
{ACAD_REACTORS
330
2A
102
}
330
2A
100
AcDbVisualStyle
  2
Sketchy
 70
    24
177
     3
291
     0
 70
    58
 90
        1
176
     1
 90
        2
176
     1
 90
        2
176
     1
 90
        0
176
     1
 40
0.6
176
     1
 40
30.0
176
     1
 62
     7
420
 16777215
176
     1
 90
        2
176
     1
 90
        2
176
     1
 62
     7
176
     1
 62
     7
176
     1
 90
        1
176
     1
 90
        1
176
     1
 40
40.0
176
     1
 90
       11
176
     1
 62
     7
176
     1
 40
1.0
176
     1
 90
        1
176
     1
 90
        6
176
     1
 90
        2
176
     1
 62
     7
176
     1
 90
        6
176
     1
 90
        0
176
     1
 90
        0
176
     1
290
     0
176
     1
 90
        1
176
     1
 40
0.0
176
     1
 90
        0
176
     1
290
     0
176
     1
290
     1
176
     1
290
     1
176
     1
290
     0
176
     1
290
     0
176
     1
290
     0
176
     1
290
     0
176
     1
290
     0
176
     1
290
     0
176
     1
 90
       50
176
     1
 40
0.0
176
     1
 40
1.0
176
     1
 90
        0
176
     1
 62
    18
420
        0
176
     1
 90
       50
176
     1
 90
        3
176
     1
 62
     5
420
      255
176
     1
290
     0
176
     1
 90
       50
176
     1
 90
       50
176
     1
 90
       50
176
     1
290
     0
176
     1
 90
       50
176
     1
 62
   256
176
     0
 40
1.0
176
     0
 90
        2
176
     1
  1
strokes_ogs.tif
176
     1
290
     0
176
     1
 40
1.0
176
     1
 40
1.0
176
     1
  0
VISUALSTYLE
  5
37
102
{ACAD_REACTORS
330
2A
102
}
330
2A
100
AcDbVisualStyle
  2
Thicken
 70
    13
177
     3
291
     1
 70
    58
 90
        2
176
     1
 90
        2
176
     1
 90
        0
176
     1
 90
        0
176
     1
 40
0.6
176
     1
 40
30.0
176
     1
 62
     7
420
 16777215
176
     1
 90
        1
176
     1
 90
        4
176
     1
 62
     7
176
     1
 62
   257
176
     1
 90
        1
176
     1
 90
        1
176
     1
 40
1.0
176
     1
 90
       12
176
     1
 62
     7
176
     1
 40
1.0
176
     1
 90
        1
176
     1
 90
        6
176
     1
 90
        2
176
     1
 62
     7
176
     1
 90
        5
176
     1
 90
        0
176
     1
 90
        0
176
     1
290
     0
176
     1
 90
        1
176
     1
 40
0.0
176
     1
 90
        0
176
     1
290
     0
176
     1
290
     1
176
     1
290
     1
176
     1
290
     0
176
     1
290
     0
176
     1
290
     0
176
     1
290
     0
176
     1
290
     0
176
     1
290
     0
176
     1
 90
       50
176
     1
 40
0.0
176
     1
 40
1.0
176
     1
 90
        0
176
     1
 62
    18
420
        0
176
     1
 90
       50
176
     1
 90
        3
176
     1
 62
     5
420
      255
176
     1
290
     0
176
     1
 90
       50
176
     1
 90
       50
176
     1
 90
       50
176
     1
290
     0
176
     1
 90
       50
176
     1
 62
   256
176
     0
 40
1.0
176
     0
 90
        2
176
     1
  1
strokes_ogs.tif
176
     1
290
     0
176
     1
 40
1.0
176
     1
 40
1.0
176
     1
  0
VISUALSTYLE
  5
30
102
{ACAD_REACTORS
330
2A
102
}
330
2A
100
AcDbVisualStyle
  2
Wireframe
 70
     5
177
     3
291
     0
 70
    58
 90
        0
176
     1
 90
        2
176
     1
 90
        0
176
     1
 90
        0
176
     1
 40
0.6
176
     1
 40
30.0
176
     1
 62
     7
420
 16777215
176
     1
 90
        1
176
     1
 90
        4
176
     1
 62
     7
176
     1
 62
   257
176
     1
 90
        1
176
     1
 90
        1
176
     1
 40
1.0
176
     1
 90
        0
176
     1
 62
   257
176
     1
 40
1.0
176
     1
 90
        1
176
     1
 90
        6
176
     1
 90
        2
176
     1
 62
     7
176
     1
 90
        3
176
     1
 90
        0
176
     1
 90
        0
176
     1
290
     0
176
     1
 90
        1
176
     1
 40
0.0
176
     1
 90
        0
176
     1
290
     0
176
     1
290
     1
176
     1
290
     1
176
     1
290
     0
176
     1
290
     0
176
     1
290
     0
176
     1
290
     0
176
     1
290
     0
176
     1
290
     0
176
     1
 90
       50
176
     1
 40
0.0
176
     1
 40
1.0
176
     1
 90
        0
176
     1
 62
    18
420
        0
176
     1
 90
       50
176
     1
 90
        3
176
     1
 62
     5
420
      255
176
     1
290
     0
176
     1
 90
       50
176
     1
 90
       50
176
     1
 90
       50
176
     1
290
     0
176
     1
 90
       50
176
     1
 62
   256
176
     0
 40
1.0
176
     0
 90
        2
176
     1
  1
strokes_ogs.tif
176
     1
290
     0
176
     1
 40
1.0
176
     1
 40
1.0
176
     1
  0
VISUALSTYLE
  5
40
102
{ACAD_REACTORS
330
2A
102
}
330
2A
100
AcDbVisualStyle
  2
X-Ray
 70
    25
177
     3
291
     0
 70
    58
 90
        2
176
     1
 90
        2
176
     1
 90
        1
176
     1
 90
        1
176
     1
 40
0.5
176
     1
 40
30.0
176
     1
 62
     7
420
 16777215
176
     1
 90
        1
176
     1
 90
        0
176
     1
 62
     7
176
     1
 62
   257
176
     1
 90
        1
176
     1
 90
        1
176
     1
 40
1.0
176
     1
 90
        8
176
     1
 62
     7
176
     1
 40
1.0
176
     1
 90
        1
176
     1
 90
        6
176
     1
 90
        2
176
     1
 62
     7
176
     1
 90
        3
176
     1
 90
        0
176
     1
 90
        0
176
     1
290
     0
176
     1
 90
       13
176
     1
 40
0.0
176
     1
 90
        0
176
     1
290
     0
176
     1
290
     1
176
     1
290
     1
176
     1
290
     0
176
     1
290
     0
176
     1
290
     0
176
     1
290
     0
176
     1
290
     0
176
     1
290
     0
176
     1
 90
       50
176
     1
 40
0.0
176
     1
 40
1.0
176
     1
 90
        0
176
     1
 62
    18
420
        0
176
     1
 90
       50
176
     1
 90
        3
176
     1
 62
     5
420
      255
176
     1
290
     0
176
     1
 90
       50
176
     1
 90
       50
176
     1
 90
       50
176
     1
290
     0
176
     1
 90
       50
176
     1
 62
   256
176
     0
 40
1.0
176
     0
 90
        2
176
     1
  1
strokes_ogs.tif
176
     1
290
     0
176
     1
 40
1.0
176
     1
 40
1.0
176
     1
  0
DICTIONARYVAR
  5
1E4
102
{ACAD_REACTORS
330
1E3
102
}
330
1E3
100
DictionaryVariables
280
     0
  1
1:1
  0
DICTIONARYVAR
  5
1E9
102
{ACAD_REACTORS
330
1E3
102
}
330
1E3
100
DictionaryVariables
280
     0
  1
Standard
  0
DICTIONARYVAR
  5
1E8
102
{ACAD_REACTORS
330
1E3
102
}
330
1E3
100
DictionaryVariables
280
     0
  1
Standard
  0
DICTIONARY
  5
1E5
330
6A
100
AcDbDictionary
280
     1
281
     1
  3
ACAD_ROUNDTRIP_2008_TABLESTYLE_CELLSTYLEMAP
360
1E6
  0
CELLSTYLEMAP
  5
1E6
102
{ACAD_REACTORS
330
1E5
102
}
330
1E5
100
AcDbCellStyleMap
 90
        3
300
CELLSTYLE
  1
TABLEFORMAT_BEGIN
 90
        5
170
     1
 91
        0
 92
    32768
 62
   257
 93
        1
300
CONTENTFORMAT
  1
CONTENTFORMAT_BEGIN
 90
        0
 91
        0
 92
        4
 93
        0
300

 40
0.0
140
1.0
 94
        5
 62
     0
340
11
144
0.25
309
CONTENTFORMAT_END
171
     1
301
MARGIN
  1
CELLMARGIN_BEGIN
 40
0.06
 40
0.06
 40
0.06
 40
0.06
 40
0.06
 40
0.06
309
CELLMARGIN_END
 94
        6
 95
        1
302
GRIDFORMAT
  1
GRIDFORMAT_BEGIN
 90
        0
 91
        1
 62
     0
 92
       -2
340
14
 93
        0
 40
0.045
309
GRIDFORMAT_END
 95
        2
302
GRIDFORMAT
  1
GRIDFORMAT_BEGIN
 90
        0
 91
        1
 62
     0
 92
       -2
340
14
 93
        0
 40
0.045
309
GRIDFORMAT_END
 95
        4
302
GRIDFORMAT
  1
GRIDFORMAT_BEGIN
 90
        0
 91
        1
 62
     0
 92
       -2
340
14
 93
        0
 40
0.045
309
GRIDFORMAT_END
 95
        8
302
GRIDFORMAT
  1
GRIDFORMAT_BEGIN
 90
        0
 91
        1
 62
     0
 92
       -2
340
14
 93
        0
 40
0.045
309
GRIDFORMAT_END
 95
       16
302
GRIDFORMAT
  1
GRIDFORMAT_BEGIN
 90
        0
 91
        1
 62
     0
 92
       -2
340
14
 93
        0
 40
0.045
309
GRIDFORMAT_END
 95
       32
302
GRIDFORMAT
  1
GRIDFORMAT_BEGIN
 90
        0
 91
        1
 62
     0
 92
       -2
340
14
 93
        0
 40
0.045
309
GRIDFORMAT_END
309
TABLEFORMAT_END
  1
CELLSTYLE_BEGIN
 90
        1
 91
        1
300
_TITLE
309
CELLSTYLE_END
300
CELLSTYLE
  1
TABLEFORMAT_BEGIN
 90
        5
170
     1
 91
        0
 92
        0
 62
   257
 93
        1
300
CONTENTFORMAT
  1
CONTENTFORMAT_BEGIN
 90
        0
 91
        0
 92
        4
 93
        0
300

 40
0.0
140
1.0
 94
        5
 62
     0
340
11
144
0.18
309
CONTENTFORMAT_END
171
     1
301
MARGIN
  1
CELLMARGIN_BEGIN
 40
0.06
 40
0.06
 40
0.06
 40
0.06
 40
0.06
 40
0.06
309
CELLMARGIN_END
 94
        6
 95
        1
302
GRIDFORMAT
  1
GRIDFORMAT_BEGIN
 90
        0
 91
        1
 62
     0
 92
       -2
340
14
 93
        0
 40
0.045
309
GRIDFORMAT_END
 95
        2
302
GRIDFORMAT
  1
GRIDFORMAT_BEGIN
 90
        0
 91
        1
 62
     0
 92
       -2
340
14
 93
        0
 40
0.045
309
GRIDFORMAT_END
 95
        4
302
GRIDFORMAT
  1
GRIDFORMAT_BEGIN
 90
        0
 91
        1
 62
     0
 92
       -2
340
14
 93
        0
 40
0.045
309
GRIDFORMAT_END
 95
        8
302
GRIDFORMAT
  1
GRIDFORMAT_BEGIN
 90
        0
 91
        1
 62
     0
 92
       -2
340
14
 93
        0
 40
0.045
309
GRIDFORMAT_END
 95
       16
302
GRIDFORMAT
  1
GRIDFORMAT_BEGIN
 90
        0
 91
        1
 62
     0
 92
       -2
340
14
 93
        0
 40
0.045
309
GRIDFORMAT_END
 95
       32
302
GRIDFORMAT
  1
GRIDFORMAT_BEGIN
 90
        0
 91
        1
 62
     0
 92
       -2
340
14
 93
        0
 40
0.045
309
GRIDFORMAT_END
309
TABLEFORMAT_END
  1
CELLSTYLE_BEGIN
 90
        2
 91
        1
300
_HEADER
309
CELLSTYLE_END
300
CELLSTYLE
  1
TABLEFORMAT_BEGIN
 90
        5
170
     1
 91
        0
 92
        0
 62
   257
 93
        1
300
CONTENTFORMAT
  1
CONTENTFORMAT_BEGIN
 90
        0
 91
        0
 92
        4
 93
        0
300

 40
0.0
140
1.0
 94
        2
 62
     0
340
11
144
0.18
309
CONTENTFORMAT_END
171
     1
301
MARGIN
  1
CELLMARGIN_BEGIN
 40
0.06
 40
0.06
 40
0.06
 40
0.06
 40
0.06
 40
0.06
309
CELLMARGIN_END
 94
        6
 95
        1
302
GRIDFORMAT
  1
GRIDFORMAT_BEGIN
 90
        0
 91
        1
 62
     0
 92
       -2
340
14
 93
        0
 40
0.045
309
GRIDFORMAT_END
 95
        2
302
GRIDFORMAT
  1
GRIDFORMAT_BEGIN
 90
        0
 91
        1
 62
     0
 92
       -2
340
14
 93
        0
 40
0.045
309
GRIDFORMAT_END
 95
        4
302
GRIDFORMAT
  1
GRIDFORMAT_BEGIN
 90
        0
 91
        1
 62
     0
 92
       -2
340
14
 93
        0
 40
0.045
309
GRIDFORMAT_END
 95
        8
302
GRIDFORMAT
  1
GRIDFORMAT_BEGIN
 90
        0
 91
        1
 62
     0
 92
       -2
340
14
 93
        0
 40
0.045
309
GRIDFORMAT_END
 95
       16
302
GRIDFORMAT
  1
GRIDFORMAT_BEGIN
 90
        0
 91
        1
 62
     0
 92
       -2
340
14
 93
        0
 40
0.045
309
GRIDFORMAT_END
 95
       32
302
GRIDFORMAT
  1
GRIDFORMAT_BEGIN
 90
        0
 91
        1
 62
     0
 92
       -2
340
14
 93
        0
 40
0.045
309
GRIDFORMAT_END
309
TABLEFORMAT_END
  1
CELLSTYLE_BEGIN
 90
        3
 91
        2
300
_DATA
309
CELLSTYLE_END
  0
ENDSEC
  0
EOF